  0
SECTION
  2
HEADER
  9
$ACADVER
  1
AC1015
  9
$ACADMAINTVER
 70
    20
  9
$DWGCODEPAGE
  3
ANSI_1252
  9
$INSBASE
 10
0.0
 20
0.0
 30
0.0
  9
$EXTMIN
 10
35999.22171160001
 20
6644.907792579999
 30
0.0
  9
$EXTMAX
 10
36984.2217116
 20
7999.907792580001
 30
2500.0
  9
$LIMMIN
 10
0.0
 20
0.0
  9
$LIMMAX
 10
39995.54275426
 20
11749.95752903
  9
$ORTHOMODE
 70
     0
  9
$REGENMODE
 70
     1
  9
$FILLMODE
 70
     1
  9
$QTEXTMODE
 70
     0
  9
$MIRRTEXT
 70
     1
  9
$LTSCALE
 40
5.0
  9
$ATTMODE
 70
     1
  9
$TEXTSIZE
 40
3.5
  9
$TRACEWID
 40
1.0
  9
$TEXTSTYLE
  7
STANDARD
  9
$CLAYER
  8
0
  9
$CELTYPE
  6
BYLAYER
  9
$CECOLOR
 62
   256
  9
$CELTSCALE
 40
1.0
  9
$DISPSILH
 70
     0
  9
$DIMSCALE
 40
1.0
  9
$DIMASZ
 40
4.0
  9
$DIMEXO
 40
5.0
  9
$DIMDLI
 40
10.0
  9
$DIMRND
 40
0.0
  9
$DIMDLE
 40
2.0
  9
$DIMEXE
 40
2.0
  9
$DIMTP
 40
0.0
  9
$DIMTM
 40
0.0
  9
$DIMTXT
 40
2.0
  9
$DIMCEN
 40
1.5
  9
$DIMTSZ
 40
0.0
  9
$DIMTOL
 70
     0
  9
$DIMLIM
 70
     0
  9
$DIMTIH
 70
     1
  9
$DIMTOH
 70
     0
  9
$DIMSE1
 70
     0
  9
$DIMSE2
 70
     0
  9
$DIMTAD
 70
     1
  9
$DIMZIN
 70
     8
  9
$DIMBLK
  1

  9
$DIMASO
 70
     1
  9
$DIMSHO
 70
     1
  9
$DIMPOST
  1

  9
$DIMAPOST
  1

  9
$DIMALT
 70
     0
  9
$DIMALTD
 70
     2
  9
$DIMALTF
 40
25.4
  9
$DIMLFAC
 40
1.0
  9
$DIMTOFL
 70
     0
  9
$DIMTVP
 40
0.0
  9
$DIMTIX
 70
     0
  9
$DIMSOXD
 70
     0
  9
$DIMSAH
 70
     0
  9
$DIMBLK1
  1

  9
$DIMBLK2
  1

  9
$DIMSTYLE
  2
Standard
  9
$DIMCLRD
 70
     9
  9
$DIMCLRE
 70
     9
  9
$DIMCLRT
 70
     7
  9
$DIMTFAC
 40
1.0
  9
$DIMGAP
 40
0.09
  9
$DIMJUST
 70
     0
  9
$DIMSD1
 70
     0
  9
$DIMSD2
 70
     0
  9
$DIMTOLJ
 70
     1
  9
$DIMTZIN
 70
     0
  9
$DIMALTZ
 70
     0
  9
$DIMALTTZ
 70
     0
  9
$DIMUPT
 70
     0
  9
$DIMDEC
 70
     4
  9
$DIMTDEC
 70
     4
  9
$DIMALTU
 70
     2
  9
$DIMALTTD
 70
     2
  9
$DIMTXSTY
  7
STANDARD
  9
$DIMAUNIT
 70
     0
  9
$DIMADEC
 70
     0
  9
$DIMALTRND
 40
0.0
  9
$DIMAZIN
 70
     0
  9
$DIMDSEP
 70
    46
  9
$DIMATFIT
 70
     3
  9
$DIMFRAC
 70
     0
  9
$DIMLDRBLK
  1

  9
$DIMLUNIT
 70
     2
  9
$DIMLWD
 70
    -2
  9
$DIMLWE
 70
    -2
  9
$DIMTMOVE
 70
     0
  9
$LUNITS
 70
     2
  9
$LUPREC
 70
     6
  9
$SKETCHINC
 40
0.1
  9
$FILLETRAD
 40
0.0
  9
$AUNITS
 70
     0
  9
$AUPREC
 70
     0
  9
$MENU
  1
ACAD
  9
$ELEVATION
 40
0.0
  9
$PELEVATION
 40
0.0
  9
$THICKNESS
 40
0.0
  9
$LIMCHECK
 70
     0
  9
$CHAMFERA
 40
0.0
  9
$CHAMFERB
 40
0.0
  9
$CHAMFERC
 40
0.0
  9
$CHAMFERD
 40
0.0
  9
$SKPOLY
 70
     1
  9
$TDCREATE
 40
2456443.000000000
  9
$TDUCREATE
 40
2456442.916666667
  9
$TDUPDATE
 40
2456458.465905799
  9
$TDUUPDATE
 40
2456458.382572465
  9
$TDINDWG
 40
0.0048469676
  9
$TDUSRTIMER
 40
0.0048467824
  9
$USRTIMER
 70
     1
  9
$ANGBASE
 50
0.0
  9
$ANGDIR
 70
     0
  9
$PDMODE
 70
     0
  9
$PDSIZE
 40
0.0
  9
$PLINEWID
 40
0.0
  9
$SPLFRAME
 70
     0
  9
$SPLINETYPE
 70
     6
  9
$SPLINESEGS
 70
     8
  9
$HANDSEED
  5
214
  9
$SURFTAB1
 70
     6
  9
$SURFTAB2
 70
     6
  9
$SURFTYPE
 70
     6
  9
$SURFU
 70
     6
  9
$SURFV
 70
     6
  9
$UCSBASE
  2

  9
$UCSNAME
  2

  9
$UCSORG
 10
0.0
 20
0.0
 30
0.0
  9
$UCSXDIR
 10
1.0
 20
0.0
 30
0.0
  9
$UCSYDIR
 10
0.0
 20
1.0
 30
0.0
  9
$UCSORTHOREF
  2

  9
$UCSORTHOVIEW
 70
     0
  9
$UCSORGTOP
 10
0.0
 20
0.0
 30
0.0
  9
$UCSORGBOTTOM
 10
0.0
 20
0.0
 30
0.0
  9
$UCSORGLEFT
 10
0.0
 20
0.0
 30
0.0
  9
$UCSORGRIGHT
 10
0.0
 20
0.0
 30
0.0
  9
$UCSORGFRONT
 10
0.0
 20
0.0
 30
0.0
  9
$UCSORGBACK
 10
0.0
 20
0.0
 30
0.0
  9
$PUCSBASE
  2

  9
$PUCSNAME
  2

  9
$PUCSORG
 10
0.0
 20
0.0
 30
0.0
  9
$PUCSXDIR
 10
1.0
 20
0.0
 30
0.0
  9
$PUCSYDIR
 10
0.0
 20
1.0
 30
0.0
  9
$PUCSORTHOREF
  2

  9
$PUCSORTHOVIEW
 70
     0
  9
$PUCSORGTOP
 10
0.0
 20
0.0
 30
0.0
  9
$PUCSORGBOTTOM
 10
0.0
 20
0.0
 30
0.0
  9
$PUCSORGLEFT
 10
0.0
 20
0.0
 30
0.0
  9
$PUCSORGRIGHT
 10
0.0
 20
0.0
 30
0.0
  9
$PUCSORGFRONT
 10
0.0
 20
0.0
 30
0.0
  9
$PUCSORGBACK
 10
0.0
 20
0.0
 30
0.0
  9
$USERI1
 70
     0
  9
$USERI2
 70
     0
  9
$USERI3
 70
     0
  9
$USERI4
 70
     0
  9
$USERI5
 70
     0
  9
$USERR1
 40
0.0
  9
$USERR2
 40
0.0
  9
$USERR3
 40
0.0
  9
$USERR4
 40
0.0
  9
$USERR5
 40
0.0
  9
$WORLDVIEW
 70
     1
  9
$SHADEDGE
 70
     3
  9
$SHADEDIF
 70
    70
  9
$TILEMODE
 70
     1
  9
$MAXACTVP
 70
    16
  9
$PINSBASE
 10
0.0
 20
0.0
 30
0.0
  9
$PLIMCHECK
 70
     0
  9
$PEXTMIN
 10
1.000000000000000E+20
 20
1.000000000000000E+20
 30
1.000000000000000E+20
  9
$PEXTMAX
 10
-1.000000000000000E+20
 20
-1.000000000000000E+20
 30
-1.000000000000000E+20
  9
$PLIMMIN
 10
0.0
 20
0.0
  9
$PLIMMAX
 10
12.0
 20
9.0
  9
$UNITMODE
 70
     0
  9
$VISRETAIN
 70
     0
  9
$PLINEGEN
 70
     0
  9
$PSLTSCALE
 70
     1
  9
$TREEDEPTH
 70
  3020
  9
$CMLSTYLE
  2
STANDARD
  9
$CMLJUST
 70
     0
  9
$CMLSCALE
 40
1.0
  9
$PROXYGRAPHICS
 70
     1
  9
$MEASUREMENT
 70
     1
  9
$CELWEIGHT
370
    -1
  9
$ENDCAPS
280
     0
  9
$JOINSTYLE
280
     0
  9
$LWDISPLAY
290
     0
  9
$INSUNITS
 70
     0
  9
$HYPERLINKBASE
  1

  9
$STYLESHEET
  1

  9
$XEDIT
290
     1
  9
$CEPSNTYPE
380
     0
  9
$PSTYLEMODE
290
     1
  9
$FINGERPRINTGUID
  2
{050FA3B9-279B-4274-AB4C-26DC8E24640F}
  9
$VERSIONGUID
  2
{C64B57FA-2731-42F6-9503-ED54EFC8CE5F}
  9
$EXTNAMES
290
     1
  9
$PSVPSCALE
 40
0.0
  9
$OLESTARTUP
290
     0
  0
ENDSEC
  0
SECTION
  2
CLASSES
  0
CLASS
  1
ACDBDICTIONARYWDFLT
  2
AcDbDictionaryWithDefault
  3
ObjectDBX Classes
 90
        0
280
     0
281
     0
  0
CLASS
  1
MATERIAL
  2
AcDbMaterial
  3
ObjectDBX Classes
 90
     1153
280
     0
281
     0
  0
CLASS
  1
VISUALSTYLE
  2
AcDbVisualStyle
  3
ObjectDBX Classes
 90
     4095
280
     0
281
     0
  0
CLASS
  1
TABLESTYLE
  2
AcDbTableStyle
  3
ObjectDBX Classes
 90
     4095
280
     0
281
     0
  0
CLASS
  1
SCALE
  2
AcDbScale
  3
ObjectDBX Classes
 90
     1153
280
     0
281
     0
  0
CLASS
  1
MLEADERSTYLE
  2
AcDbMLeaderStyle
  3
ACDB_MLEADERSTYLE_CLASS
 90
     4095
280
     0
281
     0
  0
CLASS
  1
DICTIONARYVAR
  2
AcDbDictionaryVar
  3
ObjectDBX Classes
 90
        0
280
     0
281
     0
  0
CLASS
  1
CELLSTYLEMAP
  2
AcDbCellStyleMap
  3
ObjectDBX Classes
 90
     1152
280
     0
281
     0
  0
CLASS
  1
ACDBPLACEHOLDER
  2
AcDbPlaceHolder
  3
ObjectDBX Classes
 90
        0
280
     0
281
     0
  0
CLASS
  1
LAYOUT
  2
AcDbLayout
  3
ObjectDBX Classes
 90
        0
280
     0
281
     0
  0
ENDSEC
  0
SECTION
  2
TABLES
  0
TABLE
  2
VPORT
  5
22
330
0
100
AcDbSymbolTable
 70
     1
  0
VPORT
  5
186
330
22
100
AcDbSymbolTableRecord
100
AcDbViewportTableRecord
  2
*Active
 70
     0
 10
0.0
 20
0.0
 11
1.0
 21
1.0
 12
36491.7217116
 22
7322.40779258
 13
0.0
 23
0.0
 14
1.0
 24
1.0
 15
0.0
 25
0.0
 16
0.0
 26
0.0
 36
1.0
 17
0.0
 27
0.0
 37
0.0
 40
1365.383141762451
 41
2.015345268542199
 42
50.0
 43
0.0
 44
0.0
 50
0.0
 51
0.0
 71
     0
 72
  1000
 73
     1
 74
     3
 75
     0
 76
     0
 77
     0
 78
     0
281
     0
 65
     1
110
0.0
120
0.0
130
0.0
111
1.0
121
0.0
131
0.0
112
0.0
122
1.0
132
0.0
 79
     0
146
0.0
  0
ENDTAB
  0
TABLE
  2
LTYPE
  5
28
330
0
100
AcDbSymbolTable
 70
    11
  0
LTYPE
  5
29
330
28
100
AcDbSymbolTableRecord
100
AcDbLinetypeTableRecord
  2
BYBLOCK
 70
     0
  3

 72
    65
 73
     0
 40
0.0
  0
LTYPE
  5
2A
330
28
100
AcDbSymbolTableRecord
100
AcDbLinetypeTableRecord
  2
BYLAYER
 70
     0
  3

 72
    65
 73
     0
 40
0.0
  0
LTYPE
  5
2B
330
28
100
AcDbSymbolTableRecord
100
AcDbLinetypeTableRecord
  2
CONTINUOUS
 70
     0
  3
Solid line
 72
    65
 73
     0
 40
0.0
  0
LTYPE
  5
2C
330
28
100
AcDbSymbolTableRecord
100
AcDbLinetypeTableRecord
  2
DOT
 70
     0
  3
. . . . . . . . . . . . . . . . . . . . . . . .
 72
    65
 73
     2
 40
2.5
 49
0.0
 74
     0
 49
-2.5
 74
     0
  0
LTYPE
  5
2D
330
28
100
AcDbSymbolTableRecord
100
AcDbLinetypeTableRecord
  2
HIDDEN
 70
     0
  3
__ __ __ __ __ __ __ __ __ __ __ __ __ __ __ __
 72
    65
 73
     2
 40
1.875
 49
1.25
 74
     0
 49
-0.625
 74
     0
  0
LTYPE
  5
2E
330
28
100
AcDbSymbolTableRecord
100
AcDbLinetypeTableRecord
  2
CENTER
 70
     0
  3
 ____ _ ____ _ ____ _ ____ _ ____ _ ____ _ ____
 72
    65
 73
     4
 40
20.0
 49
12.5
 74
     0
 49
-2.5
 74
     0
 49
2.5
 74
     0
 49
-2.5
 74
     0
  0
LTYPE
  5
2F
330
28
100
AcDbSymbolTableRecord
100
AcDbLinetypeTableRecord
  2
CADWORK_22
 70
     0
  3
22 =======================================
 72
    65
 73
     0
 40
0.0
  0
LTYPE
  5
30
330
28
100
AcDbSymbolTableRecord
100
AcDbLinetypeTableRecord
  2
DAL
 70
     0
  3
Solid line (for MAPS)
 72
    65
 73
     0
 40
0.0
  0
LTYPE
  5
31
330
28
100
AcDbSymbolTableRecord
100
AcDbLinetypeTableRecord
  2
MUR
 70
     0
  3
Solid line (for MAPS)
 72
    65
 73
     0
 40
0.0
  0
LTYPE
  5
32
330
28
100
AcDbSymbolTableRecord
100
AcDbLinetypeTableRecord
  2
SOM
 70
     0
  3
Solid line (for MAPS)
 72
    65
 73
     0
 40
0.0
  0
LTYPE
  5
33
330
28
100
AcDbSymbolTableRecord
100
AcDbLinetypeTableRecord
  2
COL
 70
     0
  3
Solid line (for MAPS)
 72
    65
 73
     0
 40
0.0
  0
LTYPE
  5
34
330
28
100
AcDbSymbolTableRecord
100
AcDbLinetypeTableRecord
  2
LGN
 70
     0
  3
Solid line (for MAPS)
 72
    65
 73
     0
 40
0.0
  0
LTYPE
  5
35
330
28
100
AcDbSymbolTableRecord
100
AcDbLinetypeTableRecord
  2
PNT
 70
     0
  3
Solid line (for MAPS)
 72
    65
 73
     0
 40
0.0
  0
ENDTAB
  0
TABLE
  2
LAYER
  5
36
330
0
100
AcDbSymbolTable
 70
    32
  0
LAYER
  5
37
102
{ACAD_XDICTIONARY
360
193
102
}
330
36
100
AcDbSymbolTableRecord
100
AcDbLayerTableRecord
  2
STANDARD
 70
     0
 62
     7
  6
CONTINUOUS
370
    -3
390
135
  0
LAYER
  5
38
102
{ACAD_XDICTIONARY
360
195
102
}
330
36
100
AcDbSymbolTableRecord
100
AcDbLayerTableRecord
  2
Ech.1_1
 70
     0
 62
     7
  6
CONTINUOUS
370
    -3
390
135
  0
LAYER
  5
39
102
{ACAD_XDICTIONARY
360
197
102
}
330
36
100
AcDbSymbolTableRecord
100
AcDbLayerTableRecord
  2
Ech.1_2
 70
     0
 62
     7
  6
CONTINUOUS
370
    -3
390
135
  0
LAYER
  5
3A
102
{ACAD_XDICTIONARY
360
199
102
}
330
36
100
AcDbSymbolTableRecord
100
AcDbLayerTableRecord
  2
Ech.1_5
 70
     0
 62
     7
  6
CONTINUOUS
370
    -3
390
135
  0
LAYER
  5
3B
102
{ACAD_XDICTIONARY
360
19B
102
}
330
36
100
AcDbSymbolTableRecord
100
AcDbLayerTableRecord
  2
Ech.1_10
 70
     0
 62
     7
  6
CONTINUOUS
370
    -3
390
135
  0
LAYER
  5
3C
102
{ACAD_XDICTIONARY
360
19D
102
}
330
36
100
AcDbSymbolTableRecord
100
AcDbLayerTableRecord
  2
Ech.1_20
 70
     0
 62
     7
  6
CONTINUOUS
370
    -3
390
135
  0
LAYER
  5
3D
102
{ACAD_XDICTIONARY
360
19F
102
}
330
36
100
AcDbSymbolTableRecord
100
AcDbLayerTableRecord
  2
Ech.1_25
 70
     0
 62
     7
  6
CONTINUOUS
370
    -3
390
135
  0
LAYER
  5
3E
102
{ACAD_XDICTIONARY
360
1A1
102
}
330
36
100
AcDbSymbolTableRecord
100
AcDbLayerTableRecord
  2
Ech.1_33
 70
     0
 62
     7
  6
CONTINUOUS
370
    -3
390
135
  0
LAYER
  5
3F
102
{ACAD_XDICTIONARY
360
1A3
102
}
330
36
100
AcDbSymbolTableRecord
100
AcDbLayerTableRecord
  2
Ech.1_50
 70
     0
 62
     7
  6
CONTINUOUS
370
    -3
390
135
  0
LAYER
  5
40
102
{ACAD_XDICTIONARY
360
1A5
102
}
330
36
100
AcDbSymbolTableRecord
100
AcDbLayerTableRecord
  2
Ech.1_75
 70
     0
 62
     7
  6
CONTINUOUS
370
    -3
390
135
  0
LAYER
  5
41
102
{ACAD_XDICTIONARY
360
1A7
102
}
330
36
100
AcDbSymbolTableRecord
100
AcDbLayerTableRecord
  2
Ech.1_100
 70
     0
 62
     7
  6
CONTINUOUS
370
    -3
390
135
  0
LAYER
  5
42
102
{ACAD_XDICTIONARY
360
1A9
102
}
330
36
100
AcDbSymbolTableRecord
100
AcDbLayerTableRecord
  2
Ech.1_200
 70
     0
 62
     7
  6
CONTINUOUS
370
    -3
390
135
  0
LAYER
  5
43
102
{ACAD_XDICTIONARY
360
1AB
102
}
330
36
100
AcDbSymbolTableRecord
100
AcDbLayerTableRecord
  2
Ech.1_500
 70
     0
 62
     7
  6
CONTINUOUS
370
    -3
390
135
  0
LAYER
  5
44
102
{ACAD_XDICTIONARY
360
1AD
102
}
330
36
100
AcDbSymbolTableRecord
100
AcDbLayerTableRecord
  2
Ech.1_1000
 70
     0
 62
     7
  6
CONTINUOUS
370
    -3
390
135
  0
LAYER
  5
45
102
{ACAD_XDICTIONARY
360
1AF
102
}
330
36
100
AcDbSymbolTableRecord
100
AcDbLayerTableRecord
  2
Cadres traceur
 70
     0
 62
     7
  6
CONTINUOUS
370
    -3
390
135
  0
LAYER
  5
46
102
{ACAD_XDICTIONARY
360
1B1
102
}
330
36
100
AcDbSymbolTableRecord
100
AcDbLayerTableRecord
  2
Cadres laser
 70
     0
 62
     7
  6
CONTINUOUS
370
    -3
390
135
  0
LAYER
  5
47
102
{ACAD_XDICTIONARY
360
1B3
102
}
330
36
100
AcDbSymbolTableRecord
100
AcDbLayerTableRecord
  2
Légende d_aide
 70
     0
 62
     7
  6
CONTINUOUS
370
    -3
390
135
  0
LAYER
  5
48
102
{ACAD_XDICTIONARY
360
1B5
102
}
330
36
100
AcDbSymbolTableRecord
100
AcDbLayerTableRecord
  2
hachures ok
 70
     0
 62
     7
  6
CONTINUOUS
370
    -3
390
135
  0
LAYER
  5
49
102
{ACAD_XDICTIONARY
360
1B7
102
}
330
36
100
AcDbSymbolTableRecord
100
AcDbLayerTableRecord
  2
ossature bois
 70
     0
 62
     7
  6
CONTINUOUS
370
    -3
390
135
  0
LAYER
  5
4A
102
{ACAD_XDICTIONARY
360
1B9
102
}
330
36
100
AcDbSymbolTableRecord
100
AcDbLayerTableRecord
  2
VR
 70
     0
 62
     7
  6
CONTINUOUS
370
    -3
390
135
  0
LAYER
  5
4B
102
{ACAD_XDICTIONARY
360
1BB
102
}
330
36
100
AcDbSymbolTableRecord
100
AcDbLayerTableRecord
  2
CALQUE1
 70
     0
 62
     7
  6
CONTINUOUS
370
    -3
390
135
  0
LAYER
  5
4C
330
36
100
AcDbSymbolTableRecord
100
AcDbLayerTableRecord
  2
0
 70
     0
 62
     7
  6
CONTINUOUS
370
    -3
390
135
  0
LAYER
  5
4D
102
{ACAD_XDICTIONARY
360
1BD
102
}
330
36
100
AcDbSymbolTableRecord
100
AcDbLayerTableRecord
  2
MENUISERIE
 70
     0
 62
     7
  6
CONTINUOUS
370
    -3
390
135
  0
LAYER
  5
4E
102
{ACAD_XDICTIONARY
360
1BF
102
}
330
36
100
AcDbSymbolTableRecord
100
AcDbLayerTableRecord
  2
COTATION
 70
     0
 62
   250
  6
CONTINUOUS
370
    -3
390
135
  0
LAYER
  5
4F
330
36
100
AcDbSymbolTableRecord
100
AcDbLayerTableRecord
  2
DEFPOINTS
 70
     0
 62
    10
  6
CONTINUOUS
290
     0
370
    -3
390
135
  0
LAYER
  5
50
102
{ACAD_XDICTIONARY
360
1C1
102
}
330
36
100
AcDbSymbolTableRecord
100
AcDbLayerTableRecord
  2
HACHURE
 70
     0
 62
   254
  6
CONTINUOUS
370
    -3
390
135
  0
LAYER
  5
51
102
{ACAD_XDICTIONARY
360
1C3
102
}
330
36
100
AcDbSymbolTableRecord
100
AcDbLayerTableRecord
  2
MAT1
 70
     0
 62
     7
  6
CONTINUOUS
370
    -3
390
135
  0
LAYER
  5
52
102
{ACAD_XDICTIONARY
360
1C5
102
}
330
36
100
AcDbSymbolTableRecord
100
AcDbLayerTableRecord
  2
MAT2
 70
     0
 62
     7
  6
CONTINUOUS
370
    -3
390
135
  0
LAYER
  5
53
102
{ACAD_XDICTIONARY
360
1C7
102
}
330
36
100
AcDbSymbolTableRecord
100
AcDbLayerTableRecord
  2
HACH
 70
     0
 62
     8
  6
CONTINUOUS
370
    -3
390
135
  0
LAYER
  5
54
102
{ACAD_XDICTIONARY
360
1C9
102
}
330
36
100
AcDbSymbolTableRecord
100
AcDbLayerTableRecord
  2
MENUISERIES
 70
     0
 62
     7
  6
CONTINUOUS
370
    -3
390
135
  0
LAYER
  5
55
102
{ACAD_XDICTIONARY
360
1CB
102
}
330
36
100
AcDbSymbolTableRecord
100
AcDbLayerTableRecord
  2
BÉTONMÉTAL
 70
     0
 62
     7
  6
CONTINUOUS
370
    -3
390
135
  0
LAYER
  5
56
102
{ACAD_XDICTIONARY
360
1CD
102
}
330
36
100
AcDbSymbolTableRecord
100
AcDbLayerTableRecord
  2
BOIS
 70
     0
 62
     7
  6
CONTINUOUS
370
    -3
390
135
  0
ENDTAB
  0
TABLE
  2
STYLE
  5
23
330
0
100
AcDbSymbolTable
 70
     4
  0
STYLE
  5
24
330
23
100
AcDbSymbolTableRecord
100
AcDbTextStyleTableRecord
  2
STANDARD
 70
     0
 40
0.0
 41
1.0
 50
0.0
 71
     0
 42
3.5
  3
MONOTXT
  4

  0
STYLE
  5
25
330
23
100
AcDbSymbolTableRecord
100
AcDbTextStyleTableRecord
  2
CADWORK1
 70
     0
 40
0.0
 41
1.0
 50
0.0
 71
     0
 42
3.5
  3
MONOTXT
  4

  0
STYLE
  5
26
330
23
100
AcDbSymbolTableRecord
100
AcDbTextStyleTableRecord
  2
MONOTXT
 70
     0
 40
0.0
 41
1.0
 50
0.0
 71
     0
 42
3.5
  3
MONOTXT
  4

  0
STYLE
  5
27
330
23
100
AcDbSymbolTableRecord
100
AcDbTextStyleTableRecord
  2
ARIAL
 70
     0
 40
0.0
 41
1.0
 50
0.0
 71
     0
 42
3.5
  3

  4

1001
ACAD
1000
Arial
1071
        0
  0
ENDTAB
  0
TABLE
  2
VIEW
  5
57
330
0
100
AcDbSymbolTable
 70
     4
  0
ENDTAB
  0
TABLE
  2
UCS
  5
58
330
0
100
AcDbSymbolTable
 70
     0
  0
ENDTAB
  0
TABLE
  2
APPID
  5
59
330
0
100
AcDbSymbolTable
 70
     2
  0
APPID
  5
5A
330
59
100
AcDbSymbolTableRecord
100
AcDbRegAppTableRecord
  2
ACAD
 70
     0
  0
APPID
  5
20F
330
59
100
AcDbSymbolTableRecord
100
AcDbRegAppTableRecord
  2
ACAD_MLEADERVER
 70
     0
  0
ENDTAB
  0
TABLE
  2
DIMSTYLE
  5
5B
330
0
100
AcDbSymbolTable
 70
     1
100
AcDbDimStyleTable
 71
     0
  0
DIMSTYLE
105
17F
330
5B
100
AcDbSymbolTableRecord
100
AcDbDimStyleTableRecord
  2
Standard
 70
     0
340
24
  0
ENDTAB
  0
TABLE
  2
BLOCK_RECORD
  5
5C
330
0
100
AcDbSymbolTable
 70
    17
  0
BLOCK_RECORD
  5
5D
330
5C
100
AcDbSymbolTableRecord
100
AcDbBlockTableRecord
  2
*MODEL_SPACE
340
182
  0
BLOCK_RECORD
  5
5E
330
5C
100
AcDbSymbolTableRecord
100
AcDbBlockTableRecord
  2
*PAPER_SPACE
340
183
  0
BLOCK_RECORD
  5
5F
330
5C
100
AcDbSymbolTableRecord
100
AcDbBlockTableRecord
  2
CDWK_EXTR_0
340
0
  0
BLOCK_RECORD
  5
60
330
5C
100
AcDbSymbolTableRecord
100
AcDbBlockTableRecord
  2
CDWK_EXTR_1D
340
0
  0
BLOCK_RECORD
  5
61
330
5C
100
AcDbSymbolTableRecord
100
AcDbBlockTableRecord
  2
CDWK_EXTR_1G
340
0
  0
BLOCK_RECORD
  5
62
330
5C
100
AcDbSymbolTableRecord
100
AcDbBlockTableRecord
  2
CDWK_EXTR_2
340
0
  0
BLOCK_RECORD
  5
63
330
5C
100
AcDbSymbolTableRecord
100
AcDbBlockTableRecord
  2
CDWK_EXTR_3
340
0
  0
BLOCK_RECORD
  5
64
330
5C
100
AcDbSymbolTableRecord
100
AcDbBlockTableRecord
  2
CDWK_EXTR_4
340
0
  0
BLOCK_RECORD
  5
65
330
5C
100
AcDbSymbolTableRecord
100
AcDbBlockTableRecord
  2
CDWK_PTTYP0
340
0
  0
BLOCK_RECORD
  5
66
330
5C
100
AcDbSymbolTableRecord
100
AcDbBlockTableRecord
  2
*X7
340
0
102
{BLKREFS
331
B8
102
}
  0
BLOCK_RECORD
  5
67
330
5C
100
AcDbSymbolTableRecord
100
AcDbBlockTableRecord
  2
*X8
340
0
102
{BLKREFS
331
B9
102
}
  0
BLOCK_RECORD
  5
68
330
5C
100
AcDbSymbolTableRecord
100
AcDbBlockTableRecord
  2
*X9
340
0
102
{BLKREFS
331
BA
102
}
  0
BLOCK_RECORD
  5
69
330
5C
100
AcDbSymbolTableRecord
100
AcDbBlockTableRecord
  2
*X10
340
0
102
{BLKREFS
331
BB
102
}
  0
BLOCK_RECORD
  5
6A
330
5C
100
AcDbSymbolTableRecord
100
AcDbBlockTableRecord
  2
*X11
340
0
102
{BLKREFS
331
BC
102
}
  0
BLOCK_RECORD
  5
6B
330
5C
100
AcDbSymbolTableRecord
100
AcDbBlockTableRecord
  2
*X12
340
0
102
{BLKREFS
331
BD
102
}
  0
BLOCK_RECORD
  5
6C
330
5C
100
AcDbSymbolTableRecord
100
AcDbBlockTableRecord
  2
*X13
340
0
102
{BLKREFS
331
BE
102
}
  0
BLOCK_RECORD
  5
6D
330
5C
100
AcDbSymbolTableRecord
100
AcDbBlockTableRecord
  2
*X14
340
0
102
{BLKREFS
331
BF
102
}
  0
BLOCK_RECORD
  5
6E
330
5C
100
AcDbSymbolTableRecord
100
AcDbBlockTableRecord
  2
*D15
340
0
102
{BLKREFS
331
12F
102
}
  0
BLOCK_RECORD
  5
6F
330
5C
100
AcDbSymbolTableRecord
100
AcDbBlockTableRecord
  2
*D16
340
0
102
{BLKREFS
331
130
102
}
  0
ENDTAB
  0
ENDSEC
  0
SECTION
  2
BLOCKS
  0
BLOCK
  5
70
330
5D
100
AcDbEntity
  8
0
100
AcDbBlockBegin
  2
*MODEL_SPACE
 70
     0
 10
0.0
 20
0.0
 30
0.0
  3
*MODEL_SPACE
  1

  0
ENDBLK
  5
71
330
5D
100
AcDbEntity
  8
0
100
AcDbBlockEnd
  0
BLOCK
  5
72
330
5E
100
AcDbEntity
 67
     1
  8
0
100
AcDbBlockBegin
  2
*PAPER_SPACE
 70
     0
 10
0.0
 20
0.0
 30
0.0
  3
*PAPER_SPACE
  1

  0
ENDBLK
  5
73
330
5E
100
AcDbEntity
 67
     1
  8
0
100
AcDbBlockEnd
  0
BLOCK
  5
74
330
5F
100
AcDbEntity
  8
0
100
AcDbBlockBegin
  2
CDWK_EXTR_0
 70
     0
 10
0.0
 20
0.0
 30
0.0
  3
CDWK_EXTR_0
  1

  0
LINE
  5
75
330
5F
100
AcDbEntity
  8
0
 62
     0
370
    -2
100
AcDbLine
 10
0.0
 20
0.0
 30
0.0
 11
2.0
 21
0.5
 31
0.0
  0
LINE
  5
76
330
5F
100
AcDbEntity
  8
0
 62
     0
370
    -2
100
AcDbLine
 10
0.0
 20
0.0
 30
0.0
 11
2.0
 21
-0.5
 31
0.0
  0
LINE
  5
77
330
5F
100
AcDbEntity
  8
0
 62
     0
370
    -2
100
AcDbLine
 10
2.0
 20
0.5
 30
0.0
 11
2.0
 21
-0.5
 31
0.0
  0
ENDBLK
  5
78
330
5F
100
AcDbEntity
  8
0
100
AcDbBlockEnd
  0
BLOCK
  5
79
330
60
100
AcDbEntity
  8
0
100
AcDbBlockBegin
  2
CDWK_EXTR_1D
 70
     0
 10
0.0
 20
0.0
 30
0.0
  3
CDWK_EXTR_1D
  1

  0
LINE
  5
7A
330
60
100
AcDbEntity
  8
0
 62
     0
370
    -2
100
AcDbLine
 10
0.0
 20
0.0
 30
0.0
 11
0.0
 21
1.0
 31
0.0
  0
LINE
  5
7B
330
60
100
AcDbEntity
  8
0
 62
     0
370
    -2
100
AcDbLine
 10
0.0
 20
1.0
 30
0.0
 11
0.5
 21
1.5
 31
0.0
  0
LINE
  5
7C
330
60
100
AcDbEntity
  8
0
 62
     0
370
    -2
100
AcDbLine
 10
0.5
 20
1.5
 30
0.0
 11
1.5
 21
1.5
 31
0.0
  0
ENDBLK
  5
7D
330
60
100
AcDbEntity
  8
0
100
AcDbBlockEnd
  0
BLOCK
  5
7E
330
61
100
AcDbEntity
  8
0
100
AcDbBlockBegin
  2
CDWK_EXTR_1G
 70
     0
 10
0.0
 20
0.0
 30
0.0
  3
CDWK_EXTR_1G
  1

  0
LINE
  5
7F
330
61
100
AcDbEntity
  8
0
 62
     0
370
    -2
100
AcDbLine
 10
0.0
 20
0.0
 30
0.0
 11
0.0
 21
-1.0
 31
0.0
  0
LINE
  5
80
330
61
100
AcDbEntity
  8
0
 62
     0
370
    -2
100
AcDbLine
 10
0.0
 20
-1.0
 30
0.0
 11
0.5
 21
-1.5
 31
0.0
  0
LINE
  5
81
330
61
100
AcDbEntity
  8
0
 62
     0
370
    -2
100
AcDbLine
 10
0.5
 20
-1.5
 30
0.0
 11
1.5
 21
-1.5
 31
0.0
  0
ENDBLK
  5
82
330
61
100
AcDbEntity
  8
0
100
AcDbBlockEnd
  0
BLOCK
  5
83
330
62
100
AcDbEntity
  8
0
100
AcDbBlockBegin
  2
CDWK_EXTR_2
 70
     0
 10
0.0
 20
0.0
 30
0.0
  3
CDWK_EXTR_2
  1

  0
SOLID
  5
84
330
62
100
AcDbEntity
  8
0
 62
     0
100
AcDbTrace
 10
0.0
 20
0.0
 30
0.0
 11
2.0
 21
0.5
 31
0.0
 12
2.0
 22
-0.5
 32
0.0
 13
2.0
 23
-0.5
 33
0.0
  0
ENDBLK
  5
85
330
62
100
AcDbEntity
  8
0
100
AcDbBlockEnd
  0
BLOCK
  5
86
330
63
100
AcDbEntity
  8
0
100
AcDbBlockBegin
  2
CDWK_EXTR_3
 70
     0
 10
0.0
 20
0.0
 30
0.0
  3
CDWK_EXTR_3
  1

  0
SOLID
  5
87
330
63
100
AcDbEntity
  8
0
 62
     0
100
AcDbTrace
 10
0.0
 20
0.0
 30
0.0
 11
2.0
 21
0.5
 31
0.0
 12
2.0
 22
-0.5
 32
0.0
 13
2.0
 23
-0.5
 33
0.0
  0
LINE
  5
88
330
63
100
AcDbEntity
  8
0
 62
     0
370
    -2
100
AcDbLine
 10
0.0
 20
1.0
 30
0.0
 11
0.0
 21
-1.0
 31
0.0
  0
ENDBLK
  5
89
330
63
100
AcDbEntity
  8
0
100
AcDbBlockEnd
  0
BLOCK
  5
8A
330
64
100
AcDbEntity
  8
0
100
AcDbBlockBegin
  2
CDWK_EXTR_4
 70
     0
 10
0.0
 20
0.0
 30
0.0
  3
CDWK_EXTR_4
  1

  0
HATCH
  5
8B
330
64
100
AcDbEntity
  8
0
 62
     0
370
    20
100
AcDbHatch
 10
0.0
 20
0.0
 30
0.0
210
0.0
220
0.0
230
1.0
  2
SOLID
 70
     1
 71
     0
 91
        1
 92
        1
 93
        1
 72
     2
 10
0.0
 20
0.0
 40
0.5
 50
0.0
 51
360.0
 73
     1
 97
        0
 75
     0
 76
     1
 98
        1
 10
0.0
 20
0.0
  0
ENDBLK
  5
8C
330
64
100
AcDbEntity
  8
0
100
AcDbBlockEnd
  0
BLOCK
  5
8D
330
65
100
AcDbEntity
  8
0
100
AcDbBlockBegin
  2
CDWK_PTTYP0
 70
     0
 10
0.0
 20
0.0
 30
0.0
  3
CDWK_PTTYP0
  1

  0
POINT
  5
8E
330
65
100
AcDbEntity
  8
0
 62
     0
100
AcDbPoint
 10
0.0
 20
0.0
 30
0.0
  0
ENDBLK
  5
8F
330
65
100
AcDbEntity
  8
0
100
AcDbBlockEnd
  0
BLOCK
  5
90
330
66
100
AcDbEntity
  8
Ech.1_5
100
AcDbBlockBegin
  2
*X7
 70
     1
 10
0.0
 20
0.0
 30
0.0
  3
*X7
  1

  0
ENDBLK
  5
91
330
66
100
AcDbEntity
  8
0
100
AcDbBlockEnd
  0
BLOCK
  5
92
330
67
100
AcDbEntity
  8
Ech.1_5
100
AcDbBlockBegin
  2
*X8
 70
     1
 10
0.0
 20
0.0
 30
0.0
  3
*X8
  1

  0
ENDBLK
  5
93
330
67
100
AcDbEntity
  8
0
100
AcDbBlockEnd
  0
BLOCK
  5
94
330
68
100
AcDbEntity
  8
Ech.1_5
100
AcDbBlockBegin
  2
*X9
 70
     1
 10
0.0
 20
0.0
 30
0.0
  3
*X9
  1

  0
ENDBLK
  5
95
330
68
100
AcDbEntity
  8
0
100
AcDbBlockEnd
  0
BLOCK
  5
96
330
69
100
AcDbEntity
  8
Ech.1_5
100
AcDbBlockBegin
  2
*X10
 70
     1
 10
0.0
 20
0.0
 30
0.0
  3
*X10
  1

  0
ENDBLK
  5
97
330
69
100
AcDbEntity
  8
0
100
AcDbBlockEnd
  0
BLOCK
  5
98
330
6A
100
AcDbEntity
  8
Ech.1_5
100
AcDbBlockBegin
  2
*X11
 70
     1
 10
0.0
 20
0.0
 30
0.0
  3
*X11
  1

  0
LINE
  5
99
330
6A
100
AcDbEntity
  8
Ech.1_5
  6
Continuous
 62
     7
370
    -2
100
AcDbLine
 10
36608.05604972
 20
7779.58773847
 30
0.0
 11
36648.05872324
 21
7734.589781140001
 31
0.0
  0
LINE
  5
9A
330
6A
100
AcDbEntity
  8
Ech.1_5
  6
Continuous
 62
     7
370
    -2
100
AcDbLine
 10
36648.05872324
 20
7779.58773847
 30
0.0
 11
36608.05604972
 21
7734.589781140001
 31
0.0
  0
ENDBLK
  5
9B
330
6A
100
AcDbEntity
  8
0
100
AcDbBlockEnd
  0
BLOCK
  5
9C
330
6B
100
AcDbEntity
  8
Ech.1_5
100
AcDbBlockBegin
  2
*X12
 70
     1
 10
0.0
 20
0.0
 30
0.0
  3
*X12
  1

  0
LINE
  5
9D
330
6B
100
AcDbEntity
  8
Ech.1_5
  6
Continuous
 62
     7
370
    -2
100
AcDbLine
 10
36340.05540023
 20
7419.130262450001
 30
0.0
 11
36380.05440075
 21
7374.128632109999
 31
0.0
  0
LINE
  5
9E
330
6B
100
AcDbEntity
  8
Ech.1_5
  6
Continuous
 62
     7
370
    -2
100
AcDbLine
 10
36380.05440075
 20
7419.130262450001
 30
0.0
 11
36340.05540023
 21
7374.128632109999
 31
0.0
  0
ENDBLK
  5
9F
330
6B
100
AcDbEntity
  8
0
100
AcDbBlockEnd
  0
BLOCK
  5
A0
330
6C
100
AcDbEntity
  8
Ech.1_5
100
AcDbBlockBegin
  2
*X13
 70
     1
 10
0.0
 20
0.0
 30
0.0
  3
*X13
  1

  0
LINE
  5
A1
330
6C
100
AcDbEntity
  8
Ech.1_5
  6
Continuous
 62
     7
370
    -2
100
AcDbLine
 10
36608.05604972
 20
7419.130262450001
 30
0.0
 11
36648.05872324
 21
7374.128632109999
 31
0.0
  0
LINE
  5
A2
330
6C
100
AcDbEntity
  8
Ech.1_5
  6
Continuous
 62
     7
370
    -2
100
AcDbLine
 10
36648.05872324
 20
7419.130262450001
 30
0.0
 11
36608.05604972
 21
7374.128632109999
 31
0.0
  0
ENDBLK
  5
A3
330
6C
100
AcDbEntity
  8
0
100
AcDbBlockEnd
  0
BLOCK
  5
A4
330
6D
100
AcDbEntity
  8
Ech.1_5
100
AcDbBlockBegin
  2
*X14
 70
     1
 10
0.0
 20
0.0
 30
0.0
  3
*X14
  1

  0
LINE
  5
A5
330
6D
100
AcDbEntity
  8
Ech.1_5
  6
Continuous
 62
     7
370
    -2
100
AcDbLine
 10
36340.05540023
 20
7779.58773847
 30
0.0
 11
36380.05440075
 21
7734.589781140001
 31
0.0
  0
LINE
  5
A6
330
6D
100
AcDbEntity
  8
Ech.1_5
  6
Continuous
 62
     7
370
    -2
100
AcDbLine
 10
36380.05440075
 20
7779.58773847
 30
0.0
 11
36340.05540023
 21
7734.589781140001
 31
0.0
  0
ENDBLK
  5
A7
330
6D
100
AcDbEntity
  8
0
100
AcDbBlockEnd
  0
BLOCK
  5
A8
330
6E
100
AcDbEntity
  8
Ech.1_5
100
AcDbBlockBegin
  2
*D15
 70
     1
 10
0.0
 20
0.0
 30
0.0
  3
*D15
  1

  0
TEXT
  5
A9
330
6E
100
AcDbEntity
  8
Ech.1_5
 62
     7
370
    18
100
AcDbText
 10
36694.36329472
 20
7361.16583789
 30
0.0
 40
12.5
  1
10
 50
89.99999749999998
  7
ARIAL
100
AcDbText
  0
LINE
  5
AA
330
6E
100
AcDbEntity
  8
Ech.1_5
 62
     7
370
    -2
100
AcDbLine
 10
36704.36329472
 20
7344.077594329999
 30
0.0
 11
36675.21825558
 21
7344.077594329999
 31
0.0
  0
LINE
  5
AB
330
6E
100
AcDbEntity
  8
Ech.1_5
 62
     7
370
    -2
100
AcDbLine
 10
36704.36329472
 20
7354.128027859999
 30
0.0
 11
36665.21822279
 21
7354.128027859999
 31
0.0
  0
LINE
  5
AC
330
6E
100
AcDbEntity
  8
Ech.1_5
 62
     7
370
    -2
100
AcDbLine
 10
36699.36329472
 20
7339.077594329999
 30
0.0
 11
36699.36329472
 21
7359.128027859999
 31
0.0
  0
LINE
  5
AD
330
6E
100
AcDbEntity
  8
Ech.1_5
 62
     7
370
    -2
100
AcDbLine
 10
36701.86329472
 20
7341.577594329999
 30
0.0
 11
36696.86329472
 21
7346.57759433
 31
0.0
  0
LINE
  5
AE
330
6E
100
AcDbEntity
  8
Ech.1_5
 62
     7
370
    -2
100
AcDbLine
 10
36701.86329472
 20
7351.628027859999
 30
0.0
 11
36696.86329472
 21
7356.628027860001
 31
0.0
  0
ENDBLK
  5
AF
330
6E
100
AcDbEntity
  8
0
100
AcDbBlockEnd
  0
BLOCK
  5
B0
330
6F
100
AcDbEntity
  8
Ech.1_5
100
AcDbBlockBegin
  2
*D16
 70
     1
 10
0.0
 20
0.0
 30
0.0
  3
*D16
  1

  0
TEXT
  5
B1
330
6F
100
AcDbEntity
  8
Ech.1_5
 62
     7
370
    18
100
AcDbText
 10
36582.62694675
 20
7354.62515618
 30
0.0
 40
12.5
  1
max 20mm
 50
89.99999749999998
  7
ARIAL
100
AcDbText
  0
LINE
  5
B2
330
6F
100
AcDbEntity
  8
Ech.1_5
 62
     7
370
    -2
100
AcDbLine
 10
36582.62694675
 20
7354.128027859999
 30
0.0
 11
36622.21822279
 21
7354.128027859999
 31
0.0
  0
LINE
  5
B3
330
6F
100
AcDbEntity
  8
Ech.1_5
 62
     7
370
    -2
100
AcDbLine
 10
36582.62694675
 20
7374.12913383
 30
0.0
 11
36582.21822279
 21
7374.12913383
 31
0.0
  0
LINE
  5
B4
330
6F
100
AcDbEntity
  8
Ech.1_5
 62
     7
370
    -2
100
AcDbLine
 10
36587.62694675
 20
7349.12802786
 30
0.0
 11
36587.62694675
 21
7379.12913383
 31
0.0
  0
LINE
  5
B5
330
6F
100
AcDbEntity
  8
Ech.1_5
 62
     7
370
    -2
100
AcDbLine
 10
36590.12694675
 20
7351.628027859999
 30
0.0
 11
36585.12694675001
 21
7356.628027860001
 31
0.0
  0
LINE
  5
B6
330
6F
100
AcDbEntity
  8
Ech.1_5
 62
     7
370
    -2
100
AcDbLine
 10
36590.12694675
 20
7371.629133829999
 30
0.0
 11
36585.12694675001
 21
7376.629133829999
 31
0.0
  0
ENDBLK
  5
B7
330
6F
100
AcDbEntity
  8
0
100
AcDbBlockEnd
  0
ENDSEC
  0
SECTION
  2
ENTITIES
  0
INSERT
  5
B8
330
5D
100
AcDbEntity
  8
Ech.1_5
 62
     0
370
    -3
100
AcDbBlockReference
  2
*X7
 10
0.0
 20
0.0
 30
0.0
  0
INSERT
  5
B9
330
5D
100
AcDbEntity
  8
Ech.1_5
 62
     0
370
    -3
100
AcDbBlockReference
  2
*X8
 10
0.0
 20
0.0
 30
0.0
  0
INSERT
  5
BA
330
5D
100
AcDbEntity
  8
Ech.1_5
 62
     0
370
    -3
100
AcDbBlockReference
  2
*X9
 10
0.0
 20
0.0
 30
0.0
  0
INSERT
  5
BB
330
5D
100
AcDbEntity
  8
Ech.1_5
 62
     0
370
    -3
100
AcDbBlockReference
  2
*X10
 10
0.0
 20
0.0
 30
0.0
  0
INSERT
  5
BC
330
5D
100
AcDbEntity
  8
Ech.1_5
 62
     0
370
    -3
100
AcDbBlockReference
  2
*X11
 10
0.0
 20
0.0
 30
0.0
  0
INSERT
  5
BD
330
5D
100
AcDbEntity
  8
Ech.1_5
 62
     0
370
    -3
100
AcDbBlockReference
  2
*X12
 10
0.0
 20
0.0
 30
0.0
  0
INSERT
  5
BE
330
5D
100
AcDbEntity
  8
Ech.1_5
 62
     0
370
    -3
100
AcDbBlockReference
  2
*X13
 10
0.0
 20
0.0
 30
0.0
  0
INSERT
  5
BF
330
5D
100
AcDbEntity
  8
Ech.1_5
 62
     0
370
    -3
100
AcDbBlockReference
  2
*X14
 10
0.0
 20
0.0
 30
0.0
  0
LWPOLYLINE
  5
C0
102
{ACAD_REACTORS
330
C1
102
}
330
5D
100
AcDbEntity
  8
Ech.1_5
  6
Continuous
 62
     9
370
    -3
100
AcDbPolyline
 90
        4
 70
     1
 43
0.0
 10
36909.3356266
 20
6836.11894112
 10
36909.3356266
 20
6951.76242707
 10
36069.53691136
 20
6951.76242707
 10
36069.53691136
 20
6836.11894112
  0
HATCH
  5
C1
330
5D
100
AcDbEntity
  8
Ech.1_5
  6
Continuous
 62
     9
100
AcDbHatch
 10
0.0
 20
0.0
 30
0.0
210
0.0
220
0.0
230
1.0
  2
SSTNWSB
 70
     0
 71
     1
 91
        1
 92
        7
 72
     0
 73
     1
 93
        4
 10
36069.53691136
 20
6836.11894112
 10
36909.3356266
 20
6836.11894112
 10
36909.3356266
 20
6951.76242707
 10
36069.53691136
 20
6951.76242707
 97
        1
330
C0
 75
     0
 76
     2
 52
0.0
 41
1.0
 77
     0
 78
  1001
 53
90.0
 43
29.60000038
 44
213.40000153
 45
-296.47199631
 46
0.0000000000000182
 79
     2
 49
2.96400011
 49
-293.50799561
 53
45.0
 43
26.60000086
 44
210.40000916
 45
0.0000000000000355
 46
296.47290887
 79
     2
 49
4.192000029999999
 49
-415.08201599
 53
26.56509972
 43
20.79999924
 44
207.60000229
 45
296.47285424
 46
296.47246092
 79
     2
 49
6.629999879999999
 49
-656.3040161099999
 53
0.0
 43
14.80000019
 44
207.60000229
 45
0.0
 46
296.47199631
 79
     2
 49
5.92999995
 49
-290.5439949
 53
296.56509399
 43
11.79999948
 44
213.40000153
 45
296.47243131
 46
-296.47288385
 79
     2
 49
6.629999879999999
 49
-656.3040161099999
 53
243.43499756
 43
14.80000019
 44
219.40000534
 45
-0.00064346
 46
-296.4731053999999
 79
     2
 49
6.629999879999999
 49
-656.3040161099999
 53
206.56500244
 43
20.79999924
 44
222.39999771
 45
-296.47335758
 46
-296.47195758
 79
     2
 49
6.629999879999999
 49
-656.3040161099999
 53
180.0
 43
26.60000086
 44
222.39999771
 45
-0.0000000000000363
 46
-296.47199631
 79
     2
 49
5.92999995
 49
-290.5439949
 53
135.0
 43
29.60000038
 44
219.40000534
 45
-296.47290887
 46
0.0000000000000355
 79
     2
 49
4.192000029999999
 49
-415.08201599
 53
0.0
 43
255.0
 44
207.60000229
 45
0.0
 46
296.47199631
 79
     2
 49
8.89400005
 49
-287.57799149
 53
315.0
 43
252.00000763
 44
210.40000916
 45
296.47290887
 46
-0.0000000000000711
 79
     2
 49
4.192000029999999
 49
-415.08201599
 53
270.0
 43
252.00000763
 44
213.40000153
 45
296.47199631
 46
-0.0000000000000545
 79
     2
 49
2.96400011
 49
-293.50799561
 53
225.0
 43
255.0
 44
216.3999939
 45
-0.0000000000000533
 46
-296.47290887
 79
     2
 49
4.192000029999999
 49
-415.08201599
 53
225.0
 43
257.99999237
 44
219.40000534
 45
-0.0000000000000533
 46
-296.47290887
 79
     2
 49
4.192000029999999
 49
-415.08201599
 53
153.43499756
 43
263.79999161
 44
216.3999939
 45
-296.4731053999999
 46
0.00064346
 79
     2
 49
6.629999879999999
 49
-656.3040161099999
 53
135.0
 43
266.80000305
 44
213.40000153
 45
-296.47290887
 46
0.0000000000000355
 79
     2
 49
4.192000029999999
 49
-415.08201599
 53
63.43489838
 43
263.79999161
 44
207.60000229
 45
0.00115667
 46
296.4731053999999
 79
     2
 49
6.629999879999999
 49
-656.3040161099999
 53
135.0
 43
160.0
 44
228.19999695
 45
-296.47290887
 46
0.0000000000000355
 79
     2
 49
4.192000029999999
 49
-415.08201599
 53
180.0
 43
162.99999237
 44
228.19999695
 45
-0.0000000000000363
 46
-296.47199631
 79
     2
 49
2.96400011
 49
-293.50799561
 53
161.56500244
 43
172.00000763
 44
225.40000916
 45
-296.47174563
 46
0.00087946
 79
     2
 49
9.376000169999999
 49
-928.1539917000001
 53
225.0
 43
175.0
 44
228.19999695
 45
-0.0000000000000533
 46
-296.47290887
 79
     2
 49
4.192000029999999
 49
-415.08201599
 53
270.0
 43
175.0
 44
234.20000076
 45
296.47199631
 46
-0.0000000000000545
 79
     2
 49
5.92999995
 49
-290.5439949
 53
333.43490601
 43
168.99999619
 44
237.19999313
 45
296.4731053999999
 46
-0.0011172
 79
     2
 49
6.629999879999999
 49
-656.3040161099999
 53
0.0
 43
160.0
 44
237.19999313
 45
0.0
 46
296.47199631
 79
     2
 49
8.89400005
 49
-287.57799149
 53
45.0
 43
157.20000267
 44
234.20000076
 45
0.0000000000000355
 46
296.47290887
 79
     2
 49
4.192000029999999
 49
-415.08201599
 53
0.0
 43
281.59999847
 44
175.0
 45
0.0
 46
296.47199631
 79
     2
 49
11.85799956
 49
-284.61399078
 53
180.0
 43
278.6000061
 44
157.20000267
 45
-0.0000000000000363
 46
-296.47199631
 79
     2
 49
5.92999995
 49
-290.5439949
 53
180.0
 43
290.59999466
 44
118.59999657
 45
-0.0000000000000363
 46
-296.47199631
 79
     2
 49
2.96400011
 49
-293.50799561
 53
26.56509972
 43
290.59999466
 44
118.59999657
 45
296.47285424
 46
296.47246092
 79
     2
 49
6.629999879999999
 49
-656.3040161099999
 53
296.56509399
 43
11.79999948
 44
237.19999313
 45
296.47243131
 46
-296.47288385
 79
     2
 49
6.629999879999999
 49
-656.3040161099999
 53
270.0
 43
11.79999948
 44
243.19999695
 45
296.47199631
 46
-0.0000000000000545
 79
     2
 49
5.92999995
 49
-290.5439949
 53
63.43489838
 43
8.79999995
 44
237.19999313
 45
0.00115667
 46
296.4731053999999
 79
     2
 49
6.629999879999999
 49
-656.3040161099999
 53
26.56509972
 43
189.79999542
 44
284.5999908399999
 45
296.47285424
 46
296.47246092
 79
     2
 49
6.629999879999999
 49
-656.3040161099999
 53
168.69009399
 43
175.0
 44
281.59999847
 45
-296.47346827
 46
-0.00092342
 79
     2
 49
15.11800051
 49
-1496.60202026
 53
26.56509972
 43
243.19999695
 44
260.79999924
 45
296.47285424
 46
296.47246092
 79
     2
 49
6.629999879999999
 49
-656.3040161099999
 53
26.56509972
 43
248.99999619
 44
263.79999161
 45
296.47285424
 46
296.47246092
 79
     2
 49
6.629999879999999
 49
-656.3040161099999
 53
26.56509972
 43
255.0
 44
266.80000305
 45
296.47285424
 46
296.47246092
 79
     2
 49
6.629999879999999
 49
-656.3040161099999
 53
0.0
 43
260.79999924
 44
269.79999542
 45
0.0
 46
296.47199631
 79
     2
 49
5.92999995
 49
-290.5439949
 53
315.0
 43
266.80000305
 44
269.79999542
 45
296.47290887
 46
-0.0000000000000711
 79
     2
 49
4.192000029999999
 49
-415.08201599
 53
270.0
 43
269.79999542
 44
266.80000305
 45
296.47199631
 46
-0.0000000000000545
 79
     2
 49
5.92999995
 49
-290.5439949
 53
243.43499756
 43
269.79999542
 44
260.79999924
 45
-0.00064346
 46
-296.4731053999999
 79
     2
 49
6.629999879999999
 49
-656.3040161099999
 53
225.0
 43
266.80000305
 44
255.0
 45
-0.0000000000000533
 46
-296.47290887
 79
     2
 49
4.192000029999999
 49
-415.08201599
 53
194.03619385
 43
263.79999161
 44
252.00000763
 45
-889.4167208699998
 46
-296.4723532
 79
     2
 49
12.2239995
 49
-1210.16403198
 53
161.56500244
 43
252.00000763
 44
248.99999619
 45
-296.47174563
 46
0.00087946
 79
     2
 49
9.376000169999999
 49
-928.1539917000001
 53
135.0
 43
243.19999695
 44
252.00000763
 45
-296.47290887
 46
0.0000000000000355
 79
     2
 49
4.192000029999999
 49
-415.08201599
 53
90.0
 43
240.20000458
 44
255.0
 45
-296.47199631
 46
0.0000000000000182
 79
     2
 49
2.96400011
 49
-293.50799561
 53
45.0
 43
240.20000458
 44
257.99999237
 45
0.0000000000000355
 46
296.47290887
 79
     2
 49
4.192000029999999
 49
-415.08201599
 53
165.96380615
 43
168.99999619
 44
162.99999237
 45
-296.47214391
 46
-0.00122822
 79
     2
 49
12.2239995
 49
-1210.16403198
 53
18.43490028
 43
216.3999939
 44
97.79999733
 45
592.9456423699999
 46
296.47124934
 79
     2
 49
9.376000169999999
 49
-928.1539917000001
 53
0.0
 43
225.40000916
 44
100.79999924
 45
0.0
 46
296.47199631
 79
     2
 49
8.89400005
 49
-287.57799149
 53
341.56509399
 43
234.20000076
 44
100.79999924
 45
296.47174563
 46
-0.00040573
 79
     2
 49
9.376000169999999
 49
-928.1539917000001
 53
341.56509399
 43
243.19999695
 44
97.79999733
 45
296.47174563
 46
-0.00040573
 79
     2
 49
9.376000169999999
 49
-928.1539917000001
 53
296.56509399
 43
252.00000763
 44
94.79999541999999
 45
296.47243131
 46
-296.47288385
 79
     2
 49
6.629999879999999
 49
-656.3040161099999
 53
270.0
 43
255.0
 44
88.99999619
 45
296.47199631
 46
-0.0000000000000545
 79
     2
 49
11.85799956
 49
-284.61399078
 53
225.0
 43
255.0
 44
76.99999809000001
 45
-0.0000000000000533
 46
-296.47290887
 79
     2
 49
4.192000029999999
 49
-415.08201599
 53
206.56500244
 43
252.00000763
 44
74.20000075999999
 45
-296.47335758
 46
-296.47195758
 79
     2
 49
6.629999879999999
 49
-656.3040161099999
 53
180.0
 43
246.00000381
 44
71.19999885999999
 45
-0.0000000000000363
 46
-296.47199631
 79
     2
 49
23.71799946
 49
-272.75400162
 53
153.43499756
 43
222.39999771
 44
71.19999885999999
 45
-296.4731053999999
 46
0.00064346
 79
     2
 49
6.629999879999999
 49
-656.3040161099999
 53
135.0
 43
216.3999939
 44
74.20000075999999
 45
-296.47290887
 46
0.0000000000000355
 79
     2
 49
8.385999799999998
 49
-410.8900070199999
 53
116.56500244
 43
210.40000916
 44
80.0
 45
-296.47195758
 46
296.47335758
 79
     2
 49
6.629999879999999
 49
-656.3040161099999
 53
90.0
 43
207.60000229
 44
86.00000380999999
 45
-296.47199631
 46
0.0000000000000182
 79
     2
 49
2.96400011
 49
-293.50799561
 53
63.43489838
 43
207.60000229
 44
88.99999619
 45
0.00115667
 46
296.4731053999999
 79
     2
 49
6.629999879999999
 49
-656.3040161099999
 53
26.56509972
 43
210.40000916
 44
94.79999541999999
 45
296.47285424
 46
296.47246092
 79
     2
 49
6.629999879999999
 49
-656.3040161099999
 53
45.0
 43
6.00000024
 44
139.3999958
 45
0.0000000000000355
 46
296.47290887
 79
     2
 49
8.385999799999998
 49
-410.8900070199999
 53
0.0
 43
11.79999948
 44
145.20000458
 45
0.0
 46
296.47199631
 79
     2
 49
5.92999995
 49
-290.5439949
 53
0.0
 43
17.79999971
 44
145.20000458
 45
0.0
 46
296.47199631
 79
     2
 49
8.89400005
 49
-287.57799149
 53
315.0
 43
26.60000086
 44
145.20000458
 45
296.47290887
 46
-0.0000000000000711
 79
     2
 49
8.385999799999998
 49
-410.8900070199999
 53
270.0
 43
32.5999999
 44
139.3999958
 45
296.47199631
 46
-0.0000000000000545
 79
     2
 49
5.92999995
 49
-290.5439949
 53
225.0
 43
32.5999999
 44
133.40000153
 45
-0.0000000000000533
 46
-296.47290887
 79
     2
 49
8.385999799999998
 49
-410.8900070199999
 53
206.56500244
 43
26.60000086
 44
127.39999771
 45
-296.47335758
 46
-296.47195758
 79
     2
 49
6.629999879999999
 49
-656.3040161099999
 53
180.0
 43
20.79999924
 44
124.60000038
 45
-0.0000000000000363
 46
-296.47199631
 79
     2
 49
11.85799956
 49
-284.61399078
 53
153.43499756
 43
8.79999995
 44
124.60000038
 45
-296.4731053999999
 46
0.00064346
 79
     2
 49
6.629999879999999
 49
-656.3040161099999
 53
206.56500244
 43
275.79999924
 44
142.39999771
 45
-296.47335758
 46
-296.47195758
 79
     2
 49
6.629999879999999
 49
-656.3040161099999
 53
270.0
 43
269.79999542
 44
139.3999958
 45
296.47199631
 46
-0.0000000000000545
 79
     2
 49
5.92999995
 49
-290.5439949
 53
315.0
 43
269.79999542
 44
133.40000153
 45
296.47290887
 46
-0.0000000000000711
 79
     2
 49
4.192000029999999
 49
-415.08201599
 53
333.43490601
 43
272.80000687
 44
130.39999962
 45
296.4731053999999
 46
-0.0011172
 79
     2
 49
6.629999879999999
 49
-656.3040161099999
 53
315.0
 43
278.6000061
 44
127.39999771
 45
296.47290887
 46
-0.0000000000000711
 79
     2
 49
4.192000029999999
 49
-415.08201599
 53
315.0
 43
281.59999847
 44
124.60000038
 45
296.47290887
 46
-0.0000000000000711
 79
     2
 49
8.385999799999998
 49
-410.8900070199999
 53
45.0
 43
0.0
 44
121.59999847
 45
0.0000000000000355
 46
296.47290887
 79
     2
 49
4.192000029999999
 49
-415.08201599
 53
90.0
 43
3.00000012
 44
124.60000038
 45
-296.47199631
 46
0.0000000000000182
 79
     2
 49
5.92999995
 49
-290.5439949
 53
63.43489838
 43
3.00000012
 44
130.39999962
 45
0.00115667
 46
296.4731053999999
 79
     2
 49
6.629999879999999
 49
-656.3040161099999
 53
90.0
 43
6.00000024
 44
136.40000343
 45
-296.47199631
 46
0.0000000000000182
 79
     2
 49
2.96400011
 49
-293.50799561
 53
135.0
 43
6.00000024
 44
139.3999958
 45
-296.47290887
 46
0.0000000000000355
 79
     2
 49
4.192000029999999
 49
-415.08201599
 53
180.0
 43
3.00000012
 44
142.39999771
 45
-0.0000000000000363
 46
-296.47199631
 79
     2
 49
2.96400011
 49
-293.50799561
 53
180.0
 43
296.3999939
 44
142.39999771
 45
-0.0000000000000363
 46
-296.47199631
 79
     2
 49
11.85799956
 49
-284.61399078
 53
0.0
 43
293.6000061000001
 44
160.0
 45
0.0
 46
296.47199631
 79
     2
 49
2.96400011
 49
-293.50799561
 53
0.0
 43
0.0
 44
160.0
 45
0.0
 46
296.47199631
 79
     2
 49
14.8239994
 49
-281.64800644
 53
26.56509972
 43
14.80000019
 44
160.0
 45
296.47285424
 46
296.47246092
 79
     2
 49
6.629999879999999
 49
-656.3040161099999
 53
90.0
 43
20.79999924
 44
162.99999237
 45
-296.47199631
 46
0.0000000000000182
 79
     2
 49
2.96400011
 49
-293.50799561
 53
90.0
 43
20.79999924
 44
166.00000381
 45
-296.47199631
 46
0.0000000000000182
 79
     2
 49
2.96400011
 49
-293.50799561
 53
135.0
 43
20.79999924
 44
168.99999619
 45
-296.47290887
 46
0.0000000000000355
 79
     2
 49
4.192000029999999
 49
-415.08201599
 53
153.43499756
 43
17.79999971
 44
172.00000763
 45
-296.4731053999999
 46
0.00064346
 79
     2
 49
6.629999879999999
 49
-656.3040161099999
 53
180.0
 43
11.79999948
 44
175.0
 45
-0.0000000000000363
 46
-296.47199631
 79
     2
 49
11.85799956
 49
-284.61399078
 53
180.0
 43
296.3999939
 44
175.0
 45
-0.0000000000000363
 46
-296.47199631
 79
     2
 49
2.96400011
 49
-293.50799561
 53
194.03619385
 43
293.6000061000001
 44
175.0
 45
-889.4167208699998
 46
-296.4723532
 79
     2
 49
12.2239995
 49
-1210.16403198
 53
206.56500244
 43
281.59999847
 44
172.00000763
 45
-296.47335758
 46
-296.47195758
 79
     2
 49
6.629999879999999
 49
-656.3040161099999
 53
270.0
 43
275.79999924
 44
168.99999619
 45
296.47199631
 46
-0.0000000000000545
 79
     2
 49
2.96400011
 49
-293.50799561
 53
270.0
 43
275.79999924
 44
166.00000381
 45
296.47199631
 46
-0.0000000000000545
 79
     2
 49
2.96400011
 49
-293.50799561
 53
315.0
 43
275.79999924
 44
162.99999237
 45
296.47290887
 46
-0.0000000000000711
 79
     2
 49
4.192000029999999
 49
-415.08201599
 53
0.0
 43
278.6000061
 44
160.0
 45
0.0
 46
296.47199631
 79
     2
 49
5.92999995
 49
-290.5439949
 53
0.0
 43
284.5999908399999
 44
160.0
 45
0.0
 46
296.47199631
 79
     2
 49
8.89400005
 49
-287.57799149
 53
194.03619385
 43
26.60000086
 44
148.19999695
 45
-889.4167208699998
 46
-296.4723532
 79
     2
 49
12.2239995
 49
-1210.16403198
 53
180.0
 43
14.80000019
 44
145.20000458
 45
-0.0000000000000363
 46
-296.47199631
 79
     2
 49
14.8239994
 49
-281.64800644
 53
194.03619385
 43
296.3999939
 44
145.20000458
 45
-889.4167208699998
 46
-296.4723532
 79
     2
 49
12.2239995
 49
-1210.16403198
 53
180.0
 43
284.5999908399999
 44
142.39999771
 45
-0.0000000000000363
 46
-296.47199631
 79
     2
 49
8.89400005
 49
-287.57799149
 53
153.43499756
 43
275.79999924
 44
142.39999771
 45
-296.4731053999999
 46
0.00064346
 79
     2
 49
6.629999879999999
 49
-656.3040161099999
 53
135.0
 43
269.79999542
 44
145.20000458
 45
-296.47290887
 46
0.0000000000000355
 79
     2
 49
4.192000029999999
 49
-415.08201599
 53
90.0
 43
266.80000305
 44
148.19999695
 45
-296.47199631
 46
0.0000000000000182
 79
     2
 49
2.96400011
 49
-293.50799561
 53
90.0
 43
266.80000305
 44
151.19999886
 45
-296.47199631
 46
0.0000000000000182
 79
     2
 49
2.96400011
 49
-293.50799561
 53
11.30990028
 43
278.6000061
 44
157.20000267
 45
1185.89014473
 46
296.47280949
 79
     2
 49
15.11800051
 49
-1496.60202026
 53
0.0
 43
293.6000061000001
 44
160.0
 45
0.0
 46
296.47199631
 79
     2
 49
2.96400011
 49
-293.50799561
 53
0.0
 43
0.0
 44
160.0
 45
0.0
 46
296.47199631
 79
     2
 49
8.89400005
 49
-287.57799149
 53
0.0
 43
8.79999995
 44
160.0
 45
0.0
 46
296.47199631
 79
     2
 49
11.85799956
 49
-284.61399078
 53
333.43490601
 43
20.79999924
 44
160.0
 45
296.4731053999999
 46
-0.0011172
 79
     2
 49
6.629999879999999
 49
-656.3040161099999
 53
315.0
 43
26.60000086
 44
157.20000267
 45
296.47290887
 46
-0.0000000000000711
 79
     2
 49
4.192000029999999
 49
-415.08201599
 53
270.0
 43
29.60000038
 44
154.20000076
 45
296.47199631
 46
-0.0000000000000545
 79
     2
 49
2.96400011
 49
-293.50799561
 53
225.0
 43
29.60000038
 44
151.19999886
 45
-0.0000000000000533
 46
-296.47290887
 79
     2
 49
4.192000029999999
 49
-415.08201599
 53
333.43490601
 43
23.80000114
 44
189.79999542
 45
296.4731053999999
 46
-0.0011172
 79
     2
 49
6.629999879999999
 49
-656.3040161099999
 53
315.0
 43
29.60000038
 44
186.80000305
 45
296.47290887
 46
-0.0000000000000711
 79
     2
 49
4.192000029999999
 49
-415.08201599
 53
296.56509399
 43
32.5999999
 44
183.79999161
 45
296.47243131
 46
-296.47288385
 79
     2
 49
6.629999879999999
 49
-656.3040161099999
 53
270.0
 43
35.59999943
 44
177.80000687
 45
296.47199631
 46
-0.0000000000000545
 79
     2
 49
5.92999995
 49
-290.5439949
 53
225.0
 43
35.59999943
 44
172.00000763
 45
-0.0000000000000533
 46
-296.47290887
 79
     2
 49
4.192000029999999
 49
-415.08201599
 53
180.0
 43
32.5999999
 44
168.99999619
 45
-0.0000000000000363
 46
-296.47199631
 79
     2
 49
5.92999995
 49
-290.5439949
 53
161.56500244
 43
26.60000086
 44
168.99999619
 45
-296.47174563
 46
0.00087946
 79
     2
 49
9.376000169999999
 49
-928.1539917000001
 53
146.30990601
 43
17.79999971
 44
172.00000763
 45
-592.9449951399999
 46
296.47367579
 79
     2
 49
10.69000006
 49
-1058.25798035
 53
90.0
 43
8.79999995
 44
177.80000687
 45
-296.47199631
 46
0.0000000000000182
 79
     2
 49
2.96400011
 49
-293.50799561
 53
90.0
 43
8.79999995
 44
180.79999924
 45
-296.47199631
 46
0.0000000000000182
 79
     2
 49
5.92999995
 49
-290.5439949
 53
45.0
 43
8.79999995
 44
186.80000305
 45
0.0000000000000355
 46
296.47290887
 79
     2
 49
8.385999799999998
 49
-410.8900070199999
 53
0.0
 43
20.79999924
 44
207.60000229
 45
0.0
 46
296.47199631
 79
     2
 49
11.85799956
 49
-284.61399078
 53
345.9637146
 43
32.5999999
 44
207.60000229
 45
296.47214391
 46
0.00075448
 79
     2
 49
12.2239995
 49
-1210.16403198
 53
326.30990601
 43
44.40000057
 44
204.59999084
 45
592.9449951399999
 46
-296.47367579
 79
     2
 49
10.69000006
 49
-1058.25798035
 53
270.0
 43
53.40000153
 44
198.6000061
 45
296.47199631
 46
-0.0000000000000545
 79
     2
 49
5.92999995
 49
-290.5439949
 53
225.0
 43
53.40000153
 44
192.80000687
 45
-0.0000000000000533
 46
-296.47290887
 79
     2
 49
4.192000029999999
 49
-415.08201599
 53
198.43499756
 43
50.39999962
 44
189.79999542
 45
-592.9451390299999
 46
-296.47225602
 79
     2
 49
9.376000169999999
 49
-928.1539917000001
 53
180.0
 43
41.59999847
 44
186.80000305
 45
-0.0000000000000363
 46
-296.47199631
 79
     2
 49
8.89400005
 49
-287.57799149
 53
161.56500244
 43
32.5999999
 44
186.80000305
 45
-296.47174563
 46
0.00087946
 79
     2
 49
9.376000169999999
 49
-928.1539917000001
 53
161.56500244
 43
23.80000114
 44
189.79999542
 45
-296.47174563
 46
0.00087946
 79
     2
 49
9.376000169999999
 49
-928.1539917000001
 53
135.0
 43
14.80000019
 44
192.80000687
 45
-296.47290887
 46
0.0000000000000355
 79
     2
 49
4.192000029999999
 49
-415.08201599
 53
71.56500244
 43
11.79999948
 44
195.59999466
 45
0.00087946
 46
296.47174563
 79
     2
 49
9.376000169999999
 49
-928.1539917000001
 53
26.56509972
 43
14.80000019
 44
204.59999084
 45
296.47285424
 46
296.47246092
 79
     2
 49
6.629999879999999
 49
-656.3040161099999
 53
26.56509972
 43
172.00000763
 44
6.00000024
 45
296.47285424
 46
296.47246092
 79
     2
 49
6.629999879999999
 49
-656.3040161099999
 53
18.43490028
 43
177.80000687
 44
8.79999995
 45
592.9456423699999
 46
296.47124934
 79
     2
 49
9.376000169999999
 49
-928.1539917000001
 53
0.0
 43
186.80000305
 44
11.79999948
 45
0.0
 46
296.47199631
 79
     2
 49
8.89400005
 49
-287.57799149
 53
345.9637146
 43
195.59999466
 44
11.79999948
 45
296.47214391
 46
0.00075448
 79
     2
 49
12.2239995
 49
-1210.16403198
 53
315.0
 43
207.60000229
 44
8.79999995
 45
296.47290887
 46
-0.0000000000000711
 79
     2
 49
4.192000029999999
 49
-415.08201599
 53
270.0
 43
210.40000916
 44
6.00000024
 45
296.47199631
 46
-0.0000000000000545
 79
     2
 49
2.96400011
 49
-293.50799561
 53
225.0
 43
210.40000916
 44
3.00000012
 45
-0.0000000000000533
 46
-296.47290887
 79
     2
 49
4.192000029999999
 49
-415.08201599
 53
198.43499756
 43
207.60000229
 44
296.3999939
 45
-592.9451390299999
 46
-296.47225602
 79
     2
 49
9.376000169999999
 49
-928.1539917000001
 53
180.0
 43
198.6000061
 44
293.6000061000001
 45
-0.0000000000000363
 46
-296.47199631
 79
     2
 49
8.89400005
 49
-287.57799149
 53
165.96380615
 43
189.79999542
 44
293.6000061000001
 45
-296.47214391
 46
-0.00122822
 79
     2
 49
12.2239995
 49
-1210.16403198
 53
153.43499756
 43
177.80000687
 44
0.0
 45
-296.4731053999999
 46
0.00064346
 79
     2
 49
6.629999879999999
 49
-656.3040161099999
 53
90.0
 43
172.00000763
 44
3.00000012
 45
-296.47199631
 46
0.0000000000000182
 79
     2
 49
2.96400011
 49
-293.50799561
 53
270.0
 43
145.20000458
 44
11.79999948
 45
296.47199631
 46
-0.0000000000000545
 79
     2
 49
2.96400011
 49
-293.50799561
 53
315.0
 43
145.20000458
 44
8.79999995
 45
296.47290887
 46
-0.0000000000000711
 79
     2
 49
8.385999799999998
 49
-410.8900070199999
 53
333.43490601
 43
151.19999886
 44
3.00000012
 45
296.4731053999999
 46
-0.0011172
 79
     2
 49
6.629999879999999
 49
-656.3040161099999
 53
26.56509972
 43
162.99999237
 44
0.0
 45
296.47285424
 46
296.47246092
 79
     2
 49
6.629999879999999
 49
-656.3040161099999
 53
45.0
 43
168.99999619
 44
3.00000012
 45
0.0000000000000355
 46
296.47290887
 79
     2
 49
4.192000029999999
 49
-415.08201599
 53
90.0
 43
172.00000763
 44
6.00000024
 45
-296.47199631
 46
0.0000000000000182
 79
     2
 49
2.96400011
 49
-293.50799561
 53
135.0
 43
172.00000763
 44
8.79999995
 45
-296.47290887
 46
0.0000000000000355
 79
     2
 49
4.192000029999999
 49
-415.08201599
 53
153.43499756
 43
168.99999619
 44
11.79999948
 45
-296.4731053999999
 46
0.00064346
 79
     2
 49
6.629999879999999
 49
-656.3040161099999
 53
180.0
 43
166.00000381
 44
14.80000019
 45
-0.0000000000000363
 46
-296.47199631
 79
     2
 49
11.85799956
 49
-284.61399078
 53
198.43499756
 43
154.20000076
 44
14.80000019
 45
-592.9451390299999
 46
-296.47225602
 79
     2
 49
9.376000169999999
 49
-928.1539917000001
 53
180.0
 43
145.20000458
 44
11.79999948
 45
-0.0000000000000363
 46
-296.47199631
 79
     2
 49
5.92999995
 49
-290.5439949
 53
153.43499756
 43
139.3999958
 44
11.79999948
 45
-296.4731053999999
 46
0.00064346
 79
     2
 49
6.629999879999999
 49
-656.3040161099999
 53
161.56500244
 43
133.40000153
 44
14.80000019
 45
-296.47174563
 46
0.00087946
 79
     2
 49
9.376000169999999
 49
-928.1539917000001
 53
116.56500244
 43
124.60000038
 44
17.79999971
 45
-296.47195758
 46
296.47335758
 79
     2
 49
6.629999879999999
 49
-656.3040161099999
 53
90.0
 43
121.59999847
 44
23.80000114
 45
-296.47199631
 46
0.0000000000000182
 79
     2
 49
5.92999995
 49
-290.5439949
 53
45.0
 43
121.59999847
 44
29.60000038
 45
0.0000000000000355
 46
296.47290887
 79
     2
 49
8.385999799999998
 49
-410.8900070199999
 53
0.0
 43
127.39999771
 44
35.59999943
 45
0.0
 46
296.47199631
 79
     2
 49
5.92999995
 49
-290.5439949
 53
9.4623003
 43
133.40000153
 44
35.59999943
 45
1482.36341412
 46
296.47229169
 79
     2
 49
18.0340004
 49
-1785.33798218
 53
0.0
 43
151.19999886
 44
38.59999895
 45
0.0
 46
296.47199631
 79
     2
 49
8.89400005
 49
-287.57799149
 53
341.56509399
 43
160.0
 44
38.59999895
 45
296.47174563
 46
-0.00040573
 79
     2
 49
9.376000169999999
 49
-928.1539917000001
 53
333.43490601
 43
168.99999619
 44
35.59999943
 45
296.4731053999999
 46
-0.0011172
 79
     2
 49
6.629999879999999
 49
-656.3040161099999
 53
296.56509399
 43
175.0
 44
32.5999999
 45
296.47243131
 46
-296.47288385
 79
     2
 49
6.629999879999999
 49
-656.3040161099999
 53
270.0
 43
177.80000687
 44
26.60000086
 45
296.47199631
 46
-0.0000000000000545
 79
     2
 49
2.96400011
 49
-293.50799561
 53
243.43499756
 43
177.80000687
 44
23.80000114
 45
-0.00064346
 46
-296.4731053999999
 79
     2
 49
6.629999879999999
 49
-656.3040161099999
 53
198.43499756
 43
175.0
 44
17.79999971
 45
-592.9451390299999
 46
-296.47225602
 79
     2
 49
9.376000169999999
 49
-928.1539917000001
 53
180.0
 43
91.99999809000001
 44
41.59999847
 45
-0.0000000000000363
 46
-296.47199631
 79
     2
 49
8.89400005
 49
-287.57799149
 53
165.96380615
 43
83.00000191
 44
41.59999847
 45
-296.47214391
 46
-0.00122822
 79
     2
 49
12.2239995
 49
-1210.16403198
 53
135.0
 43
71.19999885999999
 44
44.40000057
 45
-296.47290887
 46
0.0000000000000355
 79
     2
 49
4.192000029999999
 49
-415.08201599
 53
90.0
 43
68.20000172
 44
47.39999770999999
 45
-296.47199631
 46
0.0000000000000182
 79
     2
 49
2.96400011
 49
-293.50799561
 53
63.43489838
 43
68.20000172
 44
50.39999962
 45
0.00115667
 46
296.4731053999999
 79
     2
 49
6.629999879999999
 49
-656.3040161099999
 53
45.0
 43
71.19999885999999
 44
56.39999866
 45
0.0000000000000355
 46
296.47290887
 79
     2
 49
8.385999799999998
 49
-410.8900070199999
 53
26.56509972
 43
76.99999809000001
 44
62.19999789999999
 45
296.47285424
 46
296.47246092
 79
     2
 49
6.629999879999999
 49
-656.3040161099999
 53
0.0
 43
83.00000191
 44
65.19999980999999
 45
0.0
 46
296.47199631
 79
     2
 49
5.92999995
 49
-290.5439949
 53
315.0
 43
88.99999619
 44
65.19999980999999
 45
296.47290887
 46
-0.0000000000000711
 79
     2
 49
8.385999799999998
 49
-410.8900070199999
 53
288.43490601
 43
94.79999541999999
 44
59.20000076
 45
296.47130856
 46
-592.9456127599999
 79
     2
 49
9.376000169999999
 49
-928.1539917000001
 53
270.0
 43
97.79999733
 44
50.39999962
 45
296.47199631
 46
-0.0000000000000545
 79
     2
 49
5.92999995
 49
-290.5439949
 53
206.56500244
 43
97.79999733
 44
44.40000057
 45
-296.47335758
 46
-296.47195758
 79
     2
 49
6.629999879999999
 49
-656.3040161099999
 53
135.0
 43
97.79999733
 44
115.6000042
 45
-296.47290887
 46
0.0000000000000355
 79
     2
 49
4.192000029999999
 49
-415.08201599
 53
90.0
 43
94.79999541999999
 44
118.59999657
 45
-296.47199631
 46
0.0000000000000182
 79
     2
 49
2.96400011
 49
-293.50799561
 53
63.43489838
 43
94.79999541999999
 44
121.59999847
 45
0.00115667
 46
296.4731053999999
 79
     2
 49
6.629999879999999
 49
-656.3040161099999
 53
63.43489838
 43
97.79999733
 44
127.39999771
 45
0.00115667
 46
296.4731053999999
 79
     2
 49
6.629999879999999
 49
-656.3040161099999
 53
26.56509972
 43
100.79999924
 44
133.40000153
 45
296.47285424
 46
296.47246092
 79
     2
 49
6.629999879999999
 49
-656.3040161099999
 53
341.56509399
 43
106.80000305
 44
136.40000343
 45
296.47174563
 46
-0.00040573
 79
     2
 49
9.376000169999999
 49
-928.1539917000001
 53
315.0
 43
115.6000042
 44
133.40000153
 45
296.47290887
 46
-0.0000000000000711
 79
     2
 49
8.385999799999998
 49
-410.8900070199999
 53
270.0
 43
121.59999847
 44
127.39999771
 45
296.47199631
 46
-0.0000000000000545
 79
     2
 49
5.92999995
 49
-290.5439949
 53
213.69009399
 43
121.59999847
 44
121.59999847
 45
-296.4732464
 46
-296.47241205
 79
     2
 49
10.69000006
 49
-1058.25798035
 53
206.56500244
 43
112.60000229
 44
115.6000042
 45
-296.47335758
 46
-296.47195758
 79
     2
 49
6.629999879999999
 49
-656.3040161099999
 53
116.56500244
 43
56.39999866
 44
106.80000305
 45
-296.47195758
 46
296.47335758
 79
     2
 49
6.629999879999999
 49
-656.3040161099999
 53
135.0
 43
53.40000153
 44
112.60000229
 45
-296.47290887
 46
0.0000000000000355
 79
     2
 49
4.192000029999999
 49
-415.08201599
 53
180.0
 43
50.39999962
 44
115.6000042
 45
-0.0000000000000363
 46
-296.47199631
 79
     2
 49
5.92999995
 49
-290.5439949
 53
206.56500244
 43
44.40000057
 44
115.6000042
 45
-296.47335758
 46
-296.47195758
 79
     2
 49
6.629999879999999
 49
-656.3040161099999
 53
243.43499756
 43
38.59999895
 44
112.60000229
 45
-0.00064346
 46
-296.4731053999999
 79
     2
 49
6.629999879999999
 49
-656.3040161099999
 53
270.0
 43
35.59999943
 44
106.80000305
 45
296.47199631
 46
-0.0000000000000545
 79
     2
 49
5.92999995
 49
-290.5439949
 53
315.0
 43
35.59999943
 44
100.79999924
 45
296.47290887
 46
-0.0000000000000711
 79
     2
 49
4.192000029999999
 49
-415.08201599
 53
333.43490601
 43
38.59999895
 44
97.79999733
 45
296.4731053999999
 46
-0.0011172
 79
     2
 49
6.629999879999999
 49
-656.3040161099999
 53
0.0
 43
44.40000057
 44
94.79999541999999
 45
0.0
 46
296.47199631
 79
     2
 49
5.92999995
 49
-290.5439949
 53
45.0
 43
50.39999962
 44
94.79999541999999
 45
0.0000000000000355
 46
296.47290887
 79
     2
 49
4.192000029999999
 49
-415.08201599
 53
153.43499756
 43
62.19999789999999
 44
88.99999619
 45
-296.4731053999999
 46
0.00064346
 79
     2
 49
6.629999879999999
 49
-656.3040161099999
 53
116.56500244
 43
56.39999866
 44
91.99999809000001
 45
-296.47195758
 46
296.47335758
 79
     2
 49
6.629999879999999
 49
-656.3040161099999
 53
71.56500244
 43
53.40000153
 44
97.79999733
 45
0.00087946
 46
296.47174563
 79
     2
 49
9.376000169999999
 49
-928.1539917000001
 53
45.0
 43
56.39999866
 44
106.80000305
 45
0.0000000000000355
 46
296.47290887
 79
     2
 49
8.385999799999998
 49
-410.8900070199999
 53
0.0
 43
62.19999789999999
 44
112.60000229
 45
0.0
 46
296.47199631
 79
     2
 49
11.85799956
 49
-284.61399078
 53
315.0
 43
74.20000075999999
 44
112.60000229
 45
296.47290887
 46
-0.0000000000000711
 79
     2
 49
8.385999799999998
 49
-410.8900070199999
 53
243.43499756
 43
80.0
 44
106.80000305
 45
-0.00064346
 46
-296.4731053999999
 79
     2
 49
6.629999879999999
 49
-656.3040161099999
 53
225.0
 43
76.99999809000001
 44
100.79999924
 45
-0.0000000000000533
 46
-296.47290887
 79
     2
 49
8.385999799999998
 49
-410.8900070199999
 53
213.69009399
 43
71.19999885999999
 44
94.79999541999999
 45
-296.4732464
 46
-296.47241205
 79
     2
 49
10.69000006
 49
-1058.25798035
 53
146.30990601
 43
80.0
 44
68.20000172
 45
-592.9449951399999
 46
296.47367579
 79
     2
 49
10.69000006
 49
-1058.25798035
 53
108.43499756
 43
71.19999885999999
 44
74.20000075999999
 45
-296.47225602
 46
592.9451390299999
 79
     2
 49
9.376000169999999
 49
-928.1539917000001
 53
71.56500244
 43
68.20000172
 44
83.00000191
 45
0.00087946
 46
296.47174563
 79
     2
 49
9.376000169999999
 49
-928.1539917000001
 53
56.30989838
 43
71.19999885999999
 44
91.99999809000001
 45
296.47375474
 46
592.9449556599999
 79
     2
 49
10.69000006
 49
-1058.25798035
 53
56.30989838
 43
76.99999809000001
 44
100.79999924
 45
296.47375474
 46
592.9449556599999
 79
     2
 49
10.69000006
 49
-1058.25798035
 53
26.56509972
 43
83.00000191
 44
109.60000038
 45
296.47285424
 46
296.47246092
 79
     2
 49
6.629999879999999
 49
-656.3040161099999
 53
18.43490028
 43
88.99999619
 44
112.60000229
 45
592.9456423699999
 46
296.47124934
 79
     2
 49
9.376000169999999
 49
-928.1539917000001
 53
341.56509399
 43
97.79999733
 44
115.6000042
 45
296.47174563
 46
-0.00040573
 79
     2
 49
9.376000169999999
 49
-928.1539917000001
 53
303.69009399
 43
106.80000305
 44
112.60000229
 45
296.47241205
 46
-296.4732464
 79
     2
 49
10.69000006
 49
-1058.25798035
 53
270.0
 43
112.60000229
 44
103.80000114
 45
296.47199631
 46
-0.0000000000000545
 79
     2
 49
8.89400005
 49
-287.57799149
 53
243.43499756
 43
112.60000229
 44
94.79999541999999
 45
-0.00064346
 46
-296.4731053999999
 79
     2
 49
6.629999879999999
 49
-656.3040161099999
 53
231.3401947
 43
109.60000038
 44
88.99999619
 45
-889.4173313199999
 46
-1185.89114968
 79
     2
 49
18.98399949
 49
-1879.36599731
 53
213.69009399
 43
97.79999733
 44
74.20000075999999
 45
-296.4732464
 46
-296.47241205
 79
     2
 49
10.69000006
 49
-1058.25798035
 53
180.0
 43
88.99999619
 44
68.20000172
 45
-0.0000000000000363
 46
-296.47199631
 79
     2
 49
5.92999995
 49
-290.5439949
 53
180.0
 43
83.00000191
 44
68.20000172
 45
-0.0000000000000363
 46
-296.47199631
 79
     2
 49
2.96400011
 49
-293.50799561
 53
0.0
 43
86.00000380999999
 44
142.39999771
 45
0.0
 46
296.47199631
 79
     2
 49
5.92999995
 49
-290.5439949
 53
333.43490601
 43
91.99999809000001
 44
142.39999771
 45
296.4731053999999
 46
-0.0011172
 79
     2
 49
6.629999879999999
 49
-656.3040161099999
 53
296.56509399
 43
97.79999733
 44
139.3999958
 45
296.47243131
 46
-296.47288385
 79
     2
 49
6.629999879999999
 49
-656.3040161099999
 53
243.43499756
 43
100.79999924
 44
133.40000153
 45
-0.00064346
 46
-296.4731053999999
 79
     2
 49
6.629999879999999
 49
-656.3040161099999
 53
236.30990601
 43
97.79999733
 44
127.39999771
 45
-296.47367579
 46
-592.9449951399999
 79
     2
 49
10.69000006
 49
-1058.25798035
 53
213.69009399
 43
91.99999809000001
 44
118.59999657
 45
-296.4732464
 46
-296.47241205
 79
     2
 49
10.69000006
 49
-1058.25798035
 53
180.0
 43
83.00000191
 44
112.60000229
 45
-0.0000000000000363
 46
-296.47199631
 79
     2
 49
11.85799956
 49
-284.61399078
 53
180.0
 43
71.19999885999999
 44
112.60000229
 45
-0.0000000000000363
 46
-296.47199631
 79
     2
 49
8.89400005
 49
-287.57799149
 53
161.56500244
 43
62.19999789999999
 44
112.60000229
 45
-296.47174563
 46
0.00087946
 79
     2
 49
9.376000169999999
 49
-928.1539917000001
 53
180.0
 43
53.40000153
 44
115.6000042
 45
-0.0000000000000363
 46
-296.47199631
 79
     2
 49
11.85799956
 49
-284.61399078
 53
161.56500244
 43
41.59999847
 44
115.6000042
 45
-296.47174563
 46
0.00087946
 79
     2
 49
9.376000169999999
 49
-928.1539917000001
 53
135.0
 43
32.5999999
 44
118.59999657
 45
-296.47290887
 46
0.0000000000000355
 79
     2
 49
4.192000029999999
 49
-415.08201599
 53
90.0
 43
29.60000038
 44
121.59999847
 45
-296.47199631
 46
0.0000000000000182
 79
     2
 49
5.92999995
 49
-290.5439949
 53
63.43489838
 43
29.60000038
 44
127.39999771
 45
0.00115667
 46
296.4731053999999
 79
     2
 49
6.629999879999999
 49
-656.3040161099999
 53
26.56509972
 43
32.5999999
 44
133.40000153
 45
296.47285424
 46
296.47246092
 79
     2
 49
6.629999879999999
 49
-656.3040161099999
 53
8.130100249999999
 43
38.59999895
 44
136.40000343
 45
1778.83466221
 46
296.47284693
 79
     2
 49
20.96400023
 49
-2075.41397095
 53
0.0
 43
59.20000076
 44
139.3999958
 45
0.0
 46
296.47199631
 79
     2
 49
8.89400005
 49
-287.57799149
 53
9.4623003
 43
68.20000172
 44
139.3999958
 45
1482.36341412
 46
296.47229169
 79
     2
 49
18.0340004
 49
-1785.33798218
 53
338.1986084
 43
162.99999237
 44
127.39999771
 45
889.41728701
 46
-296.47162555
 79
     2
 49
15.96600056
 49
-1580.58807373
 53
315.0
 43
177.80000687
 44
121.59999847
 45
296.47290887
 46
-0.0000000000000711
 79
     2
 49
4.192000029999999
 49
-415.08201599
 53
270.0
 43
180.79999924
 44
118.59999657
 45
296.47199631
 46
-0.0000000000000545
 79
     2
 49
2.96400011
 49
-293.50799561
 53
206.56500244
 43
180.79999924
 44
115.6000042
 45
-296.47335758
 46
-296.47195758
 79
     2
 49
6.629999879999999
 49
-656.3040161099999
 53
206.56500244
 43
175.0
 44
112.60000229
 45
-296.47335758
 46
-296.47195758
 79
     2
 49
6.629999879999999
 49
-656.3040161099999
 53
191.30990601
 43
168.99999619
 44
109.60000038
 45
-1185.89011512
 46
-296.47292792
 79
     2
 49
15.11800051
 49
-1496.60202026
 53
194.03619385
 43
154.20000076
 44
106.80000305
 45
-889.4167208699998
 46
-296.4723532
 79
     2
 49
12.2239995
 49
-1210.16403198
 53
191.30990601
 43
142.39999771
 44
103.80000114
 45
-1185.89011512
 46
-296.47292792
 79
     2
 49
15.11800051
 49
-1496.60202026
 53
180.0
 43
127.39999771
 44
100.79999924
 45
-0.0000000000000363
 46
-296.47199631
 79
     2
 49
8.89400005
 49
-287.57799149
 53
153.43499756
 43
118.59999657
 44
100.79999924
 45
-296.4731053999999
 46
0.00064346
 79
     2
 49
6.629999879999999
 49
-656.3040161099999
 53
116.56500244
 43
112.60000229
 44
103.80000114
 45
-296.47195758
 46
296.47335758
 79
     2
 49
6.629999879999999
 49
-656.3040161099999
 53
90.0
 43
109.60000038
 44
109.60000038
 45
-296.47199631
 46
0.0000000000000182
 79
     2
 49
2.96400011
 49
-293.50799561
 53
33.69010162
 43
109.60000038
 44
112.60000229
 45
296.47320692
 46
296.47245153
 79
     2
 49
10.69000006
 49
-1058.25798035
 53
33.69010162
 43
118.59999657
 44
118.59999657
 45
296.47320692
 46
296.47245153
 79
     2
 49
10.69000006
 49
-1058.25798035
 53
26.56509972
 43
127.39999771
 44
124.60000038
 45
296.47285424
 46
296.47246092
 79
     2
 49
6.629999879999999
 49
-656.3040161099999
 53
9.4623003
 43
133.40000153
 44
127.39999771
 45
1482.36341412
 46
296.47229169
 79
     2
 49
18.0340004
 49
-1785.33798218
 53
345.9637146
 43
151.19999886
 44
130.39999962
 45
296.47214391
 46
0.00075448
 79
     2
 49
12.2239995
 49
-1210.16403198
 53
180.0
 43
207.60000229
 44
91.99999809000001
 45
-0.0000000000000363
 46
-296.47199631
 79
     2
 49
2.96400011
 49
-293.50799561
 53
153.43499756
 43
204.59999084
 44
91.99999809000001
 45
-296.4731053999999
 46
0.00064346
 79
     2
 49
6.629999879999999
 49
-656.3040161099999
 53
161.56500244
 43
198.6000061
 44
94.79999541999999
 45
-296.47174563
 46
0.00087946
 79
     2
 49
9.376000169999999
 49
-928.1539917000001
 53
180.0
 43
189.79999542
 44
97.79999733
 45
-0.0000000000000363
 46
-296.47199631
 79
     2
 49
5.92999995
 49
-290.5439949
 53
180.0
 43
183.79999161
 44
97.79999733
 45
-0.0000000000000363
 46
-296.47199631
 79
     2
 49
5.92999995
 49
-290.5439949
 53
153.43499756
 43
177.80000687
 44
97.79999733
 45
-296.4731053999999
 46
0.00064346
 79
     2
 49
6.629999879999999
 49
-656.3040161099999
 53
90.0
 43
172.00000763
 44
100.79999924
 45
-296.47199631
 46
0.0000000000000182
 79
     2
 49
8.89400005
 49
-287.57799149
 53
45.0
 43
172.00000763
 44
109.60000038
 45
0.0000000000000355
 46
296.47290887
 79
     2
 49
4.192000029999999
 49
-415.08201599
 53
0.0
 43
175.0
 44
112.60000229
 45
0.0
 46
296.47199631
 79
     2
 49
8.89400005
 49
-287.57799149
 53
345.9637146
 43
183.79999161
 44
112.60000229
 45
296.47214391
 46
0.00075448
 79
     2
 49
12.2239995
 49
-1210.16403198
 53
333.43490601
 43
195.59999466
 44
109.60000038
 45
296.4731053999999
 46
-0.0011172
 79
     2
 49
13.25799942
 49
-649.67399597
 53
315.0
 43
207.60000229
 44
103.80000114
 45
296.47290887
 46
-0.0000000000000711
 79
     2
 49
4.192000029999999
 49
-415.08201599
 53
270.0
 43
210.40000916
 44
100.79999924
 45
296.47199631
 46
-0.0000000000000545
 79
     2
 49
5.92999995
 49
-290.5439949
 53
225.0
 43
210.40000916
 44
94.79999541999999
 45
-0.0000000000000533
 46
-296.47290887
 79
     2
 49
4.192000029999999
 49
-415.08201599
 53
165.96380615
 43
204.59999084
 44
53.40000153
 45
-296.47214391
 46
-0.00122822
 79
     2
 49
12.2239995
 49
-1210.16403198
 53
180.0
 43
192.80000687
 44
56.39999866
 45
-0.0000000000000363
 46
-296.47199631
 79
     2
 49
5.92999995
 49
-290.5439949
 53
116.56500244
 43
186.80000305
 44
56.39999866
 45
-296.47195758
 46
296.47335758
 79
     2
 49
6.629999879999999
 49
-656.3040161099999
 53
90.0
 43
183.79999161
 44
62.19999789999999
 45
-296.47199631
 46
0.0000000000000182
 79
     2
 49
20.75400114
 49
-275.72000504
 53
108.43499756
 43
183.79999161
 44
83.00000191
 45
-296.47225602
 46
592.9451390299999
 79
     2
 49
9.376000169999999
 49
-928.1539917000001
 53
63.43489838
 43
180.79999924
 44
91.99999809000001
 45
0.00115667
 46
296.4731053999999
 79
     2
 49
6.629999879999999
 49
-656.3040161099999
 53
0.0
 43
183.79999161
 44
97.79999733
 45
0.0
 46
296.47199631
 79
     2
 49
5.92999995
 49
-290.5439949
 53
341.56509399
 43
189.79999542
 44
97.79999733
 45
296.47174563
 46
-0.00040573
 79
     2
 49
9.376000169999999
 49
-928.1539917000001
 53
315.0
 43
198.6000061
 44
94.79999541999999
 45
296.47290887
 46
-0.0000000000000711
 79
     2
 49
12.57799983
 49
-406.69799805
 53
284.0362854
 43
207.60000229
 44
86.00000380999999
 45
296.47377439
 46
-889.4162471299999
 79
     2
 49
12.2239995
 49
-1210.16403198
 53
296.56509399
 43
210.40000916
 44
74.20000075999999
 45
296.47243131
 46
-296.47288385
 79
     2
 49
6.629999879999999
 49
-656.3040161099999
 53
270.0
 43
213.40000153
 44
68.20000172
 45
296.47199631
 46
-0.0000000000000545
 79
     2
 49
5.92999995
 49
-290.5439949
 53
243.43499756
 43
213.40000153
 44
62.19999789999999
 45
-0.00064346
 46
-296.4731053999999
 79
     2
 49
6.629999879999999
 49
-656.3040161099999
 53
206.56500244
 43
210.40000916
 44
56.39999866
 45
-296.47335758
 46
-296.47195758
 79
     2
 49
6.629999879999999
 49
-656.3040161099999
 53
270.0
 43
278.6000061
 44
88.99999619
 45
296.47199631
 46
-0.0000000000000545
 79
     2
 49
8.89400005
 49
-287.57799149
 53
243.43499756
 43
278.6000061
 44
80.0
 45
-0.00064346
 46
-296.4731053999999
 79
     2
 49
6.629999879999999
 49
-656.3040161099999
 53
206.56500244
 43
275.79999924
 44
74.20000075999999
 45
-296.47335758
 46
-296.47195758
 79
     2
 49
6.629999879999999
 49
-656.3040161099999
 53
180.0
 43
269.79999542
 44
71.19999885999999
 45
-0.0000000000000363
 46
-296.47199631
 79
     2
 49
5.92999995
 49
-290.5439949
 53
153.43499756
 43
263.79999161
 44
71.19999885999999
 45
-296.4731053999999
 46
0.00064346
 79
     2
 49
6.629999879999999
 49
-656.3040161099999
 53
135.0
 43
257.99999237
 44
74.20000075999999
 45
-296.47290887
 46
0.0000000000000355
 79
     2
 49
4.192000029999999
 49
-415.08201599
 53
90.0
 43
255.0
 44
76.99999809000001
 45
-296.47199631
 46
0.0000000000000182
 79
     2
 49
5.92999995
 49
-290.5439949
 53
71.56500244
 43
255.0
 44
83.00000191
 45
0.00087946
 46
296.47174563
 79
     2
 49
9.376000169999999
 49
-928.1539917000001
 53
45.0
 43
257.99999237
 44
91.99999809000001
 45
0.0000000000000355
 46
296.47290887
 79
     2
 49
4.192000029999999
 49
-415.08201599
 53
18.43490028
 43
260.79999924
 44
94.79999541999999
 45
592.9456423699999
 46
296.47124934
 79
     2
 49
9.376000169999999
 49
-928.1539917000001
 53
333.43490601
 43
269.79999542
 44
97.79999733
 45
296.4731053999999
 46
-0.0011172
 79
     2
 49
6.629999879999999
 49
-656.3040161099999
 53
296.56509399
 43
275.79999924
 44
94.79999541999999
 45
296.47243131
 46
-296.47288385
 79
     2
 49
6.629999879999999
 49
-656.3040161099999
 53
63.43489838
 43
237.19999313
 44
109.60000038
 45
0.00115667
 46
296.4731053999999
 79
     2
 49
6.629999879999999
 49
-656.3040161099999
 53
45.0
 43
240.20000458
 44
115.6000042
 45
0.0000000000000355
 46
296.47290887
 79
     2
 49
4.192000029999999
 49
-415.08201599
 53
21.80139923
 43
243.19999695
 44
118.59999657
 45
592.9442207000001
 46
296.47253553
 79
     2
 49
15.96600056
 49
-1580.58807373
 53
18.43490028
 43
257.99999237
 44
124.60000038
 45
592.9456423699999
 46
296.47124934
 79
     2
 49
9.376000169999999
 49
-928.1539917000001
 53
0.0
 43
266.80000305
 44
127.39999771
 45
0.0
 46
296.47199631
 79
     2
 49
8.89400005
 49
-287.57799149
 53
333.43490601
 43
275.79999924
 44
127.39999771
 45
296.4731053999999
 46
-0.0011172
 79
     2
 49
6.629999879999999
 49
-656.3040161099999
 53
296.56509399
 43
281.59999847
 44
124.60000038
 45
296.47243131
 46
-296.47288385
 79
     2
 49
6.629999879999999
 49
-656.3040161099999
 53
270.0
 43
284.5999908399999
 44
118.59999657
 45
296.47199631
 46
-0.0000000000000545
 79
     2
 49
5.92999995
 49
-290.5439949
 53
243.43499756
 43
284.5999908399999
 44
112.60000229
 45
-0.00064346
 46
-296.4731053999999
 79
     2
 49
6.629999879999999
 49
-656.3040161099999
 53
225.0
 43
281.59999847
 44
106.80000305
 45
-0.0000000000000533
 46
-296.47290887
 79
     2
 49
4.192000029999999
 49
-415.08201599
 53
213.69009399
 43
278.6000061
 44
103.80000114
 45
-296.4732464
 46
-296.47241205
 79
     2
 49
10.69000006
 49
-1058.25798035
 53
194.03619385
 43
269.79999542
 44
97.79999733
 45
-889.4167208699998
 46
-296.4723532
 79
     2
 49
12.2239995
 49
-1210.16403198
 53
180.0
 43
257.99999237
 44
94.79999541999999
 45
-0.0000000000000363
 46
-296.47199631
 79
     2
 49
5.92999995
 49
-290.5439949
 53
153.43499756
 43
252.00000763
 44
94.79999541999999
 45
-296.4731053999999
 46
0.00064346
 79
     2
 49
13.25799942
 49
-649.67399597
 53
116.56500244
 43
240.20000458
 44
100.79999924
 45
-296.47195758
 46
296.47335758
 79
     2
 49
6.629999879999999
 49
-656.3040161099999
 53
90.0
 43
237.19999313
 44
106.80000305
 45
-296.47199631
 46
0.0000000000000182
 79
     2
 49
2.96400011
 49
-293.50799561
 53
180.0
 43
293.6000061000001
 44
38.59999895
 45
-0.0000000000000363
 46
-296.47199631
 79
     2
 49
8.89400005
 49
-287.57799149
 53
135.0
 43
284.5999908399999
 44
38.59999895
 45
-296.47290887
 46
0.0000000000000355
 79
     2
 49
8.385999799999998
 49
-410.8900070199999
 53
90.0
 43
278.6000061
 44
44.40000057
 45
-296.47199631
 46
0.0000000000000182
 79
     2
 49
8.89400005
 49
-287.57799149
 53
45.0
 43
278.6000061
 44
53.40000153
 45
0.0000000000000355
 46
296.47290887
 79
     2
 49
8.385999799999998
 49
-410.8900070199999
 53
18.43490028
 43
284.5999908399999
 44
59.20000076
 45
592.9456423699999
 46
296.47124934
 79
     2
 49
9.376000169999999
 49
-928.1539917000001
 53
0.0
 43
293.6000061000001
 44
62.19999789999999
 45
0.0
 46
296.47199631
 79
     2
 49
2.96400011
 49
-293.50799561
 53
0.0
 43
0.0
 44
62.19999789999999
 45
0.0
 46
296.47199631
 79
     2
 49
5.92999995
 49
-290.5439949
 53
341.56509399
 43
6.00000024
 44
62.19999789999999
 45
296.47174563
 46
-0.00040573
 79
     2
 49
9.376000169999999
 49
-928.1539917000001
 53
315.0
 43
14.80000019
 44
59.20000076
 45
296.47290887
 46
-0.0000000000000711
 79
     2
 49
8.385999799999998
 49
-410.8900070199999
 53
296.56509399
 43
20.79999924
 44
53.40000153
 45
296.47243131
 46
-296.47288385
 79
     2
 49
6.629999879999999
 49
-656.3040161099999
 53
225.0
 43
23.80000114
 44
47.39999770999999
 45
-0.0000000000000533
 46
-296.47290887
 79
     2
 49
8.385999799999998
 49
-410.8900070199999
 53
194.03619385
 43
17.79999971
 44
41.59999847
 45
-889.4167208699998
 46
-296.4723532
 79
     2
 49
12.2239995
 49
-1210.16403198
 53
180.0
 43
6.00000024
 44
38.59999895
 45
-0.0000000000000363
 46
-296.47199631
 79
     2
 49
5.92999995
 49
-290.5439949
 53
180.0
 43
296.3999939
 44
38.59999895
 45
-0.0000000000000363
 46
-296.47199631
 79
     2
 49
2.96400011
 49
-293.50799561
 53
135.0
 43
272.80000687
 44
17.79999971
 45
-296.47290887
 46
0.0000000000000355
 79
     2
 49
4.192000029999999
 49
-415.08201599
 53
135.0
 43
269.79999542
 44
20.79999924
 45
-296.47290887
 46
0.0000000000000355
 79
     2
 49
4.192000029999999
 49
-415.08201599
 53
135.0
 43
266.80000305
 44
23.80000114
 45
-296.47290887
 46
0.0000000000000355
 79
     2
 49
4.192000029999999
 49
-415.08201599
 53
116.56500244
 43
263.79999161
 44
26.60000086
 45
-296.47195758
 46
296.47335758
 79
     2
 49
6.629999879999999
 49
-656.3040161099999
 53
90.0
 43
260.79999924
 44
32.5999999
 45
-296.47199631
 46
0.0000000000000182
 79
     2
 49
5.92999995
 49
-290.5439949
 53
45.0
 43
260.79999924
 44
38.59999895
 45
0.0000000000000355
 46
296.47290887
 79
     2
 49
8.385999799999998
 49
-410.8900070199999
 53
0.0
 43
266.80000305
 44
44.40000057
 45
0.0
 46
296.47199631
 79
     2
 49
11.85799956
 49
-284.61399078
 53
315.0
 43
278.6000061
 44
44.40000057
 45
296.47290887
 46
-0.0000000000000711
 79
     2
 49
8.385999799999998
 49
-410.8900070199999
 53
0.0
 43
284.5999908399999
 44
38.59999895
 45
0.0
 46
296.47199631
 79
     2
 49
8.89400005
 49
-287.57799149
 53
333.43490601
 43
0.0
 44
38.59999895
 45
296.4731053999999
 46
-0.0011172
 79
     2
 49
6.629999879999999
 49
-656.3040161099999
 53
0.0
 43
293.6000061000001
 44
38.59999895
 45
0.0
 46
296.47199631
 79
     2
 49
2.96400011
 49
-293.50799561
 53
270.0
 43
6.00000024
 44
35.59999943
 45
296.47199631
 46
-0.0000000000000545
 79
     2
 49
5.92999995
 49
-290.5439949
 53
243.43499756
 43
6.00000024
 44
29.60000038
 45
-0.00064346
 46
-296.4731053999999
 79
     2
 49
6.629999879999999
 49
-656.3040161099999
 53
180.0
 43
3.00000012
 44
23.80000114
 45
-0.0000000000000363
 46
-296.47199631
 79
     2
 49
2.96400011
 49
-293.50799561
 53
180.0
 43
296.3999939
 44
23.80000114
 45
-0.0000000000000363
 46
-296.47199631
 79
     2
 49
2.96400011
 49
-293.50799561
 53
198.43499756
 43
293.6000061000001
 44
23.80000114
 45
-592.9451390299999
 46
-296.47225602
 79
     2
 49
9.376000169999999
 49
-928.1539917000001
 53
206.56500244
 43
284.5999908399999
 44
20.79999924
 45
-296.47335758
 46
-296.47195758
 79
     2
 49
6.629999879999999
 49
-656.3040161099999
 53
180.0
 43
278.6000061
 44
17.79999971
 45
-0.0000000000000363
 46
-296.47199631
 79
     2
 49
5.92999995
 49
-290.5439949
 53
33.69010162
 43
222.39999771
 44
26.60000086
 45
296.47320692
 46
296.47245153
 79
     2
 49
10.69000006
 49
-1058.25798035
 53
0.0
 43
231.20000839
 44
32.5999999
 45
0.0
 46
296.47199631
 79
     2
 49
5.92999995
 49
-290.5439949
 53
341.56509399
 43
237.19999313
 44
32.5999999
 45
296.47174563
 46
-0.00040573
 79
     2
 49
9.376000169999999
 49
-928.1539917000001
 53
0.0
 43
246.00000381
 44
29.60000038
 45
0.0
 46
296.47199631
 79
     2
 49
8.89400005
 49
-287.57799149
 53
333.43490601
 43
255.0
 44
29.60000038
 45
296.4731053999999
 46
-0.0011172
 79
     2
 49
6.629999879999999
 49
-656.3040161099999
 53
326.30990601
 43
260.79999924
 44
26.60000086
 45
592.9449951399999
 46
-296.47367579
 79
     2
 49
10.69000006
 49
-1058.25798035
 53
315.0
 43
269.79999542
 44
20.79999924
 45
296.47290887
 46
-0.0000000000000711
 79
     2
 49
4.192000029999999
 49
-415.08201599
 53
270.0
 43
272.80000687
 44
17.79999971
 45
296.47199631
 46
-0.0000000000000545
 79
     2
 49
5.92999995
 49
-290.5439949
 53
243.43499756
 43
272.80000687
 44
11.79999948
 45
-0.00064346
 46
-296.4731053999999
 79
     2
 49
6.629999879999999
 49
-656.3040161099999
 53
206.56500244
 43
269.79999542
 44
6.00000024
 45
-296.47335758
 46
-296.47195758
 79
     2
 49
6.629999879999999
 49
-656.3040161099999
 53
161.56500244
 43
263.79999161
 44
3.00000012
 45
-296.47174563
 46
0.00087946
 79
     2
 49
9.376000169999999
 49
-928.1539917000001
 53
153.43499756
 43
255.0
 44
6.00000024
 45
-296.4731053999999
 46
0.00064346
 79
     2
 49
6.629999879999999
 49
-656.3040161099999
 53
161.56500244
 43
248.99999619
 44
8.79999995
 45
-296.47174563
 46
0.00087946
 79
     2
 49
9.376000169999999
 49
-928.1539917000001
 53
180.0
 43
240.20000458
 44
11.79999948
 45
-0.0000000000000363
 46
-296.47199631
 79
     2
 49
8.89400005
 49
-287.57799149
 53
146.30990601
 43
231.20000839
 44
11.79999948
 45
-592.9449951399999
 46
296.47367579
 79
     2
 49
10.69000006
 49
-1058.25798035
 53
90.0
 43
222.39999771
 44
17.79999971
 45
-296.47199631
 46
0.0000000000000182
 79
     2
 49
8.89400005
 49
-287.57799149
 53
18.43490028
 43
198.6000061
 44
11.79999948
 45
592.9456423699999
 46
296.47124934
 79
     2
 49
9.376000169999999
 49
-928.1539917000001
 53
0.0
 43
207.60000229
 44
14.80000019
 45
0.0
 46
296.47199631
 79
     2
 49
5.92999995
 49
-290.5439949
 53
45.0
 43
213.40000153
 44
14.80000019
 45
0.0000000000000355
 46
296.47290887
 79
     2
 49
8.385999799999998
 49
-410.8900070199999
 53
63.43489838
 43
219.40000534
 44
20.79999924
 45
0.00115667
 46
296.4731053999999
 79
     2
 49
6.629999879999999
 49
-656.3040161099999
 53
90.0
 43
222.39999771
 44
26.60000086
 45
-296.47199631
 46
0.0000000000000182
 79
     2
 49
2.96400011
 49
-293.50799561
 53
108.43499756
 43
222.39999771
 44
29.60000038
 45
-296.47225602
 46
592.9451390299999
 79
     2
 49
9.376000169999999
 49
-928.1539917000001
 53
135.0
 43
219.40000534
 44
38.59999895
 45
-296.47290887
 46
0.0000000000000355
 79
     2
 49
12.57799983
 49
-406.69799805
 53
135.0
 43
210.40000916
 44
47.39999770999999
 45
-296.47290887
 46
0.0000000000000355
 79
     2
 49
8.385999799999998
 49
-410.8900070199999
 53
165.96380615
 43
204.59999084
 44
53.40000153
 45
-296.47214391
 46
-0.00122822
 79
     2
 49
12.2239995
 49
-1210.16403198
 53
180.0
 43
192.80000687
 44
56.39999866
 45
-0.0000000000000363
 46
-296.47199631
 79
     2
 49
5.92999995
 49
-290.5439949
 53
225.0
 43
186.80000305
 44
56.39999866
 45
-0.0000000000000533
 46
-296.47290887
 79
     2
 49
8.385999799999998
 49
-410.8900070199999
 53
243.43499756
 43
180.79999924
 44
50.39999962
 45
-0.00064346
 46
-296.4731053999999
 79
     2
 49
6.629999879999999
 49
-656.3040161099999
 53
270.0
 43
177.80000687
 44
44.40000057
 45
296.47199631
 46
-0.0000000000000545
 79
     2
 49
8.89400005
 49
-287.57799149
 53
270.0
 43
177.80000687
 44
35.59999943
 45
296.47199631
 46
-0.0000000000000545
 79
     2
 49
11.85799956
 49
-284.61399078
 53
288.43490601
 43
177.80000687
 44
23.80000114
 45
296.47130856
 46
-592.9456127599999
 79
     2
 49
9.376000169999999
 49
-928.1539917000001
 53
333.43490601
 43
180.79999924
 44
14.80000019
 45
296.4731053999999
 46
-0.0011172
 79
     2
 49
6.629999879999999
 49
-656.3040161099999
 53
0.0
 43
186.80000305
 44
11.79999948
 45
0.0
 46
296.47199631
 79
     2
 49
11.85799956
 49
-284.61399078
 53
251.56500244
 43
35.59999943
 44
26.60000086
 45
-0.00087946
 46
-296.47174563
 79
     2
 49
9.376000169999999
 49
-928.1539917000001
 53
180.0
 43
32.5999999
 44
17.79999971
 45
-0.0000000000000363
 46
-296.47199631
 79
     2
 49
5.92999995
 49
-290.5439949
 53
161.56500244
 43
26.60000086
 44
17.79999971
 45
-296.47174563
 46
0.00087946
 79
     2
 49
9.376000169999999
 49
-928.1539917000001
 53
153.43499756
 43
17.79999971
 44
20.79999924
 45
-296.4731053999999
 46
0.00064346
 79
     2
 49
6.629999879999999
 49
-656.3040161099999
 53
135.0
 43
11.79999948
 44
23.80000114
 45
-296.47290887
 46
0.0000000000000355
 79
     2
 49
4.192000029999999
 49
-415.08201599
 53
116.56500244
 43
8.79999995
 44
26.60000086
 45
-296.47195758
 46
296.47335758
 79
     2
 49
6.629999879999999
 49
-656.3040161099999
 53
63.43489838
 43
6.00000024
 44
32.5999999
 45
0.00115667
 46
296.4731053999999
 79
     2
 49
6.629999879999999
 49
-656.3040161099999
 53
26.56509972
 43
8.79999995
 44
38.59999895
 45
296.47285424
 46
296.47246092
 79
     2
 49
6.629999879999999
 49
-656.3040161099999
 53
0.0
 43
14.80000019
 44
41.59999847
 45
0.0
 46
296.47199631
 79
     2
 49
5.92999995
 49
-290.5439949
 53
333.43490601
 43
20.79999924
 44
41.59999847
 45
296.4731053999999
 46
-0.0011172
 79
     2
 49
13.25799942
 49
-649.67399597
 53
288.43490601
 43
32.5999999
 44
35.59999943
 45
296.47130856
 46
-592.9456127599999
 79
     2
 49
9.376000169999999
 49
-928.1539917000001
 53
75.96379852
 43
35.59999943
 44
23.80000114
 45
-0.00118874
 46
296.47214391
 79
     2
 49
12.2239995
 49
-1210.16403198
 53
63.43489838
 43
38.59999895
 44
35.59999943
 45
0.00115667
 46
296.4731053999999
 79
     2
 49
6.629999879999999
 49
-656.3040161099999
 53
14.03619957
 43
41.59999847
 44
41.59999847
 45
889.4166912599999
 46
296.47244202
 79
     2
 49
12.2239995
 49
-1210.16403198
 53
341.56509399
 43
53.40000153
 44
44.40000057
 45
296.47174563
 46
-0.00040573
 79
     2
 49
9.376000169999999
 49
-928.1539917000001
 53
296.56509399
 43
62.19999789999999
 44
41.59999847
 45
296.47243131
 46
-296.47288385
 79
     2
 49
6.629999879999999
 49
-656.3040161099999
 53
281.30990601
 43
65.19999980999999
 44
35.59999943
 45
296.47292792
 46
-1185.89011512
 79
     2
 49
15.11800051
 49
-1496.60202026
 53
281.30990601
 43
68.20000172
 44
20.79999924
 45
296.47292792
 46
-1185.89011512
 79
     2
 49
15.11800051
 49
-1496.60202026
 53
270.0
 43
71.19999885999999
 44
6.00000024
 45
296.47199631
 46
-0.0000000000000545
 79
     2
 49
5.92999995
 49
-290.5439949
 53
270.0
 43
71.19999885999999
 44
296.3999939
 45
296.47199631
 46
-0.0000000000000545
 79
     2
 49
5.92999995
 49
-290.5439949
 53
243.43499756
 43
71.19999885999999
 44
290.59999466
 45
-0.00064346
 46
-296.4731053999999
 79
     2
 49
6.629999879999999
 49
-656.3040161099999
 53
198.43499756
 43
68.20000172
 44
284.5999908399999
 45
-592.9451390299999
 46
-296.47225602
 79
     2
 49
9.376000169999999
 49
-928.1539917000001
 53
180.0
 43
59.20000076
 44
281.59999847
 45
-0.0000000000000363
 46
-296.47199631
 79
     2
 49
17.78800011
 49
-278.68400574
 53
161.56500244
 43
41.59999847
 44
281.59999847
 45
-296.47174563
 46
0.00087946
 79
     2
 49
9.376000169999999
 49
-928.1539917000001
 53
116.56500244
 43
32.5999999
 44
284.5999908399999
 45
-296.47195758
 46
296.47335758
 79
     2
 49
6.629999879999999
 49
-656.3040161099999
 53
90.0
 43
29.60000038
 44
290.59999466
 45
-296.47199631
 46
0.0000000000000182
 79
     2
 49
5.92999995
 49
-290.5439949
 53
75.96379852
 43
29.60000038
 44
0.0
 45
-0.00118874
 46
296.47214391
 79
     2
 49
12.2239995
 49
-1210.16403198
 53
75.96379852
 43
32.5999999
 44
11.79999948
 45
-0.00118874
 46
296.47214391
 79
     2
 49
12.2239995
 49
-1210.16403198
 53
26.56509972
 43
284.5999908399999
 44
17.79999971
 45
296.47285424
 46
296.47246092
 79
     2
 49
13.25799942
 49
-649.67399597
 53
0.0
 43
0.0
 44
23.80000114
 45
0.0
 46
296.47199631
 79
     2
 49
5.92999995
 49
-290.5439949
 53
341.56509399
 43
6.00000024
 44
23.80000114
 45
296.47174563
 46
-0.00040573
 79
     2
 49
9.376000169999999
 49
-928.1539917000001
 53
341.56509399
 43
14.80000019
 44
20.79999924
 45
296.47174563
 46
-0.00040573
 79
     2
 49
9.376000169999999
 49
-928.1539917000001
 53
315.0
 43
23.80000114
 44
17.79999971
 45
296.47290887
 46
-0.0000000000000711
 79
     2
 49
8.385999799999998
 49
-410.8900070199999
 53
270.0
 43
29.60000038
 44
11.79999948
 45
296.47199631
 46
-0.0000000000000545
 79
     2
 49
8.89400005
 49
-287.57799149
 53
270.0
 43
29.60000038
 44
3.00000012
 45
296.47199631
 46
-0.0000000000000545
 79
     2
 49
2.96400011
 49
-293.50799561
 53
270.0
 43
29.60000038
 44
296.3999939
 45
296.47199631
 46
-0.0000000000000545
 79
     2
 49
8.89400005
 49
-287.57799149
 53
258.69009399
 43
29.60000038
 44
287.60000229
 45
0.00092342
 46
-296.47346827
 79
     2
 49
15.11800051
 49
-1496.60202026
 53
198.43499756
 43
26.60000086
 44
272.80000687
 45
-592.9451390299999
 46
-296.47225602
 79
     2
 49
9.376000169999999
 49
-928.1539917000001
 53
180.0
 43
17.79999971
 44
269.79999542
 45
-0.0000000000000363
 46
-296.47199631
 79
     2
 49
14.8239994
 49
-281.64800644
 53
180.0
 43
3.00000012
 44
269.79999542
 45
-0.0000000000000363
 46
-296.47199631
 79
     2
 49
2.96400011
 49
-293.50799561
 53
206.56500244
 43
296.3999939
 44
269.79999542
 45
-296.47335758
 46
-296.47195758
 79
     2
 49
6.629999879999999
 49
-656.3040161099999
 53
180.0
 43
290.59999466
 44
266.80000305
 45
-0.0000000000000363
 46
-296.47199631
 79
     2
 49
5.92999995
 49
-290.5439949
 53
146.30990601
 43
284.5999908399999
 44
266.80000305
 45
-592.9449951399999
 46
296.47367579
 79
     2
 49
10.69000006
 49
-1058.25798035
 53
116.56500244
 43
275.79999924
 44
272.80000687
 45
-296.47195758
 46
296.47335758
 79
     2
 49
6.629999879999999
 49
-656.3040161099999
 53
108.43499756
 43
272.80000687
 44
278.6000061
 45
-296.47225602
 46
592.9451390299999
 79
     2
 49
9.376000169999999
 49
-928.1539917000001
 53
90.0
 43
269.79999542
 44
287.60000229
 45
-296.47199631
 46
0.0000000000000182
 79
     2
 49
5.92999995
 49
-290.5439949
 53
71.56500244
 43
272.80000687
 44
0.0
 45
0.00087946
 46
296.47174563
 79
     2
 49
9.376000169999999
 49
-928.1539917000001
 53
45.0
 43
269.79999542
 44
293.6000061000001
 45
0.0000000000000355
 46
296.47290887
 79
     2
 49
4.192000029999999
 49
-415.08201599
 53
45.0
 43
275.79999924
 44
8.79999995
 45
0.0000000000000355
 46
296.47290887
 79
     2
 49
12.57799983
 49
-406.69799805
 53
165.96380615
 43
175.0
 44
124.60000038
 45
-296.47214391
 46
-0.00122822
 79
     2
 49
12.2239995
 49
-1210.16403198
 53
161.56500244
 43
162.99999237
 44
127.39999771
 45
-296.47174563
 46
0.00087946
 79
     2
 49
9.376000169999999
 49
-928.1539917000001
 53
116.56500244
 43
154.20000076
 44
130.39999962
 45
-296.47195758
 46
296.47335758
 79
     2
 49
6.629999879999999
 49
-656.3040161099999
 53
45.0
 43
151.19999886
 44
136.40000343
 45
0.0000000000000355
 46
296.47290887
 79
     2
 49
8.385999799999998
 49
-410.8900070199999
 53
345.9637146
 43
157.20000267
 44
142.39999771
 45
296.47214391
 46
0.00075448
 79
     2
 49
12.2239995
 49
-1210.16403198
 53
333.43490601
 43
168.99999619
 44
139.3999958
 45
296.4731053999999
 46
-0.0011172
 79
     2
 49
13.25799942
 49
-649.67399597
 53
270.0
 43
180.79999924
 44
133.40000153
 45
296.47199631
 46
-0.0000000000000545
 79
     2
 49
5.92999995
 49
-290.5439949
 53
206.56500244
 43
180.79999924
 44
127.39999771
 45
-296.47335758
 46
-296.47195758
 79
     2
 49
6.629999879999999
 49
-656.3040161099999
 53
165.96380615
 43
168.99999619
 44
139.3999958
 45
-296.47214391
 46
-0.00122822
 79
     2
 49
12.2239995
 49
-1210.16403198
 53
90.0
 43
157.20000267
 44
142.39999771
 45
-296.47199631
 46
0.0000000000000182
 79
     2
 49
5.92999995
 49
-290.5439949
 53
45.0
 43
157.20000267
 44
148.19999695
 45
0.0000000000000355
 46
296.47290887
 79
     2
 49
4.192000029999999
 49
-415.08201599
 53
18.43490028
 43
160.0
 44
151.19999886
 45
592.9456423699999
 46
296.47124934
 79
     2
 49
9.376000169999999
 49
-928.1539917000001
 53
345.9637146
 43
168.99999619
 44
154.20000076
 45
296.47214391
 46
0.00075448
 79
     2
 49
12.2239995
 49
-1210.16403198
 53
345.9637146
 43
180.79999924
 44
151.19999886
 45
296.47214391
 46
0.00075448
 79
     2
 49
12.2239995
 49
-1210.16403198
 53
270.0
 43
192.80000687
 44
148.19999695
 45
296.47199631
 46
-0.0000000000000545
 79
     2
 49
5.92999995
 49
-290.5439949
 53
213.69009399
 43
192.80000687
 44
142.39999771
 45
-296.4732464
 46
-296.47241205
 79
     2
 49
10.69000006
 49
-1058.25798035
 53
168.69009399
 43
183.79999161
 44
136.40000343
 45
-296.47346827
 46
-0.00092342
 79
     2
 49
15.11800051
 49
-1496.60202026
 53
11.30990028
 43
172.00000763
 44
160.0
 45
1185.89014473
 46
296.47280949
 79
     2
 49
15.11800051
 49
-1496.60202026
 53
0.0
 43
186.80000305
 44
162.99999237
 45
0.0
 46
296.47199631
 79
     2
 49
14.8239994
 49
-281.64800644
 53
341.56509399
 43
201.59999847
 44
162.99999237
 45
296.47174563
 46
-0.00040573
 79
     2
 49
9.376000169999999
 49
-928.1539917000001
 53
270.0
 43
210.40000916
 44
160.0
 45
296.47199631
 46
-0.0000000000000545
 79
     2
 49
5.92999995
 49
-290.5439949
 53
206.56500244
 43
210.40000916
 44
154.20000076
 45
-296.47335758
 46
-296.47195758
 79
     2
 49
13.25799942
 49
-649.67399597
 53
180.0
 43
198.6000061
 44
148.19999695
 45
-0.0000000000000363
 46
-296.47199631
 79
     2
 49
5.92999995
 49
-290.5439949
 53
165.96380615
 43
192.80000687
 44
148.19999695
 45
-296.47214391
 46
-0.00122822
 79
     2
 49
12.2239995
 49
-1210.16403198
 53
161.56500244
 43
180.79999924
 44
151.19999886
 45
-296.47174563
 46
0.00087946
 79
     2
 49
9.376000169999999
 49
-928.1539917000001
 53
90.0
 43
172.00000763
 44
154.20000076
 45
-296.47199631
 46
0.0000000000000182
 79
     2
 49
2.96400011
 49
-293.50799561
 53
90.0
 43
172.00000763
 44
157.20000267
 45
-296.47199631
 46
0.0000000000000182
 79
     2
 49
2.96400011
 49
-293.50799561
 53
243.43499756
 43
148.19999695
 44
166.00000381
 45
-0.00064346
 46
-296.4731053999999
 79
     2
 49
6.629999879999999
 49
-656.3040161099999
 53
315.0
 43
145.20000458
 44
160.0
 45
296.47290887
 46
-0.0000000000000711
 79
     2
 49
8.385999799999998
 49
-410.8900070199999
 53
341.56509399
 43
151.19999886
 44
154.20000076
 45
296.47174563
 46
-0.00040573
 79
     2
 49
9.376000169999999
 49
-928.1539917000001
 53
18.43490028
 43
160.0
 44
151.19999886
 45
592.9456423699999
 46
296.47124934
 79
     2
 49
9.376000169999999
 49
-928.1539917000001
 53
45.0
 43
168.99999619
 44
154.20000076
 45
0.0000000000000355
 46
296.47290887
 79
     2
 49
4.192000029999999
 49
-415.08201599
 53
116.56500244
 43
172.00000763
 44
157.20000267
 45
-296.47195758
 46
296.47335758
 79
     2
 49
6.629999879999999
 49
-656.3040161099999
 53
45.0
 43
121.59999847
 44
180.79999924
 45
0.0000000000000355
 46
296.47290887
 79
     2
 49
8.385999799999998
 49
-410.8900070199999
 53
18.43490028
 43
127.39999771
 44
186.80000305
 45
592.9456423699999
 46
296.47124934
 79
     2
 49
9.376000169999999
 49
-928.1539917000001
 53
354.80560303
 43
136.40000343
 44
189.79999542
 45
296.47161493
 46
0.00088987
 79
     2
 49
32.74600029
 49
-3241.90002441
 53
350.53768921
 43
168.99999619
 44
186.80000305
 45
296.47186526
 46
0.00038989
 79
     2
 49
18.0340004
 49
-1785.33798218
 53
341.56509399
 43
186.80000305
 44
183.79999161
 45
296.47174563
 46
-0.00040573
 79
     2
 49
9.376000169999999
 49
-928.1539917000001
 53
315.0
 43
195.59999466
 44
180.79999924
 45
296.47290887
 46
-0.0000000000000711
 79
     2
 49
4.192000029999999
 49
-415.08201599
 53
270.0
 43
198.6000061
 44
177.80000687
 45
296.47199631
 46
-0.0000000000000545
 79
     2
 49
8.89400005
 49
-287.57799149
 53
225.0
 43
198.6000061
 44
168.99999619
 45
-0.0000000000000533
 46
-296.47290887
 79
     2
 49
4.192000029999999
 49
-415.08201599
 53
198.43499756
 43
195.59999466
 44
166.00000381
 45
-592.9451390299999
 46
-296.47225602
 79
     2
 49
9.376000169999999
 49
-928.1539917000001
 53
180.0
 43
186.80000305
 44
162.99999237
 45
-0.0000000000000363
 46
-296.47199631
 79
     2
 49
14.8239994
 49
-281.64800644
 53
168.69009399
 43
172.00000763
 44
162.99999237
 45
-296.47346827
 46
-0.00092342
 79
     2
 49
15.11800051
 49
-1496.60202026
 53
180.0
 43
157.20000267
 44
166.00000381
 45
-0.0000000000000363
 46
-296.47199631
 79
     2
 49
17.78800011
 49
-278.68400574
 53
165.96380615
 43
139.3999958
 44
166.00000381
 45
-296.47214391
 46
-0.00122822
 79
     2
 49
12.2239995
 49
-1210.16403198
 53
135.0
 43
127.39999771
 44
168.99999619
 45
-296.47290887
 46
0.0000000000000355
 79
     2
 49
8.385999799999998
 49
-410.8900070199999
 53
153.43499756
 43
216.3999939
 44
183.79999161
 45
-296.4731053999999
 46
0.00064346
 79
     2
 49
6.629999879999999
 49
-656.3040161099999
 53
198.43499756
 43
210.40000916
 44
186.80000305
 45
-592.9451390299999
 46
-296.47225602
 79
     2
 49
9.376000169999999
 49
-928.1539917000001
 53
243.43499756
 43
201.59999847
 44
183.79999161
 45
-0.00064346
 46
-296.4731053999999
 79
     2
 49
6.629999879999999
 49
-656.3040161099999
 53
270.0
 43
198.6000061
 44
177.80000687
 45
296.47199631
 46
-0.0000000000000545
 79
     2
 49
5.92999995
 49
-290.5439949
 53
288.43490601
 43
198.6000061
 44
172.00000763
 45
296.47130856
 46
-592.9456127599999
 79
     2
 49
9.376000169999999
 49
-928.1539917000001
 53
341.56509399
 43
201.59999847
 44
162.99999237
 45
296.47174563
 46
-0.00040573
 79
     2
 49
9.376000169999999
 49
-928.1539917000001
 53
26.56509972
 43
210.40000916
 44
160.0
 45
296.47285424
 46
296.47246092
 79
     2
 49
6.629999879999999
 49
-656.3040161099999
 53
45.0
 43
216.3999939
 44
162.99999237
 45
0.0000000000000355
 46
296.47290887
 79
     2
 49
8.385999799999998
 49
-410.8900070199999
 53
90.0
 43
222.39999771
 44
168.99999619
 45
-296.47199631
 46
0.0000000000000182
 79
     2
 49
5.92999995
 49
-290.5439949
 53
123.69010162
 43
222.39999771
 44
175.0
 45
-296.47245153
 46
296.47320692
 79
     2
 49
10.69000006
 49
-1058.25798035
 53
180.0
 43
80.0
 44
160.0
 45
-0.0000000000000363
 46
-296.47199631
 79
     2
 49
2.96400011
 49
-293.50799561
 53
135.0
 43
76.99999809000001
 44
160.0
 45
-296.47290887
 46
0.0000000000000355
 79
     2
 49
8.385999799999998
 49
-410.8900070199999
 53
116.56500244
 43
71.19999885999999
 44
166.00000381
 45
-296.47195758
 46
296.47335758
 79
     2
 49
6.629999879999999
 49
-656.3040161099999
 53
71.56500244
 43
68.20000172
 44
172.00000763
 45
0.00087946
 46
296.47174563
 79
     2
 49
9.376000169999999
 49
-928.1539917000001
 53
56.30989838
 43
71.19999885999999
 44
180.79999924
 45
296.47375474
 46
592.9449556599999
 79
     2
 49
10.69000006
 49
-1058.25798035
 53
11.30990028
 43
76.99999809000001
 44
189.79999542
 45
1185.89014473
 46
296.47280949
 79
     2
 49
15.11800051
 49
-1496.60202026
 53
333.43490601
 43
91.99999809000001
 44
192.80000687
 45
296.4731053999999
 46
-0.0011172
 79
     2
 49
13.25799942
 49
-649.67399597
 53
0.0
 43
103.80000114
 44
186.80000305
 45
0.0
 46
296.47199631
 79
     2
 49
8.89400005
 49
-287.57799149
 53
326.30990601
 43
112.60000229
 44
186.80000305
 45
592.9449951399999
 46
-296.47367579
 79
     2
 49
10.69000006
 49
-1058.25798035
 53
270.0
 43
121.59999847
 44
180.79999924
 45
296.47199631
 46
-0.0000000000000545
 79
     2
 49
5.92999995
 49
-290.5439949
 53
225.0
 43
121.59999847
 44
175.0
 45
-0.0000000000000533
 46
-296.47290887
 79
     2
 49
8.385999799999998
 49
-410.8900070199999
 53
18.43490028
 43
62.19999789999999
 44
177.80000687
 45
592.9456423699999
 46
296.47124934
 79
     2
 49
9.376000169999999
 49
-928.1539917000001
 53
90.0
 43
71.19999885999999
 44
180.79999924
 45
-296.47199631
 46
0.0000000000000182
 79
     2
 49
2.96400011
 49
-293.50799561
 53
116.56500244
 43
71.19999885999999
 44
183.79999161
 45
-296.47195758
 46
296.47335758
 79
     2
 49
6.629999879999999
 49
-656.3040161099999
 53
180.0
 43
68.20000172
 44
189.79999542
 45
-0.0000000000000363
 46
-296.47199631
 79
     2
 49
11.85799956
 49
-284.61399078
 53
191.30990601
 43
56.39999866
 44
189.79999542
 45
-1185.89011512
 46
-296.47292792
 79
     2
 49
15.11800051
 49
-1496.60202026
 53
225.0
 43
41.59999847
 44
186.80000305
 45
-0.0000000000000533
 46
-296.47290887
 79
     2
 49
4.192000029999999
 49
-415.08201599
 53
270.0
 43
38.59999895
 44
183.79999161
 45
296.47199631
 46
-0.0000000000000545
 79
     2
 49
2.96400011
 49
-293.50799561
 53
315.0
 43
38.59999895
 44
180.79999924
 45
296.47290887
 46
-0.0000000000000711
 79
     2
 49
4.192000029999999
 49
-415.08201599
 53
281.30990601
 43
68.20000172
 44
172.00000763
 45
296.47292792
 46
-1185.89011512
 79
     2
 49
15.11800051
 49
-1496.60202026
 53
270.0
 43
71.19999885999999
 44
157.20000267
 45
296.47199631
 46
-0.0000000000000545
 79
     2
 49
8.89400005
 49
-287.57799149
 53
236.30990601
 43
71.19999885999999
 44
148.19999695
 45
-296.47367579
 46
-592.9449951399999
 79
     2
 49
10.69000006
 49
-1058.25798035
 53
180.0
 43
65.19999980999999
 44
139.3999958
 45
-0.0000000000000363
 46
-296.47199631
 79
     2
 49
11.85799956
 49
-284.61399078
 53
180.0
 43
53.40000153
 44
139.3999958
 45
-0.0000000000000363
 46
-296.47199631
 79
     2
 49
14.8239994
 49
-281.64800644
 53
153.43499756
 43
38.59999895
 44
139.3999958
 45
-296.4731053999999
 46
0.00064346
 79
     2
 49
6.629999879999999
 49
-656.3040161099999
 53
108.43499756
 43
32.5999999
 44
142.39999771
 45
-296.47225602
 46
592.9451390299999
 79
     2
 49
9.376000169999999
 49
-928.1539917000001
 53
90.0
 43
29.60000038
 44
151.19999886
 45
-296.47199631
 46
0.0000000000000182
 79
     2
 49
8.89400005
 49
-287.57799149
 53
71.56500244
 43
29.60000038
 44
160.0
 45
0.00087946
 46
296.47174563
 79
     2
 49
9.376000169999999
 49
-928.1539917000001
 53
45.0
 43
32.5999999
 44
168.99999619
 45
0.0000000000000355
 46
296.47290887
 79
     2
 49
12.57799983
 49
-406.69799805
 53
0.0
 43
41.59999847
 44
177.80000687
 45
0.0
 46
296.47199631
 79
     2
 49
20.75400114
 49
-275.72000504
 53
315.0
 43
62.19999789999999
 44
177.80000687
 45
296.47290887
 46
-0.0000000000000711
 79
     2
 49
8.385999799999998
 49
-410.8900070199999
 53
26.56509972
 43
112.60000229
 44
17.79999971
 45
296.47285424
 46
296.47246092
 79
     2
 49
6.629999879999999
 49
-656.3040161099999
 53
45.0
 43
118.59999657
 44
20.79999924
 45
0.0000000000000355
 46
296.47290887
 79
     2
 49
4.192000029999999
 49
-415.08201599
 53
90.0
 43
121.59999847
 44
23.80000114
 45
-296.47199631
 46
0.0000000000000182
 79
     2
 49
5.92999995
 49
-290.5439949
 53
116.56500244
 43
121.59999847
 44
29.60000038
 45
-296.47195758
 46
296.47335758
 79
     2
 49
6.629999879999999
 49
-656.3040161099999
 53
161.56500244
 43
118.59999657
 44
35.59999943
 45
-296.47174563
 46
0.00087946
 79
     2
 49
9.376000169999999
 49
-928.1539917000001
 53
161.56500244
 43
109.60000038
 44
38.59999895
 45
-296.47174563
 46
0.00087946
 79
     2
 49
9.376000169999999
 49
-928.1539917000001
 53
180.0
 43
100.79999924
 44
41.59999847
 45
-0.0000000000000363
 46
-296.47199631
 79
     2
 49
11.85799956
 49
-284.61399078
 53
194.03619385
 43
88.99999619
 44
41.59999847
 45
-889.4167208699998
 46
-296.4723532
 79
     2
 49
12.2239995
 49
-1210.16403198
 53
236.30990601
 43
76.99999809000001
 44
38.59999895
 45
-296.47367579
 46
-592.9449951399999
 79
     2
 49
10.69000006
 49
-1058.25798035
 53
251.56500244
 43
71.19999885999999
 44
29.60000038
 45
-0.00087946
 46
-296.47174563
 79
     2
 49
9.376000169999999
 49
-928.1539917000001
 53
288.43490601
 43
68.20000172
 44
20.79999924
 45
296.47130856
 46
-592.9456127599999
 79
     2
 49
9.376000169999999
 49
-928.1539917000001
 53
333.43490601
 43
71.19999885999999
 44
11.79999948
 45
296.4731053999999
 46
-0.0011172
 79
     2
 49
6.629999879999999
 49
-656.3040161099999
 53
11.30990028
 43
76.99999809000001
 44
8.79999995
 45
1185.89014473
 46
296.47280949
 79
     2
 49
15.11800051
 49
-1496.60202026
 53
191.30990601
 43
145.20000458
 44
275.79999924
 45
-1185.89011512
 46
-296.47292792
 79
     2
 49
15.11800051
 49
-1496.60202026
 53
161.56500244
 43
130.39999962
 44
272.80000687
 45
-296.47174563
 46
0.00087946
 79
     2
 49
9.376000169999999
 49
-928.1539917000001
 53
146.30990601
 43
121.59999847
 44
275.79999924
 45
-592.9449951399999
 46
296.47367579
 79
     2
 49
10.69000006
 49
-1058.25798035
 53
161.56500244
 43
112.60000229
 44
281.59999847
 45
-296.47174563
 46
0.00087946
 79
     2
 49
9.376000169999999
 49
-928.1539917000001
 53
171.86990356
 43
103.80000114
 44
284.5999908399999
 45
-296.4717645
 46
-0.00059775
 79
     2
 49
20.96400023
 49
-2075.41397095
 53
161.56500244
 43
83.00000191
 44
287.60000229
 45
-296.47174563
 46
0.00087946
 79
     2
 49
9.376000169999999
 49
-928.1539917000001
 53
116.56500244
 43
74.20000075999999
 44
290.59999466
 45
-296.47195758
 46
296.47335758
 79
     2
 49
6.629999879999999
 49
-656.3040161099999
 53
63.43489838
 43
71.19999885999999
 44
0.0
 45
0.00115667
 46
296.4731053999999
 79
     2
 49
6.629999879999999
 49
-656.3040161099999
 53
26.56509972
 43
74.20000075999999
 44
6.00000024
 45
296.47285424
 46
296.47246092
 79
     2
 49
6.629999879999999
 49
-656.3040161099999
 53
14.03619957
 43
80.0
 44
8.79999995
 45
889.4166912599999
 46
296.47244202
 79
     2
 49
12.2239995
 49
-1210.16403198
 53
18.43490028
 43
91.99999809000001
 44
11.79999948
 45
592.9456423699999
 46
296.47124934
 79
     2
 49
9.376000169999999
 49
-928.1539917000001
 53
14.03619957
 43
100.79999924
 44
14.80000019
 45
889.4166912599999
 46
296.47244202
 79
     2
 49
12.2239995
 49
-1210.16403198
 53
0.0
 43
112.60000229
 44
17.79999971
 45
0.0
 46
296.47199631
 79
     2
 49
8.89400005
 49
-287.57799149
 53
345.9637146
 43
121.59999847
 44
17.79999971
 45
296.47214391
 46
0.00075448
 79
     2
 49
12.2239995
 49
-1210.16403198
 53
333.43490601
 43
133.40000153
 44
14.80000019
 45
296.4731053999999
 46
-0.0011172
 79
     2
 49
13.25799942
 49
-649.67399597
 53
315.0
 43
145.20000458
 44
8.79999995
 45
296.47290887
 46
-0.0000000000000711
 79
     2
 49
12.57799983
 49
-406.69799805
 53
270.0
 43
154.20000076
 44
296.3999939
 45
296.47199631
 46
-0.0000000000000545
 79
     2
 49
5.92999995
 49
-290.5439949
 53
255.96380615
 43
154.20000076
 44
290.59999466
 45
0.00122822
 46
-296.47214391
 79
     2
 49
12.2239995
 49
-1210.16403198
 53
206.56500244
 43
151.19999886
 44
278.6000061
 45
-296.47335758
 46
-296.47195758
 79
     2
 49
6.629999879999999
 49
-656.3040161099999
 53
0.0
 43
8.79999995
 44
124.60000038
 45
0.0
 46
296.47199631
 79
     2
 49
11.85799956
 49
-284.61399078
 53
341.56509399
 43
20.79999924
 44
124.60000038
 45
296.47174563
 46
-0.00040573
 79
     2
 49
9.376000169999999
 49
-928.1539917000001
 53
315.0
 43
29.60000038
 44
121.59999847
 45
296.47290887
 46
-0.0000000000000711
 79
     2
 49
8.385999799999998
 49
-410.8900070199999
 53
270.0
 43
35.59999943
 44
115.6000042
 45
296.47199631
 46
-0.0000000000000545
 79
     2
 49
5.92999995
 49
-290.5439949
 53
258.69009399
 43
35.59999943
 44
109.60000038
 45
0.00092342
 46
-296.47346827
 79
     2
 49
15.11800051
 49
-1496.60202026
 53
236.30990601
 43
32.5999999
 44
94.79999541999999
 45
-296.47367579
 46
-592.9449951399999
 79
     2
 49
10.69000006
 49
-1058.25798035
 53
225.0
 43
26.60000086
 44
86.00000380999999
 45
-0.0000000000000533
 46
-296.47290887
 79
     2
 49
12.57799983
 49
-406.69799805
 53
225.0
 43
17.79999971
 44
76.99999809000001
 45
-0.0000000000000533
 46
-296.47290887
 79
     2
 49
12.57799983
 49
-406.69799805
 53
180.0
 43
296.3999939
 44
62.19999789999999
 45
-0.0000000000000363
 46
-296.47199631
 79
     2
 49
2.96400011
 49
-293.50799561
 53
213.69009399
 43
8.79999995
 44
68.20000172
 45
-296.4732464
 46
-296.47241205
 79
     2
 49
10.69000006
 49
-1058.25798035
 53
180.0
 43
293.6000061000001
 44
62.19999789999999
 45
-0.0000000000000363
 46
-296.47199631
 79
     2
 49
5.92999995
 49
-290.5439949
 53
153.43499756
 43
287.60000229
 44
62.19999789999999
 45
-296.4731053999999
 46
0.00064346
 79
     2
 49
6.629999879999999
 49
-656.3040161099999
 53
101.30989838
 43
281.59999847
 44
65.19999980999999
 45
-296.47277001
 46
1185.8901546
 79
     2
 49
15.11800051
 49
-1496.60202026
 53
90.0
 43
278.6000061
 44
80.0
 45
-296.47199631
 46
0.0000000000000182
 79
     2
 49
11.85799956
 49
-284.61399078
 53
75.96379852
 43
278.6000061
 44
91.99999809000001
 45
-0.00118874
 46
296.47214391
 79
     2
 49
12.2239995
 49
-1210.16403198
 53
71.56500244
 43
281.59999847
 44
103.80000114
 45
0.00087946
 46
296.47174563
 79
     2
 49
9.376000169999999
 49
-928.1539917000001
 53
36.86989975
 43
284.5999908399999
 44
112.60000229
 45
296.47318037
 46
296.47240392
 79
     2
 49
14.8239994
 49
-1467.53997803
 53
18.43490028
 43
0.0
 44
121.59999847
 45
592.9456423699999
 46
296.47124934
 79
     2
 49
9.376000169999999
 49
-928.1539917000001
 53
213.69009399
 43
275.79999924
 44
50.39999962
 45
-296.4732464
 46
-296.47241205
 79
     2
 49
10.69000006
 49
-1058.25798035
 53
206.56500244
 43
266.80000305
 44
44.40000057
 45
-296.47335758
 46
-296.47195758
 79
     2
 49
6.629999879999999
 49
-656.3040161099999
 53
225.0
 43
260.79999924
 44
41.59999847
 45
-0.0000000000000533
 46
-296.47290887
 79
     2
 49
8.385999799999998
 49
-410.8900070199999
 53
206.56500244
 43
255.0
 44
35.59999943
 45
-296.47335758
 46
-296.47195758
 79
     2
 49
6.629999879999999
 49
-656.3040161099999
 53
180.0
 43
248.99999619
 44
32.5999999
 45
-0.0000000000000363
 46
-296.47199631
 79
     2
 49
5.92999995
 49
-290.5439949
 53
180.0
 43
243.19999695
 44
32.5999999
 45
-0.0000000000000363
 46
-296.47199631
 79
     2
 49
14.8239994
 49
-281.64800644
 53
146.30990601
 43
228.19999695
 44
32.5999999
 45
-592.9449951399999
 46
296.47367579
 79
     2
 49
10.69000006
 49
-1058.25798035
 53
116.56500244
 43
219.40000534
 44
38.59999895
 45
-296.47195758
 46
296.47335758
 79
     2
 49
6.629999879999999
 49
-656.3040161099999
 53
108.43499756
 43
216.3999939
 44
44.40000057
 45
-296.47225602
 46
592.9451390299999
 79
     2
 49
9.376000169999999
 49
-928.1539917000001
 53
90.0
 43
213.40000153
 44
53.40000153
 45
-296.47199631
 46
0.0000000000000182
 79
     2
 49
8.89400005
 49
-287.57799149
 53
63.43489838
 43
213.40000153
 44
62.19999789999999
 45
0.00115667
 46
296.4731053999999
 79
     2
 49
6.629999879999999
 49
-656.3040161099999
 53
26.56509972
 43
216.3999939
 44
68.20000172
 45
296.47285424
 46
296.47246092
 79
     2
 49
6.629999879999999
 49
-656.3040161099999
 53
0.0
 43
222.39999771
 44
71.19999885999999
 45
0.0
 46
296.47199631
 79
     2
 49
26.68200016
 49
-269.79000092
 53
352.875
 43
248.99999619
 44
71.19999885999999
 45
296.47327836
 46
-0.00090666
 79
     2
 49
23.901999
 49
-2366.33605957
 53
341.56509399
 43
272.80000687
 44
68.20000172
 45
296.47174563
 46
-0.00040573
 79
     2
 49
9.376000169999999
 49
-928.1539917000001
 53
270.0
 43
281.59999847
 44
65.19999980999999
 45
296.47199631
 46
-0.0000000000000545
 79
     2
 49
5.92999995
 49
-290.5439949
 53
243.43499756
 43
281.59999847
 44
59.20000076
 45
-0.00064346
 46
-296.4731053999999
 79
     2
 49
6.629999879999999
 49
-656.3040161099999
 53
225.0
 43
278.6000061
 44
53.40000153
 45
-0.0000000000000533
 46
-296.47290887
 79
     2
 49
4.192000029999999
 49
-415.08201599
 53
194.03619385
 43
142.39999771
 44
130.39999962
 45
-889.4167208699998
 46
-296.4723532
 79
     2
 49
12.2239995
 49
-1210.16403198
 53
180.0
 43
130.39999962
 44
127.39999771
 45
-0.0000000000000363
 46
-296.47199631
 79
     2
 49
5.92999995
 49
-290.5439949
 53
146.30990601
 43
124.60000038
 44
127.39999771
 45
-592.9449951399999
 46
296.47367579
 79
     2
 49
10.69000006
 49
-1058.25798035
 53
146.30990601
 43
115.6000042
 44
133.40000153
 45
-592.9449951399999
 46
296.47367579
 79
     2
 49
10.69000006
 49
-1058.25798035
 53
161.56500244
 43
106.80000305
 44
139.3999958
 45
-296.47174563
 46
0.00087946
 79
     2
 49
9.376000169999999
 49
-928.1539917000001
 53
180.0
 43
97.79999733
 44
142.39999771
 45
-0.0000000000000363
 46
-296.47199631
 79
     2
 49
11.85799956
 49
-284.61399078
 53
161.56500244
 43
86.00000380999999
 44
142.39999771
 45
-296.47174563
 46
0.00087946
 79
     2
 49
9.376000169999999
 49
-928.1539917000001
 53
135.0
 43
76.99999809000001
 44
145.20000458
 45
-296.47290887
 46
0.0000000000000355
 79
     2
 49
4.192000029999999
 49
-415.08201599
 53
90.0
 43
74.20000075999999
 44
148.19999695
 45
-296.47199631
 46
0.0000000000000182
 79
     2
 49
5.92999995
 49
-290.5439949
 53
45.0
 43
74.20000075999999
 44
154.20000076
 45
0.0000000000000355
 46
296.47290887
 79
     2
 49
8.385999799999998
 49
-410.8900070199999
 53
18.43490028
 43
80.0
 44
160.0
 45
592.9456423699999
 46
296.47124934
 79
     2
 49
9.376000169999999
 49
-928.1539917000001
 53
21.80139923
 43
88.99999619
 44
162.99999237
 45
592.9442207000001
 46
296.47253553
 79
     2
 49
15.96600056
 49
-1580.58807373
 53
0.0
 43
103.80000114
 44
168.99999619
 45
0.0
 46
296.47199631
 79
     2
 49
14.8239994
 49
-281.64800644
 53
348.69009399
 43
118.59999657
 44
168.99999619
 45
296.47346827
 46
0.00092342
 79
     2
 49
15.11800051
 49
-1496.60202026
 53
333.43490601
 43
133.40000153
 44
166.00000381
 45
296.4731053999999
 46
-0.0011172
 79
     2
 49
13.25799942
 49
-649.67399597
 53
315.0
 43
145.20000458
 44
160.0
 45
296.47290887
 46
-0.0000000000000711
 79
     2
 49
8.385999799999998
 49
-410.8900070199999
 53
296.56509399
 43
151.19999886
 44
154.20000076
 45
296.47243131
 46
-296.47288385
 79
     2
 49
6.629999879999999
 49
-656.3040161099999
 53
270.0
 43
154.20000076
 44
148.19999695
 45
296.47199631
 46
-0.0000000000000545
 79
     2
 49
8.89400005
 49
-287.57799149
 53
225.0
 43
154.20000076
 44
139.3999958
 45
-0.0000000000000533
 46
-296.47290887
 79
     2
 49
8.385999799999998
 49
-410.8900070199999
 53
206.56500244
 43
148.19999695
 44
133.40000153
 45
-296.47335758
 46
-296.47195758
 79
     2
 49
6.629999879999999
 49
-656.3040161099999
 53
194.03619385
 43
53.40000153
 44
44.40000057
 45
-889.4167208699998
 46
-296.4723532
 79
     2
 49
12.2239995
 49
-1210.16403198
 53
180.0
 43
41.59999847
 44
41.59999847
 45
-0.0000000000000363
 46
-296.47199631
 79
     2
 49
5.92999995
 49
-290.5439949
 53
153.43499756
 43
35.59999943
 44
41.59999847
 45
-296.4731053999999
 46
0.00064346
 79
     2
 49
6.629999879999999
 49
-656.3040161099999
 53
135.0
 43
29.60000038
 44
44.40000057
 45
-296.47290887
 46
0.0000000000000355
 79
     2
 49
8.385999799999998
 49
-410.8900070199999
 53
135.0
 43
23.80000114
 44
50.39999962
 45
-296.47290887
 46
0.0000000000000355
 79
     2
 49
8.385999799999998
 49
-410.8900070199999
 53
116.56500244
 43
17.79999971
 44
56.39999866
 45
-296.47195758
 46
296.47335758
 79
     2
 49
6.629999879999999
 49
-656.3040161099999
 53
90.0
 43
14.80000019
 44
62.19999789999999
 45
-296.47199631
 46
0.0000000000000182
 79
     2
 49
5.92999995
 49
-290.5439949
 53
71.56500244
 43
14.80000019
 44
68.20000172
 45
0.00087946
 46
296.47174563
 79
     2
 49
9.376000169999999
 49
-928.1539917000001
 53
45.0
 43
17.79999971
 44
76.99999809000001
 45
0.0000000000000355
 46
296.47290887
 79
     2
 49
12.57799983
 49
-406.69799805
 53
33.69010162
 43
26.60000086
 44
86.00000380999999
 45
296.47320692
 46
296.47245153
 79
     2
 49
10.69000006
 49
-1058.25798035
 53
14.03619957
 43
35.59999943
 44
91.99999809000001
 45
889.4166912599999
 46
296.47244202
 79
     2
 49
12.2239995
 49
-1210.16403198
 53
341.56509399
 43
47.39999770999999
 44
94.79999541999999
 45
296.47174563
 46
-0.00040573
 79
     2
 49
9.376000169999999
 49
-928.1539917000001
 53
333.43490601
 43
56.39999866
 44
91.99999809000001
 45
296.4731053999999
 46
-0.0011172
 79
     2
 49
6.629999879999999
 49
-656.3040161099999
 53
315.0
 43
62.19999789999999
 44
88.99999619
 45
296.47290887
 46
-0.0000000000000711
 79
     2
 49
8.385999799999998
 49
-410.8900070199999
 53
288.43490601
 43
68.20000172
 44
83.00000191
 45
296.47130856
 46
-592.9456127599999
 79
     2
 49
9.376000169999999
 49
-928.1539917000001
 53
288.43490601
 43
71.19999885999999
 44
74.20000075999999
 45
296.47130856
 46
-592.9456127599999
 79
     2
 49
9.376000169999999
 49
-928.1539917000001
 53
71.56500244
 43
71.19999885999999
 44
56.39999866
 45
0.00087946
 46
296.47174563
 79
     2
 49
9.376000169999999
 49
-928.1539917000001
 53
225.0
 43
76.99999809000001
 44
62.19999789999999
 45
-0.0000000000000533
 46
-296.47290887
 79
     2
 49
8.385999799999998
 49
-410.8900070199999
 53
213.69009399
 43
71.19999885999999
 44
56.39999866
 45
-296.4732464
 46
-296.47241205
 79
     2
 49
10.69000006
 49
-1058.25798035
 53
213.69009399
 43
62.19999789999999
 44
50.39999962
 45
-296.4732464
 46
-296.47241205
 79
     2
 49
10.69000006
 49
-1058.25798035
 53
206.56500244
 43
263.79999161
 44
127.39999771
 45
-296.47335758
 46
-296.47195758
 79
     2
 49
6.629999879999999
 49
-656.3040161099999
 53
201.80140686
 43
257.99999237
 44
124.60000038
 45
-592.94418122
 46
-296.47261448
 79
     2
 49
15.96600056
 49
-1580.58807373
 53
225.0
 43
243.19999695
 44
118.59999657
 45
-0.0000000000000533
 46
-296.47290887
 79
     2
 49
4.192000029999999
 49
-415.08201599
 53
243.43499756
 43
240.20000458
 44
115.6000042
 45
-0.00064346
 46
-296.4731053999999
 79
     2
 49
6.629999879999999
 49
-656.3040161099999
 53
225.0
 43
237.19999313
 44
109.60000038
 45
-0.0000000000000533
 46
-296.47290887
 79
     2
 49
4.192000029999999
 49
-415.08201599
 53
206.56500244
 43
234.20000076
 44
106.80000305
 45
-296.47335758
 46
-296.47195758
 79
     2
 49
6.629999879999999
 49
-656.3040161099999
 53
198.43499756
 43
228.19999695
 44
103.80000114
 45
-592.9451390299999
 46
-296.47225602
 79
     2
 49
9.376000169999999
 49
-928.1539917000001
 53
180.0
 43
219.40000534
 44
100.79999924
 45
-0.0000000000000363
 46
-296.47199631
 79
     2
 49
5.92999995
 49
-290.5439949
 53
153.43499756
 43
213.40000153
 44
100.79999924
 45
-296.4731053999999
 46
0.00064346
 79
     2
 49
13.25799942
 49
-649.67399597
 53
153.43499756
 43
201.59999847
 44
106.80000305
 45
-296.4731053999999
 46
0.00064346
 79
     2
 49
13.25799942
 49
-649.67399597
 53
135.0
 43
189.79999542
 44
112.60000229
 45
-296.47290887
 46
0.0000000000000355
 79
     2
 49
8.385999799999998
 49
-410.8900070199999
 53
116.56500244
 43
183.79999161
 44
118.59999657
 45
-296.47195758
 46
296.47335758
 79
     2
 49
6.629999879999999
 49
-656.3040161099999
 53
90.0
 43
180.79999924
 44
124.60000038
 45
-296.47199631
 46
0.0000000000000182
 79
     2
 49
5.92999995
 49
-290.5439949
 53
63.43489838
 43
180.79999924
 44
130.39999962
 45
0.00115667
 46
296.4731053999999
 79
     2
 49
6.629999879999999
 49
-656.3040161099999
 53
26.56509972
 43
183.79999161
 44
136.40000343
 45
296.47285424
 46
296.47246092
 79
     2
 49
13.25799942
 49
-649.67399597
 53
33.69010162
 43
195.59999466
 44
142.39999771
 45
296.47320692
 46
296.47245153
 79
     2
 49
10.69000006
 49
-1058.25798035
 53
45.0
 43
204.59999084
 44
148.19999695
 45
0.0000000000000355
 46
296.47290887
 79
     2
 49
8.385999799999998
 49
-410.8900070199999
 53
56.30989838
 43
210.40000916
 44
154.20000076
 45
296.47375474
 46
592.9449556599999
 79
     2
 49
10.69000006
 49
-1058.25798035
 53
18.43490028
 43
216.3999939
 44
162.99999237
 45
592.9456423699999
 46
296.47124934
 79
     2
 49
9.376000169999999
 49
-928.1539917000001
 53
0.0
 43
225.40000916
 44
166.00000381
 45
0.0
 46
296.47199631
 79
     2
 49
11.85799956
 49
-284.61399078
 53
338.1986084
 43
237.19999313
 44
166.00000381
 45
889.41728701
 46
-296.47162555
 79
     2
 49
15.96600056
 49
-1580.58807373
 53
315.0
 43
252.00000763
 44
160.0
 45
296.47290887
 46
-0.0000000000000711
 79
     2
 49
8.385999799999998
 49
-410.8900070199999
 53
315.0
 43
257.99999237
 44
154.20000076
 45
296.47290887
 46
-0.0000000000000711
 79
     2
 49
8.385999799999998
 49
-410.8900070199999
 53
296.56509399
 43
263.79999161
 44
148.19999695
 45
296.47243131
 46
-296.47288385
 79
     2
 49
6.629999879999999
 49
-656.3040161099999
 53
270.0
 43
266.80000305
 44
142.39999771
 45
296.47199631
 46
-0.0000000000000545
 79
     2
 49
8.89400005
 49
-287.57799149
 53
243.43499756
 43
266.80000305
 44
133.40000153
 45
-0.00064346
 46
-296.4731053999999
 79
     2
 49
6.629999879999999
 49
-656.3040161099999
 53
180.0
 43
133.40000153
 44
35.59999943
 45
-0.0000000000000363
 46
-296.47199631
 79
     2
 49
8.89400005
 49
-287.57799149
 53
168.69009399
 43
124.60000038
 44
35.59999943
 45
-296.47346827
 46
-0.00092342
 79
     2
 49
15.11800051
 49
-1496.60202026
 53
146.30990601
 43
109.60000038
 44
38.59999895
 45
-592.9449951399999
 46
296.47367579
 79
     2
 49
10.69000006
 49
-1058.25798035
 53
108.43499756
 43
100.79999924
 44
44.40000057
 45
-296.47225602
 46
592.9451390299999
 79
     2
 49
9.376000169999999
 49
-928.1539917000001
 53
108.43499756
 43
97.79999733
 44
53.40000153
 45
-296.47225602
 46
592.9451390299999
 79
     2
 49
9.376000169999999
 49
-928.1539917000001
 53
75.96379852
 43
94.79999541999999
 44
62.19999789999999
 45
-0.00118874
 46
296.47214391
 79
     2
 49
12.2239995
 49
-1210.16403198
 53
51.34019852
 43
97.79999733
 44
74.20000075999999
 45
889.4172523599999
 46
1185.89120889
 79
     2
 49
18.98399949
 49
-1879.36599731
 53
29.74489975
 43
109.60000038
 44
88.99999619
 45
1482.36285273
 46
889.4173209799999
 79
     2
 49
23.901999
 49
-2366.33605957
 53
6.340199949999999
 43
130.39999962
 44
100.79999924
 45
2371.78050757
 46
296.47298984
 79
     2
 49
26.84600115
 49
-2657.82592773
 53
348.69009399
 43
157.20000267
 44
103.80000114
 45
296.47346827
 46
0.00092342
 79
     2
 49
15.11800051
 49
-1496.60202026
 53
315.0
 43
172.00000763
 44
100.79999924
 45
296.47290887
 46
-0.0000000000000711
 79
     2
 49
12.57799983
 49
-406.69799805
 53
288.43490601
 43
180.79999924
 44
91.99999809000001
 45
296.47130856
 46
-592.9456127599999
 79
     2
 49
9.376000169999999
 49
-928.1539917000001
 53
270.0
 43
183.79999161
 44
83.00000191
 45
296.47199631
 46
-0.0000000000000545
 79
     2
 49
17.78800011
 49
-278.68400574
 53
251.56500244
 43
183.79999161
 44
65.19999980999999
 45
-0.00087946
 46
-296.47174563
 79
     2
 49
18.75
 49
-918.7779998799999
 53
206.56500244
 43
177.80000687
 44
47.39999770999999
 45
-296.47335758
 46
-296.47195758
 79
     2
 49
13.25799942
 49
-649.67399597
 53
191.30990601
 43
166.00000381
 44
41.59999847
 45
-1185.89011512
 46
-296.47292792
 79
     2
 49
15.11800051
 49
-1496.60202026
 53
189.46229553
 43
151.19999886
 44
38.59999895
 45
-1482.36343879
 46
-296.47216832
 79
     2
 49
18.0340004
 49
-1785.33798218
 53
341.56509399
 43
17.79999971
 44
252.00000763
 45
296.47174563
 46
-0.00040573
 79
     2
 49
9.376000169999999
 49
-928.1539917000001
 53
315.0
 43
26.60000086
 44
248.99999619
 45
296.47290887
 46
-0.0000000000000711
 79
     2
 49
8.385999799999998
 49
-410.8900070199999
 53
270.0
 43
32.5999999
 44
243.19999695
 45
296.47199631
 46
-0.0000000000000545
 79
     2
 49
5.92999995
 49
-290.5439949
 53
251.56500244
 43
32.5999999
 44
237.19999313
 45
-0.00087946
 46
-296.47174563
 79
     2
 49
9.376000169999999
 49
-928.1539917000001
 53
225.0
 43
29.60000038
 44
228.19999695
 45
-0.0000000000000533
 46
-296.47290887
 79
     2
 49
4.192000029999999
 49
-415.08201599
 53
180.0
 43
26.60000086
 44
225.40000916
 45
-0.0000000000000363
 46
-296.47199631
 79
     2
 49
5.92999995
 49
-290.5439949
 53
135.0
 43
20.79999924
 44
225.40000916
 45
-296.47290887
 46
0.0000000000000355
 79
     2
 49
8.385999799999998
 49
-410.8900070199999
 53
56.30989838
 43
11.79999948
 44
243.19999695
 45
296.47375474
 46
592.9449556599999
 79
     2
 49
10.69000006
 49
-1058.25798035
 53
0.0
 43
56.39999866
 44
252.00000763
 45
0.0
 46
296.47199631
 79
     2
 49
11.85799956
 49
-284.61399078
 53
9.4623003
 43
68.20000172
 44
252.00000763
 45
1482.36341412
 46
296.47229169
 79
     2
 49
18.0340004
 49
-1785.33798218
 53
0.0
 43
86.00000380999999
 44
255.0
 45
0.0
 46
296.47199631
 79
     2
 49
11.85799956
 49
-284.61399078
 53
326.30990601
 43
97.79999733
 44
255.0
 45
592.9449951399999
 46
-296.47367579
 79
     2
 49
10.69000006
 49
-1058.25798035
 53
300.9637146
 43
106.80000305
 44
248.99999619
 45
592.9444088999999
 46
-889.41922419
 79
     2
 49
17.28800058
 49
-1711.43005371
 53
270.0
 43
115.6000042
 44
234.20000076
 45
296.47199631
 46
-0.0000000000000545
 79
     2
 49
11.85799956
 49
-284.61399078
 53
236.30990601
 43
115.6000042
 44
222.39999771
 45
-296.47367579
 46
-592.9449951399999
 79
     2
 49
10.69000006
 49
-1058.25798035
 53
251.56500244
 43
109.60000038
 44
213.40000153
 45
-0.00087946
 46
-296.47174563
 79
     2
 49
9.376000169999999
 49
-928.1539917000001
 53
213.69009399
 43
106.80000305
 44
204.59999084
 45
-296.4732464
 46
-296.47241205
 79
     2
 49
10.69000006
 49
-1058.25798035
 53
198.43499756
 43
97.79999733
 44
198.6000061
 45
-592.9451390299999
 46
-296.47225602
 79
     2
 49
9.376000169999999
 49
-928.1539917000001
 53
191.30990601
 43
88.99999619
 44
195.59999466
 45
-1185.89011512
 46
-296.47292792
 79
     2
 49
15.11800051
 49
-1496.60202026
 53
180.0
 43
74.20000075999999
 44
192.80000687
 45
-0.0000000000000363
 46
-296.47199631
 79
     2
 49
14.8239994
 49
-281.64800644
 53
135.0
 43
59.20000076
 44
192.80000687
 45
-296.47290887
 46
0.0000000000000355
 79
     2
 49
8.385999799999998
 49
-410.8900070199999
 53
146.30990601
 43
53.40000153
 44
198.6000061
 45
-592.9449951399999
 46
296.47367579
 79
     2
 49
10.69000006
 49
-1058.25798035
 53
161.56500244
 43
44.40000057
 44
204.59999084
 45
-296.47174563
 46
0.00087946
 79
     2
 49
9.376000169999999
 49
-928.1539917000001
 53
123.69010162
 43
35.59999943
 44
207.60000229
 45
-296.47245153
 46
296.47320692
 79
     2
 49
10.69000006
 49
-1058.25798035
 53
90.0
 43
29.60000038
 44
216.3999939
 45
-296.47199631
 46
0.0000000000000182
 79
     2
 49
5.92999995
 49
-290.5439949
 53
78.69010161999999
 43
29.60000038
 44
222.39999771
 45
-0.0009629
 46
296.47346827
 79
     2
 49
15.11800051
 49
-1496.60202026
 53
56.30989838
 43
32.5999999
 44
237.19999313
 45
296.47375474
 46
592.9449556599999
 79
     2
 49
10.69000006
 49
-1058.25798035
 53
45.0
 43
38.59999895
 44
246.00000381
 45
0.0000000000000355
 46
296.47290887
 79
     2
 49
4.192000029999999
 49
-415.08201599
 53
26.56509972
 43
41.59999847
 44
248.99999619
 45
296.47285424
 46
296.47246092
 79
     2
 49
6.629999879999999
 49
-656.3040161099999
 53
0.0
 43
47.39999770999999
 44
252.00000763
 45
0.0
 46
296.47199631
 79
     2
 49
8.89400005
 49
-287.57799149
 53
326.30990601
 43
32.5999999
 44
263.79999161
 45
592.9449951399999
 46
-296.47367579
 79
     2
 49
10.69000006
 49
-1058.25798035
 53
333.43490601
 43
41.59999847
 44
257.99999237
 45
296.4731053999999
 46
-0.0011172
 79
     2
 49
6.629999879999999
 49
-656.3040161099999
 53
270.0
 43
47.39999770999999
 44
255.0
 45
296.47199631
 46
-0.0000000000000545
 79
     2
 49
2.96400011
 49
-293.50799561
 53
206.56500244
 43
47.39999770999999
 44
252.00000763
 45
-296.47335758
 46
-296.47195758
 79
     2
 49
6.629999879999999
 49
-656.3040161099999
 53
180.0
 43
41.59999847
 44
248.99999619
 45
-0.0000000000000363
 46
-296.47199631
 79
     2
 49
11.85799956
 49
-284.61399078
 53
165.96380615
 43
29.60000038
 44
248.99999619
 45
-296.47214391
 46
-0.00122822
 79
     2
 49
12.2239995
 49
-1210.16403198
 53
135.0
 43
17.79999971
 44
252.00000763
 45
-296.47290887
 46
0.0000000000000355
 79
     2
 49
4.192000029999999
 49
-415.08201599
 53
116.56500244
 43
14.80000019
 44
255.0
 45
-296.47195758
 46
296.47335758
 79
     2
 49
6.629999879999999
 49
-656.3040161099999
 53
63.43489838
 43
11.79999948
 44
260.79999924
 45
0.00115667
 46
296.4731053999999
 79
     2
 49
6.629999879999999
 49
-656.3040161099999
 53
26.56509972
 43
14.80000019
 44
266.80000305
 45
296.47285424
 46
296.47246092
 79
     2
 49
6.629999879999999
 49
-656.3040161099999
 53
0.0
 43
20.79999924
 44
269.79999542
 45
0.0
 46
296.47199631
 79
     2
 49
5.92999995
 49
-290.5439949
 53
315.0
 43
26.60000086
 44
269.79999542
 45
296.47290887
 46
-0.0000000000000711
 79
     2
 49
8.385999799999998
 49
-410.8900070199999
 53
236.30990601
 43
97.79999733
 44
272.80000687
 45
-296.47367579
 46
-592.9449951399999
 79
     2
 49
10.69000006
 49
-1058.25798035
 53
225.0
 43
91.99999809000001
 44
263.79999161
 45
-0.0000000000000533
 46
-296.47290887
 79
     2
 49
12.57799983
 49
-406.69799805
 53
191.30990601
 43
83.00000191
 44
255.0
 45
-1185.89011512
 46
-296.47292792
 79
     2
 49
15.11800051
 49
-1496.60202026
 53
180.0
 43
68.20000172
 44
252.00000763
 45
-0.0000000000000363
 46
-296.47199631
 79
     2
 49
11.85799956
 49
-284.61399078
 53
158.19859314
 43
56.39999866
 44
252.00000763
 45
-889.41720806
 46
296.47186242
 79
     2
 49
15.96600056
 49
-1580.58807373
 53
146.30990601
 43
41.59999847
 44
257.99999237
 45
-592.9449951399999
 46
296.47367579
 79
     2
 49
10.69000006
 49
-1058.25798035
 53
116.56500244
 43
32.5999999
 44
263.79999161
 45
-296.47195758
 46
296.47335758
 79
     2
 49
6.629999879999999
 49
-656.3040161099999
 53
90.0
 43
29.60000038
 44
269.79999542
 45
-296.47199631
 46
0.0000000000000182
 79
     2
 49
5.92999995
 49
-290.5439949
 53
45.0
 43
29.60000038
 44
275.79999924
 45
0.0000000000000355
 46
296.47290887
 79
     2
 49
8.385999799999998
 49
-410.8900070199999
 53
0.0
 43
35.59999943
 44
281.59999847
 45
0.0
 46
296.47199631
 79
     2
 49
23.71799946
 49
-272.75400162
 53
15.94540024
 43
59.20000076
 44
281.59999847
 45
889.4178531299999
 46
296.47306062
 79
     2
 49
21.58400059
 49
-2136.77001953
 53
0.0
 43
80.0
 44
287.60000229
 45
0.0
 46
296.47199631
 79
     2
 49
11.85799956
 49
-284.61399078
 53
326.30990601
 43
91.99999809000001
 44
287.60000229
 45
592.9449951399999
 46
-296.47367579
 79
     2
 49
10.69000006
 49
-1058.25798035
 53
251.56500244
 43
100.79999924
 44
281.59999847
 45
-0.00087946
 46
-296.47174563
 79
     2
 49
9.376000169999999
 49
-928.1539917000001
 53
243.43499756
 43
139.3999958
 44
195.59999466
 45
-0.00064346
 46
-296.4731053999999
 79
     2
 49
6.629999879999999
 49
-656.3040161099999
 53
180.0
 43
136.40000343
 44
189.79999542
 45
-0.0000000000000363
 46
-296.47199631
 79
     2
 49
11.85799956
 49
-284.61399078
 53
194.03619385
 43
124.60000038
 44
189.79999542
 45
-889.4167208699998
 46
-296.4723532
 79
     2
 49
12.2239995
 49
-1210.16403198
 53
180.0
 43
112.60000229
 44
186.80000305
 45
-0.0000000000000363
 46
-296.47199631
 79
     2
 49
8.89400005
 49
-287.57799149
 53
135.0
 43
103.80000114
 44
186.80000305
 45
-296.47290887
 46
0.0000000000000355
 79
     2
 49
8.385999799999998
 49
-410.8900070199999
 53
90.0
 43
97.79999733
 44
192.80000687
 45
-296.47199631
 46
0.0000000000000182
 79
     2
 49
5.92999995
 49
-290.5439949
 53
18.43490028
 43
97.79999733
 44
198.6000061
 45
592.9456423699999
 46
296.47124934
 79
     2
 49
9.376000169999999
 49
-928.1539917000001
 53
14.03619957
 43
106.80000305
 44
201.59999847
 45
889.4166912599999
 46
296.47244202
 79
     2
 49
12.2239995
 49
-1210.16403198
 53
0.0
 43
118.59999657
 44
204.59999084
 45
0.0
 46
296.47199631
 79
     2
 49
11.85799956
 49
-284.61399078
 53
326.30990601
 43
130.39999962
 44
204.59999084
 45
592.9449951399999
 46
-296.47367579
 79
     2
 49
10.69000006
 49
-1058.25798035
 53
270.0
 43
162.99999237
 44
198.6000061
 45
296.47199631
 46
-0.0000000000000545
 79
     2
 49
5.92999995
 49
-290.5439949
 53
206.56500244
 43
162.99999237
 44
192.80000687
 45
-296.47335758
 46
-296.47195758
 79
     2
 49
6.629999879999999
 49
-656.3040161099999
 53
180.0
 43
157.20000267
 44
189.79999542
 45
-0.0000000000000363
 46
-296.47199631
 79
     2
 49
8.89400005
 49
-287.57799149
 53
153.43499756
 43
148.19999695
 44
189.79999542
 45
-296.4731053999999
 46
0.00064346
 79
     2
 49
6.629999879999999
 49
-656.3040161099999
 53
135.0
 43
142.39999771
 44
192.80000687
 45
-296.47290887
 46
0.0000000000000355
 79
     2
 49
4.192000029999999
 49
-415.08201599
 53
90.0
 43
139.3999958
 44
195.59999466
 45
-296.47199631
 46
0.0000000000000182
 79
     2
 49
5.92999995
 49
-290.5439949
 53
26.56509972
 43
139.3999958
 44
201.59999847
 45
296.47285424
 46
296.47246092
 79
     2
 49
6.629999879999999
 49
-656.3040161099999
 53
0.0
 43
145.20000458
 44
204.59999084
 45
0.0
 46
296.47199631
 79
     2
 49
11.85799956
 49
-284.61399078
 53
333.43490601
 43
157.20000267
 44
204.59999084
 45
296.4731053999999
 46
-0.0011172
 79
     2
 49
6.629999879999999
 49
-656.3040161099999
 53
180.0
 43
195.59999466
 44
183.79999161
 45
-0.0000000000000363
 46
-296.47199631
 79
     2
 49
8.89400005
 49
-287.57799149
 53
165.96380615
 43
186.80000305
 44
183.79999161
 45
-296.47214391
 46
-0.00122822
 79
     2
 49
12.2239995
 49
-1210.16403198
 53
146.30990601
 43
175.0
 44
186.80000305
 45
-592.9449951399999
 46
296.47367579
 79
     2
 49
10.69000006
 49
-1058.25798035
 53
116.56500244
 43
166.00000381
 44
192.80000687
 45
-296.47195758
 46
296.47335758
 79
     2
 49
6.629999879999999
 49
-656.3040161099999
 53
90.0
 43
162.99999237
 44
198.6000061
 45
-296.47199631
 46
0.0000000000000182
 79
     2
 49
5.92999995
 49
-290.5439949
 53
33.69010162
 43
162.99999237
 44
204.59999084
 45
296.47320692
 46
296.47245153
 79
     2
 49
10.69000006
 49
-1058.25798035
 53
18.43490028
 43
172.00000763
 44
210.40000916
 45
592.9456423699999
 46
296.47124934
 79
     2
 49
9.376000169999999
 49
-928.1539917000001
 53
0.0
 43
180.79999924
 44
213.40000153
 45
0.0
 46
296.47199631
 79
     2
 49
11.85799956
 49
-284.61399078
 53
350.53768921
 43
192.80000687
 44
213.40000153
 45
296.47186526
 46
0.00038989
 79
     2
 49
18.0340004
 49
-1785.33798218
 53
296.56509399
 43
210.40000916
 44
210.40000916
 45
296.47243131
 46
-296.47288385
 79
     2
 49
6.629999879999999
 49
-656.3040161099999
 53
270.0
 43
213.40000153
 44
204.59999084
 45
296.47199631
 46
-0.0000000000000545
 79
     2
 49
11.85799956
 49
-284.61399078
 53
243.43499756
 43
213.40000153
 44
192.80000687
 45
-0.00064346
 46
-296.4731053999999
 79
     2
 49
6.629999879999999
 49
-656.3040161099999
 53
198.43499756
 43
210.40000916
 44
186.80000305
 45
-592.9451390299999
 46
-296.47225602
 79
     2
 49
9.376000169999999
 49
-928.1539917000001
 53
180.0
 43
201.59999847
 44
183.79999161
 45
-0.0000000000000363
 46
-296.47199631
 79
     2
 49
5.92999995
 49
-290.5439949
 53
180.0
 43
154.20000076
 44
204.59999084
 45
-0.0000000000000363
 46
-296.47199631
 79
     2
 49
26.68200016
 49
-269.79000092
 53
165.96380615
 43
127.39999771
 44
204.59999084
 45
-296.47214391
 46
-0.00122822
 79
     2
 49
12.2239995
 49
-1210.16403198
 53
135.0
 43
115.6000042
 44
207.60000229
 45
-296.47290887
 46
0.0000000000000355
 79
     2
 49
4.192000029999999
 49
-415.08201599
 53
90.0
 43
112.60000229
 44
210.40000916
 45
-296.47199631
 46
0.0000000000000182
 79
     2
 49
5.92999995
 49
-290.5439949
 53
63.43489838
 43
112.60000229
 44
216.3999939
 45
0.00115667
 46
296.4731053999999
 79
     2
 49
6.629999879999999
 49
-656.3040161099999
 53
18.43490028
 43
115.6000042
 44
222.39999771
 45
592.9456423699999
 46
296.47124934
 79
     2
 49
9.376000169999999
 49
-928.1539917000001
 53
11.30990028
 43
124.60000038
 44
225.40000916
 45
1185.89014473
 46
296.47280949
 79
     2
 49
15.11800051
 49
-1496.60202026
 53
0.0
 43
139.3999958
 44
228.19999695
 45
0.0
 46
296.47199631
 79
     2
 49
11.85799956
 49
-284.61399078
 53
0.0
 43
151.19999886
 44
228.19999695
 45
0.0
 46
296.47199631
 79
     2
 49
11.85799956
 49
-284.61399078
 53
333.43490601
 43
162.99999237
 44
228.19999695
 45
296.4731053999999
 46
-0.0011172
 79
     2
 49
13.25799942
 49
-649.67399597
 53
296.56509399
 43
175.0
 44
222.39999771
 45
296.47243131
 46
-296.47288385
 79
     2
 49
6.629999879999999
 49
-656.3040161099999
 53
270.0
 43
177.80000687
 44
216.3999939
 45
296.47199631
 46
-0.0000000000000545
 79
     2
 49
2.96400011
 49
-293.50799561
 53
206.56500244
 43
177.80000687
 44
213.40000153
 45
-296.47335758
 46
-296.47195758
 79
     2
 49
6.629999879999999
 49
-656.3040161099999
 53
206.56500244
 43
172.00000763
 44
210.40000916
 45
-296.47335758
 46
-296.47195758
 79
     2
 49
6.629999879999999
 49
-656.3040161099999
 53
206.56500244
 43
166.00000381
 44
207.60000229
 45
-296.47335758
 46
-296.47195758
 79
     2
 49
6.629999879999999
 49
-656.3040161099999
 53
180.0
 43
160.0
 44
204.59999084
 45
-0.0000000000000363
 46
-296.47199631
 79
     2
 49
5.92999995
 49
-290.5439949
 53
63.43489838
 43
94.79999541999999
 44
266.80000305
 45
0.00115667
 46
296.4731053999999
 79
     2
 49
6.629999879999999
 49
-656.3040161099999
 53
45.0
 43
97.79999733
 44
272.80000687
 45
0.0000000000000355
 46
296.47290887
 79
     2
 49
8.385999799999998
 49
-410.8900070199999
 53
0.0
 43
103.80000114
 44
278.6000061
 45
0.0
 46
296.47199631
 79
     2
 49
8.89400005
 49
-287.57799149
 53
341.56509399
 43
112.60000229
 44
278.6000061
 45
296.47174563
 46
-0.00040573
 79
     2
 49
9.376000169999999
 49
-928.1539917000001
 53
270.0
 43
121.59999847
 44
275.79999924
 45
296.47199631
 46
-0.0000000000000545
 79
     2
 49
5.92999995
 49
-290.5439949
 53
243.43499756
 43
121.59999847
 44
269.79999542
 45
-0.00064346
 46
-296.4731053999999
 79
     2
 49
6.629999879999999
 49
-656.3040161099999
 53
213.69009399
 43
118.59999657
 44
263.79999161
 45
-296.4732464
 46
-296.47241205
 79
     2
 49
10.69000006
 49
-1058.25798035
 53
180.0
 43
109.60000038
 44
257.99999237
 45
-0.0000000000000363
 46
-296.47199631
 79
     2
 49
5.92999995
 49
-290.5439949
 53
161.56500244
 43
103.80000114
 44
257.99999237
 45
-296.47174563
 46
0.00087946
 79
     2
 49
9.376000169999999
 49
-928.1539917000001
 53
90.0
 43
94.79999541999999
 44
260.79999924
 45
-296.47199631
 46
0.0000000000000182
 79
     2
 49
5.92999995
 49
-290.5439949
 53
90.0
 43
154.20000076
 44
243.19999695
 45
-296.47199631
 46
0.0000000000000182
 79
     2
 49
5.92999995
 49
-290.5439949
 53
26.56509972
 43
154.20000076
 44
248.99999619
 45
296.47285424
 46
296.47246092
 79
     2
 49
6.629999879999999
 49
-656.3040161099999
 53
11.30990028
 43
160.0
 44
252.00000763
 45
1185.89014473
 46
296.47280949
 79
     2
 49
15.11800051
 49
-1496.60202026
 53
315.0
 43
175.0
 44
255.0
 45
296.47290887
 46
-0.0000000000000711
 79
     2
 49
8.385999799999998
 49
-410.8900070199999
 53
251.56500244
 43
180.79999924
 44
248.99999619
 45
-0.00087946
 46
-296.47174563
 79
     2
 49
9.376000169999999
 49
-928.1539917000001
 53
206.56500244
 43
177.80000687
 44
240.20000458
 45
-296.47335758
 46
-296.47195758
 79
     2
 49
6.629999879999999
 49
-656.3040161099999
 53
180.0
 43
172.00000763
 44
237.19999313
 45
-0.0000000000000363
 46
-296.47199631
 79
     2
 49
8.89400005
 49
-287.57799149
 53
146.30990601
 43
162.99999237
 44
237.19999313
 45
-592.9449951399999
 46
296.47367579
 79
     2
 49
10.69000006
 49
-1058.25798035
 53
26.56509972
 43
124.60000038
 44
246.00000381
 45
296.47285424
 46
296.47246092
 79
     2
 49
6.629999879999999
 49
-656.3040161099999
 53
0.0
 43
130.39999962
 44
248.99999619
 45
0.0
 46
296.47199631
 79
     2
 49
11.85799956
 49
-284.61399078
 53
333.43490601
 43
142.39999771
 44
248.99999619
 45
296.4731053999999
 46
-0.0011172
 79
     2
 49
13.25799942
 49
-649.67399597
 53
296.56509399
 43
154.20000076
 44
243.19999695
 45
296.47243131
 46
-296.47288385
 79
     2
 49
6.629999879999999
 49
-656.3040161099999
 53
270.0
 43
157.20000267
 44
237.19999313
 45
296.47199631
 46
-0.0000000000000545
 79
     2
 49
5.92999995
 49
-290.5439949
 53
206.56500244
 43
157.20000267
 44
231.20000839
 45
-296.47335758
 46
-296.47195758
 79
     2
 49
6.629999879999999
 49
-656.3040161099999
 53
180.0
 43
151.19999886
 44
228.19999695
 45
-0.0000000000000363
 46
-296.47199631
 79
     2
 49
11.85799956
 49
-284.61399078
 53
191.30990601
 43
139.3999958
 44
228.19999695
 45
-1185.89011512
 46
-296.47292792
 79
     2
 49
15.11800051
 49
-1496.60202026
 53
153.43499756
 43
124.60000038
 44
225.40000916
 45
-296.4731053999999
 46
0.00064346
 79
     2
 49
6.629999879999999
 49
-656.3040161099999
 53
90.0
 43
118.59999657
 44
228.19999695
 45
-296.47199631
 46
0.0000000000000182
 79
     2
 49
5.92999995
 49
-290.5439949
 53
63.43489838
 43
118.59999657
 44
234.20000076
 45
0.00115667
 46
296.4731053999999
 79
     2
 49
6.629999879999999
 49
-656.3040161099999
 53
63.43489838
 43
121.59999847
 44
240.20000458
 45
0.00115667
 46
296.4731053999999
 79
     2
 49
6.629999879999999
 49
-656.3040161099999
 53
21.80139923
 43
124.60000038
 44
266.80000305
 45
592.9442207000001
 46
296.47253553
 79
     2
 49
15.96600056
 49
-1580.58807373
 53
0.0
 43
139.3999958
 44
272.80000687
 45
0.0
 46
296.47199631
 79
     2
 49
14.8239994
 49
-281.64800644
 53
348.69009399
 43
154.20000076
 44
272.80000687
 45
296.47346827
 46
0.00092342
 79
     2
 49
15.11800051
 49
-1496.60202026
 53
341.56509399
 43
168.99999619
 44
269.79999542
 45
296.47174563
 46
-0.00040573
 79
     2
 49
9.376000169999999
 49
-928.1539917000001
 53
296.56509399
 43
177.80000687
 44
266.80000305
 45
296.47243131
 46
-296.47288385
 79
     2
 49
6.629999879999999
 49
-656.3040161099999
 53
270.0
 43
180.79999924
 44
260.79999924
 45
296.47199631
 46
-0.0000000000000545
 79
     2
 49
2.96400011
 49
-293.50799561
 53
198.43499756
 43
180.79999924
 44
257.99999237
 45
-592.9451390299999
 46
-296.47225602
 79
     2
 49
9.376000169999999
 49
-928.1539917000001
 53
191.30990601
 43
172.00000763
 44
255.0
 45
-1185.89011512
 46
-296.47292792
 79
     2
 49
15.11800051
 49
-1496.60202026
 53
191.30990601
 43
157.20000267
 44
252.00000763
 45
-1185.89011512
 46
-296.47292792
 79
     2
 49
15.11800051
 49
-1496.60202026
 53
180.0
 43
142.39999771
 44
248.99999619
 45
-0.0000000000000363
 46
-296.47199631
 79
     2
 49
11.85799956
 49
-284.61399078
 53
206.56500244
 43
130.39999962
 44
248.99999619
 45
-296.47335758
 46
-296.47195758
 79
     2
 49
6.629999879999999
 49
-656.3040161099999
 53
180.0
 43
124.60000038
 44
246.00000381
 45
-0.0000000000000363
 46
-296.47199631
 79
     2
 49
8.89400005
 49
-287.57799149
 53
153.43499756
 43
115.6000042
 44
246.00000381
 45
-296.4731053999999
 46
0.00064346
 79
     2
 49
6.629999879999999
 49
-656.3040161099999
 53
90.0
 43
109.60000038
 44
248.99999619
 45
-296.47199631
 46
0.0000000000000182
 79
     2
 49
5.92999995
 49
-290.5439949
 53
45.0
 43
109.60000038
 44
255.0
 45
0.0000000000000355
 46
296.47290887
 79
     2
 49
12.57799983
 49
-406.69799805
 53
26.56509972
 43
118.59999657
 44
263.79999161
 45
296.47285424
 46
296.47246092
 79
     2
 49
6.629999879999999
 49
-656.3040161099999
 53
18.43490028
 43
189.79999542
 44
257.99999237
 45
592.9456423699999
 46
296.47124934
 79
     2
 49
9.376000169999999
 49
-928.1539917000001
 53
341.56509399
 43
198.6000061
 44
260.79999924
 45
296.47174563
 46
-0.00040573
 79
     2
 49
18.75
 49
-918.7779998799999
 53
315.0
 43
216.3999939
 44
255.0
 45
296.47290887
 46
-0.0000000000000711
 79
     2
 49
12.57799983
 49
-406.69799805
 53
303.69009399
 43
225.40000916
 44
246.00000381
 45
296.47241205
 46
-296.4732464
 79
     2
 49
10.69000006
 49
-1058.25798035
 53
270.0
 43
231.20000839
 44
237.19999313
 45
296.47199631
 46
-0.0000000000000545
 79
     2
 49
11.85799956
 49
-284.61399078
 53
270.0
 43
231.20000839
 44
225.40000916
 45
296.47199631
 46
-0.0000000000000545
 79
     2
 49
5.92999995
 49
-290.5439949
 53
225.0
 43
231.20000839
 44
219.40000534
 45
-0.0000000000000533
 46
-296.47290887
 79
     2
 49
4.192000029999999
 49
-415.08201599
 53
225.0
 43
228.19999695
 44
216.3999939
 45
-0.0000000000000533
 46
-296.47290887
 79
     2
 49
8.385999799999998
 49
-410.8900070199999
 53
180.0
 43
222.39999771
 44
210.40000916
 45
-0.0000000000000363
 46
-296.47199631
 79
     2
 49
5.92999995
 49
-290.5439949
 53
170.53770447
 43
216.3999939
 44
210.40000916
 45
-296.47186526
 46
-0.00046884
 79
     2
 49
18.0340004
 49
-1785.33798218
 53
170.53770447
 43
198.6000061
 44
213.40000153
 45
-296.47186526
 46
-0.00046884
 79
     2
 49
18.0340004
 49
-1785.33798218
 53
135.0
 43
180.79999924
 44
216.3999939
 45
-296.47290887
 46
0.0000000000000355
 79
     2
 49
8.385999799999998
 49
-410.8900070199999
 53
90.0
 43
175.0
 44
222.39999771
 45
-296.47199631
 46
0.0000000000000182
 79
     2
 49
8.89400005
 49
-287.57799149
 53
68.19860077
 43
175.0
 44
231.20000839
 45
296.47174398
 46
889.4172475300001
 79
     2
 49
15.96600056
 49
-1580.58807373
 53
53.13010025
 43
180.79999924
 44
246.00000381
 45
592.9460432499999
 46
889.4179918
 79
     2
 49
14.8239994
 49
-1467.53997803
 53
104.03620148
 43
216.3999939
 44
183.79999161
 45
-296.47247163
 46
889.41668139
 79
     2
 49
12.2239995
 49
-1210.16403198
 53
71.56500244
 43
213.40000153
 44
195.59999466
 45
0.00087946
 46
296.47174563
 79
     2
 49
9.376000169999999
 49
-928.1539917000001
 53
45.0
 43
216.3999939
 44
204.59999084
 45
0.0000000000000355
 46
296.47290887
 79
     2
 49
8.385999799999998
 49
-410.8900070199999
 53
33.69010162
 43
222.39999771
 44
210.40000916
 45
296.47320692
 46
296.47245153
 79
     2
 49
10.69000006
 49
-1058.25798035
 53
0.0
 43
231.20000839
 44
216.3999939
 45
0.0
 46
296.47199631
 79
     2
 49
11.85799956
 49
-284.61399078
 53
326.30990601
 43
243.19999695
 44
216.3999939
 45
592.9449951399999
 46
-296.47367579
 79
     2
 49
10.69000006
 49
-1058.25798035
 53
315.0
 43
252.00000763
 44
210.40000916
 45
296.47290887
 46
-0.0000000000000711
 79
     2
 49
16.7719996
 49
-402.5040054299999
 53
300.9637146
 43
263.79999161
 44
198.6000061
 45
592.9444088999999
 46
-889.41922419
 79
     2
 49
17.28800058
 49
-1711.43005371
 53
284.0362854
 43
272.80000687
 44
183.79999161
 45
296.47377439
 46
-889.4162471299999
 79
     2
 49
12.2239995
 49
-1210.16403198
 53
270.0
 43
275.79999924
 44
172.00000763
 45
296.47199631
 46
-0.0000000000000545
 79
     2
 49
8.89400005
 49
-287.57799149
 53
243.43499756
 43
275.79999924
 44
162.99999237
 45
-0.00064346
 46
-296.4731053999999
 79
     2
 49
6.629999879999999
 49
-656.3040161099999
 53
206.56500244
 43
272.80000687
 44
157.20000267
 45
-296.47335758
 46
-296.47195758
 79
     2
 49
6.629999879999999
 49
-656.3040161099999
 53
180.0
 43
266.80000305
 44
154.20000076
 45
-0.0000000000000363
 46
-296.47199631
 79
     2
 49
8.89400005
 49
-287.57799149
 53
135.0
 43
257.99999237
 44
154.20000076
 45
-296.47290887
 46
0.0000000000000355
 79
     2
 49
8.385999799999998
 49
-410.8900070199999
 53
146.30990601
 43
252.00000763
 44
160.0
 45
-592.9449951399999
 46
296.47367579
 79
     2
 49
10.69000006
 49
-1058.25798035
 53
165.96380615
 43
243.19999695
 44
166.00000381
 45
-296.47214391
 46
-0.00122822
 79
     2
 49
12.2239995
 49
-1210.16403198
 53
153.43499756
 43
231.20000839
 44
168.99999619
 45
-296.4731053999999
 46
0.00064346
 79
     2
 49
6.629999879999999
 49
-656.3040161099999
 53
126.86990356
 43
225.40000916
 44
172.00000763
 45
-296.47242366
 46
296.47316064
 79
     2
 49
14.8239994
 49
-1467.53997803
 53
71.56500244
 43
263.79999161
 44
204.59999084
 45
0.00087946
 46
296.47174563
 79
     2
 49
9.376000169999999
 49
-928.1539917000001
 53
26.56509972
 43
266.80000305
 44
213.40000153
 45
296.47285424
 46
296.47246092
 79
     2
 49
6.629999879999999
 49
-656.3040161099999
 53
18.43490028
 43
272.80000687
 44
216.3999939
 45
592.9456423699999
 46
296.47124934
 79
     2
 49
9.376000169999999
 49
-928.1539917000001
 53
0.0
 43
281.59999847
 44
219.40000534
 45
0.0
 46
296.47199631
 79
     2
 49
5.92999995
 49
-290.5439949
 53
333.43490601
 43
287.60000229
 44
219.40000534
 45
296.4731053999999
 46
-0.0011172
 79
     2
 49
6.629999879999999
 49
-656.3040161099999
 53
0.0
 43
293.6000061000001
 44
216.3999939
 45
0.0
 46
296.47199631
 79
     2
 49
2.96400011
 49
-293.50799561
 53
333.43490601
 43
0.0
 44
216.3999939
 45
296.4731053999999
 46
-0.0011172
 79
     2
 49
13.25799942
 49
-649.67399597
 53
296.56509399
 43
11.79999948
 44
210.40000916
 45
296.47243131
 46
-296.47288385
 79
     2
 49
6.629999879999999
 49
-656.3040161099999
 53
251.56500244
 43
14.80000019
 44
204.59999084
 45
-0.00087946
 46
-296.47174563
 79
     2
 49
9.376000169999999
 49
-928.1539917000001
 53
251.56500244
 43
11.79999948
 44
195.59999466
 45
-0.00087946
 46
-296.47174563
 79
     2
 49
9.376000169999999
 49
-928.1539917000001
 53
243.43499756
 43
8.79999995
 44
186.80000305
 45
-0.00064346
 46
-296.4731053999999
 79
     2
 49
6.629999879999999
 49
-656.3040161099999
 53
206.56500244
 43
6.00000024
 44
180.79999924
 45
-296.47335758
 46
-296.47195758
 79
     2
 49
6.629999879999999
 49
-656.3040161099999
 53
225.0
 43
296.3999939
 44
177.80000687
 45
-0.0000000000000533
 46
-296.47290887
 79
     2
 49
4.192000029999999
 49
-415.08201599
 53
135.0
 43
281.59999847
 44
175.0
 45
-296.47290887
 46
0.0000000000000355
 79
     2
 49
8.385999799999998
 49
-410.8900070199999
 53
123.69010162
 43
275.79999924
 44
180.79999924
 45
-296.47245153
 46
296.47320692
 79
     2
 49
10.69000006
 49
-1058.25798035
 53
116.56500244
 43
269.79999542
 44
189.79999542
 45
-296.47195758
 46
296.47335758
 79
     2
 49
6.629999879999999
 49
-656.3040161099999
 53
108.43499756
 43
266.80000305
 44
195.59999466
 45
-296.47225602
 46
592.9451390299999
 79
     2
 49
9.376000169999999
 49
-928.1539917000001
 53
153.43499756
 43
243.19999695
 44
216.3999939
 45
-296.4731053999999
 46
0.00064346
 79
     2
 49
6.629999879999999
 49
-656.3040161099999
 53
123.69010162
 43
237.19999313
 44
219.40000534
 45
-296.47245153
 46
296.47320692
 79
     2
 49
10.69000006
 49
-1058.25798035
 53
90.0
 43
231.20000839
 44
228.19999695
 45
-296.47199631
 46
0.0000000000000182
 79
     2
 49
5.92999995
 49
-290.5439949
 53
45.0
 43
231.20000839
 44
234.20000076
 45
0.0000000000000355
 46
296.47290887
 79
     2
 49
4.192000029999999
 49
-415.08201599
 53
26.56509972
 43
234.20000076
 44
237.19999313
 45
296.47285424
 46
296.47246092
 79
     2
 49
6.629999879999999
 49
-656.3040161099999
 53
345.9637146
 43
240.20000458
 44
240.20000458
 45
296.47214391
 46
0.00075448
 79
     2
 49
12.2239995
 49
-1210.16403198
 53
315.0
 43
252.00000763
 44
237.19999313
 45
296.47290887
 46
-0.0000000000000711
 79
     2
 49
8.385999799999998
 49
-410.8900070199999
 53
270.0
 43
257.99999237
 44
231.20000839
 45
296.47199631
 46
-0.0000000000000545
 79
     2
 49
8.89400005
 49
-287.57799149
 53
243.43499756
 43
257.99999237
 44
222.39999771
 45
-0.00064346
 46
-296.4731053999999
 79
     2
 49
6.629999879999999
 49
-656.3040161099999
 53
206.56500244
 43
255.0
 44
216.3999939
 45
-296.47335758
 46
-296.47195758
 79
     2
 49
6.629999879999999
 49
-656.3040161099999
 53
153.43499756
 43
248.99999619
 44
213.40000153
 45
-296.4731053999999
 46
0.00064346
 79
     2
 49
6.629999879999999
 49
-656.3040161099999
 53
198.43499756
 43
14.80000019
 44
219.40000534
 45
-592.9451390299999
 46
-296.47225602
 79
     2
 49
9.376000169999999
 49
-928.1539917000001
 53
180.0
 43
6.00000024
 44
216.3999939
 45
-0.0000000000000363
 46
-296.47199631
 79
     2
 49
5.92999995
 49
-290.5439949
 53
180.0
 43
296.3999939
 44
216.3999939
 45
-0.0000000000000363
 46
-296.47199631
 79
     2
 49
2.96400011
 49
-293.50799561
 53
153.43499756
 43
293.6000061000001
 44
216.3999939
 45
-296.4731053999999
 46
0.00064346
 79
     2
 49
6.629999879999999
 49
-656.3040161099999
 53
180.0
 43
287.60000229
 44
219.40000534
 45
-0.0000000000000363
 46
-296.47199631
 79
     2
 49
5.92999995
 49
-290.5439949
 53
198.43499756
 43
281.59999847
 44
219.40000534
 45
-592.9451390299999
 46
-296.47225602
 79
     2
 49
9.376000169999999
 49
-928.1539917000001
 53
180.0
 43
272.80000687
 44
216.3999939
 45
-0.0000000000000363
 46
-296.47199631
 79
     2
 49
8.89400005
 49
-287.57799149
 53
135.0
 43
263.79999161
 44
216.3999939
 45
-296.47290887
 46
0.0000000000000355
 79
     2
 49
4.192000029999999
 49
-415.08201599
 53
135.0
 43
260.79999924
 44
219.40000534
 45
-296.47290887
 46
0.0000000000000355
 79
     2
 49
4.192000029999999
 49
-415.08201599
 53
90.0
 43
257.99999237
 44
222.39999771
 45
-296.47199631
 46
0.0000000000000182
 79
     2
 49
2.96400011
 49
-293.50799561
 53
45.0
 43
257.99999237
 44
225.40000916
 45
0.0000000000000355
 46
296.47290887
 79
     2
 49
8.385999799999998
 49
-410.8900070199999
 53
26.56509972
 43
263.79999161
 44
231.20000839
 45
296.47285424
 46
296.47246092
 79
     2
 49
6.629999879999999
 49
-656.3040161099999
 53
14.03619957
 43
269.79999542
 44
234.20000076
 45
889.4166912599999
 46
296.47244202
 79
     2
 49
12.2239995
 49
-1210.16403198
 53
0.0
 43
281.59999847
 44
237.19999313
 45
0.0
 46
296.47199631
 79
     2
 49
8.89400005
 49
-287.57799149
 53
333.43490601
 43
290.59999466
 44
237.19999313
 45
296.4731053999999
 46
-0.0011172
 79
     2
 49
6.629999879999999
 49
-656.3040161099999
 53
0.0
 43
0.0
 44
234.20000076
 45
0.0
 46
296.47199631
 79
     2
 49
2.96400011
 49
-293.50799561
 53
0.0
 43
3.00000012
 44
234.20000076
 45
0.0
 46
296.47199631
 79
     2
 49
2.96400011
 49
-293.50799561
 53
341.56509399
 43
6.00000024
 44
234.20000076
 45
296.47174563
 46
-0.00040573
 79
     2
 49
9.376000169999999
 49
-928.1539917000001
 53
315.0
 43
14.80000019
 44
231.20000839
 45
296.47290887
 46
-0.0000000000000711
 79
     2
 49
4.192000029999999
 49
-415.08201599
 53
270.0
 43
17.79999971
 44
228.19999695
 45
296.47199631
 46
-0.0000000000000545
 79
     2
 49
5.92999995
 49
-290.5439949
 53
225.0
 43
17.79999971
 44
222.39999771
 45
-0.0000000000000533
 46
-296.47290887
 79
     2
 49
4.192000029999999
 49
-415.08201599
 53
161.56500244
 43
281.59999847
 44
237.19999313
 45
-296.47174563
 46
0.00087946
 79
     2
 49
9.376000169999999
 49
-928.1539917000001
 53
135.0
 43
272.80000687
 44
240.20000458
 45
-296.47290887
 46
0.0000000000000355
 79
     2
 49
4.192000029999999
 49
-415.08201599
 53
116.56500244
 43
269.79999542
 44
243.19999695
 45
-296.47195758
 46
296.47335758
 79
     2
 49
6.629999879999999
 49
-656.3040161099999
 53
90.0
 43
266.80000305
 44
248.99999619
 45
-296.47199631
 46
0.0000000000000182
 79
     2
 49
5.92999995
 49
-290.5439949
 53
63.43489838
 43
266.80000305
 44
255.0
 45
0.00115667
 46
296.4731053999999
 79
     2
 49
6.629999879999999
 49
-656.3040161099999
 53
33.69010162
 43
269.79999542
 44
260.79999924
 45
296.47320692
 46
296.47245153
 79
     2
 49
10.69000006
 49
-1058.25798035
 53
0.0
 43
278.6000061
 44
266.80000305
 45
0.0
 46
296.47199631
 79
     2
 49
11.85799956
 49
-284.61399078
 53
333.43490601
 43
290.59999466
 44
266.80000305
 45
296.4731053999999
 46
-0.0011172
 79
     2
 49
6.629999879999999
 49
-656.3040161099999
 53
0.0
 43
0.0
 44
263.79999161
 45
0.0
 46
296.47199631
 79
     2
 49
2.96400011
 49
-293.50799561
 53
326.30990601
 43
3.00000012
 44
263.79999161
 45
592.9449951399999
 46
-296.47367579
 79
     2
 49
10.69000006
 49
-1058.25798035
 53
296.56509399
 43
11.79999948
 44
257.99999237
 45
296.47243131
 46
-296.47288385
 79
     2
 49
6.629999879999999
 49
-656.3040161099999
 53
251.56500244
 43
14.80000019
 44
252.00000763
 45
-0.00087946
 46
-296.47174563
 79
     2
 49
9.376000169999999
 49
-928.1539917000001
 53
225.0
 43
8.79999995
 44
237.19999313
 45
-0.0000000000000533
 46
-296.47290887
 79
     2
 49
4.192000029999999
 49
-415.08201599
 53
180.0
 43
6.00000024
 44
234.20000076
 45
-0.0000000000000363
 46
-296.47199631
 79
     2
 49
2.96400011
 49
-293.50799561
 53
153.43499756
 43
296.3999939
 44
234.20000076
 45
-296.4731053999999
 46
0.00064346
 79
     2
 49
6.629999879999999
 49
-656.3040161099999
 53
180.0
 43
3.00000012
 44
234.20000076
 45
-0.0000000000000363
 46
-296.47199631
 79
     2
 49
2.96400011
 49
-293.50799561
 53
180.0
 43
290.59999466
 44
237.19999313
 45
-0.0000000000000363
 46
-296.47199631
 79
     2
 49
8.89400005
 49
-287.57799149
 53
90.0
 43
228.19999695
 44
243.19999695
 45
-296.47199631
 46
0.0000000000000182
 79
     2
 49
2.96400011
 49
-293.50799561
 53
45.0
 43
228.19999695
 44
246.00000381
 45
0.0000000000000355
 46
296.47290887
 79
     2
 49
4.192000029999999
 49
-415.08201599
 53
18.43490028
 43
231.20000839
 44
248.99999619
 45
592.9456423699999
 46
296.47124934
 79
     2
 49
9.376000169999999
 49
-928.1539917000001
 53
345.9637146
 43
240.20000458
 44
252.00000763
 45
296.47214391
 46
0.00075448
 79
     2
 49
12.2239995
 49
-1210.16403198
 53
0.0
 43
252.00000763
 44
248.99999619
 45
0.0
 46
296.47199631
 79
     2
 49
14.8239994
 49
-281.64800644
 53
296.56509399
 43
266.80000305
 44
248.99999619
 45
296.47243131
 46
-296.47288385
 79
     2
 49
6.629999879999999
 49
-656.3040161099999
 53
270.0
 43
269.79999542
 44
243.19999695
 45
296.47199631
 46
-0.0000000000000545
 79
     2
 49
2.96400011
 49
-293.50799561
 53
225.0
 43
269.79999542
 44
240.20000458
 45
-0.0000000000000533
 46
-296.47290887
 79
     2
 49
4.192000029999999
 49
-415.08201599
 53
180.0
 43
266.80000305
 44
237.19999313
 45
-0.0000000000000363
 46
-296.47199631
 79
     2
 49
14.8239994
 49
-281.64800644
 53
165.96380615
 43
252.00000763
 44
237.19999313
 45
-296.47214391
 46
-0.00122822
 79
     2
 49
12.2239995
 49
-1210.16403198
 53
206.56500244
 43
240.20000458
 44
240.20000458
 45
-296.47335758
 46
-296.47195758
 79
     2
 49
6.629999879999999
 49
-656.3040161099999
 53
135.0
 43
234.20000076
 44
237.19999313
 45
-296.47290887
 46
0.0000000000000355
 79
     2
 49
4.192000029999999
 49
-415.08201599
 53
135.0
 43
231.20000839
 44
240.20000458
 45
-296.47290887
 46
0.0000000000000355
 79
     2
 49
4.192000029999999
 49
-415.08201599
 53
180.0
 43
160.0
 44
284.5999908399999
 45
-0.0000000000000363
 46
-296.47199631
 79
     2
 49
2.96400011
 49
-293.50799561
 53
225.0
 43
157.20000267
 44
284.5999908399999
 45
-0.0000000000000533
 46
-296.47290887
 79
     2
 49
4.192000029999999
 49
-415.08201599
 53
270.0
 43
154.20000076
 44
281.59999847
 45
296.47199631
 46
-0.0000000000000545
 79
     2
 49
2.96400011
 49
-293.50799561
 53
270.0
 43
154.20000076
 44
278.6000061
 45
296.47199631
 46
-0.0000000000000545
 79
     2
 49
2.96400011
 49
-293.50799561
 53
315.0
 43
154.20000076
 44
275.79999924
 45
296.47290887
 46
-0.0000000000000711
 79
     2
 49
4.192000029999999
 49
-415.08201599
 53
0.0
 43
157.20000267
 44
272.80000687
 45
0.0
 46
296.47199631
 79
     2
 49
2.96400011
 49
-293.50799561
 53
0.0
 43
160.0
 44
272.80000687
 45
0.0
 46
296.47199631
 79
     2
 49
2.96400011
 49
-293.50799561
 53
333.43490601
 43
162.99999237
 44
272.80000687
 45
296.4731053999999
 46
-0.0011172
 79
     2
 49
6.629999879999999
 49
-656.3040161099999
 53
0.0
 43
168.99999619
 44
269.79999542
 45
0.0
 46
296.47199631
 79
     2
 49
2.96400011
 49
-293.50799561
 53
0.0
 43
172.00000763
 44
269.79999542
 45
0.0
 46
296.47199631
 79
     2
 49
2.96400011
 49
-293.50799561
 53
45.0
 43
175.0
 44
269.79999542
 45
0.0000000000000355
 46
296.47290887
 79
     2
 49
4.192000029999999
 49
-415.08201599
 53
63.43489838
 43
177.80000687
 44
272.80000687
 45
0.00115667
 46
296.4731053999999
 79
     2
 49
6.629999879999999
 49
-656.3040161099999
 53
135.0
 43
180.79999924
 44
278.6000061
 45
-296.47290887
 46
0.0000000000000355
 79
     2
 49
4.192000029999999
 49
-415.08201599
 53
180.0
 43
177.80000687
 44
281.59999847
 45
-0.0000000000000363
 46
-296.47199631
 79
     2
 49
2.96400011
 49
-293.50799561
 53
90.0
 43
195.59999466
 44
287.60000229
 45
-296.47199631
 46
0.0000000000000182
 79
     2
 49
2.96400011
 49
-293.50799561
 53
135.0
 43
195.59999466
 44
290.59999466
 45
-296.47290887
 46
0.0000000000000355
 79
     2
 49
4.192000029999999
 49
-415.08201599
 53
165.96380615
 43
192.80000687
 44
293.6000061000001
 45
-296.47214391
 46
-0.00122822
 79
     2
 49
12.2239995
 49
-1210.16403198
 53
225.0
 43
160.0
 44
296.3999939
 45
-0.0000000000000533
 46
-296.47290887
 79
     2
 49
4.192000029999999
 49
-415.08201599
 53
270.0
 43
157.20000267
 44
293.6000061000001
 45
296.47199631
 46
-0.0000000000000545
 79
     2
 49
2.96400011
 49
-293.50799561
 53
270.0
 43
157.20000267
 44
290.59999466
 45
296.47199631
 46
-0.0000000000000545
 79
     2
 49
2.96400011
 49
-293.50799561
 53
315.0
 43
157.20000267
 44
287.60000229
 45
296.47290887
 46
-0.0000000000000711
 79
     2
 49
4.192000029999999
 49
-415.08201599
 53
0.0
 43
160.0
 44
284.5999908399999
 45
0.0
 46
296.47199631
 79
     2
 49
8.89400005
 49
-287.57799149
 53
341.56509399
 43
168.99999619
 44
284.5999908399999
 45
296.47174563
 46
-0.00040573
 79
     2
 49
9.376000169999999
 49
-928.1539917000001
 53
0.0
 43
177.80000687
 44
281.59999847
 45
0.0
 46
296.47199631
 79
     2
 49
5.92999995
 49
-290.5439949
 53
26.56509972
 43
183.79999161
 44
281.59999847
 45
296.47285424
 46
296.47246092
 79
     2
 49
6.629999879999999
 49
-656.3040161099999
 53
45.0
 43
263.79999161
 44
272.80000687
 45
0.0000000000000355
 46
296.47290887
 79
     2
 49
4.192000029999999
 49
-415.08201599
 53
206.56500244
 43
263.79999161
 44
272.80000687
 45
-296.47335758
 46
-296.47195758
 79
     2
 49
6.629999879999999
 49
-656.3040161099999
 53
206.56500244
 43
257.99999237
 44
269.79999542
 45
-296.47335758
 46
-296.47195758
 79
     2
 49
6.629999879999999
 49
-656.3040161099999
 53
206.56500244
 43
252.00000763
 44
266.80000305
 45
-296.47335758
 46
-296.47195758
 79
     2
 49
6.629999879999999
 49
-656.3040161099999
 53
206.56500244
 43
246.00000381
 44
263.79999161
 45
-296.47335758
 46
-296.47195758
 79
     2
 49
6.629999879999999
 49
-656.3040161099999
 53
243.43499756
 43
240.20000458
 44
260.79999924
 45
-0.00064346
 46
-296.4731053999999
 79
     2
 49
6.629999879999999
 49
-656.3040161099999
 53
225.0
 43
237.19999313
 44
255.0
 45
-0.0000000000000533
 46
-296.47290887
 79
     2
 49
4.192000029999999
 49
-415.08201599
 53
225.0
 43
234.20000076
 44
252.00000763
 45
-0.0000000000000533
 46
-296.47290887
 79
     2
 49
4.192000029999999
 49
-415.08201599
 53
180.0
 43
231.20000839
 44
248.99999619
 45
-0.0000000000000363
 46
-296.47199631
 79
     2
 49
5.92999995
 49
-290.5439949
 53
135.0
 43
225.40000916
 44
248.99999619
 45
-296.47290887
 46
0.0000000000000355
 79
     2
 49
4.192000029999999
 49
-415.08201599
 53
153.43499756
 43
222.39999771
 44
252.00000763
 45
-296.4731053999999
 46
0.00064346
 79
     2
 49
6.629999879999999
 49
-656.3040161099999
 53
161.56500244
 43
216.3999939
 44
255.0
 45
-296.47174563
 46
0.00087946
 79
     2
 49
9.376000169999999
 49
-928.1539917000001
 53
161.56500244
 43
207.60000229
 44
257.99999237
 45
-296.47174563
 46
0.00087946
 79
     2
 49
9.376000169999999
 49
-928.1539917000001
 53
198.43499756
 43
198.6000061
 44
260.79999924
 45
-592.9451390299999
 46
-296.47225602
 79
     2
 49
9.376000169999999
 49
-928.1539917000001
 53
153.43499756
 43
189.79999542
 44
257.99999237
 45
-296.4731053999999
 46
0.00064346
 79
     2
 49
6.629999879999999
 49
-656.3040161099999
 53
135.0
 43
183.79999161
 44
260.79999924
 45
-296.47290887
 46
0.0000000000000355
 79
     2
 49
4.192000029999999
 49
-415.08201599
 53
116.56500244
 43
180.79999924
 44
263.79999161
 45
-296.47195758
 46
296.47335758
 79
     2
 49
6.629999879999999
 49
-656.3040161099999
 53
90.0
 43
177.80000687
 44
269.79999542
 45
-296.47199631
 46
0.0000000000000182
 79
     2
 49
2.96400011
 49
-293.50799561
 53
63.43489838
 43
177.80000687
 44
272.80000687
 45
0.00115667
 46
296.4731053999999
 79
     2
 49
6.629999879999999
 49
-656.3040161099999
 53
45.0
 43
180.79999924
 44
278.6000061
 45
0.0000000000000355
 46
296.47290887
 79
     2
 49
4.192000029999999
 49
-415.08201599
 53
18.43490028
 43
183.79999161
 44
281.59999847
 45
592.9456423699999
 46
296.47124934
 79
     2
 49
9.376000169999999
 49
-928.1539917000001
 53
26.56509972
 43
192.80000687
 44
284.5999908399999
 45
296.47285424
 46
296.47246092
 79
     2
 49
6.629999879999999
 49
-656.3040161099999
 53
33.69010162
 43
198.6000061
 44
287.60000229
 45
296.47320692
 46
296.47245153
 79
     2
 49
10.69000006
 49
-1058.25798035
 53
45.0
 43
207.60000229
 44
293.6000061000001
 45
0.0000000000000355
 46
296.47290887
 79
     2
 49
4.192000029999999
 49
-415.08201599
 53
63.43489838
 43
210.40000916
 44
0.0
 45
0.00115667
 46
296.4731053999999
 79
     2
 49
6.629999879999999
 49
-656.3040161099999
 53
45.0
 43
213.40000153
 44
6.00000024
 45
0.0000000000000355
 46
296.47290887
 79
     2
 49
4.192000029999999
 49
-415.08201599
 53
26.56509972
 43
216.3999939
 44
8.79999995
 45
296.47285424
 46
296.47246092
 79
     2
 49
6.629999879999999
 49
-656.3040161099999
 53
26.56509972
 43
222.39999771
 44
11.79999948
 45
296.47285424
 46
296.47246092
 79
     2
 49
6.629999879999999
 49
-656.3040161099999
 53
345.9637146
 43
228.19999695
 44
14.80000019
 45
296.47214391
 46
0.00075448
 79
     2
 49
12.2239995
 49
-1210.16403198
 53
341.56509399
 43
240.20000458
 44
11.79999948
 45
296.47174563
 46
-0.00040573
 79
     2
 49
9.376000169999999
 49
-928.1539917000001
 53
326.30990601
 43
248.99999619
 44
8.79999995
 45
592.9449951399999
 46
-296.47367579
 79
     2
 49
10.69000006
 49
-1058.25798035
 53
315.0
 43
257.99999237
 44
3.00000012
 45
296.47290887
 46
-0.0000000000000711
 79
     2
 49
4.192000029999999
 49
-415.08201599
 53
315.0
 43
260.79999924
 44
296.3999939
 45
296.47290887
 46
-0.0000000000000711
 79
     2
 49
4.192000029999999
 49
-415.08201599
 53
296.56509399
 43
263.79999161
 44
293.6000061000001
 45
296.47243131
 46
-296.47288385
 79
     2
 49
6.629999879999999
 49
-656.3040161099999
 53
270.0
 43
266.80000305
 44
287.60000229
 45
296.47199631
 46
-0.0000000000000545
 79
     2
 49
5.92999995
 49
-290.5439949
 53
270.0
 43
266.80000305
 44
281.59999847
 45
296.47199631
 46
-0.0000000000000545
 79
     2
 49
5.92999995
 49
-290.5439949
 47
0.775229
 98
        1
 10
0.0
 20
0.0
  0
LWPOLYLINE
  5
CE
330
5D
100
AcDbEntity
  8
Ech.1_5
 62
     7
100
AcDbPolyline
 90
        6
 70
     0
 43
0.0
 10
36661.05799097
 20
7423.742438889999
 10
36664.05657576
 20
7423.74236997
 42
-0.41421356
 10
36674.05657576
 20
7413.742369970001
 10
36674.05657576
 20
7358.07759666
 10
36661.05657578
 20
7358.07759433
 10
36661.05657578
 20
7423.74236764
  0
LWPOLYLINE
  5
CF
330
5D
100
AcDbEntity
  8
Ech.1_5
  6
Continuous
 62
     9
370
    -3
100
AcDbPolyline
 90
        4
 70
     1
 43
0.0
 10
36909.33563831
 20
7344.077594329999
 10
36909.3356266
 20
7358.07759433
 10
36671.05660857
 20
7358.07759433
 10
36671.05660857
 20
7344.077594329999
  0
HATCH
  5
D0
330
5D
100
AcDbEntity
  8
Ech.1_5
  6
Continuous
 62
     9
100
AcDbHatch
 10
0.0
 20
0.0
 30
0.0
210
0.0
220
0.0
230
1.0
  2
ANSI31
 70
     0
 71
     0
 91
        1
 92
        7
 72
     0
 73
     1
 93
        4
 10
36909.33563831
 20
7344.077594329999
 10
36909.3356266
 20
7358.07759433
 10
36671.05660857
 20
7358.07759433
 10
36671.05660857
 20
7344.077594329999
 97
        0
 75
     0
 76
     2
 52
90.0
 41
3.14962605
 77
     0
 78
     1
 53
-45.0
 43
0.0
 44
0.0
 45
7.071067809999999
 46
7.071067809999999
 79
     0
 47
0.775229
 98
        1
 10
0.0
 20
0.0
  0
LWPOLYLINE
  5
D1
330
5D
100
AcDbEntity
  8
Ech.1_5
 62
     7
100
AcDbPolyline
 90
        6
 70
     0
 43
0.0
 10
36327.05516059
 20
7423.74242587
 10
36324.0565758
 20
7423.74235695
 42
0.41421356
 10
36314.0565758
 20
7413.74235695
 10
36314.0565758
 20
7358.07758364
 10
36327.05657578
 20
7358.077581300001
 10
36327.05657578
 20
7423.74235461
  0
LWPOLYLINE
  5
D2
330
5D
100
AcDbEntity
  8
Ech.1_5
  6
Continuous
 62
     9
370
    -3
100
AcDbPolyline
 90
        4
 70
     1
 43
0.0
 10
36069.67063602
 20
7344.077581300002
 10
36069.67064774
 20
7358.077581300001
 10
36316.94929271
 20
7358.077581300001
 10
36316.94929271
 20
7344.077581300002
  0
HATCH
  5
D3
330
5D
100
AcDbEntity
  8
Ech.1_5
  6
Continuous
 62
     9
100
AcDbHatch
 10
0.0
 20
0.0
 30
0.0
210
0.0
220
0.0
230
1.0
  2
ANSI31
 70
     0
 71
     0
 91
        1
 92
        7
 72
     0
 73
     1
 93
        4
 10
36069.67063602
 20
7344.077581300002
 10
36069.67064774
 20
7358.077581300001
 10
36316.94929271
 20
7358.077581300001
 10
36316.94929271
 20
7344.077581300002
 97
        0
 75
     0
 76
     2
 52
90.0
 41
3.14962605
 77
     0
 78
     1
 53
-45.0
 43
0.0
 44
0.0
 45
7.071067809999999
 46
7.071067809999999
 79
     0
 47
0.775229
 98
        1
 10
0.0
 20
0.0
  0
LWPOLYLINE
  5
D4
330
5D
100
AcDbEntity
  8
Ech.1_5
  6
Continuous
 62
     7
370
    -3
100
AcDbPolyline
 90
        4
 70
     1
 43
0.0
 10
36608.05657578
 20
7779.588666239999
 10
36648.05657578
 20
7779.588666239999
 10
36648.05657578
 20
7734.58866624
 10
36608.05657578
 20
7734.58866624
  0
LWPOLYLINE
  5
D5
330
5D
100
AcDbEntity
  8
Ech.1_5
  6
Continuous
 62
     7
370
    -3
100
AcDbPolyline
 90
        4
 70
     1
 43
0.0
 10
36340.05657578
 20
7419.129133830001
 10
36380.05657578
 20
7419.129133830001
 10
36380.05657578
 20
7374.12913383
 10
36340.05657578
 20
7374.12913383
  0
LWPOLYLINE
  5
D6
330
5D
100
AcDbEntity
  8
Ech.1_5
  6
Continuous
 62
     7
370
    -3
100
AcDbPolyline
 90
        4
 70
     1
 43
0.0
 10
36608.05657578
 20
7419.129133830001
 10
36648.05657578
 20
7419.129133830001
 10
36648.05657578
 20
7374.12913383
 10
36608.05657578
 20
7374.12913383
  0
LWPOLYLINE
  5
D7
330
5D
100
AcDbEntity
  8
Ech.1_5
  6
Continuous
 62
     7
370
    -3
100
AcDbPolyline
 90
        4
 70
     1
 43
0.0
 10
36327.05657578
 20
7837.55331829
 10
36340.05657578
 20
7837.55331829
 10
36340.05657578
 20
7354.077594329999
 10
36327.05657578
 20
7354.077594329999
  0
HATCH
  5
D8
330
5D
100
AcDbEntity
  8
Ech.1_5
  6
Continuous
 62
     7
100
AcDbHatch
 10
0.0
 20
0.0
 30
0.0
210
0.0
220
0.0
230
1.0
  2
DOTS2
 70
     0
 71
     0
 91
        1
 92
        7
 72
     0
 73
     1
 93
        4
 10
36327.05657578
 20
7837.55331829
 10
36340.05657578
 20
7837.55331829
 10
36340.05657578
 20
7354.077594329999
 10
36327.05657578
 20
7354.077594329999
 97
        0
 75
     0
 76
     2
 52
0.0
 41
4.72440952
 77
     0
 78
     1
 53
0.0
 43
0.0
 44
0.0
 45
3.75
 46
3.535
 79
     2
 49
0.0
 49
-3.535
 47
0.775229
 98
        1
 10
0.0
 20
0.0
  0
LWPOLYLINE
  5
D9
330
5D
100
AcDbEntity
  8
Ech.1_5
  6
Continuous
 62
     7
370
    -3
100
AcDbPolyline
 90
        4
 70
     1
 43
0.0
 10
36380.05657578
 20
7837.553757329999
 10
36389.05657578
 20
7837.553757329999
 10
36389.05657578
 20
7354.077594329999
 10
36380.05657578
 20
7354.077594329999
  0
HATCH
  5
DA
330
5D
100
AcDbEntity
  8
Ech.1_5
  6
Continuous
 62
     7
100
AcDbHatch
 10
0.0
 20
0.0
 30
0.0
210
0.0
220
0.0
230
1.0
  2
CDWK10A
 70
     0
 71
     0
 91
        1
 92
        7
 72
     0
 73
     1
 93
        4
 10
36380.05657578
 20
7837.553757329999
 10
36389.05657578
 20
7837.553757329999
 10
36389.05657578
 20
7354.077594329999
 10
36380.05657578
 20
7354.077594329999
 97
        0
 75
     0
 76
     2
 52
0.0
 41
1.0
 77
     0
 78
     3
 53
45.0
 43
0.0
 44
0.0
 45
0.0
 46
42.00000167
 79
     0
 53
45.0
 43
0.0
 44
10.80000043
 45
0.0
 46
42.00000167
 79
     0
 53
45.0
 43
0.0
 44
21.60000086
 45
0.0
 46
42.00000167
 79
     0
 47
0.775229
 98
        1
 10
0.0
 20
0.0
  0
LWPOLYLINE
  5
DB
330
5D
100
AcDbEntity
  8
Ech.1_5
  6
Continuous
 62
     7
370
    -3
100
AcDbPolyline
 90
        4
 70
     1
 43
0.0
 10
36648.05657578
 20
7837.55331829
 10
36661.05657578
 20
7837.55331829
 10
36661.05657578
 20
7354.077594329999
 10
36648.05657578
 20
7354.077594329999
  0
HATCH
  5
DC
330
5D
100
AcDbEntity
  8
Ech.1_5
  6
Continuous
 62
     7
100
AcDbHatch
 10
0.0
 20
0.0
 30
0.0
210
0.0
220
0.0
230
1.0
  2
DOTS2
 70
     0
 71
     0
 91
        1
 92
        7
 72
     0
 73
     1
 93
        4
 10
36648.05657578
 20
7837.55331829
 10
36661.05657578
 20
7837.55331829
 10
36661.05657578
 20
7354.077594329999
 10
36648.05657578
 20
7354.077594329999
 97
        0
 75
     0
 76
     2
 52
0.0
 41
4.72440952
 77
     0
 78
     1
 53
0.0
 43
0.0
 44
0.0
 45
3.75
 46
3.535
 79
     2
 49
0.0
 49
-3.535
 47
0.775229
 98
        1
 10
0.0
 20
0.0
  0
LWPOLYLINE
  5
DD
330
5D
100
AcDbEntity
  8
Ech.1_5
  6
Continuous
 62
     7
370
    -3
100
AcDbPolyline
 90
        4
 70
     1
 43
0.0
 10
36340.05657578
 20
7779.588666239999
 10
36380.05657578
 20
7779.588666239999
 10
36380.05657578
 20
7734.58866624
 10
36340.05657578
 20
7734.58866624
  0
LINE
  5
DE
330
5D
100
AcDbEntity
  8
Ech.1_5
  6
Continuous
 62
     7
370
    -3
100
AcDbLine
 10
36484.05657578
 20
7837.554030559999
 30
0.0
 11
36484.05657578
 21
7389.07759433
 31
0.0
  0
LWPOLYLINE
  5
DF
330
5D
100
AcDbEntity
  8
Ech.1_5
  6
Continuous
 62
     7
370
    -3
100
AcDbPolyline
 90
        4
 70
     1
 43
0.0
 10
36599.05657578
 20
7837.553757329999
 10
36608.05657578
 20
7837.553757329999
 10
36608.05657578
 20
7354.077594329999
 10
36599.05657578
 20
7354.077594329999
  0
HATCH
  5
E0
330
5D
100
AcDbEntity
  8
Ech.1_5
  6
Continuous
 62
     7
100
AcDbHatch
 10
0.0
 20
0.0
 30
0.0
210
0.0
220
0.0
230
1.0
  2
CDWK10A
 70
     0
 71
     0
 91
        1
 92
        7
 72
     0
 73
     1
 93
        4
 10
36599.05657578
 20
7837.553757329999
 10
36608.05657578
 20
7837.553757329999
 10
36608.05657578
 20
7354.077594329999
 10
36599.05657578
 20
7354.077594329999
 97
        0
 75
     0
 76
     2
 52
0.0
 41
1.0
 77
     0
 78
     3
 53
45.0
 43
0.0
 44
0.0
 45
0.0
 46
42.00000167
 79
     0
 53
45.0
 43
0.0
 44
10.80000043
 45
0.0
 46
42.00000167
 79
     0
 53
45.0
 43
0.0
 44
21.60000086
 45
0.0
 46
42.00000167
 79
     0
 47
0.775229
 98
        1
 10
0.0
 20
0.0
  0
LINE
  5
E1
330
5D
100
AcDbEntity
  8
Ech.1_5
  6
Continuous
 62
     7
370
    -3
100
AcDbLine
 10
36504.05657578
 20
7837.554030559999
 30
0.0
 11
36504.05657578
 21
7389.07759433
 31
0.0
  0
LWPOLYLINE
  5
E2
330
5D
100
AcDbEntity
  8
Ech.1_5
  6
Continuous
 62
     7
370
    -3
100
AcDbPolyline
 90
        4
 70
     0
 43
0.0
 10
36599.05657578
 20
7389.07759433
 10
36504.05657578
 20
7344.077594329999
 10
36504.05657578
 20
7389.07759433
 10
36599.05657578
 20
7344.077594329999
  0
LWPOLYLINE
  5
E3
330
5D
100
AcDbEntity
  8
Ech.1_5
  6
Continuous
 62
     7
370
    -3
100
AcDbPolyline
 90
        4
 70
     0
 43
0.0
 10
36484.05657578
 20
7389.07759433
 10
36389.05657578
 20
7344.077594329999
 10
36389.05657578
 20
7389.07759433
 10
36484.05657578
 20
7344.077594329999
  0
LWPOLYLINE
  5
E4
330
5D
100
AcDbEntity
  8
Ech.1_5
  6
Continuous
 62
     7
370
    -3
100
AcDbPolyline
 90
        5
 70
     0
 43
0.0
 10
36340.05657578
 20
7779.588666239999
 10
36380.05657578
 20
7779.588666239999
 10
36380.05657578
 20
7734.58866624
 10
36340.05657578
 20
7734.58866624
 10
36340.05657578
 20
7779.588666239999
  0
LWPOLYLINE
  5
E5
330
5D
100
AcDbEntity
  8
Ech.1_5
  6
Continuous
 62
     7
370
    -3
100
AcDbPolyline
 90
        5
 70
     0
 43
0.0
 10
36340.05657578
 20
7419.129133830001
 10
36380.05657578
 20
7419.129133830001
 10
36380.05657578
 20
7374.12913383
 10
36340.05657578
 20
7374.12913383
 10
36340.05657578
 20
7419.129133830001
  0
LWPOLYLINE
  5
E6
330
5D
100
AcDbEntity
  8
Ech.1_5
  6
Continuous
 62
     7
370
    -3
100
AcDbPolyline
 90
        5
 70
     0
 43
0.0
 10
36608.05657578
 20
7779.588666239999
 10
36648.05657578
 20
7779.588666239999
 10
36648.05657578
 20
7734.58866624
 10
36608.05657578
 20
7734.58866624
 10
36608.05657578
 20
7779.588666239999
  0
LWPOLYLINE
  5
E7
330
5D
100
AcDbEntity
  8
Ech.1_5
  6
Continuous
 62
     7
370
    -3
100
AcDbPolyline
 90
        5
 70
     0
 43
0.0
 10
36608.05657578
 20
7419.129133830001
 10
36648.05657578
 20
7419.129133830001
 10
36648.05657578
 20
7374.12913383
 10
36608.05657578
 20
7374.12913383
 10
36608.05657578
 20
7419.129133830001
  0
LWPOLYLINE
  5
E8
330
5D
100
AcDbEntity
  8
Ech.1_5
  6
Continuous
 62
     7
370
    -3
100
AcDbPolyline
 90
        5
 70
     0
 43
0.0
 10
36599.05657578
 20
7344.077594329999
 10
36504.05657578
 20
7344.077594329999
 10
36504.05657578
 20
7389.07759433
 10
36599.05657578
 20
7389.07759433
 10
36599.05657578
 20
7344.077594329999
  0
LWPOLYLINE
  5
E9
330
5D
100
AcDbEntity
  8
Ech.1_5
  6
Continuous
 62
     7
370
    -3
100
AcDbPolyline
 90
        5
 70
     0
 43
0.0
 10
36484.05657578
 20
7344.077594329999
 10
36389.05657578
 20
7344.077594329999
 10
36389.05657578
 20
7389.07759433
 10
36484.05657578
 20
7389.07759433
 10
36484.05657578
 20
7344.077594329999
  0
LWPOLYLINE
  5
EA
102
{ACAD_REACTORS
330
EB
102
}
330
5D
100
AcDbEntity
  8
Ech.1_5
  6
Continuous
 62
     9
370
    -3
100
AcDbPolyline
 90
        8
 70
     1
 43
0.0
 10
36909.3356266
 20
7220.30258878
 10
36909.3356266
 20
7304.07651279
 10
36804.0565396
 20
7304.07736061
 10
36804.0565396
 20
7109.077518800001
 10
36909.3356266
 20
7109.077336590001
 10
36909.3356266
 20
7201.44067156
 10
36891.35827819
 20
7217.92617472
 10
36927.31397819999
 20
7203.816234700001
  0
HATCH
  5
EB
330
5D
100
AcDbEntity
  8
Ech.1_5
  6
Continuous
 62
     9
100
AcDbHatch
 10
0.0
 20
0.0
 30
0.0
210
0.0
220
0.0
230
1.0
  2
ANSI31
 70
     0
 71
     1
 91
        1
 92
        7
 72
     0
 73
     1
 93
        7
 10
36804.0565396
 20
7109.077518800001
 10
36909.3356266
 20
7109.077336589999
 10
36909.3356266
 20
7201.440671560004
 10
36891.35827819002
 20
7217.926174720003
 10
36909.3356266
 20
7210.871401548766
 10
36909.3356266
 20
7304.07651279
 10
36804.0565396
 20
7304.07736061
 97
        1
330
EA
 75
     0
 76
     2
 52
5.0
 41
6.299252099999999
 77
     0
 78
     1
 53
50.0
 43
0.0
 44
0.0
 45
15.32088886
 46
-12.85575219
 79
     0
 47
0.775229
 98
        1
 10
0.0
 20
0.0
  0
LWPOLYLINE
  5
EC
102
{ACAD_REACTORS
330
ED
102
}
330
5D
100
AcDbEntity
  8
Ech.1_5
  6
Continuous
 62
     9
370
    -3
100
AcDbPolyline
 90
       12
 70
     1
 43
0.0
 38
2500.0
 39
-2500.0
 10
36769.86522227
 20
7296.07762471
 10
36769.86522227
 20
7304.07761756
 10
36909.3356266
 20
7304.07651279
 10
36909.3356266
 20
7344.07758648
 10
36794.05672613
 20
7344.07758432
 10
36504.05625030001
 20
7344.077594329999
 10
36504.05625030001
 20
7164.07762471
 10
36692.86522227
 20
7164.07762471
 10
36692.86522227
 20
7209.077624710001
 10
36670.86522227
 20
7209.077624710001
 10
36670.86522227
 20
7254.077624709999
 10
36700.86522227
 20
7254.077624709999
  0
HATCH
  5
ED
330
5D
100
AcDbEntity
  8
Ech.1_5
  6
Continuous
 62
     9
100
AcDbHatch
 10
0.0
 20
0.0
 30
0.0
210
0.0
220
0.0
230
1.0
  2
AR-CONC
 70
     0
 71
     1
 91
        1
 92
        7
 72
     0
 73
     1
 93
       12
 10
36504.05625030001
 20
7164.07762471
 10
36692.86522227
 20
7164.07762471
 10
36692.86522227
 20
7209.077624710001
 10
36670.86522227
 20
7209.077624710001
 10
36670.86522227
 20
7254.077624710001
 10
36700.86522227
 20
7254.077624710001
 10
36769.86522226999
 20
7296.077624709996
 10
36769.86522227
 20
7304.07761756
 10
36909.3356266
 20
7304.07651279
 10
36909.3356266
 20
7344.077586479999
 10
36794.05672613
 20
7344.07758432
 10
36504.05625030001
 20
7344.077594329999
 97
        1
330
EC
 75
     0
 76
     2
 52
5.0
 41
0.11811097
 77
     0
 78
    13
 53
50.0
 43
0.0
 44
0.0
 45
-18.84283637
 46
1.648534429999999
 79
     2
 49
1.97029307
 49
-21.67322338
 53
355.0
 43
0.0
 44
0.0
 45
-3.645077559999999
 46
19.76051824
 79
     2
 49
1.576233769999999
 49
-17.3385787
 53
100.45140076
 43
1.570235679999999
 44
-0.13737749
 45
-15.19777228
 46
-18.11197244
 79
     2
 49
1.67449124
 49
-18.41940522
 53
46.18420029
 43
0.0
 44
5.25411576
 45
-28.03703353
 46
4.34827878
 79
     2
 49
2.95543872
 49
-32.50983238
 53
96.63559723
 43
2.336418849999999
 44
4.891756919999999
 45
-24.55412615
 46
-25.59063404
 79
     2
 49
2.511736969999999
 49
-27.62910426
 53
351.1842041
 43
0.0
 44
5.25411576
 45
24.55410288
 46
25.59065715
 79
     2
 49
2.364352489999999
 49
-26.00786805
 53
21.0
 43
2.627056989999999
 44
3.94058615
 45
-15.68109068
 46
10.57702905
 79
     2
 49
1.97029307
 49
-21.67322338
 53
326.0
 43
2.627056989999999
 44
3.94058615
 45
6.392032679999999
 46
19.05010734
 79
     2
 49
1.576233769999999
 49
-17.3385787
 53
71.45140076
 43
3.933813569999999
 44
3.059165549999999
 45
-22.07312962
 46
-8.473061819999999
 79
     2
 49
1.67449124
 49
-18.41940522
 53
37.5
 43
0.0
 44
0.0
 45
0.31944534
 46
8.74531245
 79
     6
 49
0.01875
 49
-17.12841332
 49
0.01875
 49
-17.60128498
 49
0.01875
 49
-17.40425348
 53
7.499999999999999
 43
0.0
 44
0.0
 45
6.91098818
 46
10.3614222
 79
     6
 49
0.01875
 49
-10.03535807
 49
0.01875
 49
-16.7343539
 49
0.01875
 49
-6.633320599999999
 53
-32.5
 43
-5.858338329999999
 44
0.0
 45
14.02382061
 46
-0.59253003
 79
     6
 49
0.01875
 49
-6.56764314
 49
0.01875
 49
-20.49104869
 49
0.01875
 49
-27.19004452
 53
-42.5
 43
-8.485395309999999
 44
0.0
 45
15.32063571
 46
2.629815419999999
 79
     6
 49
0.01875
 49
-8.537936209999999
 49
0.01875
 49
-13.60815793
 49
0.01875
 49
-19.30887222
 47
0.775229
 98
        1
 10
0.0
 20
0.0
  0
LWPOLYLINE
  5
EE
102
{ACAD_REACTORS
330
EF
102
}
330
5D
100
AcDbEntity
  8
Ech.1_5
  6
Continuous
 62
     9
370
    -3
100
AcDbPolyline
 90
        8
 70
     1
 43
0.0
 10
36069.53677415
 20
7304.07649999
 10
36069.53691136
 20
7220.30258878
 10
36087.51526296
 20
7203.816234700001
 10
36051.55956295
 20
7217.92617472
 10
36069.53691136
 20
7201.44067156
 10
36069.53691136
 20
7109.0773206
 10
36184.05661196
 20
7109.077518800001
 10
36184.05661196
 20
7304.07736061
  0
HATCH
  5
EF
330
5D
100
AcDbEntity
  8
Ech.1_5
  6
Continuous
 62
     9
100
AcDbHatch
 10
0.0
 20
0.0
 30
0.0
210
0.0
220
0.0
230
1.0
  2
ANSI31
 70
     0
 71
     1
 91
        1
 92
        7
 72
     0
 73
     1
 93
        7
 10
36069.53691136
 20
7109.077320599999
 10
36184.05661196001
 20
7109.077518800001
 10
36184.05661196
 20
7304.077360610001
 10
36069.53677415
 20
7304.07649999
 10
36069.53691136
 20
7220.302588779995
 10
36087.51526296
 20
7203.816234699999
 10
36069.53691136
 20
7210.871401548759
 97
        1
330
EE
 75
     0
 76
     2
 52
5.0
 41
6.299252099999999
 77
     0
 78
     1
 53
50.0
 43
0.0
 44
0.0
 45
15.32088886
 46
-12.85575219
 79
     0
 47
0.775229
 98
        1
 10
0.0
 20
0.0
  0
LWPOLYLINE
  5
F0
102
{ACAD_REACTORS
330
F1
102
}
330
5D
100
AcDbEntity
  8
Ech.1_5
  6
Continuous
 62
     9
370
    -3
100
AcDbPolyline
 90
       12
 70
     1
 43
0.0
 38
2500.0
 39
-2500.0
 10
36218.24792929
 20
7304.07761756
 10
36218.24792929
 20
7296.07762471
 10
36287.24792929
 20
7254.077624709999
 10
36317.24792929
 20
7254.077624709999
 10
36317.24792929
 20
7209.077624710001
 10
36295.24792929
 20
7209.077624710001
 10
36295.24792929
 20
7164.07762471
 10
36484.05690126
 20
7164.07762471
 10
36484.05690126
 20
7344.077594329999
 10
36194.05642543
 20
7344.07758432
 10
36069.53677415
 20
7344.07758871
 10
36069.53677415
 20
7304.07556827
  0
HATCH
  5
F1
330
5D
100
AcDbEntity
  8
Ech.1_5
  6
Continuous
 62
     9
100
AcDbHatch
 10
0.0
 20
0.0
 30
0.0
210
0.0
220
0.0
230
1.0
  2
AR-CONC
 70
     0
 71
     1
 91
        1
 92
        7
 72
     0
 73
     1
 93
       12
 10
36069.53677415
 20
7304.07556827
 10
36218.24792929
 20
7304.07761756
 10
36218.24792929
 20
7296.07762471
 10
36287.24792929
 20
7254.077624709999
 10
36317.24792929
 20
7254.077624710001
 10
36317.24792929001
 20
7209.077624710001
 10
36295.24792929
 20
7209.077624709999
 10
36295.24792929
 20
7164.07762471
 10
36484.05690126
 20
7164.077624709999
 10
36484.05690126
 20
7344.077594329999
 10
36194.05642543
 20
7344.07758432
 10
36069.53677415
 20
7344.07758871
 97
        1
330
F0
 75
     0
 76
     2
 52
5.0
 41
0.11811097
 77
     0
 78
    13
 53
50.0
 43
0.0
 44
0.0
 45
-18.84283637
 46
1.648534429999999
 79
     2
 49
1.97029307
 49
-21.67322338
 53
355.0
 43
0.0
 44
0.0
 45
-3.645077559999999
 46
19.76051824
 79
     2
 49
1.576233769999999
 49
-17.3385787
 53
100.45140076
 43
1.570235679999999
 44
-0.13737749
 45
-15.19777228
 46
-18.11197244
 79
     2
 49
1.67449124
 49
-18.41940522
 53
46.18420029
 43
0.0
 44
5.25411576
 45
-28.03703353
 46
4.34827878
 79
     2
 49
2.95543872
 49
-32.50983238
 53
96.63559723
 43
2.336418849999999
 44
4.891756919999999
 45
-24.55412615
 46
-25.59063404
 79
     2
 49
2.511736969999999
 49
-27.62910426
 53
351.1842041
 43
0.0
 44
5.25411576
 45
24.55410288
 46
25.59065715
 79
     2
 49
2.364352489999999
 49
-26.00786805
 53
21.0
 43
2.627056989999999
 44
3.94058615
 45
-15.68109068
 46
10.57702905
 79
     2
 49
1.97029307
 49
-21.67322338
 53
326.0
 43
2.627056989999999
 44
3.94058615
 45
6.392032679999999
 46
19.05010734
 79
     2
 49
1.576233769999999
 49
-17.3385787
 53
71.45140076
 43
3.933813569999999
 44
3.059165549999999
 45
-22.07312962
 46
-8.473061819999999
 79
     2
 49
1.67449124
 49
-18.41940522
 53
37.5
 43
0.0
 44
0.0
 45
0.31944534
 46
8.74531245
 79
     6
 49
0.01875
 49
-17.12841332
 49
0.01875
 49
-17.60128498
 49
0.01875
 49
-17.40425348
 53
7.499999999999999
 43
0.0
 44
0.0
 45
6.91098818
 46
10.3614222
 79
     6
 49
0.01875
 49
-10.03535807
 49
0.01875
 49
-16.7343539
 49
0.01875
 49
-6.633320599999999
 53
-32.5
 43
-5.858338329999999
 44
0.0
 45
14.02382061
 46
-0.59253003
 79
     6
 49
0.01875
 49
-6.56764314
 49
0.01875
 49
-20.49104869
 49
0.01875
 49
-27.19004452
 53
-42.5
 43
-8.485395309999999
 44
0.0
 45
15.32063571
 46
2.629815419999999
 79
     6
 49
0.01875
 49
-8.537936209999999
 49
0.01875
 49
-13.60815793
 49
0.01875
 49
-19.30887222
 47
0.775229
 98
        1
 10
0.0
 20
0.0
  0
LWPOLYLINE
  5
F2
102
{ACAD_REACTORS
330
F3
102
}
330
5D
100
AcDbEntity
  8
Ech.1_5
  6
Continuous
 62
     9
370
    -3
100
AcDbPolyline
 90
       10
 70
     1
 43
0.0
 38
2500.0
 39
-2500.0
 10
36472.86558393
 20
7164.07762471
 10
36284.05661196
 20
7164.07762471
 10
36284.05656438
 20
7065.38556105
 10
36284.05656438
 20
7000.26423101
 10
36396.61050365
 20
7016.60309765
 10
36409.67319087
 20
7036.58484872
 10
36402.02125433
 20
6998.725231209999
 10
36415.13457186
 20
7019.292140880001
 10
36484.05690126
 20
7029.29728629
 10
36484.05690126
 20
7164.07762471
  0
HATCH
  5
F3
330
5D
100
AcDbEntity
  8
Ech.1_5
  6
Continuous
 62
     9
100
AcDbHatch
 10
0.0
 20
0.0
 30
0.0
210
0.0
220
0.0
230
1.0
  2
AR-CONC
 70
     0
 71
     1
 91
        1
 92
        7
 72
     0
 73
     1
 93
        8
 10
36284.05656438
 20
7000.264231010001
 10
36396.61050365
 20
7016.603097650001
 10
36409.67319087001
 20
7036.58484872001
 10
36405.90737772254
 20
7017.952670495363
 10
36484.05690126001
 20
7029.29728629
 10
36484.05690126
 20
7164.07762471
 10
36284.05661196
 20
7164.077624709999
 10
36284.05656438
 20
7065.38556105
 97
        1
330
F2
 75
     0
 76
     2
 52
5.0
 41
0.11811097
 77
     0
 78
    13
 53
50.0
 43
0.0
 44
0.0
 45
-18.84283637
 46
1.648534429999999
 79
     2
 49
1.97029307
 49
-21.67322338
 53
355.0
 43
0.0
 44
0.0
 45
-3.645077559999999
 46
19.76051824
 79
     2
 49
1.576233769999999
 49
-17.3385787
 53
100.45140076
 43
1.570235679999999
 44
-0.13737749
 45
-15.19777228
 46
-18.11197244
 79
     2
 49
1.67449124
 49
-18.41940522
 53
46.18420029
 43
0.0
 44
5.25411576
 45
-28.03703353
 46
4.34827878
 79
     2
 49
2.95543872
 49
-32.50983238
 53
96.63559723
 43
2.336418849999999
 44
4.891756919999999
 45
-24.55412615
 46
-25.59063404
 79
     2
 49
2.511736969999999
 49
-27.62910426
 53
351.1842041
 43
0.0
 44
5.25411576
 45
24.55410288
 46
25.59065715
 79
     2
 49
2.364352489999999
 49
-26.00786805
 53
21.0
 43
2.627056989999999
 44
3.94058615
 45
-15.68109068
 46
10.57702905
 79
     2
 49
1.97029307
 49
-21.67322338
 53
326.0
 43
2.627056989999999
 44
3.94058615
 45
6.392032679999999
 46
19.05010734
 79
     2
 49
1.576233769999999
 49
-17.3385787
 53
71.45140076
 43
3.933813569999999
 44
3.059165549999999
 45
-22.07312962
 46
-8.473061819999999
 79
     2
 49
1.67449124
 49
-18.41940522
 53
37.5
 43
0.0
 44
0.0
 45
0.31944534
 46
8.74531245
 79
     6
 49
0.01875
 49
-17.12841332
 49
0.01875
 49
-17.60128498
 49
0.01875
 49
-17.40425348
 53
7.499999999999999
 43
0.0
 44
0.0
 45
6.91098818
 46
10.3614222
 79
     6
 49
0.01875
 49
-10.03535807
 49
0.01875
 49
-16.7343539
 49
0.01875
 49
-6.633320599999999
 53
-32.5
 43
-5.858338329999999
 44
0.0
 45
14.02382061
 46
-0.59253003
 79
     6
 49
0.01875
 49
-6.56764314
 49
0.01875
 49
-20.49104869
 49
0.01875
 49
-27.19004452
 53
-42.5
 43
-8.485395309999999
 44
0.0
 45
15.32063571
 46
2.629815419999999
 79
     6
 49
0.01875
 49
-8.537936209999999
 49
0.01875
 49
-13.60815793
 49
0.01875
 49
-19.30887222
 47
0.775229
 98
        1
 10
0.0
 20
0.0
  0
3DFACE
  5
F4
102
{ACAD_REACTORS
330
F5
102
}
330
5D
100
AcDbEntity
  8
Ech.1_5
  6
Continuous
 62
     9
370
    -3
100
AcDbFace
 10
36704.0565396
 20
6951.76242707
 30
2500.0
 11
36704.0565396
 21
7056.35903641
 31
2500.0
 12
36504.05620273
 22
7027.32608215
 32
2500.0
 13
36504.05620273
 23
6951.76242707
 33
2500.0
  0
HATCH
  5
F5
330
5D
100
AcDbEntity
  8
Ech.1_5
  6
Continuous
 62
     9
100
AcDbHatch
 10
0.0
 20
0.0
 30
0.0
210
0.0
220
0.0
230
1.0
  2
AR-CONC
 70
     0
 71
     1
 91
        1
 92
        7
 72
     0
 73
     1
 93
        4
 10
36704.0565396
 20
6951.76242707
 10
36704.0565396
 20
7056.35903641
 10
36504.05620273
 20
7027.32608215
 10
36504.05620273
 20
6951.76242707
 97
        1
330
F4
 75
     0
 76
     2
 52
5.0
 41
0.11811097
 77
     0
 78
    13
 53
50.0
 43
0.0
 44
0.0
 45
-18.84283637
 46
1.648534429999999
 79
     2
 49
1.97029307
 49
-21.67322338
 53
355.0
 43
0.0
 44
0.0
 45
-3.645077559999999
 46
19.76051824
 79
     2
 49
1.576233769999999
 49
-17.3385787
 53
100.45140076
 43
1.570235679999999
 44
-0.13737749
 45
-15.19777228
 46
-18.11197244
 79
     2
 49
1.67449124
 49
-18.41940522
 53
46.18420029
 43
0.0
 44
5.25411576
 45
-28.03703353
 46
4.34827878
 79
     2
 49
2.95543872
 49
-32.50983238
 53
96.63559723
 43
2.336418849999999
 44
4.891756919999999
 45
-24.55412615
 46
-25.59063404
 79
     2
 49
2.511736969999999
 49
-27.62910426
 53
351.1842041
 43
0.0
 44
5.25411576
 45
24.55410288
 46
25.59065715
 79
     2
 49
2.364352489999999
 49
-26.00786805
 53
21.0
 43
2.627056989999999
 44
3.94058615
 45
-15.68109068
 46
10.57702905
 79
     2
 49
1.97029307
 49
-21.67322338
 53
326.0
 43
2.627056989999999
 44
3.94058615
 45
6.392032679999999
 46
19.05010734
 79
     2
 49
1.576233769999999
 49
-17.3385787
 53
71.45140076
 43
3.933813569999999
 44
3.059165549999999
 45
-22.07312962
 46
-8.473061819999999
 79
     2
 49
1.67449124
 49
-18.41940522
 53
37.5
 43
0.0
 44
0.0
 45
0.31944534
 46
8.74531245
 79
     6
 49
0.01875
 49
-17.12841332
 49
0.01875
 49
-17.60128498
 49
0.01875
 49
-17.40425348
 53
7.499999999999999
 43
0.0
 44
0.0
 45
6.91098818
 46
10.3614222
 79
     6
 49
0.01875
 49
-10.03535807
 49
0.01875
 49
-16.7343539
 49
0.01875
 49
-6.633320599999999
 53
-32.5
 43
-5.858338329999999
 44
0.0
 45
14.02382061
 46
-0.59253003
 79
     6
 49
0.01875
 49
-6.56764314
 49
0.01875
 49
-20.49104869
 49
0.01875
 49
-27.19004452
 53
-42.5
 43
-8.485395309999999
 44
0.0
 45
15.32063571
 46
2.629815419999999
 79
     6
 49
0.01875
 49
-8.537936209999999
 49
0.01875
 49
-13.60815793
 49
0.01875
 49
-19.30887222
 47
0.775229
 98
        1
 10
0.0
 20
0.0
  0
LWPOLYLINE
  5
F6
102
{ACAD_REACTORS
330
F7
102
}
330
5D
100
AcDbEntity
  8
Ech.1_5
  6
Continuous
 62
     9
370
    -3
100
AcDbPolyline
 90
        6
 70
     1
 43
0.0
 38
2500.0
 39
-2500.0
 10
36692.86522227
 20
7164.07762471
 10
36504.05625030001
 20
7164.07762471
 10
36504.05620273
 20
7065.38556105
 10
36504.05620273
 20
7032.200495179999
 10
36704.0565396
 20
7061.23344944
 10
36704.0565396
 20
7164.07762471
  0
HATCH
  5
F7
330
5D
100
AcDbEntity
  8
Ech.1_5
  6
Continuous
 62
     9
100
AcDbHatch
 10
0.0
 20
0.0
 30
0.0
210
0.0
220
0.0
230
1.0
  2
AR-CONC
 70
     0
 71
     1
 91
        1
 92
        7
 72
     0
 73
     1
 93
        5
 10
36504.05620273
 20
7032.200495180001
 10
36704.0565396
 20
7061.233449439999
 10
36704.05653959999
 20
7164.077624709999
 10
36504.0562503
 20
7164.07762471
 10
36504.05620273
 20
7065.38556105
 97
        1
330
F6
 75
     0
 76
     2
 52
5.0
 41
0.11811097
 77
     0
 78
    13
 53
50.0
 43
0.0
 44
0.0
 45
-18.84283637
 46
1.648534429999999
 79
     2
 49
1.97029307
 49
-21.67322338
 53
355.0
 43
0.0
 44
0.0
 45
-3.645077559999999
 46
19.76051824
 79
     2
 49
1.576233769999999
 49
-17.3385787
 53
100.45140076
 43
1.570235679999999
 44
-0.13737749
 45
-15.19777228
 46
-18.11197244
 79
     2
 49
1.67449124
 49
-18.41940522
 53
46.18420029
 43
0.0
 44
5.25411576
 45
-28.03703353
 46
4.34827878
 79
     2
 49
2.95543872
 49
-32.50983238
 53
96.63559723
 43
2.336418849999999
 44
4.891756919999999
 45
-24.55412615
 46
-25.59063404
 79
     2
 49
2.511736969999999
 49
-27.62910426
 53
351.1842041
 43
0.0
 44
5.25411576
 45
24.55410288
 46
25.59065715
 79
     2
 49
2.364352489999999
 49
-26.00786805
 53
21.0
 43
2.627056989999999
 44
3.94058615
 45
-15.68109068
 46
10.57702905
 79
     2
 49
1.97029307
 49
-21.67322338
 53
326.0
 43
2.627056989999999
 44
3.94058615
 45
6.392032679999999
 46
19.05010734
 79
     2
 49
1.576233769999999
 49
-17.3385787
 53
71.45140076
 43
3.933813569999999
 44
3.059165549999999
 45
-22.07312962
 46
-8.473061819999999
 79
     2
 49
1.67449124
 49
-18.41940522
 53
37.5
 43
0.0
 44
0.0
 45
0.31944534
 46
8.74531245
 79
     6
 49
0.01875
 49
-17.12841332
 49
0.01875
 49
-17.60128498
 49
0.01875
 49
-17.40425348
 53
7.499999999999999
 43
0.0
 44
0.0
 45
6.91098818
 46
10.3614222
 79
     6
 49
0.01875
 49
-10.03535807
 49
0.01875
 49
-16.7343539
 49
0.01875
 49
-6.633320599999999
 53
-32.5
 43
-5.858338329999999
 44
0.0
 45
14.02382061
 46
-0.59253003
 79
     6
 49
0.01875
 49
-6.56764314
 49
0.01875
 49
-20.49104869
 49
0.01875
 49
-27.19004452
 53
-42.5
 43
-8.485395309999999
 44
0.0
 45
15.32063571
 46
2.629815419999999
 79
     6
 49
0.01875
 49
-8.537936209999999
 49
0.01875
 49
-13.60815793
 49
0.01875
 49
-19.30887222
 47
0.775229
 98
        1
 10
0.0
 20
0.0
  0
LWPOLYLINE
  5
F8
102
{ACAD_REACTORS
330
F9
102
}
330
5D
100
AcDbEntity
  8
Ech.1_5
  6
Continuous
 62
     9
370
    -3
100
AcDbPolyline
 90
        4
 70
     1
 43
0.0
 10
36804.0565396
 20
6951.762311419999
 10
36804.0565396
 20
7070.875519490001
 10
36704.0565396
 20
7056.35903641
 10
36704.0565396
 20
6951.76242707
  0
HATCH
  5
F9
330
5D
100
AcDbEntity
  8
Ech.1_5
  6
Continuous
 62
     9
100
AcDbHatch
 10
0.0
 20
0.0
 30
0.0
210
0.0
220
0.0
230
1.0
  2
ANSI31
 70
     0
 71
     1
 91
        1
 92
        7
 72
     0
 73
     1
 93
        4
 10
36704.0565396
 20
6951.76242707
 10
36804.0565396
 20
6951.762311420001
 10
36804.0565396
 20
7070.875519490001
 10
36704.0565396
 20
7056.35903641
 97
        1
330
F8
 75
     0
 76
     2
 52
5.0
 41
6.299252099999999
 77
     0
 78
     1
 53
50.0
 43
0.0
 44
0.0
 45
15.32088886
 46
-12.85575219
 79
     0
 47
0.775229
 98
        1
 10
0.0
 20
0.0
  0
LWPOLYLINE
  5
FA
102
{ACAD_REACTORS
330
FB
102
}
330
5D
100
AcDbEntity
  8
Ech.1_5
  6
Continuous
 62
     9
370
    -3
100
AcDbPolyline
 90
       11
 70
     1
 43
0.0
 10
36704.0565396
 20
7164.078126870001
 10
36704.0565396
 20
7061.23344944
 10
36804.0565396
 20
7075.74993252
 10
36804.0565396
 20
7304.07736061
 10
36769.86489679
 20
7304.07761756
 10
36769.86489679
 20
7296.07762471
 10
36700.86489679
 20
7254.077624709999
 10
36670.86489679
 20
7254.077624709999
 10
36670.86489679
 20
7209.077624710001
 10
36692.86489679
 20
7209.077624710001
 10
36692.86489679
 20
7164.07762471
  0
HATCH
  5
FB
330
5D
100
AcDbEntity
  8
Ech.1_5
  6
Continuous
 62
     9
100
AcDbHatch
 10
0.0
 20
0.0
 30
0.0
210
0.0
220
0.0
230
1.0
  2
ANSI31
 70
     0
 71
     1
 91
        1
 92
        7
 72
     0
 73
     1
 93
       11
 10
36670.86489679
 20
7209.077624710001
 10
36692.86489679
 20
7209.077624710001
 10
36692.86489679
 20
7164.07762471
 10
36704.0565396
 20
7164.078126870001
 10
36704.0565396
 20
7061.23344944
 10
36804.05653959999
 20
7075.749932519999
 10
36804.05653959999
 20
7304.07736061
 10
36769.86489679
 20
7304.07761756
 10
36769.86489678999
 20
7296.077624709997
 10
36700.86489679
 20
7254.077624709999
 10
36670.86489679
 20
7254.077624710001
 97
        1
330
FA
 75
     0
 76
     2
 52
5.0
 41
6.299252099999999
 77
     0
 78
     1
 53
50.0
 43
0.0
 44
0.0
 45
15.32088886
 46
-12.85575219
 79
     0
 47
0.775229
 98
        1
 10
0.0
 20
0.0
  0
LWPOLYLINE
  5
FC
102
{ACAD_REACTORS
330
FD
102
}
330
5D
100
AcDbEntity
  8
Ech.1_5
  6
Continuous
 62
     9
370
    -3
100
AcDbPolyline
 90
        4
 70
     1
 43
0.0
 10
36284.05661196
 20
6951.76242707
 10
36284.05661196
 20
6995.389817980001
 10
36184.05661196
 20
6980.8733349
 10
36184.05661196
 20
6951.762311419999
  0
HATCH
  5
FD
330
5D
100
AcDbEntity
  8
Ech.1_5
  6
Continuous
 62
     9
100
AcDbHatch
 10
0.0
 20
0.0
 30
0.0
210
0.0
220
0.0
230
1.0
  2
ANSI31
 70
     0
 71
     1
 91
        1
 92
        7
 72
     0
 73
     1
 93
        4
 10
36184.05661196001
 20
6951.762311420001
 10
36284.05661196
 20
6951.76242707
 10
36284.05661196
 20
6995.389817980001
 10
36184.05661196
 20
6980.8733349
 97
        1
330
FC
 75
     0
 76
     2
 52
5.0
 41
6.299252099999999
 77
     0
 78
     1
 53
50.0
 43
0.0
 44
0.0
 45
15.32088886
 46
-12.85575219
 79
     0
 47
0.775229
 98
        1
 10
0.0
 20
0.0
  0
LWPOLYLINE
  5
FE
102
{ACAD_REACTORS
330
FF
102
}
330
5D
100
AcDbEntity
  8
Ech.1_5
  6
Continuous
 62
     9
370
    -3
100
AcDbPolyline
 90
       12
 70
     1
 43
0.0
 10
36184.05661196
 20
7304.07736061
 10
36184.05661196
 20
6985.74774793
 10
36284.05661196
 20
7000.26423101
 10
36284.05661196
 20
7065.38959616
 10
36284.05661196
 20
7164.078126870001
 10
36295.24825477
 20
7164.07762471
 10
36295.24825477
 20
7209.077624710001
 10
36317.24825477
 20
7209.077624710001
 10
36317.24825477
 20
7254.077624709999
 10
36287.24825477
 20
7254.077624709999
 10
36218.24825477
 20
7296.07762471
 10
36218.24825477
 20
7304.07761756
  0
HATCH
  5
FF
330
5D
100
AcDbEntity
  8
Ech.1_5
  6
Continuous
 62
     9
100
AcDbHatch
 10
0.0
 20
0.0
 30
0.0
210
0.0
220
0.0
230
1.0
  2
ANSI31
 70
     0
 71
     1
 91
        1
 92
        7
 72
     0
 73
     1
 93
       10
 10
36184.05661196
 20
6985.74774793
 10
36284.05661196
 20
7000.264231009999
 10
36284.05661196
 20
7065.38959616
 10
36284.05661196
 20
7164.078126870001
 10
36295.24825477001
 20
7209.077624710001
 10
36317.24825477001
 20
7209.077624710001
 10
36317.24825476999
 20
7254.077624710001
 10
36287.24825477
 20
7254.077624709999
 10
36205.10557163396
 20
7304.077518792812
 10
36184.05661196
 20
7304.077360610001
 97
        1
330
FE
 75
     0
 76
     2
 52
5.0
 41
6.299252099999999
 77
     0
 78
     1
 53
50.0
 43
0.0
 44
0.0
 45
15.32088886
 46
-12.85575219
 79
     0
 47
0.775229
 98
        1
 10
0.0
 20
0.0
  0
LWPOLYLINE
  5
100
102
{ACAD_REACTORS
330
101
102
}
330
5D
100
AcDbEntity
  8
Ech.1_5
  6
Continuous
 62
     9
370
    -3
100
AcDbPolyline
 90
        8
 70
     1
 43
0.0
 38
2500.0
 39
-2500.0
 10
36416.08598229
 20
7014.596709580001
 10
36394.65896989
 20
6980.990611989999
 10
36402.38511587
 20
7019.217396830001
 10
36397.38172545
 20
7011.875894230001
 10
36284.05661196
 20
6995.389817980001
 10
36284.05658215
 20
6951.76242707
 10
36484.05690126
 20
6951.76242707
 10
36484.05690126
 20
7024.456557899999
  0
HATCH
  5
101
330
5D
100
AcDbEntity
  8
Ech.1_5
  6
Continuous
 62
     9
100
AcDbHatch
 10
0.0
 20
0.0
 30
0.0
210
0.0
220
0.0
230
1.0
  2
AR-CONC
 70
     0
 71
     1
 91
        1
 92
        7
 72
     0
 73
     1
 93
        7
 10
36284.05658215
 20
6951.76242707
 10
36484.05690126
 20
6951.762427070001
 10
36484.05690126
 20
7024.456557899999
 10
36416.08598229
 20
7014.596709580001
 10
36394.65896989
 20
6980.990611989991
 10
36401.00791938063
 20
7012.403418163545
 10
36284.05661196
 20
6995.389817980001
 97
        1
330
100
 75
     0
 76
     2
 52
5.0
 41
0.11811097
 77
     0
 78
    13
 53
50.0
 43
0.0
 44
0.0
 45
-18.84283637
 46
1.648534429999999
 79
     2
 49
1.97029307
 49
-21.67322338
 53
355.0
 43
0.0
 44
0.0
 45
-3.645077559999999
 46
19.76051824
 79
     2
 49
1.576233769999999
 49
-17.3385787
 53
100.45140076
 43
1.570235679999999
 44
-0.13737749
 45
-15.19777228
 46
-18.11197244
 79
     2
 49
1.67449124
 49
-18.41940522
 53
46.18420029
 43
0.0
 44
5.25411576
 45
-28.03703353
 46
4.34827878
 79
     2
 49
2.95543872
 49
-32.50983238
 53
96.63559723
 43
2.336418849999999
 44
4.891756919999999
 45
-24.55412615
 46
-25.59063404
 79
     2
 49
2.511736969999999
 49
-27.62910426
 53
351.1842041
 43
0.0
 44
5.25411576
 45
24.55410288
 46
25.59065715
 79
     2
 49
2.364352489999999
 49
-26.00786805
 53
21.0
 43
2.627056989999999
 44
3.94058615
 45
-15.68109068
 46
10.57702905
 79
     2
 49
1.97029307
 49
-21.67322338
 53
326.0
 43
2.627056989999999
 44
3.94058615
 45
6.392032679999999
 46
19.05010734
 79
     2
 49
1.576233769999999
 49
-17.3385787
 53
71.45140076
 43
3.933813569999999
 44
3.059165549999999
 45
-22.07312962
 46
-8.473061819999999
 79
     2
 49
1.67449124
 49
-18.41940522
 53
37.5
 43
0.0
 44
0.0
 45
0.31944534
 46
8.74531245
 79
     6
 49
0.01875
 49
-17.12841332
 49
0.01875
 49
-17.60128498
 49
0.01875
 49
-17.40425348
 53
7.499999999999999
 43
0.0
 44
0.0
 45
6.91098818
 46
10.3614222
 79
     6
 49
0.01875
 49
-10.03535807
 49
0.01875
 49
-16.7343539
 49
0.01875
 49
-6.633320599999999
 53
-32.5
 43
-5.858338329999999
 44
0.0
 45
14.02382061
 46
-0.59253003
 79
     6
 49
0.01875
 49
-6.56764314
 49
0.01875
 49
-20.49104869
 49
0.01875
 49
-27.19004452
 53
-42.5
 43
-8.485395309999999
 44
0.0
 45
15.32063571
 46
2.629815419999999
 79
     6
 49
0.01875
 49
-8.537936209999999
 49
0.01875
 49
-13.60815793
 49
0.01875
 49
-19.30887222
 47
0.775229
 98
        1
 10
0.0
 20
0.0
  0
LWPOLYLINE
  5
102
330
5D
100
AcDbEntity
  8
Ech.1_5
  6
Continuous
 62
     9
370
    -3
100
AcDbPolyline
 90
      234
 70
     0
 43
0.0
 38
2500.0
 10
36500.72298582
 20
6951.76242748
 42
1.14028181
 10
36499.86028465
 20
6958.31528427
 10
36488.25282055
 20
6955.20922303
 42
-1.303226189999999
 10
36488.25282133
 20
6961.648502590001
 10
36499.86028468
 20
6958.54243854
 42
1.303226189999999
 10
36499.86028546
 20
6964.98171809
 10
36488.25282136
 20
6961.875656860001
 42
-1.303226189999999
 10
36488.25282214
 20
6968.31493641
 10
36499.86028549
 20
6965.20887236
 42
1.303226189999999
 10
36499.86028627
 20
6971.64815192
 10
36488.25282217
 20
6968.54209068
 42
-1.303226189999999
 10
36488.25282295
 20
6974.98137024
 10
36499.86028629
 20
6971.87530618
 42
1.303226189999999
 10
36499.86028708001
 20
6978.31458574
 10
36488.25282297
 20
6975.208524500001
 42
-1.303226189999999
 10
36488.25282376
 20
6981.64780406
 10
36499.8602871
 20
6978.54174001
 42
1.303226189999999
 10
36499.86028788
 20
6984.98101956
 10
36488.25282378
 20
6981.87495832
 42
-1.303226189999999
 10
36488.25282456
 20
6988.31423788
 10
36499.86028791
 20
6985.20817383
 42
1.303226189999999
 10
36499.86028869
 20
6991.64745339
 10
36488.25282459001
 20
6988.541392150001
 42
-1.303226189999999
 10
36488.25282537
 20
6994.98067171
 10
36499.86028872
 20
6991.87460765
 42
1.303226189999999
 10
36499.8602895
 20
6998.31388721
 10
36488.2528254
 20
6995.20782597
 42
-1.303226189999999
 10
36488.25282618
 20
7001.64710553
 10
36499.86028953
 20
6998.54104147
 42
1.303226189999999
 10
36499.86029031
 20
7004.98032103
 10
36488.25282621
 20
7001.87425979
 42
-1.303226189999999
 10
36488.25282699
 20
7008.31353935
 10
36499.86029034
 20
7005.207475300001
 42
1.303226189999999
 10
36499.86029112
 20
7011.64675486
 10
36488.25282702
 20
7008.54069362
 42
-1.303226189999999
 10
36488.2528278
 20
7014.979973169999
 10
36499.86029115
 20
7011.87390912
 42
1.303226189999999
 10
36499.86029193001
 20
7018.31318868
 10
36488.25282782
 20
7015.20712744
 42
-1.303226189999999
 10
36488.25282861
 20
7021.646407
 10
36499.86029195
 20
7018.540342940001
 42
1.303226189999999
 10
36499.86029273
 20
7024.9796225
 10
36488.25282863
 20
7021.87356126
 42
-1.303226189999999
 10
36488.25282941
 20
7028.312840819999
 10
36499.86029276
 20
7025.20677677
 42
1.303226189999999
 10
36499.86029354
 20
7031.646056319999
 10
36488.25282944001
 20
7028.53999509
 42
-1.303226189999999
 10
36488.25283022
 20
7034.97927464
 10
36499.86029357
 20
7031.873210589999
 42
1.303226189999999
 10
36499.86029435
 20
7038.31249015
 10
36488.25283025
 20
7035.20642891
 42
-1.303226189999999
 10
36488.25283103
 20
7041.645708469999
 10
36499.86029438
 20
7038.53964441
 42
1.303226189999999
 10
36499.86029516
 20
7044.978923970001
 10
36488.25283106
 20
7041.87286273
 42
-1.303226189999999
 10
36488.25283184
 20
7048.31214229
 10
36499.86029519
 20
7045.206078240001
 42
1.303226189999999
 10
36499.86029597
 20
7051.64535779
 10
36488.25283187
 20
7048.53929655
 42
-1.303226189999999
 10
36488.25283265
 20
7054.978576109999
 10
36499.860296
 20
7051.87251206
 42
1.303226189999999
 10
36499.86029678001
 20
7058.311791619999
 10
36488.25283267
 20
7055.205730379999
 42
-1.303226189999999
 10
36488.25283346
 20
7061.64500994
 10
36499.86029680001
 20
7058.538945880001
 42
1.303226189999999
 10
36499.86029758
 20
7064.978225439999
 10
36488.25283348
 20
7061.8721642
 42
-1.303226189999999
 10
36488.25283426
 20
7068.311443759999
 10
36499.86029761
 20
7065.2053797
 42
1.303226189999999
 10
36499.86029839
 20
7071.644659259999
 10
36488.25283429
 20
7068.538598019999
 42
-1.303226189999999
 10
36488.25283507
 20
7074.97787758
 10
36499.86029842
 20
7071.871813529999
 42
1.303226189999999
 10
36499.8602992
 20
7078.31109309
 10
36488.2528351
 20
7075.20503185
 42
-1.303226189999999
 10
36488.25283588
 20
7081.644311399999
 10
36499.86029923
 20
7078.53824735
 42
1.303226189999999
 10
36499.86030001
 20
7084.977526910001
 10
36488.25283591
 20
7081.871465670001
 42
-1.303226189999999
 10
36488.25283669
 20
7088.31074523
 10
36499.86030004
 20
7085.204681170001
 42
1.303226189999999
 10
36499.86030082
 20
7091.64396073
 10
36488.25283672
 20
7088.537899490001
 42
-1.303226189999999
 10
36488.2528375
 20
7094.977179049999
 10
36499.86030085
 20
7091.871115
 42
1.303226189999999
 10
36499.86030163
 20
7098.310394550001
 10
36488.25283753001
 20
7095.204333319999
 42
-1.303226189999999
 10
36488.25283831
 20
7101.643612869999
 10
36499.86030165
 20
7098.537548820001
 42
1.303226189999999
 10
36499.86030244
 20
7104.97682838
 10
36488.25283833
 20
7101.870767139999
 42
-1.303226189999999
 10
36488.25283911
 20
7108.310046699999
 10
36499.86030246
 20
7105.203982639999
 42
1.303226189999999
 10
36499.86030324
 20
7111.643262199999
 10
36488.25283914
 20
7108.537200959999
 42
-1.303226189999999
 10
36488.25283992001
 20
7114.976480520001
 10
36499.86030327
 20
7111.870416470001
 42
1.303226189999999
 10
36499.86030405
 20
7118.30969602
 10
36488.25283995
 20
7115.203634780001
 42
-1.303226189999999
 10
36488.25284073
 20
7121.64291434
 10
36499.86030408
 20
7118.53685029
 42
1.303226189999999
 10
36499.86030486
 20
7124.976129850001
 10
36488.25284076
 20
7121.87006861
 42
-1.303226189999999
 10
36488.25284154
 20
7128.309348169999
 10
36499.86030489
 20
7125.20328411
 42
1.303226189999999
 10
36499.86030567
 20
7131.64256367
 10
36488.25284157
 20
7128.536502430001
 42
-1.303226189999999
 10
36488.25284235
 20
7134.975781989999
 10
36499.8603057
 20
7131.86971793
 42
1.303226189999999
 10
36499.86030648
 20
7138.30899749
 10
36488.25284238001
 20
7135.20293625
 42
-1.303226189999999
 10
36488.25284316
 20
7141.642215810001
 10
36499.8603065
 20
7138.53615176
 42
1.303226189999999
 10
36499.86030729
 20
7144.97543132
 10
36488.25284318
 20
7141.869370080001
 42
-1.303226189999999
 10
36488.25284396
 20
7148.30864963
 10
36499.86030731001
 20
7145.20258558
 42
1.303226189999999
 10
36499.86030809
 20
7151.64186514
 10
36488.25284399
 20
7148.535803899999
 42
-1.303226189999999
 10
36488.25284477001
 20
7154.97508346
 10
36499.86030812
 20
7151.869019399999
 42
1.303226189999999
 10
36499.8603089
 20
7158.30829896
 10
36488.2528448
 20
7155.202237720001
 42
-1.303226189999999
 10
36488.25284558
 20
7161.64151728
 10
36499.86030893
 20
7158.53545323
 42
1.303226189999999
 10
36499.86030971
 20
7164.97473278
 10
36488.25284561
 20
7161.86867155
 42
-1.303226189999999
 10
36488.25284639
 20
7168.3079511
 10
36499.86030974
 20
7165.20188705
 42
1.303226189999999
 10
36499.86031052
 20
7171.64116661
 10
36488.25284642
 20
7168.535105370001
 42
-1.303226189999999
 10
36488.2528472
 20
7174.97438493
 10
36499.86031055
 20
7171.86832087
 42
1.303226189999999
 10
36499.86031133
 20
7178.30760043
 10
36488.25284723
 20
7175.20153919
 42
-1.303226189999999
 10
36488.25284801
 20
7181.64081875
 10
36499.86031135
 20
7178.5347547
 42
1.303226189999999
 10
36499.86031214
 20
7184.97403425
 10
36488.25284803
 20
7181.86797301
 42
-1.303226189999999
 10
36488.25284882
 20
7188.30725257
 10
36499.86031216001
 20
7185.20118852
 42
1.303226189999999
 10
36499.86031294
 20
7191.64046808
 10
36488.25284884
 20
7188.53440684
 42
-1.303226189999999
 10
36488.25284962001
 20
7194.9736864
 10
36499.86031297
 20
7191.86762234
 42
1.303226189999999
 10
36499.86031375
 20
7198.3069019
 10
36488.25284965
 20
7195.20084066
 42
-1.303226189999999
 10
36488.25285043
 20
7201.64012022
 10
36499.86031378
 20
7198.53405617
 42
1.303226189999999
 10
36499.86031456
 20
7204.97333572
 10
36488.25285046
 20
7201.86727448
 42
-1.303226189999999
 10
36488.25285124
 20
7208.306554039999
 10
36499.86031459
 20
7205.20048999
 42
1.303226189999999
 10
36499.86031537
 20
7211.63976955
 10
36488.25285127
 20
7208.53370831
 42
-1.303226189999999
 10
36488.25285205
 20
7214.97298786
 10
36499.8603154
 20
7211.866923809999
 42
1.303226189999999
 10
36499.86031618
 20
7218.30620337
 10
36488.25285208
 20
7215.20014213
 42
-1.303226189999999
 10
36488.25285286
 20
7221.639421689999
 10
36499.86031621
 20
7218.53335763
 42
1.303226189999999
 10
36499.86031699
 20
7224.972637189999
 10
36488.25285288
 20
7221.86657595
 42
-1.303226189999999
 10
36488.25285367
 20
7228.30585551
 10
36499.86031701001
 20
7225.199791459999
 42
1.303226189999999
 10
36499.86031779
 20
7231.63907101
 10
36488.25285369
 20
7228.53300978
 42
-1.303226189999999
 10
36488.25285447001
 20
7234.972289330001
 10
36499.86031782
 20
7231.866225280001
 42
1.303226189999999
 10
36499.8603186
 20
7238.305504840001
 10
36488.2528545
 20
7235.199443600001
 42
-1.303226189999999
 10
36488.25285528
 20
7241.63872316
 10
36499.86031863
 20
7238.532659100001
 42
1.303226189999999
 10
36499.86031941
 20
7244.971938659999
 10
36488.25285531
 20
7241.865877420001
 42
-1.303226189999999
 10
36488.25285609
 20
7248.305156979999
 10
36499.86031944
 20
7245.19909293
 42
1.303226189999999
 10
36499.86032022
 20
7251.638372479999
 10
36488.25285612
 20
7248.532311249999
 42
-1.303226189999999
 10
36488.2528569
 20
7254.971590800001
 10
36499.86032025
 20
7251.865526749999
 42
1.303226189999999
 10
36499.86032103
 20
7258.304806309999
 10
36488.25285693
 20
7255.19874507
 42
-1.303226189999999
 10
36488.25285771
 20
7261.638024629999
 10
36499.86032106
 20
7258.53196057
 42
1.303226189999999
 10
36499.86032184
 20
7264.971240130001
 10
36488.25285774
 20
7261.865178889999
 42
-1.303226189999999
 10
36488.25285852
 20
7268.304458450001
 10
36499.86032186
 20
7265.198394399999
 42
1.303226189999999
 10
36499.86032264
 20
7271.63767395
 10
36488.25285854
 20
7268.531612710001
 42
-1.303226189999999
 10
36488.25285932
 20
7274.970892270001
 10
36499.86032267
 20
7271.86482822
 42
1.303226189999999
 10
36499.86032345
 20
7278.304107780001
 10
36488.25285935
 20
7275.198046540001
 42
-1.303226189999999
 10
36488.25286013
 20
7281.637326100001
 10
36499.86032348
 20
7278.531262040001
 42
1.303226189999999
 10
36499.86032426
 20
7284.9705416
 10
36488.25286016
 20
7281.864480360001
 42
-1.303226189999999
 10
36488.25286094
 20
7288.303759919999
 10
36499.86032429
 20
7285.19769586
 42
1.303226189999999
 10
36499.86032507
 20
7291.636975420001
 10
36488.25286097
 20
7288.530914179999
 42
-1.303226189999999
 10
36488.25286175
 20
7294.970193739999
 10
36499.8603251
 20
7291.864129689999
 42
1.303226189999999
 10
36499.86032588
 20
7298.30340925
 10
36488.25286178
 20
7295.197348009999
 42
-1.303226189999999
 10
36488.25286256
 20
7301.63662756
 10
36499.86032591
 20
7298.53056351
 42
1.303226189999999
 10
36499.86032669001
 20
7304.969843070001
 10
36488.25286259
 20
7301.86378183
 42
-1.303226189999999
 10
36488.25286337
 20
7308.303061390001
 10
36499.86032671
 20
7305.19699733
 42
1.303226189999999
 10
36499.8603275
 20
7311.63627689
 10
36488.25286339
 20
7308.530215650001
 42
-1.303226189999999
 10
36488.25286417
 20
7314.96949521
 10
36499.86032752
 20
7311.86343116
 42
1.303226189999999
 10
36499.86032830001
 20
7318.30271071
 10
36488.2528642
 20
7315.19664948
 42
-1.303226189999999
 10
36488.25286498
 20
7321.635929030001
 10
36499.86032833
 20
7318.52986498
 42
1.303226189999999
 10
36499.86032911
 20
7324.96914454
 10
36488.25286501
 20
7321.863083300001
 42
-1.303226189999999
 10
36488.25286579
 20
7328.30236286
 10
36499.86032914
 20
7325.1962988
 42
1.303226189999999
 10
36499.86032992
 20
7331.63557836
 10
36488.25286582
 20
7328.529517119999
 42
-1.303226189999999
 10
36488.2528666
 20
7334.968796680001
 10
36499.86032995
 20
7331.86273263
 42
1.303226189999999
 10
36499.86033073
 20
7338.30201218
 10
36488.25286663
 20
7335.195950940001
 42
-1.303226189999999
 10
36488.25286741
 20
7341.635230500002
 10
36499.86033076
 20
7338.52916645
 42
0.7626216300000001
 10
36503.10779304
 20
7344.07759444
  0
CIRCLE
  5
103
330
5D
100
AcDbEntity
  8
Ech.1_5
  6
Continuous
 62
     7
100
AcDbCircle
 10
36633.58440661001
 20
7348.99554807
 30
0.0
 40
6.164441209999999
  0
HATCH
  5
104
330
5D
100
AcDbEntity
  8
Ech.1_5
 62
     7
100
AcDbHatch
 10
0.0
 20
0.0
 30
0.0
210
0.0
220
0.0
230
1.0
  2
ANSI31
 70
     0
 71
     0
 91
        1
 92
        7
 72
     1
 73
     1
 93
        2
 10
36639.74884781
 20
7348.99554807
 42
1.0
 10
36627.41996540001
 20
7348.99554807
 42
1.0
 97
        0
 75
     0
 76
     2
 52
0.0
 41
0.9448878499999999
 77
     0
 78
     1
 53
45.0
 43
0.0
 44
0.0
 45
2.121320429999999
 46
-2.121320429999999
 79
     0
 47
0.775229
 98
        1
 10
0.0
 20
0.0
  0
CIRCLE
  5
105
330
5D
100
AcDbEntity
  8
Ech.1_5
  6
Continuous
 62
     7
100
AcDbCircle
 10
36354.52874495
 20
7348.99554807
 30
0.0
 40
6.164441209999999
  0
HATCH
  5
106
330
5D
100
AcDbEntity
  8
Ech.1_5
 62
     7
100
AcDbHatch
 10
0.0
 20
0.0
 30
0.0
210
0.0
220
0.0
230
1.0
  2
ANSI31
 70
     0
 71
     0
 91
        1
 92
        7
 72
     1
 73
     1
 93
        2
 10
36348.36430375
 20
7348.99554807
 42
-1.0
 10
36360.69318616
 20
7348.99554807
 42
-1.0
 97
        0
 75
     0
 76
     2
 52
0.0
 41
0.9448878499999999
 77
     0
 78
     1
 53
45.0
 43
0.0
 44
0.0
 45
2.121320429999999
 46
-2.121320429999999
 79
     0
 47
0.775229
 98
        1
 10
0.0
 20
0.0
  0
LINE
  5
107
330
5D
100
AcDbEntity
  8
Ech.1_5
  6
CENTER
 62
   204
370
    70
100
AcDbLine
 10
36374.79973487
 20
7343.2331764
 30
0.0
 11
36488.41464625
 21
7343.2331764
 31
0.0
  0
LINE
  5
108
330
5D
100
AcDbEntity
  8
Ech.1_5
  6
CENTER
 62
   204
370
    70
100
AcDbLine
 10
36499.44115146
 20
7343.2331764
 30
0.0
 11
36613.05606284
 21
7343.2331764
 31
0.0
  0
LWPOLYLINE
  5
109
330
5D
100
AcDbEntity
  8
Ech.1_5
  6
CADWORK_22
 62
     1
370
    35
100
AcDbPolyline
 90
        6
 70
     0
 43
0.0
 10
36609.55657578
 20
7837.554030559999
 10
36609.55657578
 20
7346.35475356
 10
36626.80535129
 20
7346.35475356
 10
36635.01311362
 20
7354.45494676
 10
36641.59247104
 20
7346.35493264
 10
36658.71523539
 20
7346.35493264
  0
LWPOLYLINE
  5
10A
330
5D
100
AcDbEntity
  8
Ech.1_5
  6
CADWORK_22
 62
     1
370
    35
100
AcDbPolyline
 90
        6
 70
     0
 43
0.0
 10
36378.55657578
 20
7837.554030559999
 10
36378.55657578
 20
7346.35475356
 10
36361.30780027
 20
7346.35475356
 10
36353.10003794
 20
7354.45494676
 10
36346.52068052
 20
7346.35493264
 10
36329.39791617
 20
7346.35493264
  0
LWPOLYLINE
  5
10B
330
5D
100
AcDbEntity
  8
Ech.1_5
 62
     7
100
AcDbPolyline
 90
        5
 70
     0
 43
0.0
 10
36090.85927731
 20
7756.22527264
 10
36225.2880563
 20
7756.22527264
 10
36225.2880563
 20
7699.50231383
 10
36090.85927731
 20
7699.50231383
 10
36090.85927731
 20
7756.22527264
  0
LWPOLYLINE
  5
10C
330
5D
100
AcDbEntity
  8
Ech.1_5
 62
     7
100
AcDbPolyline
 90
        5
 70
     0
 43
0.0
 10
36109.1393231
 20
7722.56846151
 10
36159.13932310001
 20
7722.56846151
 10
36159.13932310001
 20
7729.98359905
 10
36109.1393231
 20
7729.98359905
 10
36109.1393231
 20
7722.56846151
  0
LWPOLYLINE
  5
10D
330
5D
100
AcDbEntity
  8
Ech.1_5
 62
     7
100
AcDbPolyline
 90
        5
 70
     0
 43
0.0
 10
36159.13932310001
 20
7722.56846151
 10
36209.13932310001
 20
7722.56846151
 10
36209.13932310001
 20
7729.98359905
 10
36159.13932310001
 20
7729.98359905
 10
36159.13932310001
 20
7722.56846151
  0
LWPOLYLINE
  5
10E
330
5D
100
AcDbEntity
  8
Ech.1_5
  6
Continuous
 62
     9
370
    -3
100
AcDbPolyline
 90
        6
 70
     0
 43
0.0
 10
36069.53691136
 20
6836.11894112
 10
36069.53691136
 20
7201.44067156
 10
36051.55956295
 20
7217.92617472
 10
36087.51526296
 20
7203.816234700001
 10
36069.53691136
 20
7220.30258878
 10
36069.53677415
 20
7378.077581300001
  0
LWPOLYLINE
  5
10F
330
5D
100
AcDbEntity
  8
Ech.1_5
  6
Continuous
 62
     9
370
    -3
100
AcDbPolyline
 90
        6
 70
     0
 43
0.0
 10
36909.3356266
 20
6836.11894112
 10
36909.3356266
 20
7201.44067156
 10
36891.35827819
 20
7217.92617472
 10
36927.31397819999
 20
7203.816234700001
 10
36909.3356266
 20
7220.30258878
 10
36909.3354894
 20
7378.077581300001
  0
LWPOLYLINE
  5
110
330
5D
100
AcDbEntity
  8
Ech.1_5
  6
Continuous
 62
     7
370
    -3
100
AcDbPolyline
 90
        6
 70
     0
 43
0.0
 10
36307.05657578
 20
7837.552440340001
 10
36413.04050024
 20
7837.55331829
 10
36429.52600340001
 20
7855.530666689999
 10
36415.41606338
 20
7819.57496668
 10
36431.90241746
 20
7837.55331829
 10
36681.05657578
 20
7837.55331829
  0
LWPOLYLINE
  5
111
330
5D
100
AcDbEntity
  8
Ech.1_5
  6
Continuous
 62
     9
370
    -3
100
AcDbPolyline
 90
        6
 70
     0
 43
0.0
 10
36824.37089724
 20
7078.69914263
 10
36415.13457186
 20
7019.292140880001
 10
36402.02125433
 20
6998.725231209999
 10
36409.67319087
 20
7036.58484872
 10
36396.61050365
 20
7016.60309765
 10
36171.75575955
 20
6983.96209677
  0
LWPOLYLINE
  5
112
330
5D
100
AcDbEntity
  8
Ech.1_5
  6
Continuous
 62
     9
370
    -3
100
AcDbPolyline
 90
        6
 70
     0
 43
0.0
 10
36823.93875673
 20
7073.759753960001
 10
36416.08598229
 20
7014.596709580001
 10
36394.65896989
 20
6980.990611989999
 10
36402.38511587
 20
7019.217396830001
 10
36397.38172545
 20
7011.875894230001
 10
36171.32363142
 20
6979.02284961
  0
LWPOLYLINE
  5
113
330
5D
100
AcDbEntity
  8
Ech.1_5
  6
Continuous
 62
     7
370
    -3
100
AcDbPolyline
 90
        5
 70
     0
 43
0.0
 10
35999.22171160001
 20
6644.907792579999
 10
36984.2217116
 20
6644.907792579999
 10
36984.2217116
 20
7999.907792580001
 10
35999.22171160001
 20
7999.907792580001
 10
35999.22171160001
 20
6644.907792579999
  0
LWPOLYLINE
  5
114
330
5D
100
AcDbEntity
  8
Ech.1_5
  6
Continuous
 62
     7
370
    -3
100
AcDbPolyline
 90
        4
 70
     0
 43
0.0
 10
36599.05657578
 20
7434.07759433
 10
36504.05657578
 20
7389.07759433
 10
36504.05657578
 20
7434.07759433
 10
36599.05657578
 20
7389.07759433
  0
LWPOLYLINE
  5
115
330
5D
100
AcDbEntity
  8
Ech.1_5
  6
Continuous
 62
     7
370
    -3
100
AcDbPolyline
 90
        5
 70
     0
 43
0.0
 10
36599.05657578
 20
7389.07759433
 10
36504.05657578
 20
7389.07759433
 10
36504.05657578
 20
7434.07759433
 10
36599.05657578
 20
7434.07759433
 10
36599.05657578
 20
7389.07759433
  0
LWPOLYLINE
  5
116
330
5D
100
AcDbEntity
  8
Ech.1_5
  6
Continuous
 62
     7
370
    -3
100
AcDbPolyline
 90
        4
 70
     0
 43
0.0
 10
36484.05657578
 20
7434.07759433
 10
36389.05657578
 20
7389.07759433
 10
36389.05657578
 20
7434.07759433
 10
36484.05657578
 20
7389.07759433
  0
LWPOLYLINE
  5
117
330
5D
100
AcDbEntity
  8
Ech.1_5
  6
Continuous
 62
     7
370
    -3
100
AcDbPolyline
 90
        5
 70
     0
 43
0.0
 10
36484.05657578
 20
7389.07759433
 10
36389.05657578
 20
7389.07759433
 10
36389.05657578
 20
7434.07759433
 10
36484.05657578
 20
7434.07759433
 10
36484.05657578
 20
7389.07759433
  0
LWPOLYLINE
  5
118
330
5D
100
AcDbEntity
  8
Ech.1_5
  6
Continuous
 62
     7
370
     5
100
AcDbPolyline
 90
        5
 70
     0
 43
0.0
 10
36109.1393231
 20
7722.56846151
 10
36159.13932310001
 20
7722.56846151
 10
36159.13932310001
 20
7729.98359905
 10
36109.1393231
 20
7729.98359905
 10
36109.1393231
 20
7722.56846151
  0
LWPOLYLINE
  5
119
330
5D
100
AcDbEntity
  8
Ech.1_5
  6
Continuous
 62
     7
370
    -3
100
AcDbPolyline
 90
        5
 70
     0
 43
0.0
 10
36599.05657578
 20
7837.553757329999
 10
36504.05657578
 20
7837.553912610001
 10
36504.05657578
 20
7389.07759433
 10
36599.05657578
 20
7389.07759433
 10
36599.05657578
 20
7837.553757329999
  0
LWPOLYLINE
  5
11A
330
5D
100
AcDbEntity
  8
Ech.1_5
  6
Continuous
 62
     7
370
    -3
100
AcDbPolyline
 90
        5
 70
     0
 43
0.0
 10
36484.05657578
 20
7344.076912210001
 10
36389.05657578
 20
7344.077594329999
 10
36389.05657578
 20
7389.07759433
 10
36484.05657578
 20
7389.07691221
 10
36484.05657578
 20
7344.076912210001
  0
LWPOLYLINE
  5
11B
330
5D
100
AcDbEntity
  8
Ech.1_5
  6
Continuous
 62
     7
370
    -3
100
AcDbPolyline
 90
        5
 70
     0
 43
0.0
 10
36599.05657578
 20
7837.553757329999
 10
36608.05657578
 20
7837.553757329999
 10
36608.05657578
 20
7354.077594329999
 10
36599.05657578
 20
7354.077594329999
 10
36599.05657578
 20
7837.553757329999
  0
LWPOLYLINE
  5
11C
330
5D
100
AcDbEntity
  8
Ech.1_5
  6
Continuous
 62
     7
370
    -3
100
AcDbPolyline
 90
        9
 70
     0
 43
0.0
 10
36484.05657578
 20
7837.554030559999
 10
36431.90241746
 20
7837.554030559999
 10
36415.41606338
 20
7819.575678950001
 10
36429.52600340001
 20
7855.531378970001
 10
36413.04050024
 20
7837.554030559999
 10
36389.05657578
 20
7837.55383188
 10
36389.05657578
 20
7389.077375480001
 10
36484.05657578
 20
7389.07759433
 10
36484.05657578
 20
7837.554030559999
  0
LWPOLYLINE
  5
11D
330
5D
100
AcDbEntity
  8
Ech.1_5
  6
Continuous
 62
     7
370
    -3
100
AcDbPolyline
 90
        5
 70
     0
 43
0.0
 10
36608.05657578
 20
7779.588666239999
 10
36648.05657578
 20
7779.588666239999
 10
36648.05657578
 20
7734.58866624
 10
36608.05657578
 20
7734.58866624
 10
36608.05657578
 20
7779.588666239999
  0
LWPOLYLINE
  5
11E
330
5D
100
AcDbEntity
  8
Ech.1_5
  6
Continuous
 62
     7
370
    -3
100
AcDbPolyline
 90
        5
 70
     0
 43
0.0
 10
36340.05657578
 20
7419.129133830001
 10
36380.05657578
 20
7419.129133830001
 10
36380.05657578
 20
7374.12913383
 10
36340.05657578
 20
7374.12913383
 10
36340.05657578
 20
7419.129133830001
  0
LWPOLYLINE
  5
11F
330
5D
100
AcDbEntity
  8
Ech.1_5
  6
Continuous
 62
     7
370
    -3
100
AcDbPolyline
 90
        5
 70
     0
 43
0.0
 10
36608.05657578
 20
7419.129133830001
 10
36648.05657578
 20
7419.129133830001
 10
36648.05657578
 20
7374.12913383
 10
36608.05657578
 20
7374.12913383
 10
36608.05657578
 20
7419.129133830001
  0
LWPOLYLINE
  5
120
330
5D
100
AcDbEntity
  8
Ech.1_5
  6
Continuous
 62
     7
370
    -3
100
AcDbPolyline
 90
        5
 70
     0
 43
0.0
 10
36340.05657578
 20
7779.588666239999
 10
36380.05657578
 20
7779.588666239999
 10
36380.05657578
 20
7734.58866624
 10
36340.05657578
 20
7734.58866624
 10
36340.05657578
 20
7779.588666239999
  0
LWPOLYLINE
  5
121
330
5D
100
AcDbEntity
  8
Ech.1_5
  6
Continuous
 62
     7
370
    15
100
AcDbPolyline
 90
        5
 70
     0
 43
0.0
 10
36648.05657578
 20
7837.55331829
 10
36661.05657578
 20
7837.55331829
 10
36661.05657578
 20
7354.077594329999
 10
36648.05657578
 20
7354.077594329999
 10
36648.05657578
 20
7837.55331829
  0
LWPOLYLINE
  5
122
330
5D
100
AcDbEntity
  8
Ech.1_5
  6
Continuous
 62
     7
370
    -3
100
AcDbPolyline
 90
        5
 70
     0
 43
0.0
 10
36380.05657578
 20
7837.553757329999
 10
36389.05657578
 20
7837.553757329999
 10
36389.05657578
 20
7354.077594329999
 10
36380.05657578
 20
7354.077594329999
 10
36380.05657578
 20
7837.553757329999
  0
LWPOLYLINE
  5
123
330
5D
100
AcDbEntity
  8
Ech.1_5
  6
Continuous
 62
     7
370
    15
100
AcDbPolyline
 90
        5
 70
     0
 43
0.0
 10
36327.05657578
 20
7837.55331829
 10
36340.05657578
 20
7837.55331829
 10
36340.05657578
 20
7354.077594329999
 10
36327.05657578
 20
7354.077594329999
 10
36327.05657578
 20
7837.55331829
  0
LWPOLYLINE
  5
124
330
5D
100
AcDbEntity
  8
Ech.1_5
  6
Continuous
 62
     7
370
    -3
100
AcDbPolyline
 90
        5
 70
     0
 43
0.0
 10
36599.05657578
 20
7344.076912210001
 10
36504.05657578
 20
7344.077594329999
 10
36504.05657578
 20
7389.07759433
 10
36599.05657578
 20
7389.07691221
 10
36599.05657578
 20
7344.076912210001
  0
LWPOLYLINE
  5
125
330
5D
100
AcDbEntity
  8
Ech.1_5
  6
Continuous
 62
     7
370
     5
100
AcDbPolyline
 90
        4
 70
     0
 43
0.0
 10
36639.74884781
 20
7348.99554807
 42
1.0
 10
36627.41996540001
 20
7348.99554807
 10
36627.41996540001
 20
7348.99554807
 42
1.0
 10
36639.74884781
 20
7348.99554807
  0
LWPOLYLINE
  5
126
330
5D
100
AcDbEntity
  8
Ech.1_5
  6
Continuous
 62
     7
370
     5
100
AcDbPolyline
 90
        4
 70
     0
 43
0.0
 10
36348.36430375
 20
7348.99554807
 42
-1.0
 10
36360.69318616
 20
7348.99554807
 10
36360.69318616
 20
7348.99554807
 42
-1.0
 10
36348.36430375
 20
7348.99554807
  0
LWPOLYLINE
  5
127
330
5D
100
AcDbEntity
  8
Ech.1_5
  6
Continuous
 62
     7
370
    -3
100
AcDbPolyline
 90
        5
 70
     0
 43
0.0
 10
36484.05657578
 20
7389.07691221
 10
36389.05657578
 20
7389.07759433
 10
36389.05657578
 20
7434.07759433
 10
36484.05657578
 20
7434.07691221
 10
36484.05657578
 20
7389.07691221
  0
LWPOLYLINE
  5
128
330
5D
100
AcDbEntity
  8
Ech.1_5
  6
Continuous
 62
     7
370
    -3
100
AcDbPolyline
 90
        5
 70
     0
 43
0.0
 10
36599.05657578
 20
7389.07691221
 10
36504.05657578
 20
7389.07759433
 10
36504.05657578
 20
7434.07759433
 10
36599.05657578
 20
7434.07691221
 10
36599.05657578
 20
7389.07691221
  0
LWPOLYLINE
  5
129
330
5D
100
AcDbEntity
  8
Ech.1_5
  6
Continuous
 62
     7
370
    -3
100
AcDbPolyline
 90
       50
 70
     0
 43
0.0
 10
36468.22324245
 20
7434.07759433
 42
1.14028181
 10
36464.12526501
 20
7465.20475077
 10
36408.98788655
 20
7450.45043788
 42
-1.303226189999999
 10
36408.98788655
 20
7481.038084100001
 10
36464.12526501
 20
7466.28377122
 42
1.303226189999999
 10
36464.12526501
 20
7496.871417440001
 10
36408.98788655
 20
7482.117104549999
 42
-1.303226189999999
 10
36408.98788655
 20
7512.70475077
 10
36464.12526501
 20
7497.95043788
 42
1.303226189999999
 10
36464.12526501
 20
7528.5380841
 10
36408.98788655
 20
7513.783771219999
 42
-1.303226189999999
 10
36408.98788655
 20
7544.37141744
 10
36464.12526501
 20
7529.61710455
 42
1.303226189999999
 10
36464.12526501
 20
7560.204750770001
 10
36408.98788655
 20
7545.450437880001
 42
-1.303226189999999
 10
36408.98788655
 20
7576.038084100002
 10
36464.12526501
 20
7561.283771220001
 42
1.303226189999999
 10
36464.12526501
 20
7591.871417440001
 10
36408.98788655
 20
7577.11710455
 42
-1.303226189999999
 10
36408.98788655
 20
7607.70475077
 10
36464.12526501
 20
7592.95043788
 42
1.303226189999999
 10
36464.12526501
 20
7623.538084100001
 10
36408.98788655
 20
7608.78377122
 42
-1.303226189999999
 10
36408.98788655
 20
7639.37141744
 10
36464.12526501
 20
7624.617104549999
 42
1.303226189999999
 10
36464.12526501
 20
7655.20475077
 10
36408.98788655
 20
7640.45043788
 42
-1.303226189999999
 10
36408.98788655
 20
7671.0380841
 10
36464.12526501
 20
7656.28377122
 42
1.303226189999999
 10
36464.12526501
 20
7686.871417439999
 10
36408.98788655
 20
7672.11710455
 42
-1.303226189999999
 10
36408.98788655
 20
7702.70475077
 10
36464.12526501
 20
7687.950437880001
 42
1.303226189999999
 10
36464.12526501
 20
7718.538084100001
 10
36408.98788655
 20
7703.78377122
 42
-1.303226189999999
 10
36408.98788655
 20
7734.371417440001
 10
36464.12526501
 20
7719.61710455
 42
1.303226189999999
 10
36464.12526501
 20
7750.20475077
 10
36408.98788655
 20
7735.45043788
 42
-1.303226189999999
 10
36408.98788655
 20
7766.0380841
 10
36464.12526501
 20
7751.283771219999
 42
1.303226189999999
 10
36464.12526501
 20
7781.87141744
 10
36408.98788655
 20
7767.11710455
 42
-1.303226189999999
 10
36408.98788655
 20
7797.704750770001
 10
36464.12526501
 20
7782.950437880001
 42
1.303226189999999
 10
36464.12526501
 20
7813.538084100001
 10
36408.98788655
 20
7798.78377122
 42
-1.303226189999999
 10
36408.98788655
 20
7829.37141744
 10
36464.12526501
 20
7814.617104549999
 42
0.6610286600000001
 10
36482.08965592
 20
7837.554030559999
  0
LWPOLYLINE
  5
12A
330
5D
100
AcDbEntity
  8
Ech.1_5
  6
Continuous
 62
     7
370
    -3
100
AcDbPolyline
 90
       50
 70
     0
 43
0.0
 10
36583.22324245001
 20
7434.077749610001
 42
1.14028181
 10
36579.12526501
 20
7465.204906060001
 10
36523.98788655
 20
7450.45059317
 42
-1.303226189999999
 10
36523.98788655
 20
7481.03823939
 10
36579.12526501
 20
7466.2839265
 42
1.303226189999999
 10
36579.12526501
 20
7496.871572719999
 10
36523.98788655
 20
7482.117259839999
 42
-1.303226189999999
 10
36523.98788655
 20
7512.70490606
 10
36579.12526501
 20
7497.95059317
 42
1.303226189999999
 10
36579.12526501
 20
7528.538239390001
 10
36523.98788655
 20
7513.783926500001
 42
-1.303226189999999
 10
36523.98788655
 20
7544.37157272
 10
36579.12526501
 20
7529.617259840001
 42
1.303226189999999
 10
36579.12526501
 20
7560.20490606
 10
36523.98788655
 20
7545.450593169999
 42
-1.303226189999999
 10
36523.98788655
 20
7576.03823939
 10
36579.12526501
 20
7561.2839265
 42
1.303226189999999
 10
36579.12526501
 20
7591.871572719999
 10
36523.98788655
 20
7577.11725984
 42
-1.303226189999999
 10
36523.98788655
 20
7607.70490606
 10
36579.12526501
 20
7592.950593169999
 42
1.303226189999999
 10
36579.12526501
 20
7623.53823939
 10
36523.98788655
 20
7608.7839265
 42
-1.303226189999999
 10
36523.98788655
 20
7639.37157272
 10
36579.12526501
 20
7624.617259839999
 42
1.303226189999999
 10
36579.12526501
 20
7655.204906059999
 10
36523.98788655
 20
7640.45059317
 42
-1.303226189999999
 10
36523.98788655
 20
7671.03823939
 10
36579.12526501
 20
7656.283926500001
 42
1.303226189999999
 10
36579.12526501
 20
7686.87157272
 10
36523.98788655
 20
7672.11725984
 42
-1.303226189999999
 10
36523.98788655
 20
7702.704906060001
 10
36579.12526501
 20
7687.95059317
 42
1.303226189999999
 10
36579.12526501
 20
7718.538239389999
 10
36523.98788655
 20
7703.7839265
 42
-1.303226189999999
 10
36523.98788655
 20
7734.371572719999
 10
36579.12526501
 20
7719.617259839999
 42
1.303226189999999
 10
36579.12526501
 20
7750.20490606
 10
36523.98788655
 20
7735.45059317
 42
-1.303226189999999
 10
36523.98788655
 20
7766.038239390001
 10
36579.12526501
 20
7751.283926500001
 42
1.303226189999999
 10
36579.12526501
 20
7781.87157272
 10
36523.98788655
 20
7767.11725984
 42
-1.303226189999999
 10
36523.98788655
 20
7797.704906060001
 10
36579.12526501
 20
7782.950593169999
 42
1.303226189999999
 10
36579.12526501
 20
7813.53823939
 10
36523.98788655
 20
7798.7839265
 42
-1.303226189999999
 10
36523.98788655
 20
7829.371572719999
 10
36579.12526501
 20
7814.61725984
 42
0.6610286600000001
 10
36597.08965592
 20
7837.55418585
  0
TEXT
  5
12B
330
5D
100
AcDbEntity
  8
Ech.1_5
 62
     7
100
AcDbText
 10
36120.43361573
 20
7739.56960213
 30
0.0
 40
8.000000119999999
  1
Echelle en mm
  7
ARIAL
100
AcDbText
  0
TEXT
  5
12C
330
5D
100
AcDbEntity
  8
Ech.1_5
 62
     7
100
AcDbText
 10
36106.45303098
 20
7711.359766600001
 30
0.0
 40
8.000000119999999
  1
0
  7
ARIAL
100
AcDbText
  0
TEXT
  5
12D
330
5D
100
AcDbEntity
  8
Ech.1_5
 62
     7
100
AcDbText
 10
36193.05008887
 20
7711.359766600001
 30
0.0
 40
8.000000119999999
  1
100
  7
ARIAL
100
AcDbText
  0
TEXT
  5
12E
330
5D
100
AcDbEntity
  8
Ech.1_5
 62
     7
100
AcDbText
 10
36154.3096573
 20
7711.359766600001
 30
0.0
 40
8.000000119999999
  1
50
  7
ARIAL
100
AcDbText
  0
INSERT
  5
12F
330
5D
100
AcDbEntity
  8
Ech.1_5
 62
     0
370
    -3
100
AcDbBlockReference
  2
*D15
 10
0.0
 20
0.0
 30
0.0
  0
INSERT
  5
130
330
5D
100
AcDbEntity
  8
Ech.1_5
 62
     0
370
    -3
100
AcDbBlockReference
  2
*D16
 10
0.0
 20
0.0
 30
0.0
  0
ENDSEC
  0
SECTION
  2
OBJECTS
  0
DICTIONARY
  5
1
330
0
100
AcDbDictionary
281
     1
  3
ACAD_COLOR
350
168
  3
ACAD_GROUP
350
2
  3
ACAD_LAYOUT
350
180
  3
ACAD_MATERIAL
350
136
  3
ACAD_MLEADERSTYLE
350
17D
  3
ACAD_MLINESTYLE
350
3
  3
ACAD_PLOTSETTINGS
350
181
  3
ACAD_PLOTSTYLENAME
350
134
  3
ACAD_SCALELIST
350
16B
  3
ACAD_TABLESTYLE
350
169
  3
ACAD_VISUALSTYLE
350
14F
  3
ACDB_RECOMPOSE_DATA
350
1D9
  3
AcDbVariableDictionary
350
1CF
  3
DWGPROPS
350
1DA
  0
DICTIONARY
  5
193
330
37
100
AcDbDictionary
280
     1
281
     1
  3
ADSK_XREC_LAYER_RECONCILED
360
194
  0
DICTIONARY
  5
195
330
38
100
AcDbDictionary
280
     1
281
     1
  3
ADSK_XREC_LAYER_RECONCILED
360
196
  0
DICTIONARY
  5
197
330
39
100
AcDbDictionary
280
     1
281
     1
  3
ADSK_XREC_LAYER_RECONCILED
360
198
  0
DICTIONARY
  5
199
330
3A
100
AcDbDictionary
280
     1
281
     1
  3
ADSK_XREC_LAYER_RECONCILED
360
19A
  0
DICTIONARY
  5
19B
330
3B
100
AcDbDictionary
280
     1
281
     1
  3
ADSK_XREC_LAYER_RECONCILED
360
19C
  0
DICTIONARY
  5
19D
330
3C
100
AcDbDictionary
280
     1
281
     1
  3
ADSK_XREC_LAYER_RECONCILED
360
19E
  0
DICTIONARY
  5
19F
330
3D
100
AcDbDictionary
280
     1
281
     1
  3
ADSK_XREC_LAYER_RECONCILED
360
1A0
  0
DICTIONARY
  5
1A1
330
3E
100
AcDbDictionary
280
     1
281
     1
  3
ADSK_XREC_LAYER_RECONCILED
360
1A2
  0
DICTIONARY
  5
1A3
330
3F
100
AcDbDictionary
280
     1
281
     1
  3
ADSK_XREC_LAYER_RECONCILED
360
1A4
  0
DICTIONARY
  5
1A5
330
40
100
AcDbDictionary
280
     1
281
     1
  3
ADSK_XREC_LAYER_RECONCILED
360
1A6
  0
DICTIONARY
  5
1A7
330
41
100
AcDbDictionary
280
     1
281
     1
  3
ADSK_XREC_LAYER_RECONCILED
360
1A8
  0
DICTIONARY
  5
1A9
330
42
100
AcDbDictionary
280
     1
281
     1
  3
ADSK_XREC_LAYER_RECONCILED
360
1AA
  0
DICTIONARY
  5
1AB
330
43
100
AcDbDictionary
280
     1
281
     1
  3
ADSK_XREC_LAYER_RECONCILED
360
1AC
  0
DICTIONARY
  5
1AD
330
44
100
AcDbDictionary
280
     1
281
     1
  3
ADSK_XREC_LAYER_RECONCILED
360
1AE
  0
DICTIONARY
  5
1AF
330
45
100
AcDbDictionary
280
     1
281
     1
  3
ADSK_XREC_LAYER_RECONCILED
360
1B0
  0
DICTIONARY
  5
1B1
330
46
100
AcDbDictionary
280
     1
281
     1
  3
ADSK_XREC_LAYER_RECONCILED
360
1B2
  0
DICTIONARY
  5
1B3
330
47
100
AcDbDictionary
280
     1
281
     1
  3
ADSK_XREC_LAYER_RECONCILED
360
1B4
  0
DICTIONARY
  5
1B5
330
48
100
AcDbDictionary
280
     1
281
     1
  3
ADSK_XREC_LAYER_RECONCILED
360
1B6
  0
DICTIONARY
  5
1B7
330
49
100
AcDbDictionary
280
     1
281
     1
  3
ADSK_XREC_LAYER_RECONCILED
360
1B8
  0
DICTIONARY
  5
1B9
330
4A
100
AcDbDictionary
280
     1
281
     1
  3
ADSK_XREC_LAYER_RECONCILED
360
1BA
  0
DICTIONARY
  5
1BB
330
4B
100
AcDbDictionary
280
     1
281
     1
  3
ADSK_XREC_LAYER_RECONCILED
360
1BC
  0
DICTIONARY
  5
1BD
330
4D
100
AcDbDictionary
280
     1
281
     1
  3
ADSK_XREC_LAYER_RECONCILED
360
1BE
  0
DICTIONARY
  5
1BF
330
4E
100
AcDbDictionary
280
     1
281
     1
  3
ADSK_XREC_LAYER_RECONCILED
360
1C0
  0
DICTIONARY
  5
1C1
330
50
100
AcDbDictionary
280
     1
281
     1
  3
ADSK_XREC_LAYER_RECONCILED
360
1C2
  0
DICTIONARY
  5
1C3
330
51
100
AcDbDictionary
280
     1
281
     1
  3
ADSK_XREC_LAYER_RECONCILED
360
1C4
  0
DICTIONARY
  5
1C5
330
52
100
AcDbDictionary
280
     1
281
     1
  3
ADSK_XREC_LAYER_RECONCILED
360
1C6
  0
DICTIONARY
  5
1C7
330
53
100
AcDbDictionary
280
     1
281
     1
  3
ADSK_XREC_LAYER_RECONCILED
360
1C8
  0
DICTIONARY
  5
1C9
330
54
100
AcDbDictionary
280
     1
281
     1
  3
ADSK_XREC_LAYER_RECONCILED
360
1CA
  0
DICTIONARY
  5
1CB
330
55
100
AcDbDictionary
280
     1
281
     1
  3
ADSK_XREC_LAYER_RECONCILED
360
1CC
  0
DICTIONARY
  5
1CD
330
56
100
AcDbDictionary
280
     1
281
     1
  3
ADSK_XREC_LAYER_RECONCILED
360
1CE
  0
DICTIONARY
  5
168
102
{ACAD_REACTORS
330
1
102
}
330
1
100
AcDbDictionary
281
     1
  0
DICTIONARY
  5
2
330
1
100
AcDbDictionary
281
     1
  0
DICTIONARY
  5
180
102
{ACAD_REACTORS
330
1
102
}
330
1
100
AcDbDictionary
281
     1
  3
Model
350
182
  3
Présentation1
350
183
  0
DICTIONARY
  5
136
102
{ACAD_REACTORS
330
1
102
}
330
1
100
AcDbDictionary
281
     1
  3
ByBlock
350
13F
  3
ByLayer
350
137
  3
Global
350
147
  0
DICTIONARY
  5
17D
102
{ACAD_REACTORS
330
1
102
}
330
1
100
AcDbDictionary
281
     1
  3
Standard
350
17E
  0
DICTIONARY
  5
3
330
1
100
AcDbDictionary
281
     1
  3
STANDARD
350
4
  0
DICTIONARY
  5
181
102
{ACAD_REACTORS
330
1
102
}
330
1
100
AcDbDictionary
281
     1
  0
ACDBDICTIONARYWDFLT
  5
134
102
{ACAD_REACTORS
330
1
102
}
330
1
100
AcDbDictionary
281
     1
  3
Normal
350
135
100
AcDbDictionaryWithDefault
340
135
  0
DICTIONARY
  5
16B
102
{ACAD_REACTORS
330
1
102
}
330
1
100
AcDbDictionary
281
     1
  3
A0
350
16C
  3
A1
350
16D
  3
A2
350
16E
  3
A3
350
16F
  3
A4
350
170
  3
A5
350
171
  3
A6
350
172
  3
A7
350
173
  3
A8
350
174
  3
A9
350
175
  3
B0
350
176
  3
B1
350
177
  3
B2
350
178
  3
B3
350
179
  3
B4
350
17A
  3
B5
350
17B
  3
B6
350
17C
  0
DICTIONARY
  5
169
102
{ACAD_REACTORS
330
1
102
}
330
1
100
AcDbDictionary
281
     1
  3
Standard
350
16A
  0
DICTIONARY
  5
14F
102
{ACAD_REACTORS
330
1
102
}
330
1
100
AcDbDictionary
281
     1
  3
2dWireframe
350
155
  3
Basic
350
154
  3
Brighten
350
15B
  3
ColorChange
350
15F
  3
Conceptual
350
158
  3
Dim
350
15A
  3
EdgeColorOff
350
167
  3
Facepattern
350
15E
  3
Flat
350
150
  3
FlatWithEdges
350
151
  3
Gouraud
350
152
  3
GouraudWithEdges
350
153
  3
Hidden
350
157
  3
JitterOff
350
165
  3
Linepattern
350
15D
  3
OverhangOff
350
166
  3
Realistic
350
159
  3
Shaded
350
164
  3
Shaded with edges
350
163
  3
Shades of Gray
350
160
  3
Sketchy
350
161
  3
Thicken
350
15C
  3
Wireframe
350
156
  3
X-Ray
350
162
  0
XRECORD
  5
1D9
102
{ACAD_REACTORS
330
1
102
}
330
1
100
AcDbXrecord
280
     1
 90
        1
330
16A
  0
DICTIONARY
  5
1CF
102
{ACAD_REACTORS
330
1
102
}
330
1
100
AcDbDictionary
281
     1
  3
CANNOSCALE
350
1D2
  3
CMLEADERSTYLE
350
1D1
  3
CTABLESTYLE
350
1D0
  3
DIMASSOC
350
1D5
  3
INDEXCTL
350
1D4
  3
SORTENTS
350
1D3
  3
XCLIPFRAME
350
1D6
  0
XRECORD
  5
1DA
102
{ACAD_REACTORS
330
1
102
}
330
1
100
AcDbXrecord
280
     1
  1
DWGPROPS COOKIE
  2

  3

  4

  6

  7

  8
cazeaux
  9

300
=
301
=
302
=
303
=
304
=
305
=
306
=
307
=
308
=
309
=
 40
0.0048464236111111
 41
2456443.0
 42
2456458.465905799
  1

 90
        0
  0
XRECORD
  5
194
102
{ACAD_REACTORS
330
193
102
}
330
193
100
AcDbXrecord
280
     1
290
     1
  0
XRECORD
  5
196
102
{ACAD_REACTORS
330
195
102
}
330
195
100
AcDbXrecord
280
     1
290
     1
  0
XRECORD
  5
198
102
{ACAD_REACTORS
330
197
102
}
330
197
100
AcDbXrecord
280
     1
290
     1
  0
XRECORD
  5
19A
102
{ACAD_REACTORS
330
199
102
}
330
199
100
AcDbXrecord
280
     1
290
     1
  0
XRECORD
  5
19C
102
{ACAD_REACTORS
330
19B
102
}
330
19B
100
AcDbXrecord
280
     1
290
     1
  0
XRECORD
  5
19E
102
{ACAD_REACTORS
330
19D
102
}
330
19D
100
AcDbXrecord
280
     1
290
     1
  0
XRECORD
  5
1A0
102
{ACAD_REACTORS
330
19F
102
}
330
19F
100
AcDbXrecord
280
     1
290
     1
  0
XRECORD
  5
1A2
102
{ACAD_REACTORS
330
1A1
102
}
330
1A1
100
AcDbXrecord
280
     1
290
     1
  0
XRECORD
  5
1A4
102
{ACAD_REACTORS
330
1A3
102
}
330
1A3
100
AcDbXrecord
280
     1
290
     1
  0
XRECORD
  5
1A6
102
{ACAD_REACTORS
330
1A5
102
}
330
1A5
100
AcDbXrecord
280
     1
290
     1
  0
XRECORD
  5
1A8
102
{ACAD_REACTORS
330
1A7
102
}
330
1A7
100
AcDbXrecord
280
     1
290
     1
  0
XRECORD
  5
1AA
102
{ACAD_REACTORS
330
1A9
102
}
330
1A9
100
AcDbXrecord
280
     1
290
     1
  0
XRECORD
  5
1AC
102
{ACAD_REACTORS
330
1AB
102
}
330
1AB
100
AcDbXrecord
280
     1
290
     1
  0
XRECORD
  5
1AE
102
{ACAD_REACTORS
330
1AD
102
}
330
1AD
100
AcDbXrecord
280
     1
290
     1
  0
XRECORD
  5
1B0
102
{ACAD_REACTORS
330
1AF
102
}
330
1AF
100
AcDbXrecord
280
     1
290
     1
  0
XRECORD
  5
1B2
102
{ACAD_REACTORS
330
1B1
102
}
330
1B1
100
AcDbXrecord
280
     1
290
     1
  0
XRECORD
  5
1B4
102
{ACAD_REACTORS
330
1B3
102
}
330
1B3
100
AcDbXrecord
280
     1
290
     1
  0
XRECORD
  5
1B6
102
{ACAD_REACTORS
330
1B5
102
}
330
1B5
100
AcDbXrecord
280
     1
290
     1
  0
XRECORD
  5
1B8
102
{ACAD_REACTORS
330
1B7
102
}
330
1B7
100
AcDbXrecord
280
     1
290
     1
  0
XRECORD
  5
1BA
102
{ACAD_REACTORS
330
1B9
102
}
330
1B9
100
AcDbXrecord
280
     1
290
     1
  0
XRECORD
  5
1BC
102
{ACAD_REACTORS
330
1BB
102
}
330
1BB
100
AcDbXrecord
280
     1
290
     1
  0
XRECORD
  5
1BE
102
{ACAD_REACTORS
330
1BD
102
}
330
1BD
100
AcDbXrecord
280
     1
290
     1
  0
XRECORD
  5
1C0
102
{ACAD_REACTORS
330
1BF
102
}
330
1BF
100
AcDbXrecord
280
     1
290
     1
  0
XRECORD
  5
1C2
102
{ACAD_REACTORS
330
1C1
102
}
330
1C1
100
AcDbXrecord
280
     1
290
     1
  0
XRECORD
  5
1C4
102
{ACAD_REACTORS
330
1C3
102
}
330
1C3
100
AcDbXrecord
280
     1
290
     1
  0
XRECORD
  5
1C6
102
{ACAD_REACTORS
330
1C5
102
}
330
1C5
100
AcDbXrecord
280
     1
290
     1
  0
XRECORD
  5
1C8
102
{ACAD_REACTORS
330
1C7
102
}
330
1C7
100
AcDbXrecord
280
     1
290
     1
  0
XRECORD
  5
1CA
102
{ACAD_REACTORS
330
1C9
102
}
330
1C9
100
AcDbXrecord
280
     1
290
     1
  0
XRECORD
  5
1CC
102
{ACAD_REACTORS
330
1CB
102
}
330
1CB
100
AcDbXrecord
280
     1
290
     1
  0
XRECORD
  5
1CE
102
{ACAD_REACTORS
330
1CD
102
}
330
1CD
100
AcDbXrecord
280
     1
290
     1
  0
LAYOUT
  5
182
102
{ACAD_XDICTIONARY
360
210
102
}
102
{ACAD_REACTORS
330
180
102
}
330
180
100
AcDbPlotSettings
  1

  2
Aucun(e)
  4

  6

 40
0.0
 41
0.0
 42
0.0
 43
0.0
 44
0.0
 45
0.0
 46
0.0
 47
0.0
 48
0.0
 49
0.0
140
0.0
141
0.0
142
1.0
143
1.0
 70
  1712
 72
     0
 73
     0
 74
     0
  7
acad.ctb
 75
     0
147
1.0
148
0.0
149
0.0
100
AcDbLayout
  1
Model
 70
     1
 71
     0
 10
0.0
 20
0.0
 11
12.0
 21
9.0
 12
0.0
 22
0.0
 32
0.0
 14
0.0
 24
0.0
 34
0.0
 15
0.0
 25
0.0
 35
0.0
146
0.0
 13
0.0
 23
0.0
 33
0.0
 16
1.0
 26
0.0
 36
0.0
 17
0.0
 27
1.0
 37
0.0
 76
     0
330
5D
331
186
  0
LAYOUT
  5
183
102
{ACAD_XDICTIONARY
360
212
102
}
102
{ACAD_REACTORS
330
180
102
}
330
180
100
AcDbPlotSettings
  1

  2
Aucun(e)
  4

  6

 40
0.0
 41
0.0
 42
0.0
 43
0.0
 44
0.0
 45
0.0
 46
0.0
 47
0.0
 48
0.0
 49
0.0
140
0.0
141
0.0
142
1.0
143
1.0
 70
   688
 72
     0
 73
     0
 74
     5
  7
acad.ctb
 75
    16
147
1.0
148
0.0
149
0.0
100
AcDbLayout
  1
Présentation1
 70
     1
 71
     1
 10
0.0
 20
0.0
 11
12.0
 21
9.0
 12
0.0
 22
0.0
 32
0.0
 14
1.000000000000000E+20
 24
1.000000000000000E+20
 34
1.000000000000000E+20
 15
-1.000000000000000E+20
 25
-1.000000000000000E+20
 35
-1.000000000000000E+20
146
0.0
 13
0.0
 23
0.0
 33
0.0
 16
1.0
 26
0.0
 36
0.0
 17
0.0
 27
1.0
 37
0.0
 76
     0
330
5E
  0
MATERIAL
  5
13F
102
{ACAD_XDICTIONARY
360
140
102
}
102
{ACAD_REACTORS
330
136
102
}
330
136
100
AcDbMaterial
  1
ByBlock
 72
     0
 43
0.0208333333333333
 43
0.0
 43
0.0
 43
0.0
 43
0.0
 43
0.0208333333333333
 43
0.0
 43
0.0
 43
0.0
 43
0.0
 43
1.0
 43
0.0
 43
0.0
 43
0.0
 43
0.0
 43
1.0
 77
     0
 47
0.0208333333333333
 47
0.0
 47
0.0
 47
0.0
 47
0.0
 47
0.0208333333333333
 47
0.0
 47
0.0
 47
0.0
 47
0.0
 47
1.0
 47
0.0
 47
0.0
 47
0.0
 47
0.0
 47
1.0
171
     0
 49
0.0208333333333333
 49
0.0
 49
0.0
 49
0.0
 49
0.0
 49
0.0208333333333333
 49
0.0
 49
0.0
 49
0.0
 49
0.0
 49
1.0
 49
0.0
 49
0.0
 49
0.0
 49
0.0
 49
1.0
175
     0
142
0.0208333333333333
142
0.0
142
0.0
142
0.0
142
0.0
142
0.0208333333333333
142
0.0
142
0.0
142
0.0
142
0.0
142
1.0
142
0.0
142
0.0
142
0.0
142
0.0
142
1.0
179
     0
144
0.0208333333333333
144
0.0
144
0.0
144
0.0
144
0.0
144
0.0208333333333333
144
0.0
144
0.0
144
0.0
144
0.0
144
1.0
144
0.0
144
0.0
144
0.0
144
0.0
144
1.0
147
0.0208333333333333
147
0.0
147
0.0
147
0.0
147
0.0
147
0.0208333333333333
147
0.0
147
0.0
147
0.0
147
0.0
147
1.0
147
0.0
147
0.0
147
0.0
147
0.0
147
1.0
  0
MATERIAL
  5
137
102
{ACAD_XDICTIONARY
360
138
102
}
102
{ACAD_REACTORS
330
136
102
}
330
136
100
AcDbMaterial
  1
ByLayer
 72
     0
 43
0.0208333333333333
 43
0.0
 43
0.0
 43
0.0
 43
0.0
 43
0.0208333333333333
 43
0.0
 43
0.0
 43
0.0
 43
0.0
 43
1.0
 43
0.0
 43
0.0
 43
0.0
 43
0.0
 43
1.0
 77
     0
 47
0.0208333333333333
 47
0.0
 47
0.0
 47
0.0
 47
0.0
 47
0.0208333333333333
 47
0.0
 47
0.0
 47
0.0
 47
0.0
 47
1.0
 47
0.0
 47
0.0
 47
0.0
 47
0.0
 47
1.0
171
     0
 49
0.0208333333333333
 49
0.0
 49
0.0
 49
0.0
 49
0.0
 49
0.0208333333333333
 49
0.0
 49
0.0
 49
0.0
 49
0.0
 49
1.0
 49
0.0
 49
0.0
 49
0.0
 49
0.0
 49
1.0
175
     0
142
0.0208333333333333
142
0.0
142
0.0
142
0.0
142
0.0
142
0.0208333333333333
142
0.0
142
0.0
142
0.0
142
0.0
142
1.0
142
0.0
142
0.0
142
0.0
142
0.0
142
1.0
179
     0
144
0.0208333333333333
144
0.0
144
0.0
144
0.0
144
0.0
144
0.0208333333333333
144
0.0
144
0.0
144
0.0
144
0.0
144
1.0
144
0.0
144
0.0
144
0.0
144
0.0
144
1.0
147
0.0208333333333333
147
0.0
147
0.0
147
0.0
147
0.0
147
0.0208333333333333
147
0.0
147
0.0
147
0.0
147
0.0
147
1.0
147
0.0
147
0.0
147
0.0
147
0.0
147
1.0
  0
MATERIAL
  5
147
102
{ACAD_XDICTIONARY
360
148
102
}
102
{ACAD_REACTORS
330
136
102
}
330
136
100
AcDbMaterial
  1
Global
 72
     0
 43
0.0208333333333333
 43
0.0
 43
0.0
 43
0.0
 43
0.0
 43
0.0208333333333333
 43
0.0
 43
0.0
 43
0.0
 43
0.0
 43
1.0
 43
0.0
 43
0.0
 43
0.0
 43
0.0
 43
1.0
 77
     0
 47
0.0208333333333333
 47
0.0
 47
0.0
 47
0.0
 47
0.0
 47
0.0208333333333333
 47
0.0
 47
0.0
 47
0.0
 47
0.0
 47
1.0
 47
0.0
 47
0.0
 47
0.0
 47
0.0
 47
1.0
171
     0
 49
0.0208333333333333
 49
0.0
 49
0.0
 49
0.0
 49
0.0
 49
0.0208333333333333
 49
0.0
 49
0.0
 49
0.0
 49
0.0
 49
1.0
 49
0.0
 49
0.0
 49
0.0
 49
0.0
 49
1.0
175
     0
142
0.0208333333333333
142
0.0
142
0.0
142
0.0
142
0.0
142
0.0208333333333333
142
0.0
142
0.0
142
0.0
142
0.0
142
1.0
142
0.0
142
0.0
142
0.0
142
0.0
142
1.0
179
     0
144
0.0208333333333333
144
0.0
144
0.0
144
0.0
144
0.0
144
0.0208333333333333
144
0.0
144
0.0
144
0.0
144
0.0
144
1.0
144
0.0
144
0.0
144
0.0
144
0.0
144
1.0
147
0.0208333333333333
147
0.0
147
0.0
147
0.0
147
0.0
147
0.0208333333333333
147
0.0
147
0.0
147
0.0
147
0.0
147
1.0
147
0.0
147
0.0
147
0.0
147
0.0
147
1.0
  0
MLEADERSTYLE
  5
17E
102
{ACAD_REACTORS
330
17D
102
}
330
17D
100
AcDbMLeaderStyle
170
     2
171
     1
172
     0
 90
        2
 40
0.0
 41
0.0
173
     1
 91
-1056964608
340
29
 92
       -2
290
     1
 42
2.0
291
     1
 43
0.36
  3
Standard
 44
4.0
300

342
24
174
     1
178
     6
175
     1
176
     0
 93
-1056964608
 45
4.0
292
     0
297
     0
 46
4.0
 94
-1056964608
 47
1.0
 49
1.0
140
1.0
293
     1
141
0.0
294
     1
177
     0
142
1.0
295
     0
296
     0
143
0.125
1001
ACAD_MLEADERVER
1070
     2
  0
MLINESTYLE
  5
4
330
3
100
AcDbMlineStyle
  2
STANDARD
 70
     0
  3

 62
     0
 51
90.0
 52
90.0
 71
     2
 49
0.5
 62
   256
  6
BYLAYER
 49
-0.5
 62
   256
  6
BYLAYER
  0
ACDBPLACEHOLDER
  5
135
102
{ACAD_REACTORS
330
134
102
}
330
134
  0
SCALE
  5
16C
102
{ACAD_REACTORS
330
16B
102
}
330
16B
100
AcDbScale
 70
     0
300
1:1
140
1.0
141
1.0
290
     1
  0
SCALE
  5
16D
102
{ACAD_REACTORS
330
16B
102
}
330
16B
100
AcDbScale
 70
     0
300
1:2
140
1.0
141
2.0
290
     0
  0
SCALE
  5
16E
102
{ACAD_REACTORS
330
16B
102
}
330
16B
100
AcDbScale
 70
     0
300
1:4
140
1.0
141
4.0
290
     0
  0
SCALE
  5
16F
102
{ACAD_REACTORS
330
16B
102
}
330
16B
100
AcDbScale
 70
     0
300
1:5
140
1.0
141
5.0
290
     0
  0
SCALE
  5
170
102
{ACAD_REACTORS
330
16B
102
}
330
16B
100
AcDbScale
 70
     0
300
1:8
140
1.0
141
8.0
290
     0
  0
SCALE
  5
171
102
{ACAD_REACTORS
330
16B
102
}
330
16B
100
AcDbScale
 70
     0
300
1:10
140
1.0
141
10.0
290
     0
  0
SCALE
  5
172
102
{ACAD_REACTORS
330
16B
102
}
330
16B
100
AcDbScale
 70
     0
300
1:16
140
1.0
141
16.0
290
     0
  0
SCALE
  5
173
102
{ACAD_REACTORS
330
16B
102
}
330
16B
100
AcDbScale
 70
     0
300
1:20
140
1.0
141
20.0
290
     0
  0
SCALE
  5
174
102
{ACAD_REACTORS
330
16B
102
}
330
16B
100
AcDbScale
 70
     0
300
1:30
140
1.0
141
30.0
290
     0
  0
SCALE
  5
175
102
{ACAD_REACTORS
330
16B
102
}
330
16B
100
AcDbScale
 70
     0
300
1:40
140
1.0
141
40.0
290
     0
  0
SCALE
  5
176
102
{ACAD_REACTORS
330
16B
102
}
330
16B
100
AcDbScale
 70
     0
300
1:50
140
1.0
141
50.0
290
     0
  0
SCALE
  5
177
102
{ACAD_REACTORS
330
16B
102
}
330
16B
100
AcDbScale
 70
     0
300
1:100
140
1.0
141
100.0
290
     0
  0
SCALE
  5
178
102
{ACAD_REACTORS
330
16B
102
}
330
16B
100
AcDbScale
 70
     0
300
2:1
140
2.0
141
1.0
290
     0
  0
SCALE
  5
179
102
{ACAD_REACTORS
330
16B
102
}
330
16B
100
AcDbScale
 70
     0
300
4:1
140
4.0
141
1.0
290
     0
  0
SCALE
  5
17A
102
{ACAD_REACTORS
330
16B
102
}
330
16B
100
AcDbScale
 70
     0
300
8:1
140
8.0
141
1.0
290
     0
  0
SCALE
  5
17B
102
{ACAD_REACTORS
330
16B
102
}
330
16B
100
AcDbScale
 70
     0
300
10:1
140
10.0
141
1.0
290
     0
  0
SCALE
  5
17C
102
{ACAD_REACTORS
330
16B
102
}
330
16B
100
AcDbScale
 70
     0
300
100:1
140
100.0
141
1.0
290
     0
  0
TABLESTYLE
  5
16A
102
{ACAD_XDICTIONARY
360
1D7
102
}
102
{ACAD_REACTORS
330
169
102
}
330
169
100
AcDbTableStyle
  3
Standard
 70
     0
 71
     0
 40
1.5
 41
1.5
280
     0
281
     0
  7
STANDARD
140
4.5
170
     2
 62
     0
 63
     7
283
     0
274
    -2
284
     1
 64
     0
275
    -2
285
     1
 65
     0
276
    -2
286
     1
 66
     0
277
    -2
287
     1
 67
     0
278
    -2
288
     1
 68
     0
279
    -2
289
     1
 69
     0
  7
STANDARD
140
6.0
170
     5
 62
     0
 63
     7
283
     0
274
    -2
284
     1
 64
     0
275
    -2
285
     1
 65
     0
276
    -2
286
     1
 66
     0
277
    -2
287
     1
 67
     0
278
    -2
288
     1
 68
     0
279
    -2
289
     1
 69
     0
  7
STANDARD
140
4.5
170
     5
 62
     0
 63
     7
283
     0
274
    -2
284
     1
 64
     0
275
    -2
285
     1
 65
     0
276
    -2
286
     1
 66
     0
277
    -2
287
     1
 67
     0
278
    -2
288
     1
 68
     0
279
    -2
289
     1
 69
     0
  0
VISUALSTYLE
  5
155
102
{ACAD_XDICTIONARY
360
1E8
102
}
102
{ACAD_REACTORS
330
14F
102
}
330
14F
100
AcDbVisualStyle
  2
2dWireframe
 70
     4
 71
     0
 72
     2
 73
     0
 90
        0
 40
-0.6
 41
-30.0
 62
     5
 63
     7
 74
     1
 91
        4
 64
     7
 65
   257
 75
     1
175
     1
 42
1.0
 92
        0
 66
   257
 43
1.0
 76
     1
 77
     6
 78
     2
 67
     7
 79
     5
170
     0
171
     0
290
     0
174
     0
 93
        1
 44
0.0
173
     0
291
     0
 45
0.0
1001
ACAD
1000
AcDbSavedByObjectVersion
1070
     0
  0
VISUALSTYLE
  5
154
102
{ACAD_XDICTIONARY
360
1E6
102
}
102
{ACAD_REACTORS
330
14F
102
}
330
14F
100
AcDbVisualStyle
  2
Basic
 70
     7
 71
     1
 72
     0
 73
     1
 90
        0
 40
-0.6
 41
-30.0
 62
     5
 63
     7
 74
     0
 91
        4
 64
     7
 65
   257
 75
     1
175
     1
 42
1.0
 92
        8
 66
     7
 43
1.0
 76
     1
 77
     6
 78
     2
 67
     7
 79
     5
170
     0
171
     0
290
     0
174
     0
 93
        1
 44
0.0
173
     0
291
     1
 45
0.0
1001
ACAD
1000
AcDbSavedByObjectVersion
1070
     0
  0
VISUALSTYLE
  5
15B
102
{ACAD_XDICTIONARY
360
1F4
102
}
102
{ACAD_REACTORS
330
14F
102
}
330
14F
100
AcDbVisualStyle
  2
Brighten
 70
    12
 71
     2
 72
     2
 73
     0
 90
        0
 40
-0.6
 41
-30.0
 62
     5
 63
     7
 74
     1
 91
        4
 64
     7
 65
   257
 75
     1
175
     1
 42
1.0
 92
        8
 66
     7
 43
1.0
 76
     1
 77
     6
 78
     2
 67
     7
 79
     5
170
     0
171
     0
290
     0
174
     0
 93
        1
 44
50.0
173
     0
291
     1
 45
0.0
1001
ACAD
1000
AcDbSavedByObjectVersion
1070
     0
  0
VISUALSTYLE
  5
15F
102
{ACAD_XDICTIONARY
360
1FC
102
}
102
{ACAD_REACTORS
330
14F
102
}
330
14F
100
AcDbVisualStyle
  2
ColorChange
 70
    16
 71
     2
 72
     2
 73
     3
 90
        0
 40
-0.6
 41
-30.0
 62
     5
 63
     8
 74
     1
 91
        4
 64
     7
 65
   257
 75
     1
175
     1
 42
1.0
 92
        8
 66
     8
 43
1.0
 76
     1
 77
     6
 78
     2
 67
     7
 79
     5
170
     0
171
     0
290
     0
174
     0
 93
        1
 44
0.0
173
     0
291
     1
 45
0.0
1001
ACAD
1000
AcDbSavedByObjectVersion
1070
     0
  0
VISUALSTYLE
  5
158
102
{ACAD_XDICTIONARY
360
1EE
102
}
102
{ACAD_REACTORS
330
14F
102
}
330
14F
100
AcDbVisualStyle
  2
Conceptual
 70
     9
 71
     3
 72
     2
 73
     0
 90
        0
 40
-0.6
 41
-30.0
 62
     5
 63
     7
 74
     2
 91
        2
 64
     7
 65
   257
 75
     1
175
     1
 42
179.0
 92
        8
 66
     7
 43
1.0
 76
     1
 77
     6
 78
     2
 67
     7
 79
     3
170
     0
171
     0
290
     0
174
     0
 93
        1
 44
0.0
173
     0
291
     0
 45
0.0
1001
ACAD
1000
AcDbSavedByObjectVersion
1070
     0
  0
VISUALSTYLE
  5
15A
102
{ACAD_XDICTIONARY
360
1F2
102
}
102
{ACAD_REACTORS
330
14F
102
}
330
14F
100
AcDbVisualStyle
  2
Dim
 70
    11
 71
     2
 72
     2
 73
     0
 90
        0
 40
-0.6
 41
-30.0
 62
     5
 63
     7
 74
     1
 91
        4
 64
     7
 65
   257
 75
     1
175
     1
 42
1.0
 92
        8
 66
     7
 43
1.0
 76
     1
 77
     6
 78
     2
 67
     7
 79
     5
170
     0
171
     0
290
     0
174
     0
 93
        1
 44
-50.0
173
     0
291
     1
 45
0.0
1001
ACAD
1000
AcDbSavedByObjectVersion
1070
     0
  0
VISUALSTYLE
  5
167
102
{ACAD_XDICTIONARY
360
20C
102
}
102
{ACAD_REACTORS
330
14F
102
}
330
14F
100
AcDbVisualStyle
  2
EdgeColorOff
 70
    22
 71
     2
 72
     2
 73
     0
 90
        0
 40
-0.6
 41
-30.0
 62
     5
 63
     7
 74
     1
 91
        4
 64
     7
 65
   257
 75
     1
175
     1
 42
1.0
 92
        8
 66
     7
 43
1.0
 76
     1
 77
     6
 78
     2
 67
     7
 79
     5
170
     0
171
     0
290
     0
174
     0
 93
        1
 44
0.0
173
     0
291
     1
 45
0.0
1001
ACAD
1000
AcDbSavedByObjectVersion
1070
     0
  0
VISUALSTYLE
  5
15E
102
{ACAD_XDICTIONARY
360
1FA
102
}
102
{ACAD_REACTORS
330
14F
102
}
330
14F
100
AcDbVisualStyle
  2
Facepattern
 70
    15
 71
     2
 72
     2
 73
     0
 90
        0
 40
-0.6
 41
-30.0
 62
     5
 63
     7
 74
     1
 91
        4
 64
     7
 65
   257
 75
     1
175
     1
 42
1.0
 92
        8
 66
     7
 43
1.0
 76
     1
 77
     6
 78
     2
 67
     7
 79
     5
170
     0
171
     0
290
     0
174
     0
 93
        1
 44
0.0
173
     0
291
     1
 45
0.0
1001
ACAD
1000
AcDbSavedByObjectVersion
1070
     0
  0
VISUALSTYLE
  5
150
102
{ACAD_XDICTIONARY
360
1DE
102
}
102
{ACAD_REACTORS
330
14F
102
}
330
14F
100
AcDbVisualStyle
  2
Flat
 70
     0
 71
     2
 72
     1
 73
     1
 90
        2
 40
-0.6
 41
30.0
 62
     5
 63
     7
 74
     0
 91
        0
 64
     7
 65
   257
 75
     1
175
     1
 42
1.0
 92
        8
 66
     7
 43
1.0
 76
     1
 77
     6
 78
     2
 67
     7
 79
     5
170
     0
171
     0
290
     0
174
     0
 93
       13
 44
0.0
173
     0
291
     1
 45
0.0
1001
ACAD
1000
AcDbSavedByObjectVersion
1070
     0
  0
VISUALSTYLE
  5
151
102
{ACAD_XDICTIONARY
360
1E0
102
}
102
{ACAD_REACTORS
330
14F
102
}
330
14F
100
AcDbVisualStyle
  2
FlatWithEdges
 70
     1
 71
     2
 72
     1
 73
     1
 90
        2
 40
-0.6
 41
30.0
 62
     5
 63
     7
 74
     1
 91
        0
 64
     7
 65
   257
 75
     1
175
     1
 42
1.0
 92
        0
 66
   257
 43
1.0
 76
     1
 77
     6
 78
     2
 67
     7
 79
     5
170
     0
171
     0
290
     0
174
     0
 93
       13
 44
0.0
173
     0
291
     1
 45
0.0
1001
ACAD
1000
AcDbSavedByObjectVersion
1070
     0
  0
VISUALSTYLE
  5
152
102
{ACAD_XDICTIONARY
360
1E2
102
}
102
{ACAD_REACTORS
330
14F
102
}
330
14F
100
AcDbVisualStyle
  2
Gouraud
 70
     2
 71
     2
 72
     2
 73
     1
 90
        2
 40
-0.6
 41
30.0
 62
     5
 63
     7
 74
     0
 91
        0
 64
     7
 65
   257
 75
     1
175
     1
 42
1.0
 92
        0
 66
     7
 43
1.0
 76
     1
 77
     6
 78
     2
 67
     7
 79
     5
170
     0
171
     0
290
     0
174
     0
 93
       13
 44
0.0
173
     0
291
     1
 45
0.0
1001
ACAD
1000
AcDbSavedByObjectVersion
1070
     0
  0
VISUALSTYLE
  5
153
102
{ACAD_XDICTIONARY
360
1E4
102
}
102
{ACAD_REACTORS
330
14F
102
}
330
14F
100
AcDbVisualStyle
  2
GouraudWithEdges
 70
     3
 71
     2
 72
     2
 73
     1
 90
        2
 40
-0.6
 41
30.0
 62
     5
 63
     7
 74
     1
 91
        0
 64
     7
 65
   257
 75
     1
175
     1
 42
1.0
 92
        0
 66
   257
 43
1.0
 76
     1
 77
     6
 78
     2
 67
     7
 79
     5
170
     0
171
     0
290
     0
174
     0
 93
       13
 44
0.0
173
     0
291
     1
 45
0.0
1001
ACAD
1000
AcDbSavedByObjectVersion
1070
     0
  0
VISUALSTYLE
  5
157
102
{ACAD_XDICTIONARY
360
1EC
102
}
102
{ACAD_REACTORS
330
14F
102
}
330
14F
100
AcDbVisualStyle
  2
Hidden
 70
     6
 71
     1
 72
     2
 73
     2
 90
        0
 40
-0.6
 41
-30.0
 62
     5
 63
     7
 74
     2
 91
        2
 64
     7
 65
   257
 75
     2
175
     1
 42
40.0
 92
        0
 66
   257
 43
1.0
 76
     1
 77
     6
 78
     2
 67
     7
 79
     3
170
     0
171
     0
290
     0
174
     0
 93
        1
 44
0.0
173
     0
291
     0
 45
0.0
1001
ACAD
1000
AcDbSavedByObjectVersion
1070
     0
  0
VISUALSTYLE
  5
165
102
{ACAD_XDICTIONARY
360
208
102
}
102
{ACAD_REACTORS
330
14F
102
}
330
14F
100
AcDbVisualStyle
  2
JitterOff
 70
    20
 71
     2
 72
     2
 73
     0
 90
        0
 40
-0.6
 41
-30.0
 62
     5
 63
     7
 74
     1
 91
        4
 64
     7
 65
   257
 75
     1
175
     1
 42
1.0
 92
       10
 66
     7
 43
1.0
 76
     1
 77
     6
 78
     2
 67
     7
 79
     5
170
     0
171
     0
290
     0
174
     0
 93
        1
 44
0.0
173
     0
291
     1
 45
0.0
1001
ACAD
1000
AcDbSavedByObjectVersion
1070
     0
  0
VISUALSTYLE
  5
15D
102
{ACAD_XDICTIONARY
360
1F8
102
}
102
{ACAD_REACTORS
330
14F
102
}
330
14F
100
AcDbVisualStyle
  2
Linepattern
 70
    14
 71
     2
 72
     2
 73
     0
 90
        0
 40
-0.6
 41
-30.0
 62
     5
 63
     7
 74
     1
 91
        4
 64
     7
 65
   257
 75
     7
175
     7
 42
1.0
 92
        8
 66
     7
 43
1.0
 76
     1
 77
     6
 78
     2
 67
     7
 79
     5
170
     0
171
     0
290
     0
174
     0
 93
        1
 44
0.0
173
     0
291
     1
 45
0.0
1001
ACAD
1000
AcDbSavedByObjectVersion
1070
     0
  0
VISUALSTYLE
  5
166
102
{ACAD_XDICTIONARY
360
20A
102
}
102
{ACAD_REACTORS
330
14F
102
}
330
14F
100
AcDbVisualStyle
  2
OverhangOff
 70
    21
 71
     2
 72
     2
 73
     0
 90
        0
 40
-0.6
 41
-30.0
 62
     5
 63
     7
 74
     1
 91
        4
 64
     7
 65
   257
 75
     1
175
     1
 42
1.0
 92
        9
 66
     7
 43
1.0
 76
     1
 77
     6
 78
     2
 67
     7
 79
     5
170
     0
171
     0
290
     0
174
     0
 93
        1
 44
0.0
173
     0
291
     1
 45
0.0
1001
ACAD
1000
AcDbSavedByObjectVersion
1070
     0
  0
VISUALSTYLE
  5
159
102
{ACAD_XDICTIONARY
360
1F0
102
}
102
{ACAD_REACTORS
330
14F
102
}
330
14F
100
AcDbVisualStyle
  2
Realistic
 70
     8
 71
     2
 72
     3
 73
     0
 90
        2
 40
-0.6
 41
30.0
 62
     5
 63
     7
 74
     0
 91
        0
 64
     7
 65
   257
 75
     1
175
     1
 42
1.0
 92
        8
 66
   257
 43
1.0
 76
     1
 77
     6
 78
     2
 67
     7
 79
     3
170
     0
171
     0
290
     0
174
     0
 93
       13
 44
0.0
173
     0
291
     0
 45
0.0
1001
ACAD
1000
AcDbSavedByObjectVersion
1070
     0
  0
VISUALSTYLE
  5
164
102
{ACAD_XDICTIONARY
360
206
102
}
102
{ACAD_REACTORS
330
14F
102
}
330
14F
100
AcDbVisualStyle
  2
Shaded
 70
    27
 71
     2
 72
     2
 73
     1
 90
        2
 40
-0.6
 41
30.0
 62
     5
 63
     7
 74
     0
 91
        4
 64
     7
 65
   257
 75
     1
175
     1
 42
1.0
 92
        8
 66
   257
 43
1.0
 76
     1
 77
     6
 78
     2
 67
     8
 79
     3
170
     0
171
     0
290
     0
174
     0
 93
        5
 44
0.0
173
     0
291
     0
 45
0.0
1001
ACAD
1000
AcDbSavedByObjectVersion
1070
     0
  0
VISUALSTYLE
  5
163
102
{ACAD_XDICTIONARY
360
204
102
}
102
{ACAD_REACTORS
330
14F
102
}
330
14F
100
AcDbVisualStyle
  2
Shaded with edges
 70
    26
 71
     2
 72
     2
 73
     1
 90
        2
 40
-0.6
 41
30.0
 62
     5
 63
     7
 74
     1
 91
       10
 64
     7
 65
   257
 75
     2
175
     1
 42
1.0
 92
        8
 66
   257
 43
1.0
 76
     1
 77
     6
 78
     2
 67
     7
 79
     3
170
     0
171
     0
290
     0
174
     0
 93
        5
 44
0.0
173
     0
291
     0
 45
0.0
1001
ACAD
1000
AcDbSavedByObjectVersion
1070
     0
  0
VISUALSTYLE
  5
160
102
{ACAD_XDICTIONARY
360
1FE
102
}
102
{ACAD_REACTORS
330
14F
102
}
330
14F
100
AcDbVisualStyle
  2
Shades of Gray
 70
    23
 71
     2
 72
     2
 73
     3
 90
        0
 40
-0.6
 41
-30.0
 62
     5
 63
     7
 74
     2
 91
        2
 64
     7
 65
     7
 75
     1
175
     1
 42
40.0
 92
        8
 66
     7
 43
1.0
 76
     1
 77
     6
 78
     2
 67
     7
 79
     3
170
     0
171
     0
290
     0
174
     0
 93
        1
 44
0.0
173
     0
291
     0
 45
0.0
1001
ACAD
1000
AcDbSavedByObjectVersion
1070
     0
  0
VISUALSTYLE
  5
161
102
{ACAD_XDICTIONARY
360
200
102
}
102
{ACAD_REACTORS
330
14F
102
}
330
14F
100
AcDbVisualStyle
  2
Sketchy
 70
    24
 71
     1
 72
     2
 73
     2
 90
        0
 40
-0.6
 41
-30.0
 62
     5
 63
     7
 74
     2
 91
        2
 64
     7
 65
     7
 75
     1
175
     1
 42
40.0
 92
       11
 66
     7
 43
1.0
 76
     1
 77
     6
 78
     2
 67
     7
 79
     6
170
     0
171
     0
290
     0
174
     0
 93
        1
 44
0.0
173
     0
291
     0
 45
0.0
1001
ACAD
1000
AcDbSavedByObjectVersion
1070
     0
  0
VISUALSTYLE
  5
15C
102
{ACAD_XDICTIONARY
360
1F6
102
}
102
{ACAD_REACTORS
330
14F
102
}
330
14F
100
AcDbVisualStyle
  2
Thicken
 70
    13
 71
     2
 72
     2
 73
     0
 90
        0
 40
-0.6
 41
-30.0
 62
     5
 63
     7
 74
     1
 91
        4
 64
     7
 65
   257
 75
     1
175
     1
 42
1.0
 92
       12
 66
     7
 43
1.0
 76
     1
 77
     6
 78
     2
 67
     7
 79
     5
170
     0
171
     0
290
     0
174
     0
 93
        1
 44
0.0
173
     0
291
     1
 45
0.0
1001
ACAD
1000
AcDbSavedByObjectVersion
1070
     0
  0
VISUALSTYLE
  5
156
102
{ACAD_XDICTIONARY
360
1EA
102
}
102
{ACAD_REACTORS
330
14F
102
}
330
14F
100
AcDbVisualStyle
  2
Wireframe
 70
     5
 71
     0
 72
     2
 73
     0
 90
        0
 40
-0.6
 41
-30.0
 62
     5
 63
     7
 74
     1
 91
        4
 64
     7
 65
   257
 75
     1
175
     1
 42
1.0
 92
        0
 66
   257
 43
1.0
 76
     1
 77
     6
 78
     2
 67
     7
 79
     3
170
     0
171
     0
290
     0
174
     0
 93
        1
 44
0.0
173
     0
291
     0
 45
0.0
1001
ACAD
1000
AcDbSavedByObjectVersion
1070
     0
  0
VISUALSTYLE
  5
162
102
{ACAD_XDICTIONARY
360
202
102
}
102
{ACAD_REACTORS
330
14F
102
}
330
14F
100
AcDbVisualStyle
  2
X-Ray
 70
    25
 71
     2
 72
     2
 73
     1
 90
        1
 40
0.5
 41
-30.0
 62
     5
 63
     7
 74
     1
 91
        0
 64
     7
 65
   257
 75
     1
175
     1
 42
1.0
 92
        8
 66
     7
 43
1.0
 76
     1
 77
     6
 78
     2
 67
     7
 79
     3
170
     0
171
     0
290
     0
174
     0
 93
       13
 44
0.0
173
     0
291
     0
 45
0.0
1001
ACAD
1000
AcDbSavedByObjectVersion
1070
     0
  0
DICTIONARYVAR
  5
1D2
102
{ACAD_REACTORS
330
1CF
102
}
330
1CF
100
DictionaryVariables
280
     0
  1
1:1
  0
DICTIONARYVAR
  5
1D1
102
{ACAD_REACTORS
330
1CF
102
}
330
1CF
100
DictionaryVariables
280
     0
  1
STANDARD
  0
DICTIONARYVAR
  5
1D0
102
{ACAD_REACTORS
330
1CF
102
}
330
1CF
100
DictionaryVariables
280
     0
  1
STANDARD
  0
DICTIONARYVAR
  5
1D5
102
{ACAD_REACTORS
330
1CF
102
}
330
1CF
100
DictionaryVariables
280
     0
  1
1
  0
DICTIONARYVAR
  5
1D4
102
{ACAD_REACTORS
330
1CF
102
}
330
1CF
100
DictionaryVariables
280
     0
  1
0
  0
DICTIONARYVAR
  5
1D3
102
{ACAD_REACTORS
330
1CF
102
}
330
1CF
100
DictionaryVariables
280
     0
  1
127
  0
DICTIONARYVAR
  5
1D6
102
{ACAD_REACTORS
330
1CF
102
}
330
1CF
100
DictionaryVariables
280
     0
  1
2
  0
DICTIONARY
  5
210
330
182
100
AcDbDictionary
280
     1
281
     1
  3
ACAD_XREC_ROUNDTRIP
360
211
  0
DICTIONARY
  5
212
330
183
100
AcDbDictionary
280
     1
281
     1
  3
ACAD_XREC_ROUNDTRIP
360
213
  0
DICTIONARY
  5
140
330
13F
100
AcDbDictionary
280
     1
281
     1
  3
ACAD_XREC_ROUNDTRIP
360
1DC
  3
BUMPTILE
360
142
  3
DIFFUSETILE
360
141
  3
OPACITYTILE
360
145
  3
REFLECTIONTILE
360
144
  3
REFRACTIONTILE
360
146
  3
SPECULARTILE
360
143
  0
DICTIONARY
  5
138
330
137
100
AcDbDictionary
280
     1
281
     1
  3
ACAD_XREC_ROUNDTRIP
360
1DB
  3
BUMPTILE
360
13A
  3
DIFFUSETILE
360
139
  3
OPACITYTILE
360
13D
  3
REFLECTIONTILE
360
13C
  3
REFRACTIONTILE
360
13E
  3
SPECULARTILE
360
13B
  0
DICTIONARY
  5
148
330
147
100
AcDbDictionary
280
     1
281
     1
  3
ACAD_XREC_ROUNDTRIP
360
1DD
  3
BUMPTILE
360
14A
  3
DIFFUSETILE
360
149
  3
OPACITYTILE
360
14D
  3
REFLECTIONTILE
360
14C
  3
REFRACTIONTILE
360
14E
  3
SPECULARTILE
360
14B
  0
DICTIONARY
  5
1D7
330
16A
100
AcDbDictionary
280
     1
281
     1
  3
ACAD_ROUNDTRIP_2008_TABLESTYLE_CELLSTYLEMAP
360
1D8
  3
ACAD_XREC_ROUNDTRIP
360
20E
  0
DICTIONARY
  5
1E8
330
155
100
AcDbDictionary
280
     1
281
     1
  3
ACAD_XREC_ROUNDTRIP
360
1E9
  0
DICTIONARY
  5
1E6
330
154
100
AcDbDictionary
280
     1
281
     1
  3
ACAD_XREC_ROUNDTRIP
360
1E7
  0
DICTIONARY
  5
1F4
330
15B
100
AcDbDictionary
280
     1
281
     1
  3
ACAD_XREC_ROUNDTRIP
360
1F5
  0
DICTIONARY
  5
1FC
330
15F
100
AcDbDictionary
280
     1
281
     1
  3
ACAD_XREC_ROUNDTRIP
360
1FD
  0
DICTIONARY
  5
1EE
330
158
100
AcDbDictionary
280
     1
281
     1
  3
ACAD_XREC_ROUNDTRIP
360
1EF
  0
DICTIONARY
  5
1F2
330
15A
100
AcDbDictionary
280
     1
281
     1
  3
ACAD_XREC_ROUNDTRIP
360
1F3
  0
DICTIONARY
  5
20C
330
167
100
AcDbDictionary
280
     1
281
     1
  3
ACAD_XREC_ROUNDTRIP
360
20D
  0
DICTIONARY
  5
1FA
330
15E
100
AcDbDictionary
280
     1
281
     1
  3
ACAD_XREC_ROUNDTRIP
360
1FB
  0
DICTIONARY
  5
1DE
330
150
100
AcDbDictionary
280
     1
281
     1
  3
ACAD_XREC_ROUNDTRIP
360
1DF
  0
DICTIONARY
  5
1E0
330
151
100
AcDbDictionary
280
     1
281
     1
  3
ACAD_XREC_ROUNDTRIP
360
1E1
  0
DICTIONARY
  5
1E2
330
152
100
AcDbDictionary
280
     1
281
     1
  3
ACAD_XREC_ROUNDTRIP
360
1E3
  0
DICTIONARY
  5
1E4
330
153
100
AcDbDictionary
280
     1
281
     1
  3
ACAD_XREC_ROUNDTRIP
360
1E5
  0
DICTIONARY
  5
1EC
330
157
100
AcDbDictionary
280
     1
281
     1
  3
ACAD_XREC_ROUNDTRIP
360
1ED
  0
DICTIONARY
  5
208
330
165
100
AcDbDictionary
280
     1
281
     1
  3
ACAD_XREC_ROUNDTRIP
360
209
  0
DICTIONARY
  5
1F8
330
15D
100
AcDbDictionary
280
     1
281
     1
  3
ACAD_XREC_ROUNDTRIP
360
1F9
  0
DICTIONARY
  5
20A
330
166
100
AcDbDictionary
280
     1
281
     1
  3
ACAD_XREC_ROUNDTRIP
360
20B
  0
DICTIONARY
  5
1F0
330
159
100
AcDbDictionary
280
     1
281
     1
  3
ACAD_XREC_ROUNDTRIP
360
1F1
  0
DICTIONARY
  5
206
330
164
100
AcDbDictionary
280
     1
281
     1
  3
ACAD_XREC_ROUNDTRIP
360
207
  0
DICTIONARY
  5
204
330
163
100
AcDbDictionary
280
     1
281
     1
  3
ACAD_XREC_ROUNDTRIP
360
205
  0
DICTIONARY
  5
1FE
330
160
100
AcDbDictionary
280
     1
281
     1
  3
ACAD_XREC_ROUNDTRIP
360
1FF
  0
DICTIONARY
  5
200
330
161
100
AcDbDictionary
280
     1
281
     1
  3
ACAD_XREC_ROUNDTRIP
360
201
  0
DICTIONARY
  5
1F6
330
15C
100
AcDbDictionary
280
     1
281
     1
  3
ACAD_XREC_ROUNDTRIP
360
1F7
  0
DICTIONARY
  5
1EA
330
156
100
AcDbDictionary
280
     1
281
     1
  3
ACAD_XREC_ROUNDTRIP
360
1EB
  0
DICTIONARY
  5
202
330
162
100
AcDbDictionary
280
     1
281
     1
  3
ACAD_XREC_ROUNDTRIP
360
203
  0
XRECORD
  5
211
102
{ACAD_REACTORS
330
210
102
}
330
210
100
AcDbXrecord
280
     1
102
SHADEPLOT
 70
     0
102
SHADEPLOTRESLEVEL
 70
     2
102
SHADEPLOTCUSTOMDPI
 70
   300
  0
XRECORD
  5
213
102
{ACAD_REACTORS
330
212
102
}
330
212
100
AcDbXrecord
280
     1
102
SHADEPLOT
 70
     0
102
SHADEPLOTRESLEVEL
 70
     2
102
SHADEPLOTCUSTOMDPI
 70
   300
  0
XRECORD
  5
1DC
102
{ACAD_REACTORS
330
140
102
}
330
140
100
AcDbXrecord
280
     1
102
MATERIAL
148
0.0
149
0.0
149
0.0
 93
        0
 94
      127
282
     0
 72
     0
 77
     0
171
     0
175
     0
179
     0
273
     0
  0
XRECORD
  5
142
102
{ACAD_REACTORS
330
140
102
}
330
140
100
AcDbXrecord
280
     1
270
     1
271
     1
  0
XRECORD
  5
141
102
{ACAD_REACTORS
330
140
102
}
330
140
100
AcDbXrecord
280
     1
270
     1
271
     1
  0
XRECORD
  5
145
102
{ACAD_REACTORS
330
140
102
}
330
140
100
AcDbXrecord
280
     1
270
     1
271
     1
  0
XRECORD
  5
144
102
{ACAD_REACTORS
330
140
102
}
330
140
100
AcDbXrecord
280
     1
270
     1
271
     1
  0
XRECORD
  5
146
102
{ACAD_REACTORS
330
140
102
}
330
140
100
AcDbXrecord
280
     1
270
     1
271
     1
  0
XRECORD
  5
143
102
{ACAD_REACTORS
330
140
102
}
330
140
100
AcDbXrecord
280
     1
270
     1
271
     1
  0
XRECORD
  5
1DB
102
{ACAD_REACTORS
330
138
102
}
330
138
100
AcDbXrecord
280
     1
102
MATERIAL
148
0.0
149
0.0
149
0.0
 93
        0
 94
      127
282
     0
 72
     0
 77
     0
171
     0
175
     0
179
     0
273
     0
  0
XRECORD
  5
13A
102
{ACAD_REACTORS
330
138
102
}
330
138
100
AcDbXrecord
280
     1
270
     1
271
     1
  0
XRECORD
  5
139
102
{ACAD_REACTORS
330
138
102
}
330
138
100
AcDbXrecord
280
     1
270
     1
271
     1
  0
XRECORD
  5
13D
102
{ACAD_REACTORS
330
138
102
}
330
138
100
AcDbXrecord
280
     1
270
     1
271
     1
  0
XRECORD
  5
13C
102
{ACAD_REACTORS
330
138
102
}
330
138
100
AcDbXrecord
280
     1
270
     1
271
     1
  0
XRECORD
  5
13E
102
{ACAD_REACTORS
330
138
102
}
330
138
100
AcDbXrecord
280
     1
270
     1
271
     1
  0
XRECORD
  5
13B
102
{ACAD_REACTORS
330
138
102
}
330
138
100
AcDbXrecord
280
     1
270
     1
271
     1
  0
XRECORD
  5
1DD
102
{ACAD_REACTORS
330
148
102
}
330
148
100
AcDbXrecord
280
     1
102
MATERIAL
148
0.0
149
0.0
149
0.0
 93
        0
 94
      127
282
     0
 72
     0
 77
     0
171
     0
175
     0
179
     0
273
     0
  0
XRECORD
  5
14A
102
{ACAD_REACTORS
330
148
102
}
330
148
100
AcDbXrecord
280
     1
270
     1
271
     1
  0
XRECORD
  5
149
102
{ACAD_REACTORS
330
148
102
}
330
148
100
AcDbXrecord
280
     1
270
     1
271
     1
  0
XRECORD
  5
14D
102
{ACAD_REACTORS
330
148
102
}
330
148
100
AcDbXrecord
280
     1
270
     1
271
     1
  0
XRECORD
  5
14C
102
{ACAD_REACTORS
330
148
102
}
330
148
100
AcDbXrecord
280
     1
270
     1
271
     1
  0
XRECORD
  5
14E
102
{ACAD_REACTORS
330
148
102
}
330
148
100
AcDbXrecord
280
     1
270
     1
271
     1
  0
XRECORD
  5
14B
102
{ACAD_REACTORS
330
148
102
}
330
148
100
AcDbXrecord
280
     1
270
     1
271
     1
  0
CELLSTYLEMAP
  5
1D8
102
{ACAD_REACTORS
330
1D7
102
}
330
1D7
100
AcDbCellStyleMap
 90
        3
300
CELLSTYLE
  1
TABLEFORMAT_BEGIN
 90
        5
170
     1
 91
        0
 92
    32768
 62
   257
 93
        1
300
CONTENTFORMAT
  1
CONTENTFORMAT_BEGIN
 90
        0
 91
        0
 92
      512
 93
        0
300

 40
0.0
140
1.0
 94
        5
 62
     0
340
24
144
6.0
309
CONTENTFORMAT_END
171
     1
301
MARGIN
  1
CELLMARGIN_BEGIN
 40
1.5
 40
1.5
 40
1.5
 40
1.5
 40
4.5
 40
4.5
309
CELLMARGIN_END
 94
        6
 95
        1
302
GRIDFORMAT
  1
GRIDFORMAT_BEGIN
 90
        0
 91
        1
 62
     0
 92
       -2
340
0
 93
        0
 40
1.125
309
GRIDFORMAT_END
 95
        2
302
GRIDFORMAT
  1
GRIDFORMAT_BEGIN
 90
        0
 91
        1
 62
     0
 92
       -2
340
0
 93
        0
 40
1.125
309
GRIDFORMAT_END
 95
        4
302
GRIDFORMAT
  1
GRIDFORMAT_BEGIN
 90
        0
 91
        1
 62
     0
 92
       -2
340
0
 93
        0
 40
1.125
309
GRIDFORMAT_END
 95
        8
302
GRIDFORMAT
  1
GRIDFORMAT_BEGIN
 90
        0
 91
        1
 62
     0
 92
       -2
340
0
 93
        0
 40
1.125
309
GRIDFORMAT_END
 95
       16
302
GRIDFORMAT
  1
GRIDFORMAT_BEGIN
 90
        0
 91
        1
 62
     0
 92
       -2
340
0
 93
        0
 40
1.125
309
GRIDFORMAT_END
 95
       32
302
GRIDFORMAT
  1
GRIDFORMAT_BEGIN
 90
        0
 91
        1
 62
     0
 92
       -2
340
0
 93
        0
 40
1.125
309
GRIDFORMAT_END
309
TABLEFORMAT_END
  1
CELLSTYLE_BEGIN
 90
        1
 91
        1
300
_TITLE
309
CELLSTYLE_END
300
CELLSTYLE
  1
TABLEFORMAT_BEGIN
 90
        5
170
     1
 91
        0
 92
        0
 62
   257
 93
        1
300
CONTENTFORMAT
  1
CONTENTFORMAT_BEGIN
 90
        0
 91
        0
 92
      512
 93
        0
300

 40
0.0
140
1.0
 94
        5
 62
     0
340
24
144
4.5
309
CONTENTFORMAT_END
171
     1
301
MARGIN
  1
CELLMARGIN_BEGIN
 40
1.5
 40
1.5
 40
1.5
 40
1.5
 40
4.5
 40
4.5
309
CELLMARGIN_END
 94
        6
 95
        1
302
GRIDFORMAT
  1
GRIDFORMAT_BEGIN
 90
        0
 91
        1
 62
     0
 92
       -2
340
0
 93
        0
 40
1.125
309
GRIDFORMAT_END
 95
        2
302
GRIDFORMAT
  1
GRIDFORMAT_BEGIN
 90
        0
 91
        1
 62
     0
 92
       -2
340
0
 93
        0
 40
1.125
309
GRIDFORMAT_END
 95
        4
302
GRIDFORMAT
  1
GRIDFORMAT_BEGIN
 90
        0
 91
        1
 62
     0
 92
       -2
340
0
 93
        0
 40
1.125
309
GRIDFORMAT_END
 95
        8
302
GRIDFORMAT
  1
GRIDFORMAT_BEGIN
 90
        0
 91
        1
 62
     0
 92
       -2
340
0
 93
        0
 40
1.125
309
GRIDFORMAT_END
 95
       16
302
GRIDFORMAT
  1
GRIDFORMAT_BEGIN
 90
        0
 91
        1
 62
     0
 92
       -2
340
0
 93
        0
 40
1.125
309
GRIDFORMAT_END
 95
       32
302
GRIDFORMAT
  1
GRIDFORMAT_BEGIN
 90
        0
 91
        1
 62
     0
 92
       -2
340
0
 93
        0
 40
1.125
309
GRIDFORMAT_END
309
TABLEFORMAT_END
  1
CELLSTYLE_BEGIN
 90
        2
 91
        1
300
_HEADER
309
CELLSTYLE_END
300
CELLSTYLE
  1
TABLEFORMAT_BEGIN
 90
        5
170
     1
 91
        0
 92
        0
 62
   257
 93
        1
300
CONTENTFORMAT
  1
CONTENTFORMAT_BEGIN
 90
        0
 91
        0
 92
      512
 93
        0
300

 40
0.0
140
1.0
 94
        2
 62
     0
340
24
144
4.5
309
CONTENTFORMAT_END
171
     1
301
MARGIN
  1
CELLMARGIN_BEGIN
 40
1.5
 40
1.5
 40
1.5
 40
1.5
 40
4.5
 40
4.5
309
CELLMARGIN_END
 94
        6
 95
        1
302
GRIDFORMAT
  1
GRIDFORMAT_BEGIN
 90
        0
 91
        1
 62
     0
 92
       -2
340
0
 93
        0
 40
1.125
309
GRIDFORMAT_END
 95
        2
302
GRIDFORMAT
  1
GRIDFORMAT_BEGIN
 90
        0
 91
        1
 62
     0
 92
       -2
340
0
 93
        0
 40
1.125
309
GRIDFORMAT_END
 95
        4
302
GRIDFORMAT
  1
GRIDFORMAT_BEGIN
 90
        0
 91
        1
 62
     0
 92
       -2
340
0
 93
        0
 40
1.125
309
GRIDFORMAT_END
 95
        8
302
GRIDFORMAT
  1
GRIDFORMAT_BEGIN
 90
        0
 91
        1
 62
     0
 92
       -2
340
0
 93
        0
 40
1.125
309
GRIDFORMAT_END
 95
       16
302
GRIDFORMAT
  1
GRIDFORMAT_BEGIN
 90
        0
 91
        1
 62
     0
 92
       -2
340
0
 93
        0
 40
1.125
309
GRIDFORMAT_END
 95
       32
302
GRIDFORMAT
  1
GRIDFORMAT_BEGIN
 90
        0
 91
        1
 62
     0
 92
       -2
340
0
 93
        0
 40
1.125
309
GRIDFORMAT_END
309
TABLEFORMAT_END
  1
CELLSTYLE_BEGIN
 90
        3
 91
        2
300
_DATA
309
CELLSTYLE_END
  0
XRECORD
  5
20E
102
{ACAD_REACTORS
330
1D7
102
}
330
1D7
100
AcDbXrecord
280
     1
102
ACAD_ROUNDTRIP_PRE2007_TABLESTYLE
 90
      512
 91
        0
  1

 92
      512
 93
        0
  2

 94
      512
 95
        0
  3

  0
XRECORD
  5
1E9
102
{ACAD_REACTORS
330
1E8
102
}
330
1E8
100
AcDbXrecord
280
     1
102
RTVSPropertyOp0
 70
     1
102
RTVSPropertyOp1
 70
     1
102
RTVSPropertyOp2
 70
     1
102
RTVSPropertyOp3
 70
     1
102
RTVSPropertyOp4
 70
     1
102
RTVSPropertyOp5
 70
     1
102
RTVSPropertyOp6
 70
     1
102
RTVSPropertyOp7
 70
     1
102
RTVSPropertyOp8
 70
     1
102
RTVSPropertyOp9
 70
     1
102
RTVSPropertyOp10
 70
     1
102
RTVSPropertyOp11
 70
     1
102
RTVSPropertyOp12
 70
     1
102
RTVSPropertyOp13
 70
     1
102
RTVSPropertyOp14
 70
     1
102
RTVSPropertyOp15
 70
     1
102
RTVSPropertyOp16
 70
     1
102
RTVSPropertyOp17
 70
     1
102
RTVSPropertyOp18
 70
     1
102
RTVSPropertyOp19
 70
     1
102
RTVSPropertyOp20
 70
     1
102
RTVSPropertyOp21
 70
     1
102
RTVSPropertyOp22
 70
     1
102
RTVSPropertyOp23
 70
     1
102
RTVSPropertyOp24
 70
     1
102
RTVSPropertyOp25
 70
     1
102
RTVSPropertyOp26
 70
     1
102
RTVSPropertyOp27
 70
     1
102
RTVSPropertyOp28
 70
     1
102
RTVSPropertyOp29
 70
     1
102
RTVSPropertyOp30
 70
     1
102
RTVSPropertyOp31
 70
     1
102
RTVSPropertyOp32
 70
     1
  0
XRECORD
  5
1E7
102
{ACAD_REACTORS
330
1E6
102
}
330
1E6
100
AcDbXrecord
280
     1
102
RTVSPropertyOp0
 70
     1
102
RTVSPropertyOp1
 70
     1
102
RTVSPropertyOp2
 70
     1
102
RTVSPropertyOp3
 70
     1
102
RTVSPropertyOp4
 70
     1
102
RTVSPropertyOp5
 70
     1
102
RTVSPropertyOp6
 70
     1
102
RTVSPropertyOp7
 70
     1
102
RTVSPropertyOp8
 70
     1
102
RTVSPropertyOp9
 70
     1
102
RTVSPropertyOp10
 70
     1
102
RTVSPropertyOp11
 70
     1
102
RTVSPropertyOp12
 70
     1
102
RTVSPropertyOp13
 70
     1
102
RTVSPropertyOp14
 70
     1
102
RTVSPropertyOp15
 70
     1
102
RTVSPropertyOp16
 70
     1
102
RTVSPropertyOp17
 70
     1
102
RTVSPropertyOp18
 70
     1
102
RTVSPropertyOp19
 70
     1
102
RTVSPropertyOp20
 70
     1
102
RTVSPropertyOp21
 70
     1
102
RTVSPropertyOp22
 70
     1
102
RTVSPropertyOp23
 70
     1
102
RTVSPropertyOp24
 70
     1
102
RTVSPropertyOp25
 70
     1
102
RTVSPropertyOp26
 70
     1
102
RTVSPropertyOp27
 70
     1
102
RTVSPropertyOp28
 70
     1
102
RTVSPropertyOp29
 70
     1
102
RTVSPropertyOp30
 70
     1
102
RTVSPropertyOp31
 70
     1
102
RTVSPropertyOp32
 70
     1
  0
XRECORD
  5
1F5
102
{ACAD_REACTORS
330
1F4
102
}
330
1F4
100
AcDbXrecord
280
     1
102
RTVSPropertyOp0
 70
     1
102
RTVSPropertyOp1
 70
     1
102
RTVSPropertyOp2
 70
     1
102
RTVSPropertyOp3
 70
     1
102
RTVSPropertyOp4
 70
     1
102
RTVSPropertyOp5
 70
     1
102
RTVSPropertyOp6
 70
     1
102
RTVSPropertyOp7
 70
     1
102
RTVSPropertyOp8
 70
     1
102
RTVSPropertyOp9
 70
     1
102
RTVSPropertyOp10
 70
     1
102
RTVSPropertyOp11
 70
     1
102
RTVSPropertyOp12
 70
     1
102
RTVSPropertyOp13
 70
     1
102
RTVSPropertyOp14
 70
     1
102
RTVSPropertyOp15
 70
     1
102
RTVSPropertyOp16
 70
     1
102
RTVSPropertyOp17
 70
     1
102
RTVSPropertyOp18
 70
     1
102
RTVSPropertyOp19
 70
     1
102
RTVSPropertyOp20
 70
     1
102
RTVSPropertyOp21
 70
     1
102
RTVSPropertyOp22
 70
     1
102
RTVSPropertyOp23
 70
     1
102
RTVSPropertyOp24
 70
     1
102
RTVSPropertyOp25
 70
     1
102
RTVSPropertyOp26
 70
     1
102
RTVSPropertyOp27
 70
     1
102
RTVSPropertyOp28
 70
     1
102
RTVSPropertyOp29
 70
     1
102
RTVSPropertyOp30
 70
     1
102
RTVSPropertyOp31
 70
     1
102
RTVSPropertyOp32
 70
     1
  0
XRECORD
  5
1FD
102
{ACAD_REACTORS
330
1FC
102
}
330
1FC
100
AcDbXrecord
280
     1
102
RTVSPropertyOp0
 70
     1
102
RTVSPropertyOp1
 70
     1
102
RTVSPropertyOp2
 70
     1
102
RTVSPropertyOp3
 70
     1
102
RTVSPropertyOp4
 70
     1
102
RTVSPropertyOp5
 70
     1
102
RTVSPropertyOp6
 70
     1
102
RTVSPropertyOp7
 70
     1
102
RTVSPropertyOp8
 70
     1
102
RTVSPropertyOp9
 70
     1
102
RTVSPropertyOp10
 70
     1
102
RTVSPropertyOp11
 70
     1
102
RTVSPropertyOp12
 70
     1
102
RTVSPropertyOp13
 70
     1
102
RTVSPropertyOp14
 70
     1
102
RTVSPropertyOp15
 70
     1
102
RTVSPropertyOp16
 70
     1
102
RTVSPropertyOp17
 70
     1
102
RTVSPropertyOp18
 70
     1
102
RTVSPropertyOp19
 70
     1
102
RTVSPropertyOp20
 70
     1
102
RTVSPropertyOp21
 70
     1
102
RTVSPropertyOp22
 70
     1
102
RTVSPropertyOp23
 70
     1
102
RTVSPropertyOp24
 70
     1
102
RTVSPropertyOp25
 70
     1
102
RTVSPropertyOp26
 70
     1
102
RTVSPropertyOp27
 70
     1
102
RTVSPropertyOp28
 70
     1
102
RTVSPropertyOp29
 70
     1
102
RTVSPropertyOp30
 70
     1
102
RTVSPropertyOp31
 70
     1
102
RTVSPropertyOp32
 70
     1
  0
XRECORD
  5
1EF
102
{ACAD_REACTORS
330
1EE
102
}
330
1EE
100
AcDbXrecord
280
     1
102
RTVSPropertyOp0
 70
     1
102
RTVSPropertyOp1
 70
     1
102
RTVSPropertyOp2
 70
     1
102
RTVSPropertyOp3
 70
     1
102
RTVSPropertyOp4
 70
     1
102
RTVSPropertyOp5
 70
     1
102
RTVSPropertyOp6
 70
     1
102
RTVSPropertyOp7
 70
     1
102
RTVSPropertyOp8
 70
     1
102
RTVSPropertyOp9
 70
     1
102
RTVSPropertyOp10
 70
     1
102
RTVSPropertyOp11
 70
     1
102
RTVSPropertyOp12
 70
     1
102
RTVSPropertyOp13
 70
     1
102
RTVSPropertyOp14
 70
     1
102
RTVSPropertyOp15
 70
     1
102
RTVSPropertyOp16
 70
     1
102
RTVSPropertyOp17
 70
     1
102
RTVSPropertyOp18
 70
     1
102
RTVSPropertyOp19
 70
     1
102
RTVSPropertyOp20
 70
     1
102
RTVSPropertyOp21
 70
     1
102
RTVSPropertyOp22
 70
     1
102
RTVSPropertyOp23
 70
     1
102
RTVSPropertyOp24
 70
     1
102
RTVSPropertyOp25
 70
     1
102
RTVSPropertyOp26
 70
     1
102
RTVSPropertyOp27
 70
     1
102
RTVSPropertyOp28
 70
     1
102
RTVSPropertyOp29
 70
     1
102
RTVSPropertyOp30
 70
     1
102
RTVSPropertyOp31
 70
     1
102
RTVSPropertyOp32
 70
     1
  0
XRECORD
  5
1F3
102
{ACAD_REACTORS
330
1F2
102
}
330
1F2
100
AcDbXrecord
280
     1
102
RTVSPropertyOp0
 70
     1
102
RTVSPropertyOp1
 70
     1
102
RTVSPropertyOp2
 70
     1
102
RTVSPropertyOp3
 70
     1
102
RTVSPropertyOp4
 70
     1
102
RTVSPropertyOp5
 70
     1
102
RTVSPropertyOp6
 70
     1
102
RTVSPropertyOp7
 70
     1
102
RTVSPropertyOp8
 70
     1
102
RTVSPropertyOp9
 70
     1
102
RTVSPropertyOp10
 70
     1
102
RTVSPropertyOp11
 70
     1
102
RTVSPropertyOp12
 70
     1
102
RTVSPropertyOp13
 70
     1
102
RTVSPropertyOp14
 70
     1
102
RTVSPropertyOp15
 70
     1
102
RTVSPropertyOp16
 70
     1
102
RTVSPropertyOp17
 70
     1
102
RTVSPropertyOp18
 70
     1
102
RTVSPropertyOp19
 70
     1
102
RTVSPropertyOp20
 70
     1
102
RTVSPropertyOp21
 70
     1
102
RTVSPropertyOp22
 70
     1
102
RTVSPropertyOp23
 70
     1
102
RTVSPropertyOp24
 70
     1
102
RTVSPropertyOp25
 70
     1
102
RTVSPropertyOp26
 70
     1
102
RTVSPropertyOp27
 70
     1
102
RTVSPropertyOp28
 70
     1
102
RTVSPropertyOp29
 70
     1
102
RTVSPropertyOp30
 70
     1
102
RTVSPropertyOp31
 70
     1
102
RTVSPropertyOp32
 70
     1
  0
XRECORD
  5
20D
102
{ACAD_REACTORS
330
20C
102
}
330
20C
100
AcDbXrecord
280
     1
102
RTVSPropertyOp0
 70
     0
102
RTVSPropertyOp1
 70
     0
102
RTVSPropertyOp2
 70
     0
102
RTVSPropertyOp3
 70
     0
102
RTVSPropertyOp4
 70
     0
102
RTVSPropertyOp5
 70
     0
102
RTVSPropertyOp6
 70
     0
102
RTVSPropertyOp7
 70
     0
102
RTVSPropertyOp8
 70
     0
102
RTVSPropertyOp9
 70
     0
102
RTVSPropertyOp10
 70
     0
102
RTVSPropertyOp11
 70
     0
102
RTVSPropertyOp12
 70
     0
102
RTVSPropertyOp13
 70
     0
102
RTVSPropertyOp14
 70
     2
102
RTVSPropertyOp15
 70
     0
102
RTVSPropertyOp16
 70
     0
102
RTVSPropertyOp17
 70
     0
102
RTVSPropertyOp18
 70
     0
102
RTVSPropertyOp19
 70
     0
102
RTVSPropertyOp20
 70
     0
102
RTVSPropertyOp21
 70
     0
102
RTVSPropertyOp22
 70
     0
102
RTVSPropertyOp23
 70
     0
102
RTVSPropertyOp24
 70
     0
102
RTVSPropertyOp25
 70
     0
102
RTVSPropertyOp26
 70
     0
102
RTVSPropertyOp27
 70
     0
102
RTVSPropertyOp28
 70
     0
102
RTVSPropertyOp29
 70
     0
102
RTVSPropertyOp30
 70
     0
102
RTVSPropertyOp31
 70
     0
102
RTVSPropertyOp32
 70
     0
  0
XRECORD
  5
1FB
102
{ACAD_REACTORS
330
1FA
102
}
330
1FA
100
AcDbXrecord
280
     1
102
RTVSPropertyOp0
 70
     1
102
RTVSPropertyOp1
 70
     1
102
RTVSPropertyOp2
 70
     1
102
RTVSPropertyOp3
 70
     1
102
RTVSPropertyOp4
 70
     1
102
RTVSPropertyOp5
 70
     1
102
RTVSPropertyOp6
 70
     1
102
RTVSPropertyOp7
 70
     1
102
RTVSPropertyOp8
 70
     1
102
RTVSPropertyOp9
 70
     1
102
RTVSPropertyOp10
 70
     1
102
RTVSPropertyOp11
 70
     1
102
RTVSPropertyOp12
 70
     1
102
RTVSPropertyOp13
 70
     1
102
RTVSPropertyOp14
 70
     1
102
RTVSPropertyOp15
 70
     1
102
RTVSPropertyOp16
 70
     1
102
RTVSPropertyOp17
 70
     1
102
RTVSPropertyOp18
 70
     1
102
RTVSPropertyOp19
 70
     1
102
RTVSPropertyOp20
 70
     1
102
RTVSPropertyOp21
 70
     1
102
RTVSPropertyOp22
 70
     1
102
RTVSPropertyOp23
 70
     1
102
RTVSPropertyOp24
 70
     1
102
RTVSPropertyOp25
 70
     1
102
RTVSPropertyOp26
 70
     1
102
RTVSPropertyOp27
 70
     1
102
RTVSPropertyOp28
 70
     1
102
RTVSPropertyOp29
 70
     1
102
RTVSPropertyOp30
 70
     1
102
RTVSPropertyOp31
 70
     1
102
RTVSPropertyOp32
 70
     1
  0
XRECORD
  5
1DF
102
{ACAD_REACTORS
330
1DE
102
}
330
1DE
100
AcDbXrecord
280
     1
102
RTVSPropertyOp0
 70
     1
102
RTVSPropertyOp1
 70
     1
102
RTVSPropertyOp2
 70
     1
102
RTVSPropertyOp3
 70
     1
102
RTVSPropertyOp4
 70
     1
102
RTVSPropertyOp5
 70
     1
102
RTVSPropertyOp6
 70
     1
102
RTVSPropertyOp7
 70
     1
102
RTVSPropertyOp8
 70
     1
102
RTVSPropertyOp9
 70
     1
102
RTVSPropertyOp10
 70
     1
102
RTVSPropertyOp11
 70
     1
102
RTVSPropertyOp12
 70
     1
102
RTVSPropertyOp13
 70
     1
102
RTVSPropertyOp14
 70
     1
102
RTVSPropertyOp15
 70
     1
102
RTVSPropertyOp16
 70
     1
102
RTVSPropertyOp17
 70
     1
102
RTVSPropertyOp18
 70
     1
102
RTVSPropertyOp19
 70
     1
102
RTVSPropertyOp20
 70
     1
102
RTVSPropertyOp21
 70
     1
102
RTVSPropertyOp22
 70
     1
102
RTVSPropertyOp23
 70
     1
102
RTVSPropertyOp24
 70
     1
102
RTVSPropertyOp25
 70
     1
102
RTVSPropertyOp26
 70
     1
102
RTVSPropertyOp27
 70
     1
102
RTVSPropertyOp28
 70
     1
102
RTVSPropertyOp29
 70
     1
102
RTVSPropertyOp30
 70
     1
102
RTVSPropertyOp31
 70
     1
102
RTVSPropertyOp32
 70
     1
  0
XRECORD
  5
1E1
102
{ACAD_REACTORS
330
1E0
102
}
330
1E0
100
AcDbXrecord
280
     1
102
RTVSPropertyOp0
 70
     1
102
RTVSPropertyOp1
 70
     1
102
RTVSPropertyOp2
 70
     1
102
RTVSPropertyOp3
 70
     1
102
RTVSPropertyOp4
 70
     1
102
RTVSPropertyOp5
 70
     1
102
RTVSPropertyOp6
 70
     1
102
RTVSPropertyOp7
 70
     1
102
RTVSPropertyOp8
 70
     1
102
RTVSPropertyOp9
 70
     1
102
RTVSPropertyOp10
 70
     1
102
RTVSPropertyOp11
 70
     1
102
RTVSPropertyOp12
 70
     1
102
RTVSPropertyOp13
 70
     1
102
RTVSPropertyOp14
 70
     1
102
RTVSPropertyOp15
 70
     1
102
RTVSPropertyOp16
 70
     1
102
RTVSPropertyOp17
 70
     1
102
RTVSPropertyOp18
 70
     1
102
RTVSPropertyOp19
 70
     1
102
RTVSPropertyOp20
 70
     1
102
RTVSPropertyOp21
 70
     1
102
RTVSPropertyOp22
 70
     1
102
RTVSPropertyOp23
 70
     1
102
RTVSPropertyOp24
 70
     1
102
RTVSPropertyOp25
 70
     1
102
RTVSPropertyOp26
 70
     1
102
RTVSPropertyOp27
 70
     1
102
RTVSPropertyOp28
 70
     1
102
RTVSPropertyOp29
 70
     1
102
RTVSPropertyOp30
 70
     1
102
RTVSPropertyOp31
 70
     1
102
RTVSPropertyOp32
 70
     1
  0
XRECORD
  5
1E3
102
{ACAD_REACTORS
330
1E2
102
}
330
1E2
100
AcDbXrecord
280
     1
102
RTVSPropertyOp0
 70
     1
102
RTVSPropertyOp1
 70
     1
102
RTVSPropertyOp2
 70
     1
102
RTVSPropertyOp3
 70
     1
102
RTVSPropertyOp4
 70
     1
102
RTVSPropertyOp5
 70
     1
102
RTVSPropertyOp6
 70
     1
102
RTVSPropertyOp7
 70
     1
102
RTVSPropertyOp8
 70
     1
102
RTVSPropertyOp9
 70
     1
102
RTVSPropertyOp10
 70
     1
102
RTVSPropertyOp11
 70
     1
102
RTVSPropertyOp12
 70
     1
102
RTVSPropertyOp13
 70
     1
102
RTVSPropertyOp14
 70
     1
102
RTVSPropertyOp15
 70
     1
102
RTVSPropertyOp16
 70
     1
102
RTVSPropertyOp17
 70
     1
102
RTVSPropertyOp18
 70
     1
102
RTVSPropertyOp19
 70
     1
102
RTVSPropertyOp20
 70
     1
102
RTVSPropertyOp21
 70
     1
102
RTVSPropertyOp22
 70
     1
102
RTVSPropertyOp23
 70
     1
102
RTVSPropertyOp24
 70
     1
102
RTVSPropertyOp25
 70
     1
102
RTVSPropertyOp26
 70
     1
102
RTVSPropertyOp27
 70
     1
102
RTVSPropertyOp28
 70
     1
102
RTVSPropertyOp29
 70
     1
102
RTVSPropertyOp30
 70
     1
102
RTVSPropertyOp31
 70
     1
102
RTVSPropertyOp32
 70
     1
  0
XRECORD
  5
1E5
102
{ACAD_REACTORS
330
1E4
102
}
330
1E4
100
AcDbXrecord
280
     1
102
RTVSPropertyOp0
 70
     1
102
RTVSPropertyOp1
 70
     1
102
RTVSPropertyOp2
 70
     1
102
RTVSPropertyOp3
 70
     1
102
RTVSPropertyOp4
 70
     1
102
RTVSPropertyOp5
 70
     1
102
RTVSPropertyOp6
 70
     1
102
RTVSPropertyOp7
 70
     1
102
RTVSPropertyOp8
 70
     1
102
RTVSPropertyOp9
 70
     1
102
RTVSPropertyOp10
 70
     1
102
RTVSPropertyOp11
 70
     1
102
RTVSPropertyOp12
 70
     1
102
RTVSPropertyOp13
 70
     1
102
RTVSPropertyOp14
 70
     1
102
RTVSPropertyOp15
 70
     1
102
RTVSPropertyOp16
 70
     1
102
RTVSPropertyOp17
 70
     1
102
RTVSPropertyOp18
 70
     1
102
RTVSPropertyOp19
 70
     1
102
RTVSPropertyOp20
 70
     1
102
RTVSPropertyOp21
 70
     1
102
RTVSPropertyOp22
 70
     1
102
RTVSPropertyOp23
 70
     1
102
RTVSPropertyOp24
 70
     1
102
RTVSPropertyOp25
 70
     1
102
RTVSPropertyOp26
 70
     1
102
RTVSPropertyOp27
 70
     1
102
RTVSPropertyOp28
 70
     1
102
RTVSPropertyOp29
 70
     1
102
RTVSPropertyOp30
 70
     1
102
RTVSPropertyOp31
 70
     1
102
RTVSPropertyOp32
 70
     1
  0
XRECORD
  5
1ED
102
{ACAD_REACTORS
330
1EC
102
}
330
1EC
100
AcDbXrecord
280
     1
102
RTVSPropertyOp0
 70
     1
102
RTVSPropertyOp1
 70
     1
102
RTVSPropertyOp2
 70
     1
102
RTVSPropertyOp3
 70
     1
102
RTVSPropertyOp4
 70
     1
102
RTVSPropertyOp5
 70
     1
102
RTVSPropertyOp6
 70
     1
102
RTVSPropertyOp7
 70
     1
102
RTVSPropertyOp8
 70
     1
102
RTVSPropertyOp9
 70
     1
102
RTVSPropertyOp10
 70
     1
102
RTVSPropertyOp11
 70
     1
102
RTVSPropertyOp12
 70
     1
102
RTVSPropertyOp13
 70
     1
102
RTVSPropertyOp14
 70
     1
102
RTVSPropertyOp15
 70
     1
102
RTVSPropertyOp16
 70
     1
102
RTVSPropertyOp17
 70
     1
102
RTVSPropertyOp18
 70
     1
102
RTVSPropertyOp19
 70
     1
102
RTVSPropertyOp20
 70
     1
102
RTVSPropertyOp21
 70
     1
102
RTVSPropertyOp22
 70
     1
102
RTVSPropertyOp23
 70
     1
102
RTVSPropertyOp24
 70
     1
102
RTVSPropertyOp25
 70
     1
102
RTVSPropertyOp26
 70
     1
102
RTVSPropertyOp27
 70
     1
102
RTVSPropertyOp28
 70
     1
102
RTVSPropertyOp29
 70
     1
102
RTVSPropertyOp30
 70
     1
102
RTVSPropertyOp31
 70
     1
102
RTVSPropertyOp32
 70
     1
  0
XRECORD
  5
209
102
{ACAD_REACTORS
330
208
102
}
330
208
100
AcDbXrecord
280
     1
102
RTVSPropertyOp0
 70
     0
102
RTVSPropertyOp1
 70
     0
102
RTVSPropertyOp2
 70
     0
102
RTVSPropertyOp3
 70
     0
102
RTVSPropertyOp4
 70
     0
102
RTVSPropertyOp5
 70
     0
102
RTVSPropertyOp6
 70
     0
102
RTVSPropertyOp7
 70
     0
102
RTVSPropertyOp8
 70
     0
102
RTVSPropertyOp9
 70
     0
102
RTVSPropertyOp10
 70
     0
102
RTVSPropertyOp11
 70
     0
102
RTVSPropertyOp12
 70
     0
102
RTVSPropertyOp13
 70
     0
102
RTVSPropertyOp14
 70
     2
102
RTVSPropertyOp15
 70
     0
102
RTVSPropertyOp16
 70
     0
102
RTVSPropertyOp17
 70
     0
102
RTVSPropertyOp18
 70
     0
102
RTVSPropertyOp19
 70
     0
102
RTVSPropertyOp20
 70
     0
102
RTVSPropertyOp21
 70
     0
102
RTVSPropertyOp22
 70
     0
102
RTVSPropertyOp23
 70
     0
102
RTVSPropertyOp24
 70
     0
102
RTVSPropertyOp25
 70
     0
102
RTVSPropertyOp26
 70
     0
102
RTVSPropertyOp27
 70
     0
102
RTVSPropertyOp28
 70
     0
102
RTVSPropertyOp29
 70
     0
102
RTVSPropertyOp30
 70
     0
102
RTVSPropertyOp31
 70
     0
102
RTVSPropertyOp32
 70
     0
  0
XRECORD
  5
1F9
102
{ACAD_REACTORS
330
1F8
102
}
330
1F8
100
AcDbXrecord
280
     1
102
RTVSPropertyOp0
 70
     1
102
RTVSPropertyOp1
 70
     1
102
RTVSPropertyOp2
 70
     1
102
RTVSPropertyOp3
 70
     1
102
RTVSPropertyOp4
 70
     1
102
RTVSPropertyOp5
 70
     1
102
RTVSPropertyOp6
 70
     1
102
RTVSPropertyOp7
 70
     1
102
RTVSPropertyOp8
 70
     1
102
RTVSPropertyOp9
 70
     1
102
RTVSPropertyOp10
 70
     1
102
RTVSPropertyOp11
 70
     1
102
RTVSPropertyOp12
 70
     1
102
RTVSPropertyOp13
 70
     1
102
RTVSPropertyOp14
 70
     1
102
RTVSPropertyOp15
 70
     1
102
RTVSPropertyOp16
 70
     1
102
RTVSPropertyOp17
 70
     1
102
RTVSPropertyOp18
 70
     1
102
RTVSPropertyOp19
 70
     1
102
RTVSPropertyOp20
 70
     1
102
RTVSPropertyOp21
 70
     1
102
RTVSPropertyOp22
 70
     1
102
RTVSPropertyOp23
 70
     1
102
RTVSPropertyOp24
 70
     1
102
RTVSPropertyOp25
 70
     1
102
RTVSPropertyOp26
 70
     1
102
RTVSPropertyOp27
 70
     1
102
RTVSPropertyOp28
 70
     1
102
RTVSPropertyOp29
 70
     1
102
RTVSPropertyOp30
 70
     1
102
RTVSPropertyOp31
 70
     1
102
RTVSPropertyOp32
 70
     1
  0
XRECORD
  5
20B
102
{ACAD_REACTORS
330
20A
102
}
330
20A
100
AcDbXrecord
280
     1
102
RTVSPropertyOp0
 70
     0
102
RTVSPropertyOp1
 70
     0
102
RTVSPropertyOp2
 70
     0
102
RTVSPropertyOp3
 70
     0
102
RTVSPropertyOp4
 70
     0
102
RTVSPropertyOp5
 70
     0
102
RTVSPropertyOp6
 70
     0
102
RTVSPropertyOp7
 70
     0
102
RTVSPropertyOp8
 70
     0
102
RTVSPropertyOp9
 70
     0
102
RTVSPropertyOp10
 70
     0
102
RTVSPropertyOp11
 70
     0
102
RTVSPropertyOp12
 70
     0
102
RTVSPropertyOp13
 70
     0
102
RTVSPropertyOp14
 70
     2
102
RTVSPropertyOp15
 70
     0
102
RTVSPropertyOp16
 70
     0
102
RTVSPropertyOp17
 70
     0
102
RTVSPropertyOp18
 70
     0
102
RTVSPropertyOp19
 70
     0
102
RTVSPropertyOp20
 70
     0
102
RTVSPropertyOp21
 70
     0
102
RTVSPropertyOp22
 70
     0
102
RTVSPropertyOp23
 70
     0
102
RTVSPropertyOp24
 70
     0
102
RTVSPropertyOp25
 70
     0
102
RTVSPropertyOp26
 70
     0
102
RTVSPropertyOp27
 70
     0
102
RTVSPropertyOp28
 70
     0
102
RTVSPropertyOp29
 70
     0
102
RTVSPropertyOp30
 70
     0
102
RTVSPropertyOp31
 70
     0
102
RTVSPropertyOp32
 70
     0
  0
XRECORD
  5
1F1
102
{ACAD_REACTORS
330
1F0
102
}
330
1F0
100
AcDbXrecord
280
     1
102
RTVSPropertyOp0
 70
     1
102
RTVSPropertyOp1
 70
     1
102
RTVSPropertyOp2
 70
     1
102
RTVSPropertyOp3
 70
     1
102
RTVSPropertyOp4
 70
     1
102
RTVSPropertyOp5
 70
     1
102
RTVSPropertyOp6
 70
     1
102
RTVSPropertyOp7
 70
     1
102
RTVSPropertyOp8
 70
     1
102
RTVSPropertyOp9
 70
     1
102
RTVSPropertyOp10
 70
     1
102
RTVSPropertyOp11
 70
     1
102
RTVSPropertyOp12
 70
     1
102
RTVSPropertyOp13
 70
     1
102
RTVSPropertyOp14
 70
     1
102
RTVSPropertyOp15
 70
     1
102
RTVSPropertyOp16
 70
     1
102
RTVSPropertyOp17
 70
     1
102
RTVSPropertyOp18
 70
     1
102
RTVSPropertyOp19
 70
     1
102
RTVSPropertyOp20
 70
     1
102
RTVSPropertyOp21
 70
     1
102
RTVSPropertyOp22
 70
     1
102
RTVSPropertyOp23
 70
     1
102
RTVSPropertyOp24
 70
     1
102
RTVSPropertyOp25
 70
     1
102
RTVSPropertyOp26
 70
     1
102
RTVSPropertyOp27
 70
     1
102
RTVSPropertyOp28
 70
     1
102
RTVSPropertyOp29
 70
     1
102
RTVSPropertyOp30
 70
     1
102
RTVSPropertyOp31
 70
     1
102
RTVSPropertyOp32
 70
     1
  0
XRECORD
  5
207
102
{ACAD_REACTORS
330
206
102
}
330
206
100
AcDbXrecord
280
     1
102
RTVSPropertyOp0
 70
     1
102
RTVSPropertyOp1
 70
     1
102
RTVSPropertyOp2
 70
     1
102
RTVSPropertyOp3
 70
     1
102
RTVSPropertyOp4
 70
     1
102
RTVSPropertyOp5
 70
     1
102
RTVSPropertyOp6
 70
     1
102
RTVSPropertyOp7
 70
     1
102
RTVSPropertyOp8
 70
     1
102
RTVSPropertyOp9
 70
     1
102
RTVSPropertyOp10
 70
     1
102
RTVSPropertyOp11
 70
     1
102
RTVSPropertyOp12
 70
     1
102
RTVSPropertyOp13
 70
     1
102
RTVSPropertyOp14
 70
     1
102
RTVSPropertyOp15
 70
     1
102
RTVSPropertyOp16
 70
     1
102
RTVSPropertyOp17
 70
     1
102
RTVSPropertyOp18
 70
     1
102
RTVSPropertyOp19
 70
     1
102
RTVSPropertyOp20
 70
     1
102
RTVSPropertyOp21
 70
     1
102
RTVSPropertyOp22
 70
     1
102
RTVSPropertyOp23
 70
     1
102
RTVSPropertyOp24
 70
     1
102
RTVSPropertyOp25
 70
     1
102
RTVSPropertyOp26
 70
     1
102
RTVSPropertyOp27
 70
     1
102
RTVSPropertyOp28
 70
     1
102
RTVSPropertyOp29
 70
     1
102
RTVSPropertyOp30
 70
     1
102
RTVSPropertyOp31
 70
     1
102
RTVSPropertyOp32
 70
     1
  0
XRECORD
  5
205
102
{ACAD_REACTORS
330
204
102
}
330
204
100
AcDbXrecord
280
     1
102
RTVSPropertyOp0
 70
     1
102
RTVSPropertyOp1
 70
     1
102
RTVSPropertyOp2
 70
     1
102
RTVSPropertyOp3
 70
     1
102
RTVSPropertyOp4
 70
     1
102
RTVSPropertyOp5
 70
     1
102
RTVSPropertyOp6
 70
     1
102
RTVSPropertyOp7
 70
     1
102
RTVSPropertyOp8
 70
     1
102
RTVSPropertyOp9
 70
     1
102
RTVSPropertyOp10
 70
     1
102
RTVSPropertyOp11
 70
     1
102
RTVSPropertyOp12
 70
     1
102
RTVSPropertyOp13
 70
     1
102
RTVSPropertyOp14
 70
     1
102
RTVSPropertyOp15
 70
     1
102
RTVSPropertyOp16
 70
     1
102
RTVSPropertyOp17
 70
     1
102
RTVSPropertyOp18
 70
     1
102
RTVSPropertyOp19
 70
     1
102
RTVSPropertyOp20
 70
     1
102
RTVSPropertyOp21
 70
     1
102
RTVSPropertyOp22
 70
     1
102
RTVSPropertyOp23
 70
     1
102
RTVSPropertyOp24
 70
     1
102
RTVSPropertyOp25
 70
     1
102
RTVSPropertyOp26
 70
     1
102
RTVSPropertyOp27
 70
     1
102
RTVSPropertyOp28
 70
     1
102
RTVSPropertyOp29
 70
     1
102
RTVSPropertyOp30
 70
     1
102
RTVSPropertyOp31
 70
     1
102
RTVSPropertyOp32
 70
     1
  0
XRECORD
  5
1FF
102
{ACAD_REACTORS
330
1FE
102
}
330
1FE
100
AcDbXrecord
280
     1
102
RTVSPropertyOp0
 70
     1
102
RTVSPropertyOp1
 70
     1
102
RTVSPropertyOp2
 70
     1
102
RTVSPropertyOp3
 70
     1
102
RTVSPropertyOp4
 70
     1
102
RTVSPropertyOp5
 70
     1
102
RTVSPropertyOp6
 70
     1
102
RTVSPropertyOp7
 70
     1
102
RTVSPropertyOp8
 70
     1
102
RTVSPropertyOp9
 70
     1
102
RTVSPropertyOp10
 70
     1
102
RTVSPropertyOp11
 70
     1
102
RTVSPropertyOp12
 70
     1
102
RTVSPropertyOp13
 70
     1
102
RTVSPropertyOp14
 70
     1
102
RTVSPropertyOp15
 70
     1
102
RTVSPropertyOp16
 70
     1
102
RTVSPropertyOp17
 70
     1
102
RTVSPropertyOp18
 70
     1
102
RTVSPropertyOp19
 70
     1
102
RTVSPropertyOp20
 70
     1
102
RTVSPropertyOp21
 70
     1
102
RTVSPropertyOp22
 70
     1
102
RTVSPropertyOp23
 70
     1
102
RTVSPropertyOp24
 70
     1
102
RTVSPropertyOp25
 70
     1
102
RTVSPropertyOp26
 70
     1
102
RTVSPropertyOp27
 70
     1
102
RTVSPropertyOp28
 70
     1
102
RTVSPropertyOp29
 70
     1
102
RTVSPropertyOp30
 70
     1
102
RTVSPropertyOp31
 70
     1
102
RTVSPropertyOp32
 70
     1
  0
XRECORD
  5
201
102
{ACAD_REACTORS
330
200
102
}
330
200
100
AcDbXrecord
280
     1
102
RTVSPropertyOp0
 70
     1
102
RTVSPropertyOp1
 70
     1
102
RTVSPropertyOp2
 70
     1
102
RTVSPropertyOp3
 70
     1
102
RTVSPropertyOp4
 70
     1
102
RTVSPropertyOp5
 70
     1
102
RTVSPropertyOp6
 70
     1
102
RTVSPropertyOp7
 70
     1
102
RTVSPropertyOp8
 70
     1
102
RTVSPropertyOp9
 70
     1
102
RTVSPropertyOp10
 70
     1
102
RTVSPropertyOp11
 70
     1
102
RTVSPropertyOp12
 70
     1
102
RTVSPropertyOp13
 70
     1
102
RTVSPropertyOp14
 70
     1
102
RTVSPropertyOp15
 70
     1
102
RTVSPropertyOp16
 70
     1
102
RTVSPropertyOp17
 70
     1
102
RTVSPropertyOp18
 70
     1
102
RTVSPropertyOp19
 70
     1
102
RTVSPropertyOp20
 70
     1
102
RTVSPropertyOp21
 70
     1
102
RTVSPropertyOp22
 70
     1
102
RTVSPropertyOp23
 70
     1
102
RTVSPropertyOp24
 70
     1
102
RTVSPropertyOp25
 70
     1
102
RTVSPropertyOp26
 70
     1
102
RTVSPropertyOp27
 70
     1
102
RTVSPropertyOp28
 70
     1
102
RTVSPropertyOp29
 70
     1
102
RTVSPropertyOp30
 70
     1
102
RTVSPropertyOp31
 70
     1
102
RTVSPropertyOp32
 70
     1
  0
XRECORD
  5
1F7
102
{ACAD_REACTORS
330
1F6
102
}
330
1F6
100
AcDbXrecord
280
     1
102
RTVSPropertyOp0
 70
     1
102
RTVSPropertyOp1
 70
     1
102
RTVSPropertyOp2
 70
     1
102
RTVSPropertyOp3
 70
     1
102
RTVSPropertyOp4
 70
     1
102
RTVSPropertyOp5
 70
     1
102
RTVSPropertyOp6
 70
     1
102
RTVSPropertyOp7
 70
     1
102
RTVSPropertyOp8
 70
     1
102
RTVSPropertyOp9
 70
     1
102
RTVSPropertyOp10
 70
     1
102
RTVSPropertyOp11
 70
     1
102
RTVSPropertyOp12
 70
     1
102
RTVSPropertyOp13
 70
     1
102
RTVSPropertyOp14
 70
     1
102
RTVSPropertyOp15
 70
     1
102
RTVSPropertyOp16
 70
     1
102
RTVSPropertyOp17
 70
     1
102
RTVSPropertyOp18
 70
     1
102
RTVSPropertyOp19
 70
     1
102
RTVSPropertyOp20
 70
     1
102
RTVSPropertyOp21
 70
     1
102
RTVSPropertyOp22
 70
     1
102
RTVSPropertyOp23
 70
     1
102
RTVSPropertyOp24
 70
     1
102
RTVSPropertyOp25
 70
     1
102
RTVSPropertyOp26
 70
     1
102
RTVSPropertyOp27
 70
     1
102
RTVSPropertyOp28
 70
     1
102
RTVSPropertyOp29
 70
     1
102
RTVSPropertyOp30
 70
     1
102
RTVSPropertyOp31
 70
     1
102
RTVSPropertyOp32
 70
     1
  0
XRECORD
  5
1EB
102
{ACAD_REACTORS
330
1EA
102
}
330
1EA
100
AcDbXrecord
280
     1
102
RTVSPropertyOp0
 70
     1
102
RTVSPropertyOp1
 70
     1
102
RTVSPropertyOp2
 70
     1
102
RTVSPropertyOp3
 70
     1
102
RTVSPropertyOp4
 70
     1
102
RTVSPropertyOp5
 70
     1
102
RTVSPropertyOp6
 70
     1
102
RTVSPropertyOp7
 70
     1
102
RTVSPropertyOp8
 70
     1
102
RTVSPropertyOp9
 70
     1
102
RTVSPropertyOp10
 70
     1
102
RTVSPropertyOp11
 70
     1
102
RTVSPropertyOp12
 70
     1
102
RTVSPropertyOp13
 70
     1
102
RTVSPropertyOp14
 70
     1
102
RTVSPropertyOp15
 70
     1
102
RTVSPropertyOp16
 70
     1
102
RTVSPropertyOp17
 70
     1
102
RTVSPropertyOp18
 70
     1
102
RTVSPropertyOp19
 70
     1
102
RTVSPropertyOp20
 70
     1
102
RTVSPropertyOp21
 70
     1
102
RTVSPropertyOp22
 70
     1
102
RTVSPropertyOp23
 70
     1
102
RTVSPropertyOp24
 70
     1
102
RTVSPropertyOp25
 70
     1
102
RTVSPropertyOp26
 70
     1
102
RTVSPropertyOp27
 70
     1
102
RTVSPropertyOp28
 70
     1
102
RTVSPropertyOp29
 70
     1
102
RTVSPropertyOp30
 70
     1
102
RTVSPropertyOp31
 70
     1
102
RTVSPropertyOp32
 70
     1
  0
XRECORD
  5
203
102
{ACAD_REACTORS
330
202
102
}
330
202
100
AcDbXrecord
280
     1
102
RTVSPropertyOp0
 70
     1
102
RTVSPropertyOp1
 70
     1
102
RTVSPropertyOp2
 70
     1
102
RTVSPropertyOp3
 70
     1
102
RTVSPropertyOp4
 70
     1
102
RTVSPropertyOp5
 70
     1
102
RTVSPropertyOp6
 70
     1
102
RTVSPropertyOp7
 70
     1
102
RTVSPropertyOp8
 70
     1
102
RTVSPropertyOp9
 70
     1
102
RTVSPropertyOp10
 70
     1
102
RTVSPropertyOp11
 70
     1
102
RTVSPropertyOp12
 70
     1
102
RTVSPropertyOp13
 70
     1
102
RTVSPropertyOp14
 70
     1
102
RTVSPropertyOp15
 70
     1
102
RTVSPropertyOp16
 70
     1
102
RTVSPropertyOp17
 70
     1
102
RTVSPropertyOp18
 70
     1
102
RTVSPropertyOp19
 70
     1
102
RTVSPropertyOp20
 70
     1
102
RTVSPropertyOp21
 70
     1
102
RTVSPropertyOp22
 70
     1
102
RTVSPropertyOp23
 70
     1
102
RTVSPropertyOp24
 70
     1
102
RTVSPropertyOp25
 70
     1
102
RTVSPropertyOp26
 70
     1
102
RTVSPropertyOp27
 70
     1
102
RTVSPropertyOp28
 70
     1
102
RTVSPropertyOp29
 70
     1
102
RTVSPropertyOp30
 70
     1
102
RTVSPropertyOp31
 70
     1
102
RTVSPropertyOp32
 70
     1
  0
ENDSEC
  0
EOF
