  0
SECTION
  2
HEADER
  9
$ACADVER
  1
AC1015
  9
$ACADMAINTVER
 70
    20
  9
$DWGCODEPAGE
  3
ANSI_1252
  9
$INSBASE
 10
0.0
 20
0.0
 30
0.0
  9
$EXTMIN
 10
34810.62262641
 20
6644.907792579999
 30
0.0
  9
$EXTMAX
 10
35795.62262641
 20
7999.907792580001
 30
2500.0
  9
$LIMMIN
 10
0.0
 20
0.0
  9
$LIMMAX
 10
39995.54275426
 20
11749.95752903
  9
$ORTHOMODE
 70
     0
  9
$REGENMODE
 70
     1
  9
$FILLMODE
 70
     1
  9
$QTEXTMODE
 70
     0
  9
$MIRRTEXT
 70
     1
  9
$LTSCALE
 40
5.0
  9
$ATTMODE
 70
     1
  9
$TEXTSIZE
 40
3.5
  9
$TRACEWID
 40
1.0
  9
$TEXTSTYLE
  7
STANDARD
  9
$CLAYER
  8
0
  9
$CELTYPE
  6
BYLAYER
  9
$CECOLOR
 62
   256
  9
$CELTSCALE
 40
1.0
  9
$DISPSILH
 70
     0
  9
$DIMSCALE
 40
1.0
  9
$DIMASZ
 40
4.0
  9
$DIMEXO
 40
5.0
  9
$DIMDLI
 40
10.0
  9
$DIMRND
 40
0.0
  9
$DIMDLE
 40
2.0
  9
$DIMEXE
 40
2.0
  9
$DIMTP
 40
0.0
  9
$DIMTM
 40
0.0
  9
$DIMTXT
 40
2.0
  9
$DIMCEN
 40
1.5
  9
$DIMTSZ
 40
0.0
  9
$DIMTOL
 70
     0
  9
$DIMLIM
 70
     0
  9
$DIMTIH
 70
     1
  9
$DIMTOH
 70
     0
  9
$DIMSE1
 70
     0
  9
$DIMSE2
 70
     0
  9
$DIMTAD
 70
     1
  9
$DIMZIN
 70
     8
  9
$DIMBLK
  1

  9
$DIMASO
 70
     1
  9
$DIMSHO
 70
     1
  9
$DIMPOST
  1

  9
$DIMAPOST
  1

  9
$DIMALT
 70
     0
  9
$DIMALTD
 70
     2
  9
$DIMALTF
 40
25.4
  9
$DIMLFAC
 40
1.0
  9
$DIMTOFL
 70
     0
  9
$DIMTVP
 40
0.0
  9
$DIMTIX
 70
     0
  9
$DIMSOXD
 70
     0
  9
$DIMSAH
 70
     0
  9
$DIMBLK1
  1

  9
$DIMBLK2
  1

  9
$DIMSTYLE
  2
Standard
  9
$DIMCLRD
 70
     9
  9
$DIMCLRE
 70
     9
  9
$DIMCLRT
 70
     7
  9
$DIMTFAC
 40
1.0
  9
$DIMGAP
 40
0.09
  9
$DIMJUST
 70
     0
  9
$DIMSD1
 70
     0
  9
$DIMSD2
 70
     0
  9
$DIMTOLJ
 70
     1
  9
$DIMTZIN
 70
     0
  9
$DIMALTZ
 70
     0
  9
$DIMALTTZ
 70
     0
  9
$DIMUPT
 70
     0
  9
$DIMDEC
 70
     4
  9
$DIMTDEC
 70
     4
  9
$DIMALTU
 70
     2
  9
$DIMALTTD
 70
     2
  9
$DIMTXSTY
  7
STANDARD
  9
$DIMAUNIT
 70
     0
  9
$DIMADEC
 70
     0
  9
$DIMALTRND
 40
0.0
  9
$DIMAZIN
 70
     0
  9
$DIMDSEP
 70
    46
  9
$DIMATFIT
 70
     3
  9
$DIMFRAC
 70
     0
  9
$DIMLDRBLK
  1

  9
$DIMLUNIT
 70
     2
  9
$DIMLWD
 70
    -2
  9
$DIMLWE
 70
    -2
  9
$DIMTMOVE
 70
     0
  9
$LUNITS
 70
     2
  9
$LUPREC
 70
     6
  9
$SKETCHINC
 40
0.1
  9
$FILLETRAD
 40
0.0
  9
$AUNITS
 70
     0
  9
$AUPREC
 70
     0
  9
$MENU
  1
ACAD
  9
$ELEVATION
 40
0.0
  9
$PELEVATION
 40
0.0
  9
$THICKNESS
 40
0.0
  9
$LIMCHECK
 70
     0
  9
$CHAMFERA
 40
0.0
  9
$CHAMFERB
 40
0.0
  9
$CHAMFERC
 40
0.0
  9
$CHAMFERD
 40
0.0
  9
$SKPOLY
 70
     1
  9
$TDCREATE
 40
2456443.000000000
  9
$TDUCREATE
 40
2456442.916666667
  9
$TDUPDATE
 40
2456458.466303878
  9
$TDUUPDATE
 40
2456458.382970544
  9
$TDINDWG
 40
0.0053386806
  9
$TDUSRTIMER
 40
0.0053384954
  9
$USRTIMER
 70
     1
  9
$ANGBASE
 50
0.0
  9
$ANGDIR
 70
     0
  9
$PDMODE
 70
     0
  9
$PDSIZE
 40
0.0
  9
$PLINEWID
 40
0.0
  9
$SPLFRAME
 70
     0
  9
$SPLINETYPE
 70
     6
  9
$SPLINESEGS
 70
     8
  9
$HANDSEED
  5
218
  9
$SURFTAB1
 70
     6
  9
$SURFTAB2
 70
     6
  9
$SURFTYPE
 70
     6
  9
$SURFU
 70
     6
  9
$SURFV
 70
     6
  9
$UCSBASE
  2

  9
$UCSNAME
  2

  9
$UCSORG
 10
0.0
 20
0.0
 30
0.0
  9
$UCSXDIR
 10
1.0
 20
0.0
 30
0.0
  9
$UCSYDIR
 10
0.0
 20
1.0
 30
0.0
  9
$UCSORTHOREF
  2

  9
$UCSORTHOVIEW
 70
     0
  9
$UCSORGTOP
 10
0.0
 20
0.0
 30
0.0
  9
$UCSORGBOTTOM
 10
0.0
 20
0.0
 30
0.0
  9
$UCSORGLEFT
 10
0.0
 20
0.0
 30
0.0
  9
$UCSORGRIGHT
 10
0.0
 20
0.0
 30
0.0
  9
$UCSORGFRONT
 10
0.0
 20
0.0
 30
0.0
  9
$UCSORGBACK
 10
0.0
 20
0.0
 30
0.0
  9
$PUCSBASE
  2

  9
$PUCSNAME
  2

  9
$PUCSORG
 10
0.0
 20
0.0
 30
0.0
  9
$PUCSXDIR
 10
1.0
 20
0.0
 30
0.0
  9
$PUCSYDIR
 10
0.0
 20
1.0
 30
0.0
  9
$PUCSORTHOREF
  2

  9
$PUCSORTHOVIEW
 70
     0
  9
$PUCSORGTOP
 10
0.0
 20
0.0
 30
0.0
  9
$PUCSORGBOTTOM
 10
0.0
 20
0.0
 30
0.0
  9
$PUCSORGLEFT
 10
0.0
 20
0.0
 30
0.0
  9
$PUCSORGRIGHT
 10
0.0
 20
0.0
 30
0.0
  9
$PUCSORGFRONT
 10
0.0
 20
0.0
 30
0.0
  9
$PUCSORGBACK
 10
0.0
 20
0.0
 30
0.0
  9
$USERI1
 70
     0
  9
$USERI2
 70
     0
  9
$USERI3
 70
     0
  9
$USERI4
 70
     0
  9
$USERI5
 70
     0
  9
$USERR1
 40
0.0
  9
$USERR2
 40
0.0
  9
$USERR3
 40
0.0
  9
$USERR4
 40
0.0
  9
$USERR5
 40
0.0
  9
$WORLDVIEW
 70
     1
  9
$SHADEDGE
 70
     3
  9
$SHADEDIF
 70
    70
  9
$TILEMODE
 70
     1
  9
$MAXACTVP
 70
    16
  9
$PINSBASE
 10
0.0
 20
0.0
 30
0.0
  9
$PLIMCHECK
 70
     0
  9
$PEXTMIN
 10
1.000000000000000E+20
 20
1.000000000000000E+20
 30
1.000000000000000E+20
  9
$PEXTMAX
 10
-1.000000000000000E+20
 20
-1.000000000000000E+20
 30
-1.000000000000000E+20
  9
$PLIMMIN
 10
0.0
 20
0.0
  9
$PLIMMAX
 10
12.0
 20
9.0
  9
$UNITMODE
 70
     0
  9
$VISRETAIN
 70
     0
  9
$PLINEGEN
 70
     0
  9
$PSLTSCALE
 70
     1
  9
$TREEDEPTH
 70
  3020
  9
$CMLSTYLE
  2
STANDARD
  9
$CMLJUST
 70
     0
  9
$CMLSCALE
 40
1.0
  9
$PROXYGRAPHICS
 70
     1
  9
$MEASUREMENT
 70
     1
  9
$CELWEIGHT
370
    -1
  9
$ENDCAPS
280
     0
  9
$JOINSTYLE
280
     0
  9
$LWDISPLAY
290
     0
  9
$INSUNITS
 70
     0
  9
$HYPERLINKBASE
  1

  9
$STYLESHEET
  1

  9
$XEDIT
290
     1
  9
$CEPSNTYPE
380
     0
  9
$PSTYLEMODE
290
     1
  9
$FINGERPRINTGUID
  2
{1B574EBD-38CE-41AA-A1DF-21828ECCCCE9}
  9
$VERSIONGUID
  2
{093179E4-5E5E-4F6A-B4B2-73AA816D1D37}
  9
$EXTNAMES
290
     1
  9
$PSVPSCALE
 40
0.0
  9
$OLESTARTUP
290
     0
  0
ENDSEC
  0
SECTION
  2
CLASSES
  0
CLASS
  1
ACDBDICTIONARYWDFLT
  2
AcDbDictionaryWithDefault
  3
ObjectDBX Classes
 90
        0
280
     0
281
     0
  0
CLASS
  1
MATERIAL
  2
AcDbMaterial
  3
ObjectDBX Classes
 90
     1153
280
     0
281
     0
  0
CLASS
  1
VISUALSTYLE
  2
AcDbVisualStyle
  3
ObjectDBX Classes
 90
     4095
280
     0
281
     0
  0
CLASS
  1
TABLESTYLE
  2
AcDbTableStyle
  3
ObjectDBX Classes
 90
     4095
280
     0
281
     0
  0
CLASS
  1
SCALE
  2
AcDbScale
  3
ObjectDBX Classes
 90
     1153
280
     0
281
     0
  0
CLASS
  1
MLEADERSTYLE
  2
AcDbMLeaderStyle
  3
ACDB_MLEADERSTYLE_CLASS
 90
     4095
280
     0
281
     0
  0
CLASS
  1
DICTIONARYVAR
  2
AcDbDictionaryVar
  3
ObjectDBX Classes
 90
        0
280
     0
281
     0
  0
CLASS
  1
CELLSTYLEMAP
  2
AcDbCellStyleMap
  3
ObjectDBX Classes
 90
     1152
280
     0
281
     0
  0
CLASS
  1
ACDBPLACEHOLDER
  2
AcDbPlaceHolder
  3
ObjectDBX Classes
 90
        0
280
     0
281
     0
  0
CLASS
  1
LAYOUT
  2
AcDbLayout
  3
ObjectDBX Classes
 90
        0
280
     0
281
     0
  0
ENDSEC
  0
SECTION
  2
TABLES
  0
TABLE
  2
VPORT
  5
22
330
0
100
AcDbSymbolTable
 70
     1
  0
VPORT
  5
190
330
22
100
AcDbSymbolTableRecord
100
AcDbViewportTableRecord
  2
*Active
 70
     0
 10
0.0
 20
0.0
 11
1.0
 21
1.0
 12
35303.12262641
 22
7322.40779258
 13
0.0
 23
0.0
 14
1.0
 24
1.0
 15
0.0
 25
0.0
 16
0.0
 26
0.0
 36
1.0
 17
0.0
 27
0.0
 37
0.0
 40
1365.383141762451
 41
2.015345268542199
 42
50.0
 43
0.0
 44
0.0
 50
0.0
 51
0.0
 71
     0
 72
  1000
 73
     1
 74
     3
 75
     0
 76
     0
 77
     0
 78
     0
281
     0
 65
     1
110
0.0
120
0.0
130
0.0
111
1.0
121
0.0
131
0.0
112
0.0
122
1.0
132
0.0
 79
     0
146
0.0
  0
ENDTAB
  0
TABLE
  2
LTYPE
  5
28
330
0
100
AcDbSymbolTable
 70
    11
  0
LTYPE
  5
29
330
28
100
AcDbSymbolTableRecord
100
AcDbLinetypeTableRecord
  2
BYBLOCK
 70
     0
  3

 72
    65
 73
     0
 40
0.0
  0
LTYPE
  5
2A
330
28
100
AcDbSymbolTableRecord
100
AcDbLinetypeTableRecord
  2
BYLAYER
 70
     0
  3

 72
    65
 73
     0
 40
0.0
  0
LTYPE
  5
2B
330
28
100
AcDbSymbolTableRecord
100
AcDbLinetypeTableRecord
  2
CONTINUOUS
 70
     0
  3
Solid line
 72
    65
 73
     0
 40
0.0
  0
LTYPE
  5
2C
330
28
100
AcDbSymbolTableRecord
100
AcDbLinetypeTableRecord
  2
DOT
 70
     0
  3
. . . . . . . . . . . . . . . . . . . . . . . .
 72
    65
 73
     2
 40
2.5
 49
0.0
 74
     0
 49
-2.5
 74
     0
  0
LTYPE
  5
2D
330
28
100
AcDbSymbolTableRecord
100
AcDbLinetypeTableRecord
  2
HIDDEN
 70
     0
  3
__ __ __ __ __ __ __ __ __ __ __ __ __ __ __ __
 72
    65
 73
     2
 40
1.875
 49
1.25
 74
     0
 49
-0.625
 74
     0
  0
LTYPE
  5
2E
330
28
100
AcDbSymbolTableRecord
100
AcDbLinetypeTableRecord
  2
CENTER
 70
     0
  3
 ____ _ ____ _ ____ _ ____ _ ____ _ ____ _ ____
 72
    65
 73
     4
 40
20.0
 49
12.5
 74
     0
 49
-2.5
 74
     0
 49
2.5
 74
     0
 49
-2.5
 74
     0
  0
LTYPE
  5
2F
330
28
100
AcDbSymbolTableRecord
100
AcDbLinetypeTableRecord
  2
CADWORK_22
 70
     0
  3
22 =======================================
 72
    65
 73
     0
 40
0.0
  0
LTYPE
  5
30
330
28
100
AcDbSymbolTableRecord
100
AcDbLinetypeTableRecord
  2
DAL
 70
     0
  3
Solid line (for MAPS)
 72
    65
 73
     0
 40
0.0
  0
LTYPE
  5
31
330
28
100
AcDbSymbolTableRecord
100
AcDbLinetypeTableRecord
  2
MUR
 70
     0
  3
Solid line (for MAPS)
 72
    65
 73
     0
 40
0.0
  0
LTYPE
  5
32
330
28
100
AcDbSymbolTableRecord
100
AcDbLinetypeTableRecord
  2
SOM
 70
     0
  3
Solid line (for MAPS)
 72
    65
 73
     0
 40
0.0
  0
LTYPE
  5
33
330
28
100
AcDbSymbolTableRecord
100
AcDbLinetypeTableRecord
  2
COL
 70
     0
  3
Solid line (for MAPS)
 72
    65
 73
     0
 40
0.0
  0
LTYPE
  5
34
330
28
100
AcDbSymbolTableRecord
100
AcDbLinetypeTableRecord
  2
LGN
 70
     0
  3
Solid line (for MAPS)
 72
    65
 73
     0
 40
0.0
  0
LTYPE
  5
35
330
28
100
AcDbSymbolTableRecord
100
AcDbLinetypeTableRecord
  2
PNT
 70
     0
  3
Solid line (for MAPS)
 72
    65
 73
     0
 40
0.0
  0
ENDTAB
  0
TABLE
  2
LAYER
  5
36
330
0
100
AcDbSymbolTable
 70
    32
  0
LAYER
  5
37
102
{ACAD_XDICTIONARY
360
197
102
}
330
36
100
AcDbSymbolTableRecord
100
AcDbLayerTableRecord
  2
STANDARD
 70
     0
 62
     7
  6
CONTINUOUS
370
    -3
390
13F
  0
LAYER
  5
38
102
{ACAD_XDICTIONARY
360
199
102
}
330
36
100
AcDbSymbolTableRecord
100
AcDbLayerTableRecord
  2
Ech.1_1
 70
     0
 62
     7
  6
CONTINUOUS
370
    -3
390
13F
  0
LAYER
  5
39
102
{ACAD_XDICTIONARY
360
19B
102
}
330
36
100
AcDbSymbolTableRecord
100
AcDbLayerTableRecord
  2
Ech.1_2
 70
     0
 62
     7
  6
CONTINUOUS
370
    -3
390
13F
  0
LAYER
  5
3A
102
{ACAD_XDICTIONARY
360
19D
102
}
330
36
100
AcDbSymbolTableRecord
100
AcDbLayerTableRecord
  2
Ech.1_5
 70
     0
 62
     7
  6
CONTINUOUS
370
    -3
390
13F
  0
LAYER
  5
3B
102
{ACAD_XDICTIONARY
360
19F
102
}
330
36
100
AcDbSymbolTableRecord
100
AcDbLayerTableRecord
  2
Ech.1_10
 70
     0
 62
     7
  6
CONTINUOUS
370
    -3
390
13F
  0
LAYER
  5
3C
102
{ACAD_XDICTIONARY
360
1A1
102
}
330
36
100
AcDbSymbolTableRecord
100
AcDbLayerTableRecord
  2
Ech.1_20
 70
     0
 62
     7
  6
CONTINUOUS
370
    -3
390
13F
  0
LAYER
  5
3D
102
{ACAD_XDICTIONARY
360
1A3
102
}
330
36
100
AcDbSymbolTableRecord
100
AcDbLayerTableRecord
  2
Ech.1_25
 70
     0
 62
     7
  6
CONTINUOUS
370
    -3
390
13F
  0
LAYER
  5
3E
102
{ACAD_XDICTIONARY
360
1A5
102
}
330
36
100
AcDbSymbolTableRecord
100
AcDbLayerTableRecord
  2
Ech.1_33
 70
     0
 62
     7
  6
CONTINUOUS
370
    -3
390
13F
  0
LAYER
  5
3F
102
{ACAD_XDICTIONARY
360
1A7
102
}
330
36
100
AcDbSymbolTableRecord
100
AcDbLayerTableRecord
  2
Ech.1_50
 70
     0
 62
     7
  6
CONTINUOUS
370
    -3
390
13F
  0
LAYER
  5
40
102
{ACAD_XDICTIONARY
360
1A9
102
}
330
36
100
AcDbSymbolTableRecord
100
AcDbLayerTableRecord
  2
Ech.1_75
 70
     0
 62
     7
  6
CONTINUOUS
370
    -3
390
13F
  0
LAYER
  5
41
102
{ACAD_XDICTIONARY
360
1AB
102
}
330
36
100
AcDbSymbolTableRecord
100
AcDbLayerTableRecord
  2
Ech.1_100
 70
     0
 62
     7
  6
CONTINUOUS
370
    -3
390
13F
  0
LAYER
  5
42
102
{ACAD_XDICTIONARY
360
1AD
102
}
330
36
100
AcDbSymbolTableRecord
100
AcDbLayerTableRecord
  2
Ech.1_200
 70
     0
 62
     7
  6
CONTINUOUS
370
    -3
390
13F
  0
LAYER
  5
43
102
{ACAD_XDICTIONARY
360
1AF
102
}
330
36
100
AcDbSymbolTableRecord
100
AcDbLayerTableRecord
  2
Ech.1_500
 70
     0
 62
     7
  6
CONTINUOUS
370
    -3
390
13F
  0
LAYER
  5
44
102
{ACAD_XDICTIONARY
360
1B1
102
}
330
36
100
AcDbSymbolTableRecord
100
AcDbLayerTableRecord
  2
Ech.1_1000
 70
     0
 62
     7
  6
CONTINUOUS
370
    -3
390
13F
  0
LAYER
  5
45
102
{ACAD_XDICTIONARY
360
1B3
102
}
330
36
100
AcDbSymbolTableRecord
100
AcDbLayerTableRecord
  2
Cadres traceur
 70
     0
 62
     7
  6
CONTINUOUS
370
    -3
390
13F
  0
LAYER
  5
46
102
{ACAD_XDICTIONARY
360
1B5
102
}
330
36
100
AcDbSymbolTableRecord
100
AcDbLayerTableRecord
  2
Cadres laser
 70
     0
 62
     7
  6
CONTINUOUS
370
    -3
390
13F
  0
LAYER
  5
47
102
{ACAD_XDICTIONARY
360
1B7
102
}
330
36
100
AcDbSymbolTableRecord
100
AcDbLayerTableRecord
  2
Légende d_aide
 70
     0
 62
     7
  6
CONTINUOUS
370
    -3
390
13F
  0
LAYER
  5
48
102
{ACAD_XDICTIONARY
360
1B9
102
}
330
36
100
AcDbSymbolTableRecord
100
AcDbLayerTableRecord
  2
hachures ok
 70
     0
 62
     7
  6
CONTINUOUS
370
    -3
390
13F
  0
LAYER
  5
49
102
{ACAD_XDICTIONARY
360
1BB
102
}
330
36
100
AcDbSymbolTableRecord
100
AcDbLayerTableRecord
  2
ossature bois
 70
     0
 62
     7
  6
CONTINUOUS
370
    -3
390
13F
  0
LAYER
  5
4A
102
{ACAD_XDICTIONARY
360
1BD
102
}
330
36
100
AcDbSymbolTableRecord
100
AcDbLayerTableRecord
  2
VR
 70
     0
 62
     7
  6
CONTINUOUS
370
    -3
390
13F
  0
LAYER
  5
4B
102
{ACAD_XDICTIONARY
360
1BF
102
}
330
36
100
AcDbSymbolTableRecord
100
AcDbLayerTableRecord
  2
CALQUE1
 70
     0
 62
     7
  6
CONTINUOUS
370
    -3
390
13F
  0
LAYER
  5
4C
330
36
100
AcDbSymbolTableRecord
100
AcDbLayerTableRecord
  2
0
 70
     0
 62
     7
  6
CONTINUOUS
370
    -3
390
13F
  0
LAYER
  5
4D
102
{ACAD_XDICTIONARY
360
1C1
102
}
330
36
100
AcDbSymbolTableRecord
100
AcDbLayerTableRecord
  2
MENUISERIE
 70
     0
 62
     7
  6
CONTINUOUS
370
    -3
390
13F
  0
LAYER
  5
4E
102
{ACAD_XDICTIONARY
360
1C3
102
}
330
36
100
AcDbSymbolTableRecord
100
AcDbLayerTableRecord
  2
COTATION
 70
     0
 62
   250
  6
CONTINUOUS
370
    -3
390
13F
  0
LAYER
  5
4F
330
36
100
AcDbSymbolTableRecord
100
AcDbLayerTableRecord
  2
DEFPOINTS
 70
     0
 62
    10
  6
CONTINUOUS
290
     0
370
    -3
390
13F
  0
LAYER
  5
50
102
{ACAD_XDICTIONARY
360
1C5
102
}
330
36
100
AcDbSymbolTableRecord
100
AcDbLayerTableRecord
  2
HACHURE
 70
     0
 62
   254
  6
CONTINUOUS
370
    -3
390
13F
  0
LAYER
  5
51
102
{ACAD_XDICTIONARY
360
1C7
102
}
330
36
100
AcDbSymbolTableRecord
100
AcDbLayerTableRecord
  2
MAT1
 70
     0
 62
     7
  6
CONTINUOUS
370
    -3
390
13F
  0
LAYER
  5
52
102
{ACAD_XDICTIONARY
360
1C9
102
}
330
36
100
AcDbSymbolTableRecord
100
AcDbLayerTableRecord
  2
MAT2
 70
     0
 62
     7
  6
CONTINUOUS
370
    -3
390
13F
  0
LAYER
  5
53
102
{ACAD_XDICTIONARY
360
1CB
102
}
330
36
100
AcDbSymbolTableRecord
100
AcDbLayerTableRecord
  2
HACH
 70
     0
 62
     8
  6
CONTINUOUS
370
    -3
390
13F
  0
LAYER
  5
54
102
{ACAD_XDICTIONARY
360
1CD
102
}
330
36
100
AcDbSymbolTableRecord
100
AcDbLayerTableRecord
  2
MENUISERIES
 70
     0
 62
     7
  6
CONTINUOUS
370
    -3
390
13F
  0
LAYER
  5
55
102
{ACAD_XDICTIONARY
360
1CF
102
}
330
36
100
AcDbSymbolTableRecord
100
AcDbLayerTableRecord
  2
BÉTONMÉTAL
 70
     0
 62
     7
  6
CONTINUOUS
370
    -3
390
13F
  0
LAYER
  5
56
102
{ACAD_XDICTIONARY
360
1D1
102
}
330
36
100
AcDbSymbolTableRecord
100
AcDbLayerTableRecord
  2
BOIS
 70
     0
 62
     7
  6
CONTINUOUS
370
    -3
390
13F
  0
ENDTAB
  0
TABLE
  2
STYLE
  5
23
330
0
100
AcDbSymbolTable
 70
     4
  0
STYLE
  5
24
330
23
100
AcDbSymbolTableRecord
100
AcDbTextStyleTableRecord
  2
STANDARD
 70
     0
 40
0.0
 41
1.0
 50
0.0
 71
     0
 42
3.5
  3
MONOTXT
  4

  0
STYLE
  5
25
330
23
100
AcDbSymbolTableRecord
100
AcDbTextStyleTableRecord
  2
CADWORK1
 70
     0
 40
0.0
 41
1.0
 50
0.0
 71
     0
 42
3.5
  3
MONOTXT
  4

  0
STYLE
  5
26
330
23
100
AcDbSymbolTableRecord
100
AcDbTextStyleTableRecord
  2
MONOTXT
 70
     0
 40
0.0
 41
1.0
 50
0.0
 71
     0
 42
3.5
  3
MONOTXT
  4

  0
STYLE
  5
27
330
23
100
AcDbSymbolTableRecord
100
AcDbTextStyleTableRecord
  2
ARIAL
 70
     0
 40
0.0
 41
1.0
 50
0.0
 71
     0
 42
3.5
  3

  4

1001
ACAD
1000
Arial
1071
        0
  0
ENDTAB
  0
TABLE
  2
VIEW
  5
57
330
0
100
AcDbSymbolTable
 70
     2
  0
ENDTAB
  0
TABLE
  2
UCS
  5
58
330
0
100
AcDbSymbolTable
 70
     0
  0
ENDTAB
  0
TABLE
  2
APPID
  5
59
330
0
100
AcDbSymbolTable
 70
     2
  0
APPID
  5
5A
330
59
100
AcDbSymbolTableRecord
100
AcDbRegAppTableRecord
  2
ACAD
 70
     0
  0
APPID
  5
213
330
59
100
AcDbSymbolTableRecord
100
AcDbRegAppTableRecord
  2
ACAD_MLEADERVER
 70
     0
  0
ENDTAB
  0
TABLE
  2
DIMSTYLE
  5
5B
330
0
100
AcDbSymbolTable
 70
     1
100
AcDbDimStyleTable
 71
     0
  0
DIMSTYLE
105
189
330
5B
100
AcDbSymbolTableRecord
100
AcDbDimStyleTableRecord
  2
Standard
 70
     0
340
24
  0
ENDTAB
  0
TABLE
  2
BLOCK_RECORD
  5
5C
330
0
100
AcDbSymbolTable
 70
    17
  0
BLOCK_RECORD
  5
5D
330
5C
100
AcDbSymbolTableRecord
100
AcDbBlockTableRecord
  2
*MODEL_SPACE
340
18C
  0
BLOCK_RECORD
  5
5E
330
5C
100
AcDbSymbolTableRecord
100
AcDbBlockTableRecord
  2
*PAPER_SPACE
340
18D
  0
BLOCK_RECORD
  5
5F
330
5C
100
AcDbSymbolTableRecord
100
AcDbBlockTableRecord
  2
CDWK_EXTR_0
340
0
  0
BLOCK_RECORD
  5
60
330
5C
100
AcDbSymbolTableRecord
100
AcDbBlockTableRecord
  2
CDWK_EXTR_1D
340
0
  0
BLOCK_RECORD
  5
61
330
5C
100
AcDbSymbolTableRecord
100
AcDbBlockTableRecord
  2
CDWK_EXTR_1G
340
0
  0
BLOCK_RECORD
  5
62
330
5C
100
AcDbSymbolTableRecord
100
AcDbBlockTableRecord
  2
CDWK_EXTR_2
340
0
  0
BLOCK_RECORD
  5
63
330
5C
100
AcDbSymbolTableRecord
100
AcDbBlockTableRecord
  2
CDWK_EXTR_3
340
0
  0
BLOCK_RECORD
  5
64
330
5C
100
AcDbSymbolTableRecord
100
AcDbBlockTableRecord
  2
CDWK_EXTR_4
340
0
  0
BLOCK_RECORD
  5
65
330
5C
100
AcDbSymbolTableRecord
100
AcDbBlockTableRecord
  2
CDWK_PTTYP0
340
0
  0
BLOCK_RECORD
  5
66
330
5C
100
AcDbSymbolTableRecord
100
AcDbBlockTableRecord
  2
*X7
340
0
102
{BLKREFS
331
B8
102
}
  0
BLOCK_RECORD
  5
67
330
5C
100
AcDbSymbolTableRecord
100
AcDbBlockTableRecord
  2
*X8
340
0
102
{BLKREFS
331
B9
102
}
  0
BLOCK_RECORD
  5
68
330
5C
100
AcDbSymbolTableRecord
100
AcDbBlockTableRecord
  2
*X9
340
0
102
{BLKREFS
331
BA
102
}
  0
BLOCK_RECORD
  5
69
330
5C
100
AcDbSymbolTableRecord
100
AcDbBlockTableRecord
  2
*X10
340
0
102
{BLKREFS
331
BB
102
}
  0
BLOCK_RECORD
  5
6A
330
5C
100
AcDbSymbolTableRecord
100
AcDbBlockTableRecord
  2
*X11
340
0
102
{BLKREFS
331
BC
102
}
  0
BLOCK_RECORD
  5
6B
330
5C
100
AcDbSymbolTableRecord
100
AcDbBlockTableRecord
  2
*X12
340
0
102
{BLKREFS
331
BD
102
}
  0
BLOCK_RECORD
  5
6C
330
5C
100
AcDbSymbolTableRecord
100
AcDbBlockTableRecord
  2
*X13
340
0
102
{BLKREFS
331
BE
102
}
  0
BLOCK_RECORD
  5
6D
330
5C
100
AcDbSymbolTableRecord
100
AcDbBlockTableRecord
  2
*X14
340
0
102
{BLKREFS
331
BF
102
}
  0
BLOCK_RECORD
  5
6E
330
5C
100
AcDbSymbolTableRecord
100
AcDbBlockTableRecord
  2
*D15
340
0
102
{BLKREFS
331
139
102
}
  0
BLOCK_RECORD
  5
6F
330
5C
100
AcDbSymbolTableRecord
100
AcDbBlockTableRecord
  2
*D16
340
0
102
{BLKREFS
331
13A
102
}
  0
ENDTAB
  0
ENDSEC
  0
SECTION
  2
BLOCKS
  0
BLOCK
  5
70
330
5D
100
AcDbEntity
  8
0
100
AcDbBlockBegin
  2
*MODEL_SPACE
 70
     0
 10
0.0
 20
0.0
 30
0.0
  3
*MODEL_SPACE
  1

  0
ENDBLK
  5
71
330
5D
100
AcDbEntity
  8
0
100
AcDbBlockEnd
  0
BLOCK
  5
72
330
5E
100
AcDbEntity
 67
     1
  8
0
100
AcDbBlockBegin
  2
*PAPER_SPACE
 70
     0
 10
0.0
 20
0.0
 30
0.0
  3
*PAPER_SPACE
  1

  0
ENDBLK
  5
73
330
5E
100
AcDbEntity
 67
     1
  8
0
100
AcDbBlockEnd
  0
BLOCK
  5
74
330
5F
100
AcDbEntity
  8
0
100
AcDbBlockBegin
  2
CDWK_EXTR_0
 70
     0
 10
0.0
 20
0.0
 30
0.0
  3
CDWK_EXTR_0
  1

  0
LINE
  5
75
330
5F
100
AcDbEntity
  8
0
 62
     0
370
    -2
100
AcDbLine
 10
0.0
 20
0.0
 30
0.0
 11
2.0
 21
0.5
 31
0.0
  0
LINE
  5
76
330
5F
100
AcDbEntity
  8
0
 62
     0
370
    -2
100
AcDbLine
 10
0.0
 20
0.0
 30
0.0
 11
2.0
 21
-0.5
 31
0.0
  0
LINE
  5
77
330
5F
100
AcDbEntity
  8
0
 62
     0
370
    -2
100
AcDbLine
 10
2.0
 20
0.5
 30
0.0
 11
2.0
 21
-0.5
 31
0.0
  0
ENDBLK
  5
78
330
5F
100
AcDbEntity
  8
0
100
AcDbBlockEnd
  0
BLOCK
  5
79
330
60
100
AcDbEntity
  8
0
100
AcDbBlockBegin
  2
CDWK_EXTR_1D
 70
     0
 10
0.0
 20
0.0
 30
0.0
  3
CDWK_EXTR_1D
  1

  0
LINE
  5
7A
330
60
100
AcDbEntity
  8
0
 62
     0
370
    -2
100
AcDbLine
 10
0.0
 20
0.0
 30
0.0
 11
0.0
 21
1.0
 31
0.0
  0
LINE
  5
7B
330
60
100
AcDbEntity
  8
0
 62
     0
370
    -2
100
AcDbLine
 10
0.0
 20
1.0
 30
0.0
 11
0.5
 21
1.5
 31
0.0
  0
LINE
  5
7C
330
60
100
AcDbEntity
  8
0
 62
     0
370
    -2
100
AcDbLine
 10
0.5
 20
1.5
 30
0.0
 11
1.5
 21
1.5
 31
0.0
  0
ENDBLK
  5
7D
330
60
100
AcDbEntity
  8
0
100
AcDbBlockEnd
  0
BLOCK
  5
7E
330
61
100
AcDbEntity
  8
0
100
AcDbBlockBegin
  2
CDWK_EXTR_1G
 70
     0
 10
0.0
 20
0.0
 30
0.0
  3
CDWK_EXTR_1G
  1

  0
LINE
  5
7F
330
61
100
AcDbEntity
  8
0
 62
     0
370
    -2
100
AcDbLine
 10
0.0
 20
0.0
 30
0.0
 11
0.0
 21
-1.0
 31
0.0
  0
LINE
  5
80
330
61
100
AcDbEntity
  8
0
 62
     0
370
    -2
100
AcDbLine
 10
0.0
 20
-1.0
 30
0.0
 11
0.5
 21
-1.5
 31
0.0
  0
LINE
  5
81
330
61
100
AcDbEntity
  8
0
 62
     0
370
    -2
100
AcDbLine
 10
0.5
 20
-1.5
 30
0.0
 11
1.5
 21
-1.5
 31
0.0
  0
ENDBLK
  5
82
330
61
100
AcDbEntity
  8
0
100
AcDbBlockEnd
  0
BLOCK
  5
83
330
62
100
AcDbEntity
  8
0
100
AcDbBlockBegin
  2
CDWK_EXTR_2
 70
     0
 10
0.0
 20
0.0
 30
0.0
  3
CDWK_EXTR_2
  1

  0
SOLID
  5
84
330
62
100
AcDbEntity
  8
0
 62
     0
100
AcDbTrace
 10
0.0
 20
0.0
 30
0.0
 11
2.0
 21
0.5
 31
0.0
 12
2.0
 22
-0.5
 32
0.0
 13
2.0
 23
-0.5
 33
0.0
  0
ENDBLK
  5
85
330
62
100
AcDbEntity
  8
0
100
AcDbBlockEnd
  0
BLOCK
  5
86
330
63
100
AcDbEntity
  8
0
100
AcDbBlockBegin
  2
CDWK_EXTR_3
 70
     0
 10
0.0
 20
0.0
 30
0.0
  3
CDWK_EXTR_3
  1

  0
SOLID
  5
87
330
63
100
AcDbEntity
  8
0
 62
     0
100
AcDbTrace
 10
0.0
 20
0.0
 30
0.0
 11
2.0
 21
0.5
 31
0.0
 12
2.0
 22
-0.5
 32
0.0
 13
2.0
 23
-0.5
 33
0.0
  0
LINE
  5
88
330
63
100
AcDbEntity
  8
0
 62
     0
370
    -2
100
AcDbLine
 10
0.0
 20
1.0
 30
0.0
 11
0.0
 21
-1.0
 31
0.0
  0
ENDBLK
  5
89
330
63
100
AcDbEntity
  8
0
100
AcDbBlockEnd
  0
BLOCK
  5
8A
330
64
100
AcDbEntity
  8
0
100
AcDbBlockBegin
  2
CDWK_EXTR_4
 70
     0
 10
0.0
 20
0.0
 30
0.0
  3
CDWK_EXTR_4
  1

  0
HATCH
  5
8B
330
64
100
AcDbEntity
  8
0
 62
     0
370
    20
100
AcDbHatch
 10
0.0
 20
0.0
 30
0.0
210
0.0
220
0.0
230
1.0
  2
SOLID
 70
     1
 71
     0
 91
        1
 92
        1
 93
        1
 72
     2
 10
0.0
 20
0.0
 40
0.5
 50
0.0
 51
360.0
 73
     1
 97
        0
 75
     0
 76
     1
 98
        1
 10
0.0
 20
0.0
  0
ENDBLK
  5
8C
330
64
100
AcDbEntity
  8
0
100
AcDbBlockEnd
  0
BLOCK
  5
8D
330
65
100
AcDbEntity
  8
0
100
AcDbBlockBegin
  2
CDWK_PTTYP0
 70
     0
 10
0.0
 20
0.0
 30
0.0
  3
CDWK_PTTYP0
  1

  0
POINT
  5
8E
330
65
100
AcDbEntity
  8
0
 62
     0
100
AcDbPoint
 10
0.0
 20
0.0
 30
0.0
  0
ENDBLK
  5
8F
330
65
100
AcDbEntity
  8
0
100
AcDbBlockEnd
  0
BLOCK
  5
90
330
66
100
AcDbEntity
  8
Ech.1_5
100
AcDbBlockBegin
  2
*X7
 70
     1
 10
0.0
 20
0.0
 30
0.0
  3
*X7
  1

  0
ENDBLK
  5
91
330
66
100
AcDbEntity
  8
0
100
AcDbBlockEnd
  0
BLOCK
  5
92
330
67
100
AcDbEntity
  8
Ech.1_5
100
AcDbBlockBegin
  2
*X8
 70
     1
 10
0.0
 20
0.0
 30
0.0
  3
*X8
  1

  0
ENDBLK
  5
93
330
67
100
AcDbEntity
  8
0
100
AcDbBlockEnd
  0
BLOCK
  5
94
330
68
100
AcDbEntity
  8
Ech.1_5
100
AcDbBlockBegin
  2
*X9
 70
     1
 10
0.0
 20
0.0
 30
0.0
  3
*X9
  1

  0
ENDBLK
  5
95
330
68
100
AcDbEntity
  8
0
100
AcDbBlockEnd
  0
BLOCK
  5
96
330
69
100
AcDbEntity
  8
Ech.1_5
100
AcDbBlockBegin
  2
*X10
 70
     1
 10
0.0
 20
0.0
 30
0.0
  3
*X10
  1

  0
ENDBLK
  5
97
330
69
100
AcDbEntity
  8
0
100
AcDbBlockEnd
  0
BLOCK
  5
98
330
6A
100
AcDbEntity
  8
Ech.1_5
100
AcDbBlockBegin
  2
*X11
 70
     1
 10
0.0
 20
0.0
 30
0.0
  3
*X11
  1

  0
LINE
  5
99
330
6A
100
AcDbEntity
  8
Ech.1_5
  6
Continuous
 62
     7
370
    -2
100
AcDbLine
 10
35428.7356559
 20
7779.58773847
 30
0.0
 11
35468.73832942
 21
7734.589781140001
 31
0.0
  0
LINE
  5
9A
330
6A
100
AcDbEntity
  8
Ech.1_5
  6
Continuous
 62
     7
370
    -2
100
AcDbLine
 10
35468.73832942
 20
7779.58773847
 30
0.0
 11
35428.7356559
 21
7734.589781140001
 31
0.0
  0
ENDBLK
  5
9B
330
6A
100
AcDbEntity
  8
0
100
AcDbBlockEnd
  0
BLOCK
  5
9C
330
6B
100
AcDbEntity
  8
Ech.1_5
100
AcDbBlockBegin
  2
*X12
 70
     1
 10
0.0
 20
0.0
 30
0.0
  3
*X12
  1

  0
LINE
  5
9D
330
6B
100
AcDbEntity
  8
Ech.1_5
  6
Continuous
 62
     7
370
    -2
100
AcDbLine
 10
35160.73500642
 20
7419.07700391
 30
0.0
 11
35200.73400693
 21
7374.07721007
 31
0.0
  0
LINE
  5
9E
330
6B
100
AcDbEntity
  8
Ech.1_5
  6
Continuous
 62
     7
370
    -2
100
AcDbLine
 10
35200.73400693
 20
7419.07700391
 30
0.0
 11
35160.73500642
 21
7374.07721007
 31
0.0
  0
ENDBLK
  5
9F
330
6B
100
AcDbEntity
  8
0
100
AcDbBlockEnd
  0
BLOCK
  5
A0
330
6C
100
AcDbEntity
  8
Ech.1_5
100
AcDbBlockBegin
  2
*X13
 70
     1
 10
0.0
 20
0.0
 30
0.0
  3
*X13
  1

  0
LINE
  5
A1
330
6C
100
AcDbEntity
  8
Ech.1_5
  6
Continuous
 62
     7
370
    -2
100
AcDbLine
 10
35428.7356559
 20
7419.07700391
 30
0.0
 11
35468.73832942
 21
7374.07721007
 31
0.0
  0
LINE
  5
A2
330
6C
100
AcDbEntity
  8
Ech.1_5
  6
Continuous
 62
     7
370
    -2
100
AcDbLine
 10
35468.73832942
 20
7419.07700391
 30
0.0
 11
35428.7356559
 21
7374.07721007
 31
0.0
  0
ENDBLK
  5
A3
330
6C
100
AcDbEntity
  8
0
100
AcDbBlockEnd
  0
BLOCK
  5
A4
330
6D
100
AcDbEntity
  8
Ech.1_5
100
AcDbBlockBegin
  2
*X14
 70
     1
 10
0.0
 20
0.0
 30
0.0
  3
*X14
  1

  0
LINE
  5
A5
330
6D
100
AcDbEntity
  8
Ech.1_5
  6
Continuous
 62
     7
370
    -2
100
AcDbLine
 10
35160.73500642
 20
7779.58773847
 30
0.0
 11
35200.73400693
 21
7734.589781140001
 31
0.0
  0
LINE
  5
A6
330
6D
100
AcDbEntity
  8
Ech.1_5
  6
Continuous
 62
     7
370
    -2
100
AcDbLine
 10
35200.73400693
 20
7779.58773847
 30
0.0
 11
35160.73500642
 21
7734.589781140001
 31
0.0
  0
ENDBLK
  5
A7
330
6D
100
AcDbEntity
  8
0
100
AcDbBlockEnd
  0
BLOCK
  5
A8
330
6E
100
AcDbEntity
  8
Ech.1_5
100
AcDbBlockBegin
  2
*D15
 70
     1
 10
0.0
 20
0.0
 30
0.0
  3
*D15
  1

  0
TEXT
  5
A9
330
6E
100
AcDbEntity
  8
Ech.1_5
 62
     7
370
    18
100
AcDbText
 10
35401.88753728001
 20
7366.98460981
 30
0.0
 40
12.5
  1
max 20mm
 50
89.99999749999998
  7
ARIAL
100
AcDbText
  0
LINE
  5
AA
330
6E
100
AcDbEntity
  8
Ech.1_5
 62
     7
370
    -2
100
AcDbLine
 10
35411.88753728
 20
7374.078700300001
 30
0.0
 11
35401.55229786
 21
7374.078700300001
 31
0.0
  0
LINE
  5
AB
330
6E
100
AcDbEntity
  8
Ech.1_5
 62
     7
370
    -2
100
AcDbLine
 10
35411.88753728
 20
7354.077594329999
 30
0.0
 11
35441.55229786
 21
7354.077594329999
 31
0.0
  0
LINE
  5
AC
330
6E
100
AcDbEntity
  8
Ech.1_5
 62
     7
370
    -2
100
AcDbLine
 10
35406.88753728
 20
7379.0787003
 30
0.0
 11
35406.88753728
 21
7349.077594329999
 31
0.0
  0
LINE
  5
AD
330
6E
100
AcDbEntity
  8
Ech.1_5
 62
     7
370
    -2
100
AcDbLine
 10
35404.38753728
 20
7376.5787003
 30
0.0
 11
35409.38753728001
 21
7371.5787003
 31
0.0
  0
LINE
  5
AE
330
6E
100
AcDbEntity
  8
Ech.1_5
 62
     7
370
    -2
100
AcDbLine
 10
35404.38753728
 20
7356.57759433
 30
0.0
 11
35409.38753728001
 21
7351.57759433
 31
0.0
  0
ENDBLK
  5
AF
330
6E
100
AcDbEntity
  8
0
100
AcDbBlockEnd
  0
BLOCK
  5
B0
330
6F
100
AcDbEntity
  8
Ech.1_5
100
AcDbBlockBegin
  2
*D16
 70
     1
 10
0.0
 20
0.0
 30
0.0
  3
*D16
  1

  0
TEXT
  5
B1
330
6F
100
AcDbEntity
  8
Ech.1_5
 62
     7
370
    18
100
AcDbText
 10
35401.88753728001
 20
7329.28894077
 30
0.0
 40
12.5
  1
10
 50
89.99999749999998
  7
ARIAL
100
AcDbText
  0
LINE
  5
B2
330
6F
100
AcDbEntity
  8
Ech.1_5
 62
     7
370
    -2
100
AcDbLine
 10
35401.88753728001
 20
7354.077594329999
 30
0.0
 11
35441.55229786
 21
7354.077594329999
 31
0.0
  0
LINE
  5
B3
330
6F
100
AcDbEntity
  8
Ech.1_5
 62
     7
370
    -2
100
AcDbLine
 10
35401.88753728001
 20
7344.027160799999
 30
0.0
 11
35464.55233065
 21
7344.027160799999
 31
0.0
  0
LINE
  5
B4
330
6F
100
AcDbEntity
  8
Ech.1_5
 62
     7
370
    -2
100
AcDbLine
 10
35406.88753728
 20
7359.07759433
 30
0.0
 11
35406.88753728
 21
7339.027160799999
 31
0.0
  0
LINE
  5
B5
330
6F
100
AcDbEntity
  8
Ech.1_5
 62
     7
370
    -2
100
AcDbLine
 10
35404.38753728
 20
7356.57759433
 30
0.0
 11
35409.38753728001
 21
7351.57759433
 31
0.0
  0
LINE
  5
B6
330
6F
100
AcDbEntity
  8
Ech.1_5
 62
     7
370
    -2
100
AcDbLine
 10
35404.38753728
 20
7346.5271608
 30
0.0
 11
35409.38753728001
 21
7341.5271608
 31
0.0
  0
ENDBLK
  5
B7
330
6F
100
AcDbEntity
  8
0
100
AcDbBlockEnd
  0
ENDSEC
  0
SECTION
  2
ENTITIES
  0
INSERT
  5
B8
330
5D
100
AcDbEntity
  8
Ech.1_5
 62
     0
370
    -3
100
AcDbBlockReference
  2
*X7
 10
0.0
 20
0.0
 30
0.0
  0
INSERT
  5
B9
330
5D
100
AcDbEntity
  8
Ech.1_5
 62
     0
370
    -3
100
AcDbBlockReference
  2
*X8
 10
0.0
 20
0.0
 30
0.0
  0
INSERT
  5
BA
330
5D
100
AcDbEntity
  8
Ech.1_5
 62
     0
370
    -3
100
AcDbBlockReference
  2
*X9
 10
0.0
 20
0.0
 30
0.0
  0
INSERT
  5
BB
330
5D
100
AcDbEntity
  8
Ech.1_5
 62
     0
370
    -3
100
AcDbBlockReference
  2
*X10
 10
0.0
 20
0.0
 30
0.0
  0
INSERT
  5
BC
330
5D
100
AcDbEntity
  8
Ech.1_5
 62
     0
370
    -3
100
AcDbBlockReference
  2
*X11
 10
0.0
 20
0.0
 30
0.0
  0
INSERT
  5
BD
330
5D
100
AcDbEntity
  8
Ech.1_5
 62
     0
370
    -3
100
AcDbBlockReference
  2
*X12
 10
0.0
 20
0.0
 30
0.0
  0
INSERT
  5
BE
330
5D
100
AcDbEntity
  8
Ech.1_5
 62
     0
370
    -3
100
AcDbBlockReference
  2
*X13
 10
0.0
 20
0.0
 30
0.0
  0
INSERT
  5
BF
330
5D
100
AcDbEntity
  8
Ech.1_5
 62
     0
370
    -3
100
AcDbBlockReference
  2
*X14
 10
0.0
 20
0.0
 30
0.0
  0
LWPOLYLINE
  5
C0
102
{ACAD_REACTORS
330
C1
102
}
330
5D
100
AcDbEntity
  8
Ech.1_5
  6
Continuous
 62
     9
370
    -3
100
AcDbPolyline
 90
       20
 70
     1
 43
0.0
 38
2500.0
 39
-2500.0
 10
35424.73571318
 20
7344.077594329999
 10
35740.01394636
 20
7344.077589040001
 10
35740.01394636
 20
7304.07541373
 10
35490.54402280001
 20
7304.07761756
 10
35490.54402280001
 20
7296.07762471
 10
35421.54402280001
 20
7254.077624709999
 10
35391.54402280001
 20
7254.077624709999
 10
35391.54402280001
 20
7209.077624710001
 10
35413.54402280001
 20
7209.077624710001
 10
35413.54402280001
 20
7164.07762471
 10
35235.92669364
 20
7164.07762471
 10
35235.92669364
 20
7209.077624710001
 10
35257.92669364
 20
7209.077624710001
 10
35257.92669364
 20
7254.077624709999
 10
35227.92669364
 20
7254.077624709999
 10
35158.92669364
 20
7296.07762471
 10
35158.92669364
 20
7304.07761756
 10
34900.21564546
 20
7304.07556827
 10
34900.21564546
 20
7344.07758871
 10
35134.73518978
 20
7344.07758432
  0
HATCH
  5
C1
330
5D
100
AcDbEntity
  8
Ech.1_5
  6
Continuous
 62
     9
100
AcDbHatch
 10
0.0
 20
0.0
 30
0.0
210
0.0
220
0.0
230
1.0
  2
AR-CONC
 70
     0
 71
     1
 91
        1
 92
        7
 72
     0
 73
     1
 93
       20
 10
34900.21564546001
 20
7304.07556827
 10
35158.92669364
 20
7304.07761756
 10
35158.92669364
 20
7296.077624709997
 10
35227.92669364
 20
7254.077624709999
 10
35257.92669364
 20
7254.077624710001
 10
35257.92669364
 20
7209.077624710001
 10
35235.92669364
 20
7209.077624710001
 10
35235.92669364
 20
7164.07762471
 10
35413.54402280001
 20
7164.07762471
 10
35413.54402280001
 20
7209.077624710001
 10
35391.54402280001
 20
7209.077624710001
 10
35391.54402280001
 20
7254.077624710001
 10
35421.54402280001
 20
7254.077624709999
 10
35490.54402280001
 20
7296.077624710001
 10
35490.54402280002
 20
7304.07761756
 10
35740.01394635999
 20
7304.07541373
 10
35740.01394636
 20
7344.077589040001
 10
35424.73571318
 20
7344.077594329999
 10
35134.73518978
 20
7344.07758432
 10
34900.21564546
 20
7344.077588709999
 97
        1
330
C0
 75
     0
 76
     2
 52
5.0
 41
0.11811097
 77
     0
 78
    13
 53
50.0
 43
0.0
 44
0.0
 45
-18.84283637
 46
1.648534429999999
 79
     2
 49
1.97029307
 49
-21.67322338
 53
355.0
 43
0.0
 44
0.0
 45
-3.645077559999999
 46
19.76051824
 79
     2
 49
1.576233769999999
 49
-17.3385787
 53
100.45140076
 43
1.570235679999999
 44
-0.13737749
 45
-15.19777228
 46
-18.11197244
 79
     2
 49
1.67449124
 49
-18.41940522
 53
46.18420029
 43
0.0
 44
5.25411576
 45
-28.03703353
 46
4.34827878
 79
     2
 49
2.95543872
 49
-32.50983238
 53
96.63559723
 43
2.336418849999999
 44
4.891756919999999
 45
-24.55412615
 46
-25.59063404
 79
     2
 49
2.511736969999999
 49
-27.62910426
 53
351.1842041
 43
0.0
 44
5.25411576
 45
24.55410288
 46
25.59065715
 79
     2
 49
2.364352489999999
 49
-26.00786805
 53
21.0
 43
2.627056989999999
 44
3.94058615
 45
-15.68109068
 46
10.57702905
 79
     2
 49
1.97029307
 49
-21.67322338
 53
326.0
 43
2.627056989999999
 44
3.94058615
 45
6.392032679999999
 46
19.05010734
 79
     2
 49
1.576233769999999
 49
-17.3385787
 53
71.45140076
 43
3.933813569999999
 44
3.059165549999999
 45
-22.07312962
 46
-8.473061819999999
 79
     2
 49
1.67449124
 49
-18.41940522
 53
37.5
 43
0.0
 44
0.0
 45
0.31944534
 46
8.74531245
 79
     6
 49
0.01875
 49
-17.12841332
 49
0.01875
 49
-17.60128498
 49
0.01875
 49
-17.40425348
 53
7.499999999999999
 43
0.0
 44
0.0
 45
6.91098818
 46
10.3614222
 79
     6
 49
0.01875
 49
-10.03535807
 49
0.01875
 49
-16.7343539
 49
0.01875
 49
-6.633320599999999
 53
-32.5
 43
-5.858338329999999
 44
0.0
 45
14.02382061
 46
-0.59253003
 79
     6
 49
0.01875
 49
-6.56764314
 49
0.01875
 49
-20.49104869
 49
0.01875
 49
-27.19004452
 53
-42.5
 43
-8.485395309999999
 44
0.0
 45
15.32063571
 46
2.629815419999999
 79
     6
 49
0.01875
 49
-8.537936209999999
 49
0.01875
 49
-13.60815793
 49
0.01875
 49
-19.30887222
 47
0.775229
 98
        1
 10
0.0
 20
0.0
  0
LWPOLYLINE
  5
C2
102
{ACAD_REACTORS
330
C3
102
}
330
5D
100
AcDbEntity
  8
Ech.1_5
  6
Continuous
 62
     9
370
    -3
100
AcDbPolyline
 90
        4
 70
     1
 43
0.0
 10
34900.21536832
 20
6836.11894112
 10
35740.01408356
 20
6836.11894112
 10
35740.01408356
 20
6951.76242707
 10
34900.21536832
 20
6951.76242707
  0
HATCH
  5
C3
330
5D
100
AcDbEntity
  8
Ech.1_5
  6
Continuous
 62
     9
100
AcDbHatch
 10
0.0
 20
0.0
 30
0.0
210
0.0
220
0.0
230
1.0
  2
SSTNWSB
 70
     0
 71
     1
 91
        1
 92
        7
 72
     0
 73
     1
 93
        4
 10
34900.21536832
 20
6836.11894112
 10
35740.01408356
 20
6836.118941120002
 10
35740.01408356
 20
6951.76242707
 10
34900.21536832
 20
6951.76242707
 97
        1
330
C2
 75
     0
 76
     2
 52
0.0
 41
1.0
 77
     0
 78
  1001
 53
90.0
 43
29.60000038
 44
213.40000153
 45
-296.47199631
 46
0.0000000000000182
 79
     2
 49
2.96400011
 49
-293.50799561
 53
45.0
 43
26.60000086
 44
210.40000916
 45
0.0000000000000355
 46
296.47290887
 79
     2
 49
4.192000029999999
 49
-415.08201599
 53
26.56509972
 43
20.79999924
 44
207.60000229
 45
296.47285424
 46
296.47246092
 79
     2
 49
6.629999879999999
 49
-656.3040161099999
 53
0.0
 43
14.80000019
 44
207.60000229
 45
0.0
 46
296.47199631
 79
     2
 49
5.92999995
 49
-290.5439949
 53
296.56509399
 43
11.79999948
 44
213.40000153
 45
296.47243131
 46
-296.47288385
 79
     2
 49
6.629999879999999
 49
-656.3040161099999
 53
243.43499756
 43
14.80000019
 44
219.40000534
 45
-0.00064346
 46
-296.4731053999999
 79
     2
 49
6.629999879999999
 49
-656.3040161099999
 53
206.56500244
 43
20.79999924
 44
222.39999771
 45
-296.47335758
 46
-296.47195758
 79
     2
 49
6.629999879999999
 49
-656.3040161099999
 53
180.0
 43
26.60000086
 44
222.39999771
 45
-0.0000000000000363
 46
-296.47199631
 79
     2
 49
5.92999995
 49
-290.5439949
 53
135.0
 43
29.60000038
 44
219.40000534
 45
-296.47290887
 46
0.0000000000000355
 79
     2
 49
4.192000029999999
 49
-415.08201599
 53
0.0
 43
255.0
 44
207.60000229
 45
0.0
 46
296.47199631
 79
     2
 49
8.89400005
 49
-287.57799149
 53
315.0
 43
252.00000763
 44
210.40000916
 45
296.47290887
 46
-0.0000000000000711
 79
     2
 49
4.192000029999999
 49
-415.08201599
 53
270.0
 43
252.00000763
 44
213.40000153
 45
296.47199631
 46
-0.0000000000000545
 79
     2
 49
2.96400011
 49
-293.50799561
 53
225.0
 43
255.0
 44
216.3999939
 45
-0.0000000000000533
 46
-296.47290887
 79
     2
 49
4.192000029999999
 49
-415.08201599
 53
225.0
 43
257.99999237
 44
219.40000534
 45
-0.0000000000000533
 46
-296.47290887
 79
     2
 49
4.192000029999999
 49
-415.08201599
 53
153.43499756
 43
263.79999161
 44
216.3999939
 45
-296.4731053999999
 46
0.00064346
 79
     2
 49
6.629999879999999
 49
-656.3040161099999
 53
135.0
 43
266.80000305
 44
213.40000153
 45
-296.47290887
 46
0.0000000000000355
 79
     2
 49
4.192000029999999
 49
-415.08201599
 53
63.43489838
 43
263.79999161
 44
207.60000229
 45
0.00115667
 46
296.4731053999999
 79
     2
 49
6.629999879999999
 49
-656.3040161099999
 53
135.0
 43
160.0
 44
228.19999695
 45
-296.47290887
 46
0.0000000000000355
 79
     2
 49
4.192000029999999
 49
-415.08201599
 53
180.0
 43
162.99999237
 44
228.19999695
 45
-0.0000000000000363
 46
-296.47199631
 79
     2
 49
2.96400011
 49
-293.50799561
 53
161.56500244
 43
172.00000763
 44
225.40000916
 45
-296.47174563
 46
0.00087946
 79
     2
 49
9.376000169999999
 49
-928.1539917000001
 53
225.0
 43
175.0
 44
228.19999695
 45
-0.0000000000000533
 46
-296.47290887
 79
     2
 49
4.192000029999999
 49
-415.08201599
 53
270.0
 43
175.0
 44
234.20000076
 45
296.47199631
 46
-0.0000000000000545
 79
     2
 49
5.92999995
 49
-290.5439949
 53
333.43490601
 43
168.99999619
 44
237.19999313
 45
296.4731053999999
 46
-0.0011172
 79
     2
 49
6.629999879999999
 49
-656.3040161099999
 53
0.0
 43
160.0
 44
237.19999313
 45
0.0
 46
296.47199631
 79
     2
 49
8.89400005
 49
-287.57799149
 53
45.0
 43
157.20000267
 44
234.20000076
 45
0.0000000000000355
 46
296.47290887
 79
     2
 49
4.192000029999999
 49
-415.08201599
 53
0.0
 43
281.59999847
 44
175.0
 45
0.0
 46
296.47199631
 79
     2
 49
11.85799956
 49
-284.61399078
 53
180.0
 43
278.6000061
 44
157.20000267
 45
-0.0000000000000363
 46
-296.47199631
 79
     2
 49
5.92999995
 49
-290.5439949
 53
180.0
 43
290.59999466
 44
118.59999657
 45
-0.0000000000000363
 46
-296.47199631
 79
     2
 49
2.96400011
 49
-293.50799561
 53
26.56509972
 43
290.59999466
 44
118.59999657
 45
296.47285424
 46
296.47246092
 79
     2
 49
6.629999879999999
 49
-656.3040161099999
 53
296.56509399
 43
11.79999948
 44
237.19999313
 45
296.47243131
 46
-296.47288385
 79
     2
 49
6.629999879999999
 49
-656.3040161099999
 53
270.0
 43
11.79999948
 44
243.19999695
 45
296.47199631
 46
-0.0000000000000545
 79
     2
 49
5.92999995
 49
-290.5439949
 53
63.43489838
 43
8.79999995
 44
237.19999313
 45
0.00115667
 46
296.4731053999999
 79
     2
 49
6.629999879999999
 49
-656.3040161099999
 53
26.56509972
 43
189.79999542
 44
284.5999908399999
 45
296.47285424
 46
296.47246092
 79
     2
 49
6.629999879999999
 49
-656.3040161099999
 53
168.69009399
 43
175.0
 44
281.59999847
 45
-296.47346827
 46
-0.00092342
 79
     2
 49
15.11800051
 49
-1496.60202026
 53
26.56509972
 43
243.19999695
 44
260.79999924
 45
296.47285424
 46
296.47246092
 79
     2
 49
6.629999879999999
 49
-656.3040161099999
 53
26.56509972
 43
248.99999619
 44
263.79999161
 45
296.47285424
 46
296.47246092
 79
     2
 49
6.629999879999999
 49
-656.3040161099999
 53
26.56509972
 43
255.0
 44
266.80000305
 45
296.47285424
 46
296.47246092
 79
     2
 49
6.629999879999999
 49
-656.3040161099999
 53
0.0
 43
260.79999924
 44
269.79999542
 45
0.0
 46
296.47199631
 79
     2
 49
5.92999995
 49
-290.5439949
 53
315.0
 43
266.80000305
 44
269.79999542
 45
296.47290887
 46
-0.0000000000000711
 79
     2
 49
4.192000029999999
 49
-415.08201599
 53
270.0
 43
269.79999542
 44
266.80000305
 45
296.47199631
 46
-0.0000000000000545
 79
     2
 49
5.92999995
 49
-290.5439949
 53
243.43499756
 43
269.79999542
 44
260.79999924
 45
-0.00064346
 46
-296.4731053999999
 79
     2
 49
6.629999879999999
 49
-656.3040161099999
 53
225.0
 43
266.80000305
 44
255.0
 45
-0.0000000000000533
 46
-296.47290887
 79
     2
 49
4.192000029999999
 49
-415.08201599
 53
194.03619385
 43
263.79999161
 44
252.00000763
 45
-889.4167208699998
 46
-296.4723532
 79
     2
 49
12.2239995
 49
-1210.16403198
 53
161.56500244
 43
252.00000763
 44
248.99999619
 45
-296.47174563
 46
0.00087946
 79
     2
 49
9.376000169999999
 49
-928.1539917000001
 53
135.0
 43
243.19999695
 44
252.00000763
 45
-296.47290887
 46
0.0000000000000355
 79
     2
 49
4.192000029999999
 49
-415.08201599
 53
90.0
 43
240.20000458
 44
255.0
 45
-296.47199631
 46
0.0000000000000182
 79
     2
 49
2.96400011
 49
-293.50799561
 53
45.0
 43
240.20000458
 44
257.99999237
 45
0.0000000000000355
 46
296.47290887
 79
     2
 49
4.192000029999999
 49
-415.08201599
 53
165.96380615
 43
168.99999619
 44
162.99999237
 45
-296.47214391
 46
-0.00122822
 79
     2
 49
12.2239995
 49
-1210.16403198
 53
18.43490028
 43
216.3999939
 44
97.79999733
 45
592.9456423699999
 46
296.47124934
 79
     2
 49
9.376000169999999
 49
-928.1539917000001
 53
0.0
 43
225.40000916
 44
100.79999924
 45
0.0
 46
296.47199631
 79
     2
 49
8.89400005
 49
-287.57799149
 53
341.56509399
 43
234.20000076
 44
100.79999924
 45
296.47174563
 46
-0.00040573
 79
     2
 49
9.376000169999999
 49
-928.1539917000001
 53
341.56509399
 43
243.19999695
 44
97.79999733
 45
296.47174563
 46
-0.00040573
 79
     2
 49
9.376000169999999
 49
-928.1539917000001
 53
296.56509399
 43
252.00000763
 44
94.79999541999999
 45
296.47243131
 46
-296.47288385
 79
     2
 49
6.629999879999999
 49
-656.3040161099999
 53
270.0
 43
255.0
 44
88.99999619
 45
296.47199631
 46
-0.0000000000000545
 79
     2
 49
11.85799956
 49
-284.61399078
 53
225.0
 43
255.0
 44
76.99999809000001
 45
-0.0000000000000533
 46
-296.47290887
 79
     2
 49
4.192000029999999
 49
-415.08201599
 53
206.56500244
 43
252.00000763
 44
74.20000075999999
 45
-296.47335758
 46
-296.47195758
 79
     2
 49
6.629999879999999
 49
-656.3040161099999
 53
180.0
 43
246.00000381
 44
71.19999885999999
 45
-0.0000000000000363
 46
-296.47199631
 79
     2
 49
23.71799946
 49
-272.75400162
 53
153.43499756
 43
222.39999771
 44
71.19999885999999
 45
-296.4731053999999
 46
0.00064346
 79
     2
 49
6.629999879999999
 49
-656.3040161099999
 53
135.0
 43
216.3999939
 44
74.20000075999999
 45
-296.47290887
 46
0.0000000000000355
 79
     2
 49
8.385999799999998
 49
-410.8900070199999
 53
116.56500244
 43
210.40000916
 44
80.0
 45
-296.47195758
 46
296.47335758
 79
     2
 49
6.629999879999999
 49
-656.3040161099999
 53
90.0
 43
207.60000229
 44
86.00000380999999
 45
-296.47199631
 46
0.0000000000000182
 79
     2
 49
2.96400011
 49
-293.50799561
 53
63.43489838
 43
207.60000229
 44
88.99999619
 45
0.00115667
 46
296.4731053999999
 79
     2
 49
6.629999879999999
 49
-656.3040161099999
 53
26.56509972
 43
210.40000916
 44
94.79999541999999
 45
296.47285424
 46
296.47246092
 79
     2
 49
6.629999879999999
 49
-656.3040161099999
 53
45.0
 43
6.00000024
 44
139.3999958
 45
0.0000000000000355
 46
296.47290887
 79
     2
 49
8.385999799999998
 49
-410.8900070199999
 53
0.0
 43
11.79999948
 44
145.20000458
 45
0.0
 46
296.47199631
 79
     2
 49
5.92999995
 49
-290.5439949
 53
0.0
 43
17.79999971
 44
145.20000458
 45
0.0
 46
296.47199631
 79
     2
 49
8.89400005
 49
-287.57799149
 53
315.0
 43
26.60000086
 44
145.20000458
 45
296.47290887
 46
-0.0000000000000711
 79
     2
 49
8.385999799999998
 49
-410.8900070199999
 53
270.0
 43
32.5999999
 44
139.3999958
 45
296.47199631
 46
-0.0000000000000545
 79
     2
 49
5.92999995
 49
-290.5439949
 53
225.0
 43
32.5999999
 44
133.40000153
 45
-0.0000000000000533
 46
-296.47290887
 79
     2
 49
8.385999799999998
 49
-410.8900070199999
 53
206.56500244
 43
26.60000086
 44
127.39999771
 45
-296.47335758
 46
-296.47195758
 79
     2
 49
6.629999879999999
 49
-656.3040161099999
 53
180.0
 43
20.79999924
 44
124.60000038
 45
-0.0000000000000363
 46
-296.47199631
 79
     2
 49
11.85799956
 49
-284.61399078
 53
153.43499756
 43
8.79999995
 44
124.60000038
 45
-296.4731053999999
 46
0.00064346
 79
     2
 49
6.629999879999999
 49
-656.3040161099999
 53
206.56500244
 43
275.79999924
 44
142.39999771
 45
-296.47335758
 46
-296.47195758
 79
     2
 49
6.629999879999999
 49
-656.3040161099999
 53
270.0
 43
269.79999542
 44
139.3999958
 45
296.47199631
 46
-0.0000000000000545
 79
     2
 49
5.92999995
 49
-290.5439949
 53
315.0
 43
269.79999542
 44
133.40000153
 45
296.47290887
 46
-0.0000000000000711
 79
     2
 49
4.192000029999999
 49
-415.08201599
 53
333.43490601
 43
272.80000687
 44
130.39999962
 45
296.4731053999999
 46
-0.0011172
 79
     2
 49
6.629999879999999
 49
-656.3040161099999
 53
315.0
 43
278.6000061
 44
127.39999771
 45
296.47290887
 46
-0.0000000000000711
 79
     2
 49
4.192000029999999
 49
-415.08201599
 53
315.0
 43
281.59999847
 44
124.60000038
 45
296.47290887
 46
-0.0000000000000711
 79
     2
 49
8.385999799999998
 49
-410.8900070199999
 53
45.0
 43
0.0
 44
121.59999847
 45
0.0000000000000355
 46
296.47290887
 79
     2
 49
4.192000029999999
 49
-415.08201599
 53
90.0
 43
3.00000012
 44
124.60000038
 45
-296.47199631
 46
0.0000000000000182
 79
     2
 49
5.92999995
 49
-290.5439949
 53
63.43489838
 43
3.00000012
 44
130.39999962
 45
0.00115667
 46
296.4731053999999
 79
     2
 49
6.629999879999999
 49
-656.3040161099999
 53
90.0
 43
6.00000024
 44
136.40000343
 45
-296.47199631
 46
0.0000000000000182
 79
     2
 49
2.96400011
 49
-293.50799561
 53
135.0
 43
6.00000024
 44
139.3999958
 45
-296.47290887
 46
0.0000000000000355
 79
     2
 49
4.192000029999999
 49
-415.08201599
 53
180.0
 43
3.00000012
 44
142.39999771
 45
-0.0000000000000363
 46
-296.47199631
 79
     2
 49
2.96400011
 49
-293.50799561
 53
180.0
 43
296.3999939
 44
142.39999771
 45
-0.0000000000000363
 46
-296.47199631
 79
     2
 49
11.85799956
 49
-284.61399078
 53
0.0
 43
293.6000061000001
 44
160.0
 45
0.0
 46
296.47199631
 79
     2
 49
2.96400011
 49
-293.50799561
 53
0.0
 43
0.0
 44
160.0
 45
0.0
 46
296.47199631
 79
     2
 49
14.8239994
 49
-281.64800644
 53
26.56509972
 43
14.80000019
 44
160.0
 45
296.47285424
 46
296.47246092
 79
     2
 49
6.629999879999999
 49
-656.3040161099999
 53
90.0
 43
20.79999924
 44
162.99999237
 45
-296.47199631
 46
0.0000000000000182
 79
     2
 49
2.96400011
 49
-293.50799561
 53
90.0
 43
20.79999924
 44
166.00000381
 45
-296.47199631
 46
0.0000000000000182
 79
     2
 49
2.96400011
 49
-293.50799561
 53
135.0
 43
20.79999924
 44
168.99999619
 45
-296.47290887
 46
0.0000000000000355
 79
     2
 49
4.192000029999999
 49
-415.08201599
 53
153.43499756
 43
17.79999971
 44
172.00000763
 45
-296.4731053999999
 46
0.00064346
 79
     2
 49
6.629999879999999
 49
-656.3040161099999
 53
180.0
 43
11.79999948
 44
175.0
 45
-0.0000000000000363
 46
-296.47199631
 79
     2
 49
11.85799956
 49
-284.61399078
 53
180.0
 43
296.3999939
 44
175.0
 45
-0.0000000000000363
 46
-296.47199631
 79
     2
 49
2.96400011
 49
-293.50799561
 53
194.03619385
 43
293.6000061000001
 44
175.0
 45
-889.4167208699998
 46
-296.4723532
 79
     2
 49
12.2239995
 49
-1210.16403198
 53
206.56500244
 43
281.59999847
 44
172.00000763
 45
-296.47335758
 46
-296.47195758
 79
     2
 49
6.629999879999999
 49
-656.3040161099999
 53
270.0
 43
275.79999924
 44
168.99999619
 45
296.47199631
 46
-0.0000000000000545
 79
     2
 49
2.96400011
 49
-293.50799561
 53
270.0
 43
275.79999924
 44
166.00000381
 45
296.47199631
 46
-0.0000000000000545
 79
     2
 49
2.96400011
 49
-293.50799561
 53
315.0
 43
275.79999924
 44
162.99999237
 45
296.47290887
 46
-0.0000000000000711
 79
     2
 49
4.192000029999999
 49
-415.08201599
 53
0.0
 43
278.6000061
 44
160.0
 45
0.0
 46
296.47199631
 79
     2
 49
5.92999995
 49
-290.5439949
 53
0.0
 43
284.5999908399999
 44
160.0
 45
0.0
 46
296.47199631
 79
     2
 49
8.89400005
 49
-287.57799149
 53
194.03619385
 43
26.60000086
 44
148.19999695
 45
-889.4167208699998
 46
-296.4723532
 79
     2
 49
12.2239995
 49
-1210.16403198
 53
180.0
 43
14.80000019
 44
145.20000458
 45
-0.0000000000000363
 46
-296.47199631
 79
     2
 49
14.8239994
 49
-281.64800644
 53
194.03619385
 43
296.3999939
 44
145.20000458
 45
-889.4167208699998
 46
-296.4723532
 79
     2
 49
12.2239995
 49
-1210.16403198
 53
180.0
 43
284.5999908399999
 44
142.39999771
 45
-0.0000000000000363
 46
-296.47199631
 79
     2
 49
8.89400005
 49
-287.57799149
 53
153.43499756
 43
275.79999924
 44
142.39999771
 45
-296.4731053999999
 46
0.00064346
 79
     2
 49
6.629999879999999
 49
-656.3040161099999
 53
135.0
 43
269.79999542
 44
145.20000458
 45
-296.47290887
 46
0.0000000000000355
 79
     2
 49
4.192000029999999
 49
-415.08201599
 53
90.0
 43
266.80000305
 44
148.19999695
 45
-296.47199631
 46
0.0000000000000182
 79
     2
 49
2.96400011
 49
-293.50799561
 53
90.0
 43
266.80000305
 44
151.19999886
 45
-296.47199631
 46
0.0000000000000182
 79
     2
 49
2.96400011
 49
-293.50799561
 53
11.30990028
 43
278.6000061
 44
157.20000267
 45
1185.89014473
 46
296.47280949
 79
     2
 49
15.11800051
 49
-1496.60202026
 53
0.0
 43
293.6000061000001
 44
160.0
 45
0.0
 46
296.47199631
 79
     2
 49
2.96400011
 49
-293.50799561
 53
0.0
 43
0.0
 44
160.0
 45
0.0
 46
296.47199631
 79
     2
 49
8.89400005
 49
-287.57799149
 53
0.0
 43
8.79999995
 44
160.0
 45
0.0
 46
296.47199631
 79
     2
 49
11.85799956
 49
-284.61399078
 53
333.43490601
 43
20.79999924
 44
160.0
 45
296.4731053999999
 46
-0.0011172
 79
     2
 49
6.629999879999999
 49
-656.3040161099999
 53
315.0
 43
26.60000086
 44
157.20000267
 45
296.47290887
 46
-0.0000000000000711
 79
     2
 49
4.192000029999999
 49
-415.08201599
 53
270.0
 43
29.60000038
 44
154.20000076
 45
296.47199631
 46
-0.0000000000000545
 79
     2
 49
2.96400011
 49
-293.50799561
 53
225.0
 43
29.60000038
 44
151.19999886
 45
-0.0000000000000533
 46
-296.47290887
 79
     2
 49
4.192000029999999
 49
-415.08201599
 53
333.43490601
 43
23.80000114
 44
189.79999542
 45
296.4731053999999
 46
-0.0011172
 79
     2
 49
6.629999879999999
 49
-656.3040161099999
 53
315.0
 43
29.60000038
 44
186.80000305
 45
296.47290887
 46
-0.0000000000000711
 79
     2
 49
4.192000029999999
 49
-415.08201599
 53
296.56509399
 43
32.5999999
 44
183.79999161
 45
296.47243131
 46
-296.47288385
 79
     2
 49
6.629999879999999
 49
-656.3040161099999
 53
270.0
 43
35.59999943
 44
177.80000687
 45
296.47199631
 46
-0.0000000000000545
 79
     2
 49
5.92999995
 49
-290.5439949
 53
225.0
 43
35.59999943
 44
172.00000763
 45
-0.0000000000000533
 46
-296.47290887
 79
     2
 49
4.192000029999999
 49
-415.08201599
 53
180.0
 43
32.5999999
 44
168.99999619
 45
-0.0000000000000363
 46
-296.47199631
 79
     2
 49
5.92999995
 49
-290.5439949
 53
161.56500244
 43
26.60000086
 44
168.99999619
 45
-296.47174563
 46
0.00087946
 79
     2
 49
9.376000169999999
 49
-928.1539917000001
 53
146.30990601
 43
17.79999971
 44
172.00000763
 45
-592.9449951399999
 46
296.47367579
 79
     2
 49
10.69000006
 49
-1058.25798035
 53
90.0
 43
8.79999995
 44
177.80000687
 45
-296.47199631
 46
0.0000000000000182
 79
     2
 49
2.96400011
 49
-293.50799561
 53
90.0
 43
8.79999995
 44
180.79999924
 45
-296.47199631
 46
0.0000000000000182
 79
     2
 49
5.92999995
 49
-290.5439949
 53
45.0
 43
8.79999995
 44
186.80000305
 45
0.0000000000000355
 46
296.47290887
 79
     2
 49
8.385999799999998
 49
-410.8900070199999
 53
0.0
 43
20.79999924
 44
207.60000229
 45
0.0
 46
296.47199631
 79
     2
 49
11.85799956
 49
-284.61399078
 53
345.9637146
 43
32.5999999
 44
207.60000229
 45
296.47214391
 46
0.00075448
 79
     2
 49
12.2239995
 49
-1210.16403198
 53
326.30990601
 43
44.40000057
 44
204.59999084
 45
592.9449951399999
 46
-296.47367579
 79
     2
 49
10.69000006
 49
-1058.25798035
 53
270.0
 43
53.40000153
 44
198.6000061
 45
296.47199631
 46
-0.0000000000000545
 79
     2
 49
5.92999995
 49
-290.5439949
 53
225.0
 43
53.40000153
 44
192.80000687
 45
-0.0000000000000533
 46
-296.47290887
 79
     2
 49
4.192000029999999
 49
-415.08201599
 53
198.43499756
 43
50.39999962
 44
189.79999542
 45
-592.9451390299999
 46
-296.47225602
 79
     2
 49
9.376000169999999
 49
-928.1539917000001
 53
180.0
 43
41.59999847
 44
186.80000305
 45
-0.0000000000000363
 46
-296.47199631
 79
     2
 49
8.89400005
 49
-287.57799149
 53
161.56500244
 43
32.5999999
 44
186.80000305
 45
-296.47174563
 46
0.00087946
 79
     2
 49
9.376000169999999
 49
-928.1539917000001
 53
161.56500244
 43
23.80000114
 44
189.79999542
 45
-296.47174563
 46
0.00087946
 79
     2
 49
9.376000169999999
 49
-928.1539917000001
 53
135.0
 43
14.80000019
 44
192.80000687
 45
-296.47290887
 46
0.0000000000000355
 79
     2
 49
4.192000029999999
 49
-415.08201599
 53
71.56500244
 43
11.79999948
 44
195.59999466
 45
0.00087946
 46
296.47174563
 79
     2
 49
9.376000169999999
 49
-928.1539917000001
 53
26.56509972
 43
14.80000019
 44
204.59999084
 45
296.47285424
 46
296.47246092
 79
     2
 49
6.629999879999999
 49
-656.3040161099999
 53
26.56509972
 43
172.00000763
 44
6.00000024
 45
296.47285424
 46
296.47246092
 79
     2
 49
6.629999879999999
 49
-656.3040161099999
 53
18.43490028
 43
177.80000687
 44
8.79999995
 45
592.9456423699999
 46
296.47124934
 79
     2
 49
9.376000169999999
 49
-928.1539917000001
 53
0.0
 43
186.80000305
 44
11.79999948
 45
0.0
 46
296.47199631
 79
     2
 49
8.89400005
 49
-287.57799149
 53
345.9637146
 43
195.59999466
 44
11.79999948
 45
296.47214391
 46
0.00075448
 79
     2
 49
12.2239995
 49
-1210.16403198
 53
315.0
 43
207.60000229
 44
8.79999995
 45
296.47290887
 46
-0.0000000000000711
 79
     2
 49
4.192000029999999
 49
-415.08201599
 53
270.0
 43
210.40000916
 44
6.00000024
 45
296.47199631
 46
-0.0000000000000545
 79
     2
 49
2.96400011
 49
-293.50799561
 53
225.0
 43
210.40000916
 44
3.00000012
 45
-0.0000000000000533
 46
-296.47290887
 79
     2
 49
4.192000029999999
 49
-415.08201599
 53
198.43499756
 43
207.60000229
 44
296.3999939
 45
-592.9451390299999
 46
-296.47225602
 79
     2
 49
9.376000169999999
 49
-928.1539917000001
 53
180.0
 43
198.6000061
 44
293.6000061000001
 45
-0.0000000000000363
 46
-296.47199631
 79
     2
 49
8.89400005
 49
-287.57799149
 53
165.96380615
 43
189.79999542
 44
293.6000061000001
 45
-296.47214391
 46
-0.00122822
 79
     2
 49
12.2239995
 49
-1210.16403198
 53
153.43499756
 43
177.80000687
 44
0.0
 45
-296.4731053999999
 46
0.00064346
 79
     2
 49
6.629999879999999
 49
-656.3040161099999
 53
90.0
 43
172.00000763
 44
3.00000012
 45
-296.47199631
 46
0.0000000000000182
 79
     2
 49
2.96400011
 49
-293.50799561
 53
270.0
 43
145.20000458
 44
11.79999948
 45
296.47199631
 46
-0.0000000000000545
 79
     2
 49
2.96400011
 49
-293.50799561
 53
315.0
 43
145.20000458
 44
8.79999995
 45
296.47290887
 46
-0.0000000000000711
 79
     2
 49
8.385999799999998
 49
-410.8900070199999
 53
333.43490601
 43
151.19999886
 44
3.00000012
 45
296.4731053999999
 46
-0.0011172
 79
     2
 49
6.629999879999999
 49
-656.3040161099999
 53
26.56509972
 43
162.99999237
 44
0.0
 45
296.47285424
 46
296.47246092
 79
     2
 49
6.629999879999999
 49
-656.3040161099999
 53
45.0
 43
168.99999619
 44
3.00000012
 45
0.0000000000000355
 46
296.47290887
 79
     2
 49
4.192000029999999
 49
-415.08201599
 53
90.0
 43
172.00000763
 44
6.00000024
 45
-296.47199631
 46
0.0000000000000182
 79
     2
 49
2.96400011
 49
-293.50799561
 53
135.0
 43
172.00000763
 44
8.79999995
 45
-296.47290887
 46
0.0000000000000355
 79
     2
 49
4.192000029999999
 49
-415.08201599
 53
153.43499756
 43
168.99999619
 44
11.79999948
 45
-296.4731053999999
 46
0.00064346
 79
     2
 49
6.629999879999999
 49
-656.3040161099999
 53
180.0
 43
166.00000381
 44
14.80000019
 45
-0.0000000000000363
 46
-296.47199631
 79
     2
 49
11.85799956
 49
-284.61399078
 53
198.43499756
 43
154.20000076
 44
14.80000019
 45
-592.9451390299999
 46
-296.47225602
 79
     2
 49
9.376000169999999
 49
-928.1539917000001
 53
180.0
 43
145.20000458
 44
11.79999948
 45
-0.0000000000000363
 46
-296.47199631
 79
     2
 49
5.92999995
 49
-290.5439949
 53
153.43499756
 43
139.3999958
 44
11.79999948
 45
-296.4731053999999
 46
0.00064346
 79
     2
 49
6.629999879999999
 49
-656.3040161099999
 53
161.56500244
 43
133.40000153
 44
14.80000019
 45
-296.47174563
 46
0.00087946
 79
     2
 49
9.376000169999999
 49
-928.1539917000001
 53
116.56500244
 43
124.60000038
 44
17.79999971
 45
-296.47195758
 46
296.47335758
 79
     2
 49
6.629999879999999
 49
-656.3040161099999
 53
90.0
 43
121.59999847
 44
23.80000114
 45
-296.47199631
 46
0.0000000000000182
 79
     2
 49
5.92999995
 49
-290.5439949
 53
45.0
 43
121.59999847
 44
29.60000038
 45
0.0000000000000355
 46
296.47290887
 79
     2
 49
8.385999799999998
 49
-410.8900070199999
 53
0.0
 43
127.39999771
 44
35.59999943
 45
0.0
 46
296.47199631
 79
     2
 49
5.92999995
 49
-290.5439949
 53
9.4623003
 43
133.40000153
 44
35.59999943
 45
1482.36341412
 46
296.47229169
 79
     2
 49
18.0340004
 49
-1785.33798218
 53
0.0
 43
151.19999886
 44
38.59999895
 45
0.0
 46
296.47199631
 79
     2
 49
8.89400005
 49
-287.57799149
 53
341.56509399
 43
160.0
 44
38.59999895
 45
296.47174563
 46
-0.00040573
 79
     2
 49
9.376000169999999
 49
-928.1539917000001
 53
333.43490601
 43
168.99999619
 44
35.59999943
 45
296.4731053999999
 46
-0.0011172
 79
     2
 49
6.629999879999999
 49
-656.3040161099999
 53
296.56509399
 43
175.0
 44
32.5999999
 45
296.47243131
 46
-296.47288385
 79
     2
 49
6.629999879999999
 49
-656.3040161099999
 53
270.0
 43
177.80000687
 44
26.60000086
 45
296.47199631
 46
-0.0000000000000545
 79
     2
 49
2.96400011
 49
-293.50799561
 53
243.43499756
 43
177.80000687
 44
23.80000114
 45
-0.00064346
 46
-296.4731053999999
 79
     2
 49
6.629999879999999
 49
-656.3040161099999
 53
198.43499756
 43
175.0
 44
17.79999971
 45
-592.9451390299999
 46
-296.47225602
 79
     2
 49
9.376000169999999
 49
-928.1539917000001
 53
180.0
 43
91.99999809000001
 44
41.59999847
 45
-0.0000000000000363
 46
-296.47199631
 79
     2
 49
8.89400005
 49
-287.57799149
 53
165.96380615
 43
83.00000191
 44
41.59999847
 45
-296.47214391
 46
-0.00122822
 79
     2
 49
12.2239995
 49
-1210.16403198
 53
135.0
 43
71.19999885999999
 44
44.40000057
 45
-296.47290887
 46
0.0000000000000355
 79
     2
 49
4.192000029999999
 49
-415.08201599
 53
90.0
 43
68.20000172
 44
47.39999770999999
 45
-296.47199631
 46
0.0000000000000182
 79
     2
 49
2.96400011
 49
-293.50799561
 53
63.43489838
 43
68.20000172
 44
50.39999962
 45
0.00115667
 46
296.4731053999999
 79
     2
 49
6.629999879999999
 49
-656.3040161099999
 53
45.0
 43
71.19999885999999
 44
56.39999866
 45
0.0000000000000355
 46
296.47290887
 79
     2
 49
8.385999799999998
 49
-410.8900070199999
 53
26.56509972
 43
76.99999809000001
 44
62.19999789999999
 45
296.47285424
 46
296.47246092
 79
     2
 49
6.629999879999999
 49
-656.3040161099999
 53
0.0
 43
83.00000191
 44
65.19999980999999
 45
0.0
 46
296.47199631
 79
     2
 49
5.92999995
 49
-290.5439949
 53
315.0
 43
88.99999619
 44
65.19999980999999
 45
296.47290887
 46
-0.0000000000000711
 79
     2
 49
8.385999799999998
 49
-410.8900070199999
 53
288.43490601
 43
94.79999541999999
 44
59.20000076
 45
296.47130856
 46
-592.9456127599999
 79
     2
 49
9.376000169999999
 49
-928.1539917000001
 53
270.0
 43
97.79999733
 44
50.39999962
 45
296.47199631
 46
-0.0000000000000545
 79
     2
 49
5.92999995
 49
-290.5439949
 53
206.56500244
 43
97.79999733
 44
44.40000057
 45
-296.47335758
 46
-296.47195758
 79
     2
 49
6.629999879999999
 49
-656.3040161099999
 53
135.0
 43
97.79999733
 44
115.6000042
 45
-296.47290887
 46
0.0000000000000355
 79
     2
 49
4.192000029999999
 49
-415.08201599
 53
90.0
 43
94.79999541999999
 44
118.59999657
 45
-296.47199631
 46
0.0000000000000182
 79
     2
 49
2.96400011
 49
-293.50799561
 53
63.43489838
 43
94.79999541999999
 44
121.59999847
 45
0.00115667
 46
296.4731053999999
 79
     2
 49
6.629999879999999
 49
-656.3040161099999
 53
63.43489838
 43
97.79999733
 44
127.39999771
 45
0.00115667
 46
296.4731053999999
 79
     2
 49
6.629999879999999
 49
-656.3040161099999
 53
26.56509972
 43
100.79999924
 44
133.40000153
 45
296.47285424
 46
296.47246092
 79
     2
 49
6.629999879999999
 49
-656.3040161099999
 53
341.56509399
 43
106.80000305
 44
136.40000343
 45
296.47174563
 46
-0.00040573
 79
     2
 49
9.376000169999999
 49
-928.1539917000001
 53
315.0
 43
115.6000042
 44
133.40000153
 45
296.47290887
 46
-0.0000000000000711
 79
     2
 49
8.385999799999998
 49
-410.8900070199999
 53
270.0
 43
121.59999847
 44
127.39999771
 45
296.47199631
 46
-0.0000000000000545
 79
     2
 49
5.92999995
 49
-290.5439949
 53
213.69009399
 43
121.59999847
 44
121.59999847
 45
-296.4732464
 46
-296.47241205
 79
     2
 49
10.69000006
 49
-1058.25798035
 53
206.56500244
 43
112.60000229
 44
115.6000042
 45
-296.47335758
 46
-296.47195758
 79
     2
 49
6.629999879999999
 49
-656.3040161099999
 53
116.56500244
 43
56.39999866
 44
106.80000305
 45
-296.47195758
 46
296.47335758
 79
     2
 49
6.629999879999999
 49
-656.3040161099999
 53
135.0
 43
53.40000153
 44
112.60000229
 45
-296.47290887
 46
0.0000000000000355
 79
     2
 49
4.192000029999999
 49
-415.08201599
 53
180.0
 43
50.39999962
 44
115.6000042
 45
-0.0000000000000363
 46
-296.47199631
 79
     2
 49
5.92999995
 49
-290.5439949
 53
206.56500244
 43
44.40000057
 44
115.6000042
 45
-296.47335758
 46
-296.47195758
 79
     2
 49
6.629999879999999
 49
-656.3040161099999
 53
243.43499756
 43
38.59999895
 44
112.60000229
 45
-0.00064346
 46
-296.4731053999999
 79
     2
 49
6.629999879999999
 49
-656.3040161099999
 53
270.0
 43
35.59999943
 44
106.80000305
 45
296.47199631
 46
-0.0000000000000545
 79
     2
 49
5.92999995
 49
-290.5439949
 53
315.0
 43
35.59999943
 44
100.79999924
 45
296.47290887
 46
-0.0000000000000711
 79
     2
 49
4.192000029999999
 49
-415.08201599
 53
333.43490601
 43
38.59999895
 44
97.79999733
 45
296.4731053999999
 46
-0.0011172
 79
     2
 49
6.629999879999999
 49
-656.3040161099999
 53
0.0
 43
44.40000057
 44
94.79999541999999
 45
0.0
 46
296.47199631
 79
     2
 49
5.92999995
 49
-290.5439949
 53
45.0
 43
50.39999962
 44
94.79999541999999
 45
0.0000000000000355
 46
296.47290887
 79
     2
 49
4.192000029999999
 49
-415.08201599
 53
153.43499756
 43
62.19999789999999
 44
88.99999619
 45
-296.4731053999999
 46
0.00064346
 79
     2
 49
6.629999879999999
 49
-656.3040161099999
 53
116.56500244
 43
56.39999866
 44
91.99999809000001
 45
-296.47195758
 46
296.47335758
 79
     2
 49
6.629999879999999
 49
-656.3040161099999
 53
71.56500244
 43
53.40000153
 44
97.79999733
 45
0.00087946
 46
296.47174563
 79
     2
 49
9.376000169999999
 49
-928.1539917000001
 53
45.0
 43
56.39999866
 44
106.80000305
 45
0.0000000000000355
 46
296.47290887
 79
     2
 49
8.385999799999998
 49
-410.8900070199999
 53
0.0
 43
62.19999789999999
 44
112.60000229
 45
0.0
 46
296.47199631
 79
     2
 49
11.85799956
 49
-284.61399078
 53
315.0
 43
74.20000075999999
 44
112.60000229
 45
296.47290887
 46
-0.0000000000000711
 79
     2
 49
8.385999799999998
 49
-410.8900070199999
 53
243.43499756
 43
80.0
 44
106.80000305
 45
-0.00064346
 46
-296.4731053999999
 79
     2
 49
6.629999879999999
 49
-656.3040161099999
 53
225.0
 43
76.99999809000001
 44
100.79999924
 45
-0.0000000000000533
 46
-296.47290887
 79
     2
 49
8.385999799999998
 49
-410.8900070199999
 53
213.69009399
 43
71.19999885999999
 44
94.79999541999999
 45
-296.4732464
 46
-296.47241205
 79
     2
 49
10.69000006
 49
-1058.25798035
 53
146.30990601
 43
80.0
 44
68.20000172
 45
-592.9449951399999
 46
296.47367579
 79
     2
 49
10.69000006
 49
-1058.25798035
 53
108.43499756
 43
71.19999885999999
 44
74.20000075999999
 45
-296.47225602
 46
592.9451390299999
 79
     2
 49
9.376000169999999
 49
-928.1539917000001
 53
71.56500244
 43
68.20000172
 44
83.00000191
 45
0.00087946
 46
296.47174563
 79
     2
 49
9.376000169999999
 49
-928.1539917000001
 53
56.30989838
 43
71.19999885999999
 44
91.99999809000001
 45
296.47375474
 46
592.9449556599999
 79
     2
 49
10.69000006
 49
-1058.25798035
 53
56.30989838
 43
76.99999809000001
 44
100.79999924
 45
296.47375474
 46
592.9449556599999
 79
     2
 49
10.69000006
 49
-1058.25798035
 53
26.56509972
 43
83.00000191
 44
109.60000038
 45
296.47285424
 46
296.47246092
 79
     2
 49
6.629999879999999
 49
-656.3040161099999
 53
18.43490028
 43
88.99999619
 44
112.60000229
 45
592.9456423699999
 46
296.47124934
 79
     2
 49
9.376000169999999
 49
-928.1539917000001
 53
341.56509399
 43
97.79999733
 44
115.6000042
 45
296.47174563
 46
-0.00040573
 79
     2
 49
9.376000169999999
 49
-928.1539917000001
 53
303.69009399
 43
106.80000305
 44
112.60000229
 45
296.47241205
 46
-296.4732464
 79
     2
 49
10.69000006
 49
-1058.25798035
 53
270.0
 43
112.60000229
 44
103.80000114
 45
296.47199631
 46
-0.0000000000000545
 79
     2
 49
8.89400005
 49
-287.57799149
 53
243.43499756
 43
112.60000229
 44
94.79999541999999
 45
-0.00064346
 46
-296.4731053999999
 79
     2
 49
6.629999879999999
 49
-656.3040161099999
 53
231.3401947
 43
109.60000038
 44
88.99999619
 45
-889.4173313199999
 46
-1185.89114968
 79
     2
 49
18.98399949
 49
-1879.36599731
 53
213.69009399
 43
97.79999733
 44
74.20000075999999
 45
-296.4732464
 46
-296.47241205
 79
     2
 49
10.69000006
 49
-1058.25798035
 53
180.0
 43
88.99999619
 44
68.20000172
 45
-0.0000000000000363
 46
-296.47199631
 79
     2
 49
5.92999995
 49
-290.5439949
 53
180.0
 43
83.00000191
 44
68.20000172
 45
-0.0000000000000363
 46
-296.47199631
 79
     2
 49
2.96400011
 49
-293.50799561
 53
0.0
 43
86.00000380999999
 44
142.39999771
 45
0.0
 46
296.47199631
 79
     2
 49
5.92999995
 49
-290.5439949
 53
333.43490601
 43
91.99999809000001
 44
142.39999771
 45
296.4731053999999
 46
-0.0011172
 79
     2
 49
6.629999879999999
 49
-656.3040161099999
 53
296.56509399
 43
97.79999733
 44
139.3999958
 45
296.47243131
 46
-296.47288385
 79
     2
 49
6.629999879999999
 49
-656.3040161099999
 53
243.43499756
 43
100.79999924
 44
133.40000153
 45
-0.00064346
 46
-296.4731053999999
 79
     2
 49
6.629999879999999
 49
-656.3040161099999
 53
236.30990601
 43
97.79999733
 44
127.39999771
 45
-296.47367579
 46
-592.9449951399999
 79
     2
 49
10.69000006
 49
-1058.25798035
 53
213.69009399
 43
91.99999809000001
 44
118.59999657
 45
-296.4732464
 46
-296.47241205
 79
     2
 49
10.69000006
 49
-1058.25798035
 53
180.0
 43
83.00000191
 44
112.60000229
 45
-0.0000000000000363
 46
-296.47199631
 79
     2
 49
11.85799956
 49
-284.61399078
 53
180.0
 43
71.19999885999999
 44
112.60000229
 45
-0.0000000000000363
 46
-296.47199631
 79
     2
 49
8.89400005
 49
-287.57799149
 53
161.56500244
 43
62.19999789999999
 44
112.60000229
 45
-296.47174563
 46
0.00087946
 79
     2
 49
9.376000169999999
 49
-928.1539917000001
 53
180.0
 43
53.40000153
 44
115.6000042
 45
-0.0000000000000363
 46
-296.47199631
 79
     2
 49
11.85799956
 49
-284.61399078
 53
161.56500244
 43
41.59999847
 44
115.6000042
 45
-296.47174563
 46
0.00087946
 79
     2
 49
9.376000169999999
 49
-928.1539917000001
 53
135.0
 43
32.5999999
 44
118.59999657
 45
-296.47290887
 46
0.0000000000000355
 79
     2
 49
4.192000029999999
 49
-415.08201599
 53
90.0
 43
29.60000038
 44
121.59999847
 45
-296.47199631
 46
0.0000000000000182
 79
     2
 49
5.92999995
 49
-290.5439949
 53
63.43489838
 43
29.60000038
 44
127.39999771
 45
0.00115667
 46
296.4731053999999
 79
     2
 49
6.629999879999999
 49
-656.3040161099999
 53
26.56509972
 43
32.5999999
 44
133.40000153
 45
296.47285424
 46
296.47246092
 79
     2
 49
6.629999879999999
 49
-656.3040161099999
 53
8.130100249999999
 43
38.59999895
 44
136.40000343
 45
1778.83466221
 46
296.47284693
 79
     2
 49
20.96400023
 49
-2075.41397095
 53
0.0
 43
59.20000076
 44
139.3999958
 45
0.0
 46
296.47199631
 79
     2
 49
8.89400005
 49
-287.57799149
 53
9.4623003
 43
68.20000172
 44
139.3999958
 45
1482.36341412
 46
296.47229169
 79
     2
 49
18.0340004
 49
-1785.33798218
 53
338.1986084
 43
162.99999237
 44
127.39999771
 45
889.41728701
 46
-296.47162555
 79
     2
 49
15.96600056
 49
-1580.58807373
 53
315.0
 43
177.80000687
 44
121.59999847
 45
296.47290887
 46
-0.0000000000000711
 79
     2
 49
4.192000029999999
 49
-415.08201599
 53
270.0
 43
180.79999924
 44
118.59999657
 45
296.47199631
 46
-0.0000000000000545
 79
     2
 49
2.96400011
 49
-293.50799561
 53
206.56500244
 43
180.79999924
 44
115.6000042
 45
-296.47335758
 46
-296.47195758
 79
     2
 49
6.629999879999999
 49
-656.3040161099999
 53
206.56500244
 43
175.0
 44
112.60000229
 45
-296.47335758
 46
-296.47195758
 79
     2
 49
6.629999879999999
 49
-656.3040161099999
 53
191.30990601
 43
168.99999619
 44
109.60000038
 45
-1185.89011512
 46
-296.47292792
 79
     2
 49
15.11800051
 49
-1496.60202026
 53
194.03619385
 43
154.20000076
 44
106.80000305
 45
-889.4167208699998
 46
-296.4723532
 79
     2
 49
12.2239995
 49
-1210.16403198
 53
191.30990601
 43
142.39999771
 44
103.80000114
 45
-1185.89011512
 46
-296.47292792
 79
     2
 49
15.11800051
 49
-1496.60202026
 53
180.0
 43
127.39999771
 44
100.79999924
 45
-0.0000000000000363
 46
-296.47199631
 79
     2
 49
8.89400005
 49
-287.57799149
 53
153.43499756
 43
118.59999657
 44
100.79999924
 45
-296.4731053999999
 46
0.00064346
 79
     2
 49
6.629999879999999
 49
-656.3040161099999
 53
116.56500244
 43
112.60000229
 44
103.80000114
 45
-296.47195758
 46
296.47335758
 79
     2
 49
6.629999879999999
 49
-656.3040161099999
 53
90.0
 43
109.60000038
 44
109.60000038
 45
-296.47199631
 46
0.0000000000000182
 79
     2
 49
2.96400011
 49
-293.50799561
 53
33.69010162
 43
109.60000038
 44
112.60000229
 45
296.47320692
 46
296.47245153
 79
     2
 49
10.69000006
 49
-1058.25798035
 53
33.69010162
 43
118.59999657
 44
118.59999657
 45
296.47320692
 46
296.47245153
 79
     2
 49
10.69000006
 49
-1058.25798035
 53
26.56509972
 43
127.39999771
 44
124.60000038
 45
296.47285424
 46
296.47246092
 79
     2
 49
6.629999879999999
 49
-656.3040161099999
 53
9.4623003
 43
133.40000153
 44
127.39999771
 45
1482.36341412
 46
296.47229169
 79
     2
 49
18.0340004
 49
-1785.33798218
 53
345.9637146
 43
151.19999886
 44
130.39999962
 45
296.47214391
 46
0.00075448
 79
     2
 49
12.2239995
 49
-1210.16403198
 53
180.0
 43
207.60000229
 44
91.99999809000001
 45
-0.0000000000000363
 46
-296.47199631
 79
     2
 49
2.96400011
 49
-293.50799561
 53
153.43499756
 43
204.59999084
 44
91.99999809000001
 45
-296.4731053999999
 46
0.00064346
 79
     2
 49
6.629999879999999
 49
-656.3040161099999
 53
161.56500244
 43
198.6000061
 44
94.79999541999999
 45
-296.47174563
 46
0.00087946
 79
     2
 49
9.376000169999999
 49
-928.1539917000001
 53
180.0
 43
189.79999542
 44
97.79999733
 45
-0.0000000000000363
 46
-296.47199631
 79
     2
 49
5.92999995
 49
-290.5439949
 53
180.0
 43
183.79999161
 44
97.79999733
 45
-0.0000000000000363
 46
-296.47199631
 79
     2
 49
5.92999995
 49
-290.5439949
 53
153.43499756
 43
177.80000687
 44
97.79999733
 45
-296.4731053999999
 46
0.00064346
 79
     2
 49
6.629999879999999
 49
-656.3040161099999
 53
90.0
 43
172.00000763
 44
100.79999924
 45
-296.47199631
 46
0.0000000000000182
 79
     2
 49
8.89400005
 49
-287.57799149
 53
45.0
 43
172.00000763
 44
109.60000038
 45
0.0000000000000355
 46
296.47290887
 79
     2
 49
4.192000029999999
 49
-415.08201599
 53
0.0
 43
175.0
 44
112.60000229
 45
0.0
 46
296.47199631
 79
     2
 49
8.89400005
 49
-287.57799149
 53
345.9637146
 43
183.79999161
 44
112.60000229
 45
296.47214391
 46
0.00075448
 79
     2
 49
12.2239995
 49
-1210.16403198
 53
333.43490601
 43
195.59999466
 44
109.60000038
 45
296.4731053999999
 46
-0.0011172
 79
     2
 49
13.25799942
 49
-649.67399597
 53
315.0
 43
207.60000229
 44
103.80000114
 45
296.47290887
 46
-0.0000000000000711
 79
     2
 49
4.192000029999999
 49
-415.08201599
 53
270.0
 43
210.40000916
 44
100.79999924
 45
296.47199631
 46
-0.0000000000000545
 79
     2
 49
5.92999995
 49
-290.5439949
 53
225.0
 43
210.40000916
 44
94.79999541999999
 45
-0.0000000000000533
 46
-296.47290887
 79
     2
 49
4.192000029999999
 49
-415.08201599
 53
165.96380615
 43
204.59999084
 44
53.40000153
 45
-296.47214391
 46
-0.00122822
 79
     2
 49
12.2239995
 49
-1210.16403198
 53
180.0
 43
192.80000687
 44
56.39999866
 45
-0.0000000000000363
 46
-296.47199631
 79
     2
 49
5.92999995
 49
-290.5439949
 53
116.56500244
 43
186.80000305
 44
56.39999866
 45
-296.47195758
 46
296.47335758
 79
     2
 49
6.629999879999999
 49
-656.3040161099999
 53
90.0
 43
183.79999161
 44
62.19999789999999
 45
-296.47199631
 46
0.0000000000000182
 79
     2
 49
20.75400114
 49
-275.72000504
 53
108.43499756
 43
183.79999161
 44
83.00000191
 45
-296.47225602
 46
592.9451390299999
 79
     2
 49
9.376000169999999
 49
-928.1539917000001
 53
63.43489838
 43
180.79999924
 44
91.99999809000001
 45
0.00115667
 46
296.4731053999999
 79
     2
 49
6.629999879999999
 49
-656.3040161099999
 53
0.0
 43
183.79999161
 44
97.79999733
 45
0.0
 46
296.47199631
 79
     2
 49
5.92999995
 49
-290.5439949
 53
341.56509399
 43
189.79999542
 44
97.79999733
 45
296.47174563
 46
-0.00040573
 79
     2
 49
9.376000169999999
 49
-928.1539917000001
 53
315.0
 43
198.6000061
 44
94.79999541999999
 45
296.47290887
 46
-0.0000000000000711
 79
     2
 49
12.57799983
 49
-406.69799805
 53
284.0362854
 43
207.60000229
 44
86.00000380999999
 45
296.47377439
 46
-889.4162471299999
 79
     2
 49
12.2239995
 49
-1210.16403198
 53
296.56509399
 43
210.40000916
 44
74.20000075999999
 45
296.47243131
 46
-296.47288385
 79
     2
 49
6.629999879999999
 49
-656.3040161099999
 53
270.0
 43
213.40000153
 44
68.20000172
 45
296.47199631
 46
-0.0000000000000545
 79
     2
 49
5.92999995
 49
-290.5439949
 53
243.43499756
 43
213.40000153
 44
62.19999789999999
 45
-0.00064346
 46
-296.4731053999999
 79
     2
 49
6.629999879999999
 49
-656.3040161099999
 53
206.56500244
 43
210.40000916
 44
56.39999866
 45
-296.47335758
 46
-296.47195758
 79
     2
 49
6.629999879999999
 49
-656.3040161099999
 53
270.0
 43
278.6000061
 44
88.99999619
 45
296.47199631
 46
-0.0000000000000545
 79
     2
 49
8.89400005
 49
-287.57799149
 53
243.43499756
 43
278.6000061
 44
80.0
 45
-0.00064346
 46
-296.4731053999999
 79
     2
 49
6.629999879999999
 49
-656.3040161099999
 53
206.56500244
 43
275.79999924
 44
74.20000075999999
 45
-296.47335758
 46
-296.47195758
 79
     2
 49
6.629999879999999
 49
-656.3040161099999
 53
180.0
 43
269.79999542
 44
71.19999885999999
 45
-0.0000000000000363
 46
-296.47199631
 79
     2
 49
5.92999995
 49
-290.5439949
 53
153.43499756
 43
263.79999161
 44
71.19999885999999
 45
-296.4731053999999
 46
0.00064346
 79
     2
 49
6.629999879999999
 49
-656.3040161099999
 53
135.0
 43
257.99999237
 44
74.20000075999999
 45
-296.47290887
 46
0.0000000000000355
 79
     2
 49
4.192000029999999
 49
-415.08201599
 53
90.0
 43
255.0
 44
76.99999809000001
 45
-296.47199631
 46
0.0000000000000182
 79
     2
 49
5.92999995
 49
-290.5439949
 53
71.56500244
 43
255.0
 44
83.00000191
 45
0.00087946
 46
296.47174563
 79
     2
 49
9.376000169999999
 49
-928.1539917000001
 53
45.0
 43
257.99999237
 44
91.99999809000001
 45
0.0000000000000355
 46
296.47290887
 79
     2
 49
4.192000029999999
 49
-415.08201599
 53
18.43490028
 43
260.79999924
 44
94.79999541999999
 45
592.9456423699999
 46
296.47124934
 79
     2
 49
9.376000169999999
 49
-928.1539917000001
 53
333.43490601
 43
269.79999542
 44
97.79999733
 45
296.4731053999999
 46
-0.0011172
 79
     2
 49
6.629999879999999
 49
-656.3040161099999
 53
296.56509399
 43
275.79999924
 44
94.79999541999999
 45
296.47243131
 46
-296.47288385
 79
     2
 49
6.629999879999999
 49
-656.3040161099999
 53
63.43489838
 43
237.19999313
 44
109.60000038
 45
0.00115667
 46
296.4731053999999
 79
     2
 49
6.629999879999999
 49
-656.3040161099999
 53
45.0
 43
240.20000458
 44
115.6000042
 45
0.0000000000000355
 46
296.47290887
 79
     2
 49
4.192000029999999
 49
-415.08201599
 53
21.80139923
 43
243.19999695
 44
118.59999657
 45
592.9442207000001
 46
296.47253553
 79
     2
 49
15.96600056
 49
-1580.58807373
 53
18.43490028
 43
257.99999237
 44
124.60000038
 45
592.9456423699999
 46
296.47124934
 79
     2
 49
9.376000169999999
 49
-928.1539917000001
 53
0.0
 43
266.80000305
 44
127.39999771
 45
0.0
 46
296.47199631
 79
     2
 49
8.89400005
 49
-287.57799149
 53
333.43490601
 43
275.79999924
 44
127.39999771
 45
296.4731053999999
 46
-0.0011172
 79
     2
 49
6.629999879999999
 49
-656.3040161099999
 53
296.56509399
 43
281.59999847
 44
124.60000038
 45
296.47243131
 46
-296.47288385
 79
     2
 49
6.629999879999999
 49
-656.3040161099999
 53
270.0
 43
284.5999908399999
 44
118.59999657
 45
296.47199631
 46
-0.0000000000000545
 79
     2
 49
5.92999995
 49
-290.5439949
 53
243.43499756
 43
284.5999908399999
 44
112.60000229
 45
-0.00064346
 46
-296.4731053999999
 79
     2
 49
6.629999879999999
 49
-656.3040161099999
 53
225.0
 43
281.59999847
 44
106.80000305
 45
-0.0000000000000533
 46
-296.47290887
 79
     2
 49
4.192000029999999
 49
-415.08201599
 53
213.69009399
 43
278.6000061
 44
103.80000114
 45
-296.4732464
 46
-296.47241205
 79
     2
 49
10.69000006
 49
-1058.25798035
 53
194.03619385
 43
269.79999542
 44
97.79999733
 45
-889.4167208699998
 46
-296.4723532
 79
     2
 49
12.2239995
 49
-1210.16403198
 53
180.0
 43
257.99999237
 44
94.79999541999999
 45
-0.0000000000000363
 46
-296.47199631
 79
     2
 49
5.92999995
 49
-290.5439949
 53
153.43499756
 43
252.00000763
 44
94.79999541999999
 45
-296.4731053999999
 46
0.00064346
 79
     2
 49
13.25799942
 49
-649.67399597
 53
116.56500244
 43
240.20000458
 44
100.79999924
 45
-296.47195758
 46
296.47335758
 79
     2
 49
6.629999879999999
 49
-656.3040161099999
 53
90.0
 43
237.19999313
 44
106.80000305
 45
-296.47199631
 46
0.0000000000000182
 79
     2
 49
2.96400011
 49
-293.50799561
 53
180.0
 43
293.6000061000001
 44
38.59999895
 45
-0.0000000000000363
 46
-296.47199631
 79
     2
 49
8.89400005
 49
-287.57799149
 53
135.0
 43
284.5999908399999
 44
38.59999895
 45
-296.47290887
 46
0.0000000000000355
 79
     2
 49
8.385999799999998
 49
-410.8900070199999
 53
90.0
 43
278.6000061
 44
44.40000057
 45
-296.47199631
 46
0.0000000000000182
 79
     2
 49
8.89400005
 49
-287.57799149
 53
45.0
 43
278.6000061
 44
53.40000153
 45
0.0000000000000355
 46
296.47290887
 79
     2
 49
8.385999799999998
 49
-410.8900070199999
 53
18.43490028
 43
284.5999908399999
 44
59.20000076
 45
592.9456423699999
 46
296.47124934
 79
     2
 49
9.376000169999999
 49
-928.1539917000001
 53
0.0
 43
293.6000061000001
 44
62.19999789999999
 45
0.0
 46
296.47199631
 79
     2
 49
2.96400011
 49
-293.50799561
 53
0.0
 43
0.0
 44
62.19999789999999
 45
0.0
 46
296.47199631
 79
     2
 49
5.92999995
 49
-290.5439949
 53
341.56509399
 43
6.00000024
 44
62.19999789999999
 45
296.47174563
 46
-0.00040573
 79
     2
 49
9.376000169999999
 49
-928.1539917000001
 53
315.0
 43
14.80000019
 44
59.20000076
 45
296.47290887
 46
-0.0000000000000711
 79
     2
 49
8.385999799999998
 49
-410.8900070199999
 53
296.56509399
 43
20.79999924
 44
53.40000153
 45
296.47243131
 46
-296.47288385
 79
     2
 49
6.629999879999999
 49
-656.3040161099999
 53
225.0
 43
23.80000114
 44
47.39999770999999
 45
-0.0000000000000533
 46
-296.47290887
 79
     2
 49
8.385999799999998
 49
-410.8900070199999
 53
194.03619385
 43
17.79999971
 44
41.59999847
 45
-889.4167208699998
 46
-296.4723532
 79
     2
 49
12.2239995
 49
-1210.16403198
 53
180.0
 43
6.00000024
 44
38.59999895
 45
-0.0000000000000363
 46
-296.47199631
 79
     2
 49
5.92999995
 49
-290.5439949
 53
180.0
 43
296.3999939
 44
38.59999895
 45
-0.0000000000000363
 46
-296.47199631
 79
     2
 49
2.96400011
 49
-293.50799561
 53
135.0
 43
272.80000687
 44
17.79999971
 45
-296.47290887
 46
0.0000000000000355
 79
     2
 49
4.192000029999999
 49
-415.08201599
 53
135.0
 43
269.79999542
 44
20.79999924
 45
-296.47290887
 46
0.0000000000000355
 79
     2
 49
4.192000029999999
 49
-415.08201599
 53
135.0
 43
266.80000305
 44
23.80000114
 45
-296.47290887
 46
0.0000000000000355
 79
     2
 49
4.192000029999999
 49
-415.08201599
 53
116.56500244
 43
263.79999161
 44
26.60000086
 45
-296.47195758
 46
296.47335758
 79
     2
 49
6.629999879999999
 49
-656.3040161099999
 53
90.0
 43
260.79999924
 44
32.5999999
 45
-296.47199631
 46
0.0000000000000182
 79
     2
 49
5.92999995
 49
-290.5439949
 53
45.0
 43
260.79999924
 44
38.59999895
 45
0.0000000000000355
 46
296.47290887
 79
     2
 49
8.385999799999998
 49
-410.8900070199999
 53
0.0
 43
266.80000305
 44
44.40000057
 45
0.0
 46
296.47199631
 79
     2
 49
11.85799956
 49
-284.61399078
 53
315.0
 43
278.6000061
 44
44.40000057
 45
296.47290887
 46
-0.0000000000000711
 79
     2
 49
8.385999799999998
 49
-410.8900070199999
 53
0.0
 43
284.5999908399999
 44
38.59999895
 45
0.0
 46
296.47199631
 79
     2
 49
8.89400005
 49
-287.57799149
 53
333.43490601
 43
0.0
 44
38.59999895
 45
296.4731053999999
 46
-0.0011172
 79
     2
 49
6.629999879999999
 49
-656.3040161099999
 53
0.0
 43
293.6000061000001
 44
38.59999895
 45
0.0
 46
296.47199631
 79
     2
 49
2.96400011
 49
-293.50799561
 53
270.0
 43
6.00000024
 44
35.59999943
 45
296.47199631
 46
-0.0000000000000545
 79
     2
 49
5.92999995
 49
-290.5439949
 53
243.43499756
 43
6.00000024
 44
29.60000038
 45
-0.00064346
 46
-296.4731053999999
 79
     2
 49
6.629999879999999
 49
-656.3040161099999
 53
180.0
 43
3.00000012
 44
23.80000114
 45
-0.0000000000000363
 46
-296.47199631
 79
     2
 49
2.96400011
 49
-293.50799561
 53
180.0
 43
296.3999939
 44
23.80000114
 45
-0.0000000000000363
 46
-296.47199631
 79
     2
 49
2.96400011
 49
-293.50799561
 53
198.43499756
 43
293.6000061000001
 44
23.80000114
 45
-592.9451390299999
 46
-296.47225602
 79
     2
 49
9.376000169999999
 49
-928.1539917000001
 53
206.56500244
 43
284.5999908399999
 44
20.79999924
 45
-296.47335758
 46
-296.47195758
 79
     2
 49
6.629999879999999
 49
-656.3040161099999
 53
180.0
 43
278.6000061
 44
17.79999971
 45
-0.0000000000000363
 46
-296.47199631
 79
     2
 49
5.92999995
 49
-290.5439949
 53
33.69010162
 43
222.39999771
 44
26.60000086
 45
296.47320692
 46
296.47245153
 79
     2
 49
10.69000006
 49
-1058.25798035
 53
0.0
 43
231.20000839
 44
32.5999999
 45
0.0
 46
296.47199631
 79
     2
 49
5.92999995
 49
-290.5439949
 53
341.56509399
 43
237.19999313
 44
32.5999999
 45
296.47174563
 46
-0.00040573
 79
     2
 49
9.376000169999999
 49
-928.1539917000001
 53
0.0
 43
246.00000381
 44
29.60000038
 45
0.0
 46
296.47199631
 79
     2
 49
8.89400005
 49
-287.57799149
 53
333.43490601
 43
255.0
 44
29.60000038
 45
296.4731053999999
 46
-0.0011172
 79
     2
 49
6.629999879999999
 49
-656.3040161099999
 53
326.30990601
 43
260.79999924
 44
26.60000086
 45
592.9449951399999
 46
-296.47367579
 79
     2
 49
10.69000006
 49
-1058.25798035
 53
315.0
 43
269.79999542
 44
20.79999924
 45
296.47290887
 46
-0.0000000000000711
 79
     2
 49
4.192000029999999
 49
-415.08201599
 53
270.0
 43
272.80000687
 44
17.79999971
 45
296.47199631
 46
-0.0000000000000545
 79
     2
 49
5.92999995
 49
-290.5439949
 53
243.43499756
 43
272.80000687
 44
11.79999948
 45
-0.00064346
 46
-296.4731053999999
 79
     2
 49
6.629999879999999
 49
-656.3040161099999
 53
206.56500244
 43
269.79999542
 44
6.00000024
 45
-296.47335758
 46
-296.47195758
 79
     2
 49
6.629999879999999
 49
-656.3040161099999
 53
161.56500244
 43
263.79999161
 44
3.00000012
 45
-296.47174563
 46
0.00087946
 79
     2
 49
9.376000169999999
 49
-928.1539917000001
 53
153.43499756
 43
255.0
 44
6.00000024
 45
-296.4731053999999
 46
0.00064346
 79
     2
 49
6.629999879999999
 49
-656.3040161099999
 53
161.56500244
 43
248.99999619
 44
8.79999995
 45
-296.47174563
 46
0.00087946
 79
     2
 49
9.376000169999999
 49
-928.1539917000001
 53
180.0
 43
240.20000458
 44
11.79999948
 45
-0.0000000000000363
 46
-296.47199631
 79
     2
 49
8.89400005
 49
-287.57799149
 53
146.30990601
 43
231.20000839
 44
11.79999948
 45
-592.9449951399999
 46
296.47367579
 79
     2
 49
10.69000006
 49
-1058.25798035
 53
90.0
 43
222.39999771
 44
17.79999971
 45
-296.47199631
 46
0.0000000000000182
 79
     2
 49
8.89400005
 49
-287.57799149
 53
18.43490028
 43
198.6000061
 44
11.79999948
 45
592.9456423699999
 46
296.47124934
 79
     2
 49
9.376000169999999
 49
-928.1539917000001
 53
0.0
 43
207.60000229
 44
14.80000019
 45
0.0
 46
296.47199631
 79
     2
 49
5.92999995
 49
-290.5439949
 53
45.0
 43
213.40000153
 44
14.80000019
 45
0.0000000000000355
 46
296.47290887
 79
     2
 49
8.385999799999998
 49
-410.8900070199999
 53
63.43489838
 43
219.40000534
 44
20.79999924
 45
0.00115667
 46
296.4731053999999
 79
     2
 49
6.629999879999999
 49
-656.3040161099999
 53
90.0
 43
222.39999771
 44
26.60000086
 45
-296.47199631
 46
0.0000000000000182
 79
     2
 49
2.96400011
 49
-293.50799561
 53
108.43499756
 43
222.39999771
 44
29.60000038
 45
-296.47225602
 46
592.9451390299999
 79
     2
 49
9.376000169999999
 49
-928.1539917000001
 53
135.0
 43
219.40000534
 44
38.59999895
 45
-296.47290887
 46
0.0000000000000355
 79
     2
 49
12.57799983
 49
-406.69799805
 53
135.0
 43
210.40000916
 44
47.39999770999999
 45
-296.47290887
 46
0.0000000000000355
 79
     2
 49
8.385999799999998
 49
-410.8900070199999
 53
165.96380615
 43
204.59999084
 44
53.40000153
 45
-296.47214391
 46
-0.00122822
 79
     2
 49
12.2239995
 49
-1210.16403198
 53
180.0
 43
192.80000687
 44
56.39999866
 45
-0.0000000000000363
 46
-296.47199631
 79
     2
 49
5.92999995
 49
-290.5439949
 53
225.0
 43
186.80000305
 44
56.39999866
 45
-0.0000000000000533
 46
-296.47290887
 79
     2
 49
8.385999799999998
 49
-410.8900070199999
 53
243.43499756
 43
180.79999924
 44
50.39999962
 45
-0.00064346
 46
-296.4731053999999
 79
     2
 49
6.629999879999999
 49
-656.3040161099999
 53
270.0
 43
177.80000687
 44
44.40000057
 45
296.47199631
 46
-0.0000000000000545
 79
     2
 49
8.89400005
 49
-287.57799149
 53
270.0
 43
177.80000687
 44
35.59999943
 45
296.47199631
 46
-0.0000000000000545
 79
     2
 49
11.85799956
 49
-284.61399078
 53
288.43490601
 43
177.80000687
 44
23.80000114
 45
296.47130856
 46
-592.9456127599999
 79
     2
 49
9.376000169999999
 49
-928.1539917000001
 53
333.43490601
 43
180.79999924
 44
14.80000019
 45
296.4731053999999
 46
-0.0011172
 79
     2
 49
6.629999879999999
 49
-656.3040161099999
 53
0.0
 43
186.80000305
 44
11.79999948
 45
0.0
 46
296.47199631
 79
     2
 49
11.85799956
 49
-284.61399078
 53
251.56500244
 43
35.59999943
 44
26.60000086
 45
-0.00087946
 46
-296.47174563
 79
     2
 49
9.376000169999999
 49
-928.1539917000001
 53
180.0
 43
32.5999999
 44
17.79999971
 45
-0.0000000000000363
 46
-296.47199631
 79
     2
 49
5.92999995
 49
-290.5439949
 53
161.56500244
 43
26.60000086
 44
17.79999971
 45
-296.47174563
 46
0.00087946
 79
     2
 49
9.376000169999999
 49
-928.1539917000001
 53
153.43499756
 43
17.79999971
 44
20.79999924
 45
-296.4731053999999
 46
0.00064346
 79
     2
 49
6.629999879999999
 49
-656.3040161099999
 53
135.0
 43
11.79999948
 44
23.80000114
 45
-296.47290887
 46
0.0000000000000355
 79
     2
 49
4.192000029999999
 49
-415.08201599
 53
116.56500244
 43
8.79999995
 44
26.60000086
 45
-296.47195758
 46
296.47335758
 79
     2
 49
6.629999879999999
 49
-656.3040161099999
 53
63.43489838
 43
6.00000024
 44
32.5999999
 45
0.00115667
 46
296.4731053999999
 79
     2
 49
6.629999879999999
 49
-656.3040161099999
 53
26.56509972
 43
8.79999995
 44
38.59999895
 45
296.47285424
 46
296.47246092
 79
     2
 49
6.629999879999999
 49
-656.3040161099999
 53
0.0
 43
14.80000019
 44
41.59999847
 45
0.0
 46
296.47199631
 79
     2
 49
5.92999995
 49
-290.5439949
 53
333.43490601
 43
20.79999924
 44
41.59999847
 45
296.4731053999999
 46
-0.0011172
 79
     2
 49
13.25799942
 49
-649.67399597
 53
288.43490601
 43
32.5999999
 44
35.59999943
 45
296.47130856
 46
-592.9456127599999
 79
     2
 49
9.376000169999999
 49
-928.1539917000001
 53
75.96379852
 43
35.59999943
 44
23.80000114
 45
-0.00118874
 46
296.47214391
 79
     2
 49
12.2239995
 49
-1210.16403198
 53
63.43489838
 43
38.59999895
 44
35.59999943
 45
0.00115667
 46
296.4731053999999
 79
     2
 49
6.629999879999999
 49
-656.3040161099999
 53
14.03619957
 43
41.59999847
 44
41.59999847
 45
889.4166912599999
 46
296.47244202
 79
     2
 49
12.2239995
 49
-1210.16403198
 53
341.56509399
 43
53.40000153
 44
44.40000057
 45
296.47174563
 46
-0.00040573
 79
     2
 49
9.376000169999999
 49
-928.1539917000001
 53
296.56509399
 43
62.19999789999999
 44
41.59999847
 45
296.47243131
 46
-296.47288385
 79
     2
 49
6.629999879999999
 49
-656.3040161099999
 53
281.30990601
 43
65.19999980999999
 44
35.59999943
 45
296.47292792
 46
-1185.89011512
 79
     2
 49
15.11800051
 49
-1496.60202026
 53
281.30990601
 43
68.20000172
 44
20.79999924
 45
296.47292792
 46
-1185.89011512
 79
     2
 49
15.11800051
 49
-1496.60202026
 53
270.0
 43
71.19999885999999
 44
6.00000024
 45
296.47199631
 46
-0.0000000000000545
 79
     2
 49
5.92999995
 49
-290.5439949
 53
270.0
 43
71.19999885999999
 44
296.3999939
 45
296.47199631
 46
-0.0000000000000545
 79
     2
 49
5.92999995
 49
-290.5439949
 53
243.43499756
 43
71.19999885999999
 44
290.59999466
 45
-0.00064346
 46
-296.4731053999999
 79
     2
 49
6.629999879999999
 49
-656.3040161099999
 53
198.43499756
 43
68.20000172
 44
284.5999908399999
 45
-592.9451390299999
 46
-296.47225602
 79
     2
 49
9.376000169999999
 49
-928.1539917000001
 53
180.0
 43
59.20000076
 44
281.59999847
 45
-0.0000000000000363
 46
-296.47199631
 79
     2
 49
17.78800011
 49
-278.68400574
 53
161.56500244
 43
41.59999847
 44
281.59999847
 45
-296.47174563
 46
0.00087946
 79
     2
 49
9.376000169999999
 49
-928.1539917000001
 53
116.56500244
 43
32.5999999
 44
284.5999908399999
 45
-296.47195758
 46
296.47335758
 79
     2
 49
6.629999879999999
 49
-656.3040161099999
 53
90.0
 43
29.60000038
 44
290.59999466
 45
-296.47199631
 46
0.0000000000000182
 79
     2
 49
5.92999995
 49
-290.5439949
 53
75.96379852
 43
29.60000038
 44
0.0
 45
-0.00118874
 46
296.47214391
 79
     2
 49
12.2239995
 49
-1210.16403198
 53
75.96379852
 43
32.5999999
 44
11.79999948
 45
-0.00118874
 46
296.47214391
 79
     2
 49
12.2239995
 49
-1210.16403198
 53
26.56509972
 43
284.5999908399999
 44
17.79999971
 45
296.47285424
 46
296.47246092
 79
     2
 49
13.25799942
 49
-649.67399597
 53
0.0
 43
0.0
 44
23.80000114
 45
0.0
 46
296.47199631
 79
     2
 49
5.92999995
 49
-290.5439949
 53
341.56509399
 43
6.00000024
 44
23.80000114
 45
296.47174563
 46
-0.00040573
 79
     2
 49
9.376000169999999
 49
-928.1539917000001
 53
341.56509399
 43
14.80000019
 44
20.79999924
 45
296.47174563
 46
-0.00040573
 79
     2
 49
9.376000169999999
 49
-928.1539917000001
 53
315.0
 43
23.80000114
 44
17.79999971
 45
296.47290887
 46
-0.0000000000000711
 79
     2
 49
8.385999799999998
 49
-410.8900070199999
 53
270.0
 43
29.60000038
 44
11.79999948
 45
296.47199631
 46
-0.0000000000000545
 79
     2
 49
8.89400005
 49
-287.57799149
 53
270.0
 43
29.60000038
 44
3.00000012
 45
296.47199631
 46
-0.0000000000000545
 79
     2
 49
2.96400011
 49
-293.50799561
 53
270.0
 43
29.60000038
 44
296.3999939
 45
296.47199631
 46
-0.0000000000000545
 79
     2
 49
8.89400005
 49
-287.57799149
 53
258.69009399
 43
29.60000038
 44
287.60000229
 45
0.00092342
 46
-296.47346827
 79
     2
 49
15.11800051
 49
-1496.60202026
 53
198.43499756
 43
26.60000086
 44
272.80000687
 45
-592.9451390299999
 46
-296.47225602
 79
     2
 49
9.376000169999999
 49
-928.1539917000001
 53
180.0
 43
17.79999971
 44
269.79999542
 45
-0.0000000000000363
 46
-296.47199631
 79
     2
 49
14.8239994
 49
-281.64800644
 53
180.0
 43
3.00000012
 44
269.79999542
 45
-0.0000000000000363
 46
-296.47199631
 79
     2
 49
2.96400011
 49
-293.50799561
 53
206.56500244
 43
296.3999939
 44
269.79999542
 45
-296.47335758
 46
-296.47195758
 79
     2
 49
6.629999879999999
 49
-656.3040161099999
 53
180.0
 43
290.59999466
 44
266.80000305
 45
-0.0000000000000363
 46
-296.47199631
 79
     2
 49
5.92999995
 49
-290.5439949
 53
146.30990601
 43
284.5999908399999
 44
266.80000305
 45
-592.9449951399999
 46
296.47367579
 79
     2
 49
10.69000006
 49
-1058.25798035
 53
116.56500244
 43
275.79999924
 44
272.80000687
 45
-296.47195758
 46
296.47335758
 79
     2
 49
6.629999879999999
 49
-656.3040161099999
 53
108.43499756
 43
272.80000687
 44
278.6000061
 45
-296.47225602
 46
592.9451390299999
 79
     2
 49
9.376000169999999
 49
-928.1539917000001
 53
90.0
 43
269.79999542
 44
287.60000229
 45
-296.47199631
 46
0.0000000000000182
 79
     2
 49
5.92999995
 49
-290.5439949
 53
71.56500244
 43
272.80000687
 44
0.0
 45
0.00087946
 46
296.47174563
 79
     2
 49
9.376000169999999
 49
-928.1539917000001
 53
45.0
 43
269.79999542
 44
293.6000061000001
 45
0.0000000000000355
 46
296.47290887
 79
     2
 49
4.192000029999999
 49
-415.08201599
 53
45.0
 43
275.79999924
 44
8.79999995
 45
0.0000000000000355
 46
296.47290887
 79
     2
 49
12.57799983
 49
-406.69799805
 53
165.96380615
 43
175.0
 44
124.60000038
 45
-296.47214391
 46
-0.00122822
 79
     2
 49
12.2239995
 49
-1210.16403198
 53
161.56500244
 43
162.99999237
 44
127.39999771
 45
-296.47174563
 46
0.00087946
 79
     2
 49
9.376000169999999
 49
-928.1539917000001
 53
116.56500244
 43
154.20000076
 44
130.39999962
 45
-296.47195758
 46
296.47335758
 79
     2
 49
6.629999879999999
 49
-656.3040161099999
 53
45.0
 43
151.19999886
 44
136.40000343
 45
0.0000000000000355
 46
296.47290887
 79
     2
 49
8.385999799999998
 49
-410.8900070199999
 53
345.9637146
 43
157.20000267
 44
142.39999771
 45
296.47214391
 46
0.00075448
 79
     2
 49
12.2239995
 49
-1210.16403198
 53
333.43490601
 43
168.99999619
 44
139.3999958
 45
296.4731053999999
 46
-0.0011172
 79
     2
 49
13.25799942
 49
-649.67399597
 53
270.0
 43
180.79999924
 44
133.40000153
 45
296.47199631
 46
-0.0000000000000545
 79
     2
 49
5.92999995
 49
-290.5439949
 53
206.56500244
 43
180.79999924
 44
127.39999771
 45
-296.47335758
 46
-296.47195758
 79
     2
 49
6.629999879999999
 49
-656.3040161099999
 53
165.96380615
 43
168.99999619
 44
139.3999958
 45
-296.47214391
 46
-0.00122822
 79
     2
 49
12.2239995
 49
-1210.16403198
 53
90.0
 43
157.20000267
 44
142.39999771
 45
-296.47199631
 46
0.0000000000000182
 79
     2
 49
5.92999995
 49
-290.5439949
 53
45.0
 43
157.20000267
 44
148.19999695
 45
0.0000000000000355
 46
296.47290887
 79
     2
 49
4.192000029999999
 49
-415.08201599
 53
18.43490028
 43
160.0
 44
151.19999886
 45
592.9456423699999
 46
296.47124934
 79
     2
 49
9.376000169999999
 49
-928.1539917000001
 53
345.9637146
 43
168.99999619
 44
154.20000076
 45
296.47214391
 46
0.00075448
 79
     2
 49
12.2239995
 49
-1210.16403198
 53
345.9637146
 43
180.79999924
 44
151.19999886
 45
296.47214391
 46
0.00075448
 79
     2
 49
12.2239995
 49
-1210.16403198
 53
270.0
 43
192.80000687
 44
148.19999695
 45
296.47199631
 46
-0.0000000000000545
 79
     2
 49
5.92999995
 49
-290.5439949
 53
213.69009399
 43
192.80000687
 44
142.39999771
 45
-296.4732464
 46
-296.47241205
 79
     2
 49
10.69000006
 49
-1058.25798035
 53
168.69009399
 43
183.79999161
 44
136.40000343
 45
-296.47346827
 46
-0.00092342
 79
     2
 49
15.11800051
 49
-1496.60202026
 53
11.30990028
 43
172.00000763
 44
160.0
 45
1185.89014473
 46
296.47280949
 79
     2
 49
15.11800051
 49
-1496.60202026
 53
0.0
 43
186.80000305
 44
162.99999237
 45
0.0
 46
296.47199631
 79
     2
 49
14.8239994
 49
-281.64800644
 53
341.56509399
 43
201.59999847
 44
162.99999237
 45
296.47174563
 46
-0.00040573
 79
     2
 49
9.376000169999999
 49
-928.1539917000001
 53
270.0
 43
210.40000916
 44
160.0
 45
296.47199631
 46
-0.0000000000000545
 79
     2
 49
5.92999995
 49
-290.5439949
 53
206.56500244
 43
210.40000916
 44
154.20000076
 45
-296.47335758
 46
-296.47195758
 79
     2
 49
13.25799942
 49
-649.67399597
 53
180.0
 43
198.6000061
 44
148.19999695
 45
-0.0000000000000363
 46
-296.47199631
 79
     2
 49
5.92999995
 49
-290.5439949
 53
165.96380615
 43
192.80000687
 44
148.19999695
 45
-296.47214391
 46
-0.00122822
 79
     2
 49
12.2239995
 49
-1210.16403198
 53
161.56500244
 43
180.79999924
 44
151.19999886
 45
-296.47174563
 46
0.00087946
 79
     2
 49
9.376000169999999
 49
-928.1539917000001
 53
90.0
 43
172.00000763
 44
154.20000076
 45
-296.47199631
 46
0.0000000000000182
 79
     2
 49
2.96400011
 49
-293.50799561
 53
90.0
 43
172.00000763
 44
157.20000267
 45
-296.47199631
 46
0.0000000000000182
 79
     2
 49
2.96400011
 49
-293.50799561
 53
243.43499756
 43
148.19999695
 44
166.00000381
 45
-0.00064346
 46
-296.4731053999999
 79
     2
 49
6.629999879999999
 49
-656.3040161099999
 53
315.0
 43
145.20000458
 44
160.0
 45
296.47290887
 46
-0.0000000000000711
 79
     2
 49
8.385999799999998
 49
-410.8900070199999
 53
341.56509399
 43
151.19999886
 44
154.20000076
 45
296.47174563
 46
-0.00040573
 79
     2
 49
9.376000169999999
 49
-928.1539917000001
 53
18.43490028
 43
160.0
 44
151.19999886
 45
592.9456423699999
 46
296.47124934
 79
     2
 49
9.376000169999999
 49
-928.1539917000001
 53
45.0
 43
168.99999619
 44
154.20000076
 45
0.0000000000000355
 46
296.47290887
 79
     2
 49
4.192000029999999
 49
-415.08201599
 53
116.56500244
 43
172.00000763
 44
157.20000267
 45
-296.47195758
 46
296.47335758
 79
     2
 49
6.629999879999999
 49
-656.3040161099999
 53
45.0
 43
121.59999847
 44
180.79999924
 45
0.0000000000000355
 46
296.47290887
 79
     2
 49
8.385999799999998
 49
-410.8900070199999
 53
18.43490028
 43
127.39999771
 44
186.80000305
 45
592.9456423699999
 46
296.47124934
 79
     2
 49
9.376000169999999
 49
-928.1539917000001
 53
354.80560303
 43
136.40000343
 44
189.79999542
 45
296.47161493
 46
0.00088987
 79
     2
 49
32.74600029
 49
-3241.90002441
 53
350.53768921
 43
168.99999619
 44
186.80000305
 45
296.47186526
 46
0.00038989
 79
     2
 49
18.0340004
 49
-1785.33798218
 53
341.56509399
 43
186.80000305
 44
183.79999161
 45
296.47174563
 46
-0.00040573
 79
     2
 49
9.376000169999999
 49
-928.1539917000001
 53
315.0
 43
195.59999466
 44
180.79999924
 45
296.47290887
 46
-0.0000000000000711
 79
     2
 49
4.192000029999999
 49
-415.08201599
 53
270.0
 43
198.6000061
 44
177.80000687
 45
296.47199631
 46
-0.0000000000000545
 79
     2
 49
8.89400005
 49
-287.57799149
 53
225.0
 43
198.6000061
 44
168.99999619
 45
-0.0000000000000533
 46
-296.47290887
 79
     2
 49
4.192000029999999
 49
-415.08201599
 53
198.43499756
 43
195.59999466
 44
166.00000381
 45
-592.9451390299999
 46
-296.47225602
 79
     2
 49
9.376000169999999
 49
-928.1539917000001
 53
180.0
 43
186.80000305
 44
162.99999237
 45
-0.0000000000000363
 46
-296.47199631
 79
     2
 49
14.8239994
 49
-281.64800644
 53
168.69009399
 43
172.00000763
 44
162.99999237
 45
-296.47346827
 46
-0.00092342
 79
     2
 49
15.11800051
 49
-1496.60202026
 53
180.0
 43
157.20000267
 44
166.00000381
 45
-0.0000000000000363
 46
-296.47199631
 79
     2
 49
17.78800011
 49
-278.68400574
 53
165.96380615
 43
139.3999958
 44
166.00000381
 45
-296.47214391
 46
-0.00122822
 79
     2
 49
12.2239995
 49
-1210.16403198
 53
135.0
 43
127.39999771
 44
168.99999619
 45
-296.47290887
 46
0.0000000000000355
 79
     2
 49
8.385999799999998
 49
-410.8900070199999
 53
153.43499756
 43
216.3999939
 44
183.79999161
 45
-296.4731053999999
 46
0.00064346
 79
     2
 49
6.629999879999999
 49
-656.3040161099999
 53
198.43499756
 43
210.40000916
 44
186.80000305
 45
-592.9451390299999
 46
-296.47225602
 79
     2
 49
9.376000169999999
 49
-928.1539917000001
 53
243.43499756
 43
201.59999847
 44
183.79999161
 45
-0.00064346
 46
-296.4731053999999
 79
     2
 49
6.629999879999999
 49
-656.3040161099999
 53
270.0
 43
198.6000061
 44
177.80000687
 45
296.47199631
 46
-0.0000000000000545
 79
     2
 49
5.92999995
 49
-290.5439949
 53
288.43490601
 43
198.6000061
 44
172.00000763
 45
296.47130856
 46
-592.9456127599999
 79
     2
 49
9.376000169999999
 49
-928.1539917000001
 53
341.56509399
 43
201.59999847
 44
162.99999237
 45
296.47174563
 46
-0.00040573
 79
     2
 49
9.376000169999999
 49
-928.1539917000001
 53
26.56509972
 43
210.40000916
 44
160.0
 45
296.47285424
 46
296.47246092
 79
     2
 49
6.629999879999999
 49
-656.3040161099999
 53
45.0
 43
216.3999939
 44
162.99999237
 45
0.0000000000000355
 46
296.47290887
 79
     2
 49
8.385999799999998
 49
-410.8900070199999
 53
90.0
 43
222.39999771
 44
168.99999619
 45
-296.47199631
 46
0.0000000000000182
 79
     2
 49
5.92999995
 49
-290.5439949
 53
123.69010162
 43
222.39999771
 44
175.0
 45
-296.47245153
 46
296.47320692
 79
     2
 49
10.69000006
 49
-1058.25798035
 53
180.0
 43
80.0
 44
160.0
 45
-0.0000000000000363
 46
-296.47199631
 79
     2
 49
2.96400011
 49
-293.50799561
 53
135.0
 43
76.99999809000001
 44
160.0
 45
-296.47290887
 46
0.0000000000000355
 79
     2
 49
8.385999799999998
 49
-410.8900070199999
 53
116.56500244
 43
71.19999885999999
 44
166.00000381
 45
-296.47195758
 46
296.47335758
 79
     2
 49
6.629999879999999
 49
-656.3040161099999
 53
71.56500244
 43
68.20000172
 44
172.00000763
 45
0.00087946
 46
296.47174563
 79
     2
 49
9.376000169999999
 49
-928.1539917000001
 53
56.30989838
 43
71.19999885999999
 44
180.79999924
 45
296.47375474
 46
592.9449556599999
 79
     2
 49
10.69000006
 49
-1058.25798035
 53
11.30990028
 43
76.99999809000001
 44
189.79999542
 45
1185.89014473
 46
296.47280949
 79
     2
 49
15.11800051
 49
-1496.60202026
 53
333.43490601
 43
91.99999809000001
 44
192.80000687
 45
296.4731053999999
 46
-0.0011172
 79
     2
 49
13.25799942
 49
-649.67399597
 53
0.0
 43
103.80000114
 44
186.80000305
 45
0.0
 46
296.47199631
 79
     2
 49
8.89400005
 49
-287.57799149
 53
326.30990601
 43
112.60000229
 44
186.80000305
 45
592.9449951399999
 46
-296.47367579
 79
     2
 49
10.69000006
 49
-1058.25798035
 53
270.0
 43
121.59999847
 44
180.79999924
 45
296.47199631
 46
-0.0000000000000545
 79
     2
 49
5.92999995
 49
-290.5439949
 53
225.0
 43
121.59999847
 44
175.0
 45
-0.0000000000000533
 46
-296.47290887
 79
     2
 49
8.385999799999998
 49
-410.8900070199999
 53
18.43490028
 43
62.19999789999999
 44
177.80000687
 45
592.9456423699999
 46
296.47124934
 79
     2
 49
9.376000169999999
 49
-928.1539917000001
 53
90.0
 43
71.19999885999999
 44
180.79999924
 45
-296.47199631
 46
0.0000000000000182
 79
     2
 49
2.96400011
 49
-293.50799561
 53
116.56500244
 43
71.19999885999999
 44
183.79999161
 45
-296.47195758
 46
296.47335758
 79
     2
 49
6.629999879999999
 49
-656.3040161099999
 53
180.0
 43
68.20000172
 44
189.79999542
 45
-0.0000000000000363
 46
-296.47199631
 79
     2
 49
11.85799956
 49
-284.61399078
 53
191.30990601
 43
56.39999866
 44
189.79999542
 45
-1185.89011512
 46
-296.47292792
 79
     2
 49
15.11800051
 49
-1496.60202026
 53
225.0
 43
41.59999847
 44
186.80000305
 45
-0.0000000000000533
 46
-296.47290887
 79
     2
 49
4.192000029999999
 49
-415.08201599
 53
270.0
 43
38.59999895
 44
183.79999161
 45
296.47199631
 46
-0.0000000000000545
 79
     2
 49
2.96400011
 49
-293.50799561
 53
315.0
 43
38.59999895
 44
180.79999924
 45
296.47290887
 46
-0.0000000000000711
 79
     2
 49
4.192000029999999
 49
-415.08201599
 53
281.30990601
 43
68.20000172
 44
172.00000763
 45
296.47292792
 46
-1185.89011512
 79
     2
 49
15.11800051
 49
-1496.60202026
 53
270.0
 43
71.19999885999999
 44
157.20000267
 45
296.47199631
 46
-0.0000000000000545
 79
     2
 49
8.89400005
 49
-287.57799149
 53
236.30990601
 43
71.19999885999999
 44
148.19999695
 45
-296.47367579
 46
-592.9449951399999
 79
     2
 49
10.69000006
 49
-1058.25798035
 53
180.0
 43
65.19999980999999
 44
139.3999958
 45
-0.0000000000000363
 46
-296.47199631
 79
     2
 49
11.85799956
 49
-284.61399078
 53
180.0
 43
53.40000153
 44
139.3999958
 45
-0.0000000000000363
 46
-296.47199631
 79
     2
 49
14.8239994
 49
-281.64800644
 53
153.43499756
 43
38.59999895
 44
139.3999958
 45
-296.4731053999999
 46
0.00064346
 79
     2
 49
6.629999879999999
 49
-656.3040161099999
 53
108.43499756
 43
32.5999999
 44
142.39999771
 45
-296.47225602
 46
592.9451390299999
 79
     2
 49
9.376000169999999
 49
-928.1539917000001
 53
90.0
 43
29.60000038
 44
151.19999886
 45
-296.47199631
 46
0.0000000000000182
 79
     2
 49
8.89400005
 49
-287.57799149
 53
71.56500244
 43
29.60000038
 44
160.0
 45
0.00087946
 46
296.47174563
 79
     2
 49
9.376000169999999
 49
-928.1539917000001
 53
45.0
 43
32.5999999
 44
168.99999619
 45
0.0000000000000355
 46
296.47290887
 79
     2
 49
12.57799983
 49
-406.69799805
 53
0.0
 43
41.59999847
 44
177.80000687
 45
0.0
 46
296.47199631
 79
     2
 49
20.75400114
 49
-275.72000504
 53
315.0
 43
62.19999789999999
 44
177.80000687
 45
296.47290887
 46
-0.0000000000000711
 79
     2
 49
8.385999799999998
 49
-410.8900070199999
 53
26.56509972
 43
112.60000229
 44
17.79999971
 45
296.47285424
 46
296.47246092
 79
     2
 49
6.629999879999999
 49
-656.3040161099999
 53
45.0
 43
118.59999657
 44
20.79999924
 45
0.0000000000000355
 46
296.47290887
 79
     2
 49
4.192000029999999
 49
-415.08201599
 53
90.0
 43
121.59999847
 44
23.80000114
 45
-296.47199631
 46
0.0000000000000182
 79
     2
 49
5.92999995
 49
-290.5439949
 53
116.56500244
 43
121.59999847
 44
29.60000038
 45
-296.47195758
 46
296.47335758
 79
     2
 49
6.629999879999999
 49
-656.3040161099999
 53
161.56500244
 43
118.59999657
 44
35.59999943
 45
-296.47174563
 46
0.00087946
 79
     2
 49
9.376000169999999
 49
-928.1539917000001
 53
161.56500244
 43
109.60000038
 44
38.59999895
 45
-296.47174563
 46
0.00087946
 79
     2
 49
9.376000169999999
 49
-928.1539917000001
 53
180.0
 43
100.79999924
 44
41.59999847
 45
-0.0000000000000363
 46
-296.47199631
 79
     2
 49
11.85799956
 49
-284.61399078
 53
194.03619385
 43
88.99999619
 44
41.59999847
 45
-889.4167208699998
 46
-296.4723532
 79
     2
 49
12.2239995
 49
-1210.16403198
 53
236.30990601
 43
76.99999809000001
 44
38.59999895
 45
-296.47367579
 46
-592.9449951399999
 79
     2
 49
10.69000006
 49
-1058.25798035
 53
251.56500244
 43
71.19999885999999
 44
29.60000038
 45
-0.00087946
 46
-296.47174563
 79
     2
 49
9.376000169999999
 49
-928.1539917000001
 53
288.43490601
 43
68.20000172
 44
20.79999924
 45
296.47130856
 46
-592.9456127599999
 79
     2
 49
9.376000169999999
 49
-928.1539917000001
 53
333.43490601
 43
71.19999885999999
 44
11.79999948
 45
296.4731053999999
 46
-0.0011172
 79
     2
 49
6.629999879999999
 49
-656.3040161099999
 53
11.30990028
 43
76.99999809000001
 44
8.79999995
 45
1185.89014473
 46
296.47280949
 79
     2
 49
15.11800051
 49
-1496.60202026
 53
191.30990601
 43
145.20000458
 44
275.79999924
 45
-1185.89011512
 46
-296.47292792
 79
     2
 49
15.11800051
 49
-1496.60202026
 53
161.56500244
 43
130.39999962
 44
272.80000687
 45
-296.47174563
 46
0.00087946
 79
     2
 49
9.376000169999999
 49
-928.1539917000001
 53
146.30990601
 43
121.59999847
 44
275.79999924
 45
-592.9449951399999
 46
296.47367579
 79
     2
 49
10.69000006
 49
-1058.25798035
 53
161.56500244
 43
112.60000229
 44
281.59999847
 45
-296.47174563
 46
0.00087946
 79
     2
 49
9.376000169999999
 49
-928.1539917000001
 53
171.86990356
 43
103.80000114
 44
284.5999908399999
 45
-296.4717645
 46
-0.00059775
 79
     2
 49
20.96400023
 49
-2075.41397095
 53
161.56500244
 43
83.00000191
 44
287.60000229
 45
-296.47174563
 46
0.00087946
 79
     2
 49
9.376000169999999
 49
-928.1539917000001
 53
116.56500244
 43
74.20000075999999
 44
290.59999466
 45
-296.47195758
 46
296.47335758
 79
     2
 49
6.629999879999999
 49
-656.3040161099999
 53
63.43489838
 43
71.19999885999999
 44
0.0
 45
0.00115667
 46
296.4731053999999
 79
     2
 49
6.629999879999999
 49
-656.3040161099999
 53
26.56509972
 43
74.20000075999999
 44
6.00000024
 45
296.47285424
 46
296.47246092
 79
     2
 49
6.629999879999999
 49
-656.3040161099999
 53
14.03619957
 43
80.0
 44
8.79999995
 45
889.4166912599999
 46
296.47244202
 79
     2
 49
12.2239995
 49
-1210.16403198
 53
18.43490028
 43
91.99999809000001
 44
11.79999948
 45
592.9456423699999
 46
296.47124934
 79
     2
 49
9.376000169999999
 49
-928.1539917000001
 53
14.03619957
 43
100.79999924
 44
14.80000019
 45
889.4166912599999
 46
296.47244202
 79
     2
 49
12.2239995
 49
-1210.16403198
 53
0.0
 43
112.60000229
 44
17.79999971
 45
0.0
 46
296.47199631
 79
     2
 49
8.89400005
 49
-287.57799149
 53
345.9637146
 43
121.59999847
 44
17.79999971
 45
296.47214391
 46
0.00075448
 79
     2
 49
12.2239995
 49
-1210.16403198
 53
333.43490601
 43
133.40000153
 44
14.80000019
 45
296.4731053999999
 46
-0.0011172
 79
     2
 49
13.25799942
 49
-649.67399597
 53
315.0
 43
145.20000458
 44
8.79999995
 45
296.47290887
 46
-0.0000000000000711
 79
     2
 49
12.57799983
 49
-406.69799805
 53
270.0
 43
154.20000076
 44
296.3999939
 45
296.47199631
 46
-0.0000000000000545
 79
     2
 49
5.92999995
 49
-290.5439949
 53
255.96380615
 43
154.20000076
 44
290.59999466
 45
0.00122822
 46
-296.47214391
 79
     2
 49
12.2239995
 49
-1210.16403198
 53
206.56500244
 43
151.19999886
 44
278.6000061
 45
-296.47335758
 46
-296.47195758
 79
     2
 49
6.629999879999999
 49
-656.3040161099999
 53
0.0
 43
8.79999995
 44
124.60000038
 45
0.0
 46
296.47199631
 79
     2
 49
11.85799956
 49
-284.61399078
 53
341.56509399
 43
20.79999924
 44
124.60000038
 45
296.47174563
 46
-0.00040573
 79
     2
 49
9.376000169999999
 49
-928.1539917000001
 53
315.0
 43
29.60000038
 44
121.59999847
 45
296.47290887
 46
-0.0000000000000711
 79
     2
 49
8.385999799999998
 49
-410.8900070199999
 53
270.0
 43
35.59999943
 44
115.6000042
 45
296.47199631
 46
-0.0000000000000545
 79
     2
 49
5.92999995
 49
-290.5439949
 53
258.69009399
 43
35.59999943
 44
109.60000038
 45
0.00092342
 46
-296.47346827
 79
     2
 49
15.11800051
 49
-1496.60202026
 53
236.30990601
 43
32.5999999
 44
94.79999541999999
 45
-296.47367579
 46
-592.9449951399999
 79
     2
 49
10.69000006
 49
-1058.25798035
 53
225.0
 43
26.60000086
 44
86.00000380999999
 45
-0.0000000000000533
 46
-296.47290887
 79
     2
 49
12.57799983
 49
-406.69799805
 53
225.0
 43
17.79999971
 44
76.99999809000001
 45
-0.0000000000000533
 46
-296.47290887
 79
     2
 49
12.57799983
 49
-406.69799805
 53
180.0
 43
296.3999939
 44
62.19999789999999
 45
-0.0000000000000363
 46
-296.47199631
 79
     2
 49
2.96400011
 49
-293.50799561
 53
213.69009399
 43
8.79999995
 44
68.20000172
 45
-296.4732464
 46
-296.47241205
 79
     2
 49
10.69000006
 49
-1058.25798035
 53
180.0
 43
293.6000061000001
 44
62.19999789999999
 45
-0.0000000000000363
 46
-296.47199631
 79
     2
 49
5.92999995
 49
-290.5439949
 53
153.43499756
 43
287.60000229
 44
62.19999789999999
 45
-296.4731053999999
 46
0.00064346
 79
     2
 49
6.629999879999999
 49
-656.3040161099999
 53
101.30989838
 43
281.59999847
 44
65.19999980999999
 45
-296.47277001
 46
1185.8901546
 79
     2
 49
15.11800051
 49
-1496.60202026
 53
90.0
 43
278.6000061
 44
80.0
 45
-296.47199631
 46
0.0000000000000182
 79
     2
 49
11.85799956
 49
-284.61399078
 53
75.96379852
 43
278.6000061
 44
91.99999809000001
 45
-0.00118874
 46
296.47214391
 79
     2
 49
12.2239995
 49
-1210.16403198
 53
71.56500244
 43
281.59999847
 44
103.80000114
 45
0.00087946
 46
296.47174563
 79
     2
 49
9.376000169999999
 49
-928.1539917000001
 53
36.86989975
 43
284.5999908399999
 44
112.60000229
 45
296.47318037
 46
296.47240392
 79
     2
 49
14.8239994
 49
-1467.53997803
 53
18.43490028
 43
0.0
 44
121.59999847
 45
592.9456423699999
 46
296.47124934
 79
     2
 49
9.376000169999999
 49
-928.1539917000001
 53
213.69009399
 43
275.79999924
 44
50.39999962
 45
-296.4732464
 46
-296.47241205
 79
     2
 49
10.69000006
 49
-1058.25798035
 53
206.56500244
 43
266.80000305
 44
44.40000057
 45
-296.47335758
 46
-296.47195758
 79
     2
 49
6.629999879999999
 49
-656.3040161099999
 53
225.0
 43
260.79999924
 44
41.59999847
 45
-0.0000000000000533
 46
-296.47290887
 79
     2
 49
8.385999799999998
 49
-410.8900070199999
 53
206.56500244
 43
255.0
 44
35.59999943
 45
-296.47335758
 46
-296.47195758
 79
     2
 49
6.629999879999999
 49
-656.3040161099999
 53
180.0
 43
248.99999619
 44
32.5999999
 45
-0.0000000000000363
 46
-296.47199631
 79
     2
 49
5.92999995
 49
-290.5439949
 53
180.0
 43
243.19999695
 44
32.5999999
 45
-0.0000000000000363
 46
-296.47199631
 79
     2
 49
14.8239994
 49
-281.64800644
 53
146.30990601
 43
228.19999695
 44
32.5999999
 45
-592.9449951399999
 46
296.47367579
 79
     2
 49
10.69000006
 49
-1058.25798035
 53
116.56500244
 43
219.40000534
 44
38.59999895
 45
-296.47195758
 46
296.47335758
 79
     2
 49
6.629999879999999
 49
-656.3040161099999
 53
108.43499756
 43
216.3999939
 44
44.40000057
 45
-296.47225602
 46
592.9451390299999
 79
     2
 49
9.376000169999999
 49
-928.1539917000001
 53
90.0
 43
213.40000153
 44
53.40000153
 45
-296.47199631
 46
0.0000000000000182
 79
     2
 49
8.89400005
 49
-287.57799149
 53
63.43489838
 43
213.40000153
 44
62.19999789999999
 45
0.00115667
 46
296.4731053999999
 79
     2
 49
6.629999879999999
 49
-656.3040161099999
 53
26.56509972
 43
216.3999939
 44
68.20000172
 45
296.47285424
 46
296.47246092
 79
     2
 49
6.629999879999999
 49
-656.3040161099999
 53
0.0
 43
222.39999771
 44
71.19999885999999
 45
0.0
 46
296.47199631
 79
     2
 49
26.68200016
 49
-269.79000092
 53
352.875
 43
248.99999619
 44
71.19999885999999
 45
296.47327836
 46
-0.00090666
 79
     2
 49
23.901999
 49
-2366.33605957
 53
341.56509399
 43
272.80000687
 44
68.20000172
 45
296.47174563
 46
-0.00040573
 79
     2
 49
9.376000169999999
 49
-928.1539917000001
 53
270.0
 43
281.59999847
 44
65.19999980999999
 45
296.47199631
 46
-0.0000000000000545
 79
     2
 49
5.92999995
 49
-290.5439949
 53
243.43499756
 43
281.59999847
 44
59.20000076
 45
-0.00064346
 46
-296.4731053999999
 79
     2
 49
6.629999879999999
 49
-656.3040161099999
 53
225.0
 43
278.6000061
 44
53.40000153
 45
-0.0000000000000533
 46
-296.47290887
 79
     2
 49
4.192000029999999
 49
-415.08201599
 53
194.03619385
 43
142.39999771
 44
130.39999962
 45
-889.4167208699998
 46
-296.4723532
 79
     2
 49
12.2239995
 49
-1210.16403198
 53
180.0
 43
130.39999962
 44
127.39999771
 45
-0.0000000000000363
 46
-296.47199631
 79
     2
 49
5.92999995
 49
-290.5439949
 53
146.30990601
 43
124.60000038
 44
127.39999771
 45
-592.9449951399999
 46
296.47367579
 79
     2
 49
10.69000006
 49
-1058.25798035
 53
146.30990601
 43
115.6000042
 44
133.40000153
 45
-592.9449951399999
 46
296.47367579
 79
     2
 49
10.69000006
 49
-1058.25798035
 53
161.56500244
 43
106.80000305
 44
139.3999958
 45
-296.47174563
 46
0.00087946
 79
     2
 49
9.376000169999999
 49
-928.1539917000001
 53
180.0
 43
97.79999733
 44
142.39999771
 45
-0.0000000000000363
 46
-296.47199631
 79
     2
 49
11.85799956
 49
-284.61399078
 53
161.56500244
 43
86.00000380999999
 44
142.39999771
 45
-296.47174563
 46
0.00087946
 79
     2
 49
9.376000169999999
 49
-928.1539917000001
 53
135.0
 43
76.99999809000001
 44
145.20000458
 45
-296.47290887
 46
0.0000000000000355
 79
     2
 49
4.192000029999999
 49
-415.08201599
 53
90.0
 43
74.20000075999999
 44
148.19999695
 45
-296.47199631
 46
0.0000000000000182
 79
     2
 49
5.92999995
 49
-290.5439949
 53
45.0
 43
74.20000075999999
 44
154.20000076
 45
0.0000000000000355
 46
296.47290887
 79
     2
 49
8.385999799999998
 49
-410.8900070199999
 53
18.43490028
 43
80.0
 44
160.0
 45
592.9456423699999
 46
296.47124934
 79
     2
 49
9.376000169999999
 49
-928.1539917000001
 53
21.80139923
 43
88.99999619
 44
162.99999237
 45
592.9442207000001
 46
296.47253553
 79
     2
 49
15.96600056
 49
-1580.58807373
 53
0.0
 43
103.80000114
 44
168.99999619
 45
0.0
 46
296.47199631
 79
     2
 49
14.8239994
 49
-281.64800644
 53
348.69009399
 43
118.59999657
 44
168.99999619
 45
296.47346827
 46
0.00092342
 79
     2
 49
15.11800051
 49
-1496.60202026
 53
333.43490601
 43
133.40000153
 44
166.00000381
 45
296.4731053999999
 46
-0.0011172
 79
     2
 49
13.25799942
 49
-649.67399597
 53
315.0
 43
145.20000458
 44
160.0
 45
296.47290887
 46
-0.0000000000000711
 79
     2
 49
8.385999799999998
 49
-410.8900070199999
 53
296.56509399
 43
151.19999886
 44
154.20000076
 45
296.47243131
 46
-296.47288385
 79
     2
 49
6.629999879999999
 49
-656.3040161099999
 53
270.0
 43
154.20000076
 44
148.19999695
 45
296.47199631
 46
-0.0000000000000545
 79
     2
 49
8.89400005
 49
-287.57799149
 53
225.0
 43
154.20000076
 44
139.3999958
 45
-0.0000000000000533
 46
-296.47290887
 79
     2
 49
8.385999799999998
 49
-410.8900070199999
 53
206.56500244
 43
148.19999695
 44
133.40000153
 45
-296.47335758
 46
-296.47195758
 79
     2
 49
6.629999879999999
 49
-656.3040161099999
 53
194.03619385
 43
53.40000153
 44
44.40000057
 45
-889.4167208699998
 46
-296.4723532
 79
     2
 49
12.2239995
 49
-1210.16403198
 53
180.0
 43
41.59999847
 44
41.59999847
 45
-0.0000000000000363
 46
-296.47199631
 79
     2
 49
5.92999995
 49
-290.5439949
 53
153.43499756
 43
35.59999943
 44
41.59999847
 45
-296.4731053999999
 46
0.00064346
 79
     2
 49
6.629999879999999
 49
-656.3040161099999
 53
135.0
 43
29.60000038
 44
44.40000057
 45
-296.47290887
 46
0.0000000000000355
 79
     2
 49
8.385999799999998
 49
-410.8900070199999
 53
135.0
 43
23.80000114
 44
50.39999962
 45
-296.47290887
 46
0.0000000000000355
 79
     2
 49
8.385999799999998
 49
-410.8900070199999
 53
116.56500244
 43
17.79999971
 44
56.39999866
 45
-296.47195758
 46
296.47335758
 79
     2
 49
6.629999879999999
 49
-656.3040161099999
 53
90.0
 43
14.80000019
 44
62.19999789999999
 45
-296.47199631
 46
0.0000000000000182
 79
     2
 49
5.92999995
 49
-290.5439949
 53
71.56500244
 43
14.80000019
 44
68.20000172
 45
0.00087946
 46
296.47174563
 79
     2
 49
9.376000169999999
 49
-928.1539917000001
 53
45.0
 43
17.79999971
 44
76.99999809000001
 45
0.0000000000000355
 46
296.47290887
 79
     2
 49
12.57799983
 49
-406.69799805
 53
33.69010162
 43
26.60000086
 44
86.00000380999999
 45
296.47320692
 46
296.47245153
 79
     2
 49
10.69000006
 49
-1058.25798035
 53
14.03619957
 43
35.59999943
 44
91.99999809000001
 45
889.4166912599999
 46
296.47244202
 79
     2
 49
12.2239995
 49
-1210.16403198
 53
341.56509399
 43
47.39999770999999
 44
94.79999541999999
 45
296.47174563
 46
-0.00040573
 79
     2
 49
9.376000169999999
 49
-928.1539917000001
 53
333.43490601
 43
56.39999866
 44
91.99999809000001
 45
296.4731053999999
 46
-0.0011172
 79
     2
 49
6.629999879999999
 49
-656.3040161099999
 53
315.0
 43
62.19999789999999
 44
88.99999619
 45
296.47290887
 46
-0.0000000000000711
 79
     2
 49
8.385999799999998
 49
-410.8900070199999
 53
288.43490601
 43
68.20000172
 44
83.00000191
 45
296.47130856
 46
-592.9456127599999
 79
     2
 49
9.376000169999999
 49
-928.1539917000001
 53
288.43490601
 43
71.19999885999999
 44
74.20000075999999
 45
296.47130856
 46
-592.9456127599999
 79
     2
 49
9.376000169999999
 49
-928.1539917000001
 53
71.56500244
 43
71.19999885999999
 44
56.39999866
 45
0.00087946
 46
296.47174563
 79
     2
 49
9.376000169999999
 49
-928.1539917000001
 53
225.0
 43
76.99999809000001
 44
62.19999789999999
 45
-0.0000000000000533
 46
-296.47290887
 79
     2
 49
8.385999799999998
 49
-410.8900070199999
 53
213.69009399
 43
71.19999885999999
 44
56.39999866
 45
-296.4732464
 46
-296.47241205
 79
     2
 49
10.69000006
 49
-1058.25798035
 53
213.69009399
 43
62.19999789999999
 44
50.39999962
 45
-296.4732464
 46
-296.47241205
 79
     2
 49
10.69000006
 49
-1058.25798035
 53
206.56500244
 43
263.79999161
 44
127.39999771
 45
-296.47335758
 46
-296.47195758
 79
     2
 49
6.629999879999999
 49
-656.3040161099999
 53
201.80140686
 43
257.99999237
 44
124.60000038
 45
-592.94418122
 46
-296.47261448
 79
     2
 49
15.96600056
 49
-1580.58807373
 53
225.0
 43
243.19999695
 44
118.59999657
 45
-0.0000000000000533
 46
-296.47290887
 79
     2
 49
4.192000029999999
 49
-415.08201599
 53
243.43499756
 43
240.20000458
 44
115.6000042
 45
-0.00064346
 46
-296.4731053999999
 79
     2
 49
6.629999879999999
 49
-656.3040161099999
 53
225.0
 43
237.19999313
 44
109.60000038
 45
-0.0000000000000533
 46
-296.47290887
 79
     2
 49
4.192000029999999
 49
-415.08201599
 53
206.56500244
 43
234.20000076
 44
106.80000305
 45
-296.47335758
 46
-296.47195758
 79
     2
 49
6.629999879999999
 49
-656.3040161099999
 53
198.43499756
 43
228.19999695
 44
103.80000114
 45
-592.9451390299999
 46
-296.47225602
 79
     2
 49
9.376000169999999
 49
-928.1539917000001
 53
180.0
 43
219.40000534
 44
100.79999924
 45
-0.0000000000000363
 46
-296.47199631
 79
     2
 49
5.92999995
 49
-290.5439949
 53
153.43499756
 43
213.40000153
 44
100.79999924
 45
-296.4731053999999
 46
0.00064346
 79
     2
 49
13.25799942
 49
-649.67399597
 53
153.43499756
 43
201.59999847
 44
106.80000305
 45
-296.4731053999999
 46
0.00064346
 79
     2
 49
13.25799942
 49
-649.67399597
 53
135.0
 43
189.79999542
 44
112.60000229
 45
-296.47290887
 46
0.0000000000000355
 79
     2
 49
8.385999799999998
 49
-410.8900070199999
 53
116.56500244
 43
183.79999161
 44
118.59999657
 45
-296.47195758
 46
296.47335758
 79
     2
 49
6.629999879999999
 49
-656.3040161099999
 53
90.0
 43
180.79999924
 44
124.60000038
 45
-296.47199631
 46
0.0000000000000182
 79
     2
 49
5.92999995
 49
-290.5439949
 53
63.43489838
 43
180.79999924
 44
130.39999962
 45
0.00115667
 46
296.4731053999999
 79
     2
 49
6.629999879999999
 49
-656.3040161099999
 53
26.56509972
 43
183.79999161
 44
136.40000343
 45
296.47285424
 46
296.47246092
 79
     2
 49
13.25799942
 49
-649.67399597
 53
33.69010162
 43
195.59999466
 44
142.39999771
 45
296.47320692
 46
296.47245153
 79
     2
 49
10.69000006
 49
-1058.25798035
 53
45.0
 43
204.59999084
 44
148.19999695
 45
0.0000000000000355
 46
296.47290887
 79
     2
 49
8.385999799999998
 49
-410.8900070199999
 53
56.30989838
 43
210.40000916
 44
154.20000076
 45
296.47375474
 46
592.9449556599999
 79
     2
 49
10.69000006
 49
-1058.25798035
 53
18.43490028
 43
216.3999939
 44
162.99999237
 45
592.9456423699999
 46
296.47124934
 79
     2
 49
9.376000169999999
 49
-928.1539917000001
 53
0.0
 43
225.40000916
 44
166.00000381
 45
0.0
 46
296.47199631
 79
     2
 49
11.85799956
 49
-284.61399078
 53
338.1986084
 43
237.19999313
 44
166.00000381
 45
889.41728701
 46
-296.47162555
 79
     2
 49
15.96600056
 49
-1580.58807373
 53
315.0
 43
252.00000763
 44
160.0
 45
296.47290887
 46
-0.0000000000000711
 79
     2
 49
8.385999799999998
 49
-410.8900070199999
 53
315.0
 43
257.99999237
 44
154.20000076
 45
296.47290887
 46
-0.0000000000000711
 79
     2
 49
8.385999799999998
 49
-410.8900070199999
 53
296.56509399
 43
263.79999161
 44
148.19999695
 45
296.47243131
 46
-296.47288385
 79
     2
 49
6.629999879999999
 49
-656.3040161099999
 53
270.0
 43
266.80000305
 44
142.39999771
 45
296.47199631
 46
-0.0000000000000545
 79
     2
 49
8.89400005
 49
-287.57799149
 53
243.43499756
 43
266.80000305
 44
133.40000153
 45
-0.00064346
 46
-296.4731053999999
 79
     2
 49
6.629999879999999
 49
-656.3040161099999
 53
180.0
 43
133.40000153
 44
35.59999943
 45
-0.0000000000000363
 46
-296.47199631
 79
     2
 49
8.89400005
 49
-287.57799149
 53
168.69009399
 43
124.60000038
 44
35.59999943
 45
-296.47346827
 46
-0.00092342
 79
     2
 49
15.11800051
 49
-1496.60202026
 53
146.30990601
 43
109.60000038
 44
38.59999895
 45
-592.9449951399999
 46
296.47367579
 79
     2
 49
10.69000006
 49
-1058.25798035
 53
108.43499756
 43
100.79999924
 44
44.40000057
 45
-296.47225602
 46
592.9451390299999
 79
     2
 49
9.376000169999999
 49
-928.1539917000001
 53
108.43499756
 43
97.79999733
 44
53.40000153
 45
-296.47225602
 46
592.9451390299999
 79
     2
 49
9.376000169999999
 49
-928.1539917000001
 53
75.96379852
 43
94.79999541999999
 44
62.19999789999999
 45
-0.00118874
 46
296.47214391
 79
     2
 49
12.2239995
 49
-1210.16403198
 53
51.34019852
 43
97.79999733
 44
74.20000075999999
 45
889.4172523599999
 46
1185.89120889
 79
     2
 49
18.98399949
 49
-1879.36599731
 53
29.74489975
 43
109.60000038
 44
88.99999619
 45
1482.36285273
 46
889.4173209799999
 79
     2
 49
23.901999
 49
-2366.33605957
 53
6.340199949999999
 43
130.39999962
 44
100.79999924
 45
2371.78050757
 46
296.47298984
 79
     2
 49
26.84600115
 49
-2657.82592773
 53
348.69009399
 43
157.20000267
 44
103.80000114
 45
296.47346827
 46
0.00092342
 79
     2
 49
15.11800051
 49
-1496.60202026
 53
315.0
 43
172.00000763
 44
100.79999924
 45
296.47290887
 46
-0.0000000000000711
 79
     2
 49
12.57799983
 49
-406.69799805
 53
288.43490601
 43
180.79999924
 44
91.99999809000001
 45
296.47130856
 46
-592.9456127599999
 79
     2
 49
9.376000169999999
 49
-928.1539917000001
 53
270.0
 43
183.79999161
 44
83.00000191
 45
296.47199631
 46
-0.0000000000000545
 79
     2
 49
17.78800011
 49
-278.68400574
 53
251.56500244
 43
183.79999161
 44
65.19999980999999
 45
-0.00087946
 46
-296.47174563
 79
     2
 49
18.75
 49
-918.7779998799999
 53
206.56500244
 43
177.80000687
 44
47.39999770999999
 45
-296.47335758
 46
-296.47195758
 79
     2
 49
13.25799942
 49
-649.67399597
 53
191.30990601
 43
166.00000381
 44
41.59999847
 45
-1185.89011512
 46
-296.47292792
 79
     2
 49
15.11800051
 49
-1496.60202026
 53
189.46229553
 43
151.19999886
 44
38.59999895
 45
-1482.36343879
 46
-296.47216832
 79
     2
 49
18.0340004
 49
-1785.33798218
 53
341.56509399
 43
17.79999971
 44
252.00000763
 45
296.47174563
 46
-0.00040573
 79
     2
 49
9.376000169999999
 49
-928.1539917000001
 53
315.0
 43
26.60000086
 44
248.99999619
 45
296.47290887
 46
-0.0000000000000711
 79
     2
 49
8.385999799999998
 49
-410.8900070199999
 53
270.0
 43
32.5999999
 44
243.19999695
 45
296.47199631
 46
-0.0000000000000545
 79
     2
 49
5.92999995
 49
-290.5439949
 53
251.56500244
 43
32.5999999
 44
237.19999313
 45
-0.00087946
 46
-296.47174563
 79
     2
 49
9.376000169999999
 49
-928.1539917000001
 53
225.0
 43
29.60000038
 44
228.19999695
 45
-0.0000000000000533
 46
-296.47290887
 79
     2
 49
4.192000029999999
 49
-415.08201599
 53
180.0
 43
26.60000086
 44
225.40000916
 45
-0.0000000000000363
 46
-296.47199631
 79
     2
 49
5.92999995
 49
-290.5439949
 53
135.0
 43
20.79999924
 44
225.40000916
 45
-296.47290887
 46
0.0000000000000355
 79
     2
 49
8.385999799999998
 49
-410.8900070199999
 53
56.30989838
 43
11.79999948
 44
243.19999695
 45
296.47375474
 46
592.9449556599999
 79
     2
 49
10.69000006
 49
-1058.25798035
 53
0.0
 43
56.39999866
 44
252.00000763
 45
0.0
 46
296.47199631
 79
     2
 49
11.85799956
 49
-284.61399078
 53
9.4623003
 43
68.20000172
 44
252.00000763
 45
1482.36341412
 46
296.47229169
 79
     2
 49
18.0340004
 49
-1785.33798218
 53
0.0
 43
86.00000380999999
 44
255.0
 45
0.0
 46
296.47199631
 79
     2
 49
11.85799956
 49
-284.61399078
 53
326.30990601
 43
97.79999733
 44
255.0
 45
592.9449951399999
 46
-296.47367579
 79
     2
 49
10.69000006
 49
-1058.25798035
 53
300.9637146
 43
106.80000305
 44
248.99999619
 45
592.9444088999999
 46
-889.41922419
 79
     2
 49
17.28800058
 49
-1711.43005371
 53
270.0
 43
115.6000042
 44
234.20000076
 45
296.47199631
 46
-0.0000000000000545
 79
     2
 49
11.85799956
 49
-284.61399078
 53
236.30990601
 43
115.6000042
 44
222.39999771
 45
-296.47367579
 46
-592.9449951399999
 79
     2
 49
10.69000006
 49
-1058.25798035
 53
251.56500244
 43
109.60000038
 44
213.40000153
 45
-0.00087946
 46
-296.47174563
 79
     2
 49
9.376000169999999
 49
-928.1539917000001
 53
213.69009399
 43
106.80000305
 44
204.59999084
 45
-296.4732464
 46
-296.47241205
 79
     2
 49
10.69000006
 49
-1058.25798035
 53
198.43499756
 43
97.79999733
 44
198.6000061
 45
-592.9451390299999
 46
-296.47225602
 79
     2
 49
9.376000169999999
 49
-928.1539917000001
 53
191.30990601
 43
88.99999619
 44
195.59999466
 45
-1185.89011512
 46
-296.47292792
 79
     2
 49
15.11800051
 49
-1496.60202026
 53
180.0
 43
74.20000075999999
 44
192.80000687
 45
-0.0000000000000363
 46
-296.47199631
 79
     2
 49
14.8239994
 49
-281.64800644
 53
135.0
 43
59.20000076
 44
192.80000687
 45
-296.47290887
 46
0.0000000000000355
 79
     2
 49
8.385999799999998
 49
-410.8900070199999
 53
146.30990601
 43
53.40000153
 44
198.6000061
 45
-592.9449951399999
 46
296.47367579
 79
     2
 49
10.69000006
 49
-1058.25798035
 53
161.56500244
 43
44.40000057
 44
204.59999084
 45
-296.47174563
 46
0.00087946
 79
     2
 49
9.376000169999999
 49
-928.1539917000001
 53
123.69010162
 43
35.59999943
 44
207.60000229
 45
-296.47245153
 46
296.47320692
 79
     2
 49
10.69000006
 49
-1058.25798035
 53
90.0
 43
29.60000038
 44
216.3999939
 45
-296.47199631
 46
0.0000000000000182
 79
     2
 49
5.92999995
 49
-290.5439949
 53
78.69010161999999
 43
29.60000038
 44
222.39999771
 45
-0.0009629
 46
296.47346827
 79
     2
 49
15.11800051
 49
-1496.60202026
 53
56.30989838
 43
32.5999999
 44
237.19999313
 45
296.47375474
 46
592.9449556599999
 79
     2
 49
10.69000006
 49
-1058.25798035
 53
45.0
 43
38.59999895
 44
246.00000381
 45
0.0000000000000355
 46
296.47290887
 79
     2
 49
4.192000029999999
 49
-415.08201599
 53
26.56509972
 43
41.59999847
 44
248.99999619
 45
296.47285424
 46
296.47246092
 79
     2
 49
6.629999879999999
 49
-656.3040161099999
 53
0.0
 43
47.39999770999999
 44
252.00000763
 45
0.0
 46
296.47199631
 79
     2
 49
8.89400005
 49
-287.57799149
 53
326.30990601
 43
32.5999999
 44
263.79999161
 45
592.9449951399999
 46
-296.47367579
 79
     2
 49
10.69000006
 49
-1058.25798035
 53
333.43490601
 43
41.59999847
 44
257.99999237
 45
296.4731053999999
 46
-0.0011172
 79
     2
 49
6.629999879999999
 49
-656.3040161099999
 53
270.0
 43
47.39999770999999
 44
255.0
 45
296.47199631
 46
-0.0000000000000545
 79
     2
 49
2.96400011
 49
-293.50799561
 53
206.56500244
 43
47.39999770999999
 44
252.00000763
 45
-296.47335758
 46
-296.47195758
 79
     2
 49
6.629999879999999
 49
-656.3040161099999
 53
180.0
 43
41.59999847
 44
248.99999619
 45
-0.0000000000000363
 46
-296.47199631
 79
     2
 49
11.85799956
 49
-284.61399078
 53
165.96380615
 43
29.60000038
 44
248.99999619
 45
-296.47214391
 46
-0.00122822
 79
     2
 49
12.2239995
 49
-1210.16403198
 53
135.0
 43
17.79999971
 44
252.00000763
 45
-296.47290887
 46
0.0000000000000355
 79
     2
 49
4.192000029999999
 49
-415.08201599
 53
116.56500244
 43
14.80000019
 44
255.0
 45
-296.47195758
 46
296.47335758
 79
     2
 49
6.629999879999999
 49
-656.3040161099999
 53
63.43489838
 43
11.79999948
 44
260.79999924
 45
0.00115667
 46
296.4731053999999
 79
     2
 49
6.629999879999999
 49
-656.3040161099999
 53
26.56509972
 43
14.80000019
 44
266.80000305
 45
296.47285424
 46
296.47246092
 79
     2
 49
6.629999879999999
 49
-656.3040161099999
 53
0.0
 43
20.79999924
 44
269.79999542
 45
0.0
 46
296.47199631
 79
     2
 49
5.92999995
 49
-290.5439949
 53
315.0
 43
26.60000086
 44
269.79999542
 45
296.47290887
 46
-0.0000000000000711
 79
     2
 49
8.385999799999998
 49
-410.8900070199999
 53
236.30990601
 43
97.79999733
 44
272.80000687
 45
-296.47367579
 46
-592.9449951399999
 79
     2
 49
10.69000006
 49
-1058.25798035
 53
225.0
 43
91.99999809000001
 44
263.79999161
 45
-0.0000000000000533
 46
-296.47290887
 79
     2
 49
12.57799983
 49
-406.69799805
 53
191.30990601
 43
83.00000191
 44
255.0
 45
-1185.89011512
 46
-296.47292792
 79
     2
 49
15.11800051
 49
-1496.60202026
 53
180.0
 43
68.20000172
 44
252.00000763
 45
-0.0000000000000363
 46
-296.47199631
 79
     2
 49
11.85799956
 49
-284.61399078
 53
158.19859314
 43
56.39999866
 44
252.00000763
 45
-889.41720806
 46
296.47186242
 79
     2
 49
15.96600056
 49
-1580.58807373
 53
146.30990601
 43
41.59999847
 44
257.99999237
 45
-592.9449951399999
 46
296.47367579
 79
     2
 49
10.69000006
 49
-1058.25798035
 53
116.56500244
 43
32.5999999
 44
263.79999161
 45
-296.47195758
 46
296.47335758
 79
     2
 49
6.629999879999999
 49
-656.3040161099999
 53
90.0
 43
29.60000038
 44
269.79999542
 45
-296.47199631
 46
0.0000000000000182
 79
     2
 49
5.92999995
 49
-290.5439949
 53
45.0
 43
29.60000038
 44
275.79999924
 45
0.0000000000000355
 46
296.47290887
 79
     2
 49
8.385999799999998
 49
-410.8900070199999
 53
0.0
 43
35.59999943
 44
281.59999847
 45
0.0
 46
296.47199631
 79
     2
 49
23.71799946
 49
-272.75400162
 53
15.94540024
 43
59.20000076
 44
281.59999847
 45
889.4178531299999
 46
296.47306062
 79
     2
 49
21.58400059
 49
-2136.77001953
 53
0.0
 43
80.0
 44
287.60000229
 45
0.0
 46
296.47199631
 79
     2
 49
11.85799956
 49
-284.61399078
 53
326.30990601
 43
91.99999809000001
 44
287.60000229
 45
592.9449951399999
 46
-296.47367579
 79
     2
 49
10.69000006
 49
-1058.25798035
 53
251.56500244
 43
100.79999924
 44
281.59999847
 45
-0.00087946
 46
-296.47174563
 79
     2
 49
9.376000169999999
 49
-928.1539917000001
 53
243.43499756
 43
139.3999958
 44
195.59999466
 45
-0.00064346
 46
-296.4731053999999
 79
     2
 49
6.629999879999999
 49
-656.3040161099999
 53
180.0
 43
136.40000343
 44
189.79999542
 45
-0.0000000000000363
 46
-296.47199631
 79
     2
 49
11.85799956
 49
-284.61399078
 53
194.03619385
 43
124.60000038
 44
189.79999542
 45
-889.4167208699998
 46
-296.4723532
 79
     2
 49
12.2239995
 49
-1210.16403198
 53
180.0
 43
112.60000229
 44
186.80000305
 45
-0.0000000000000363
 46
-296.47199631
 79
     2
 49
8.89400005
 49
-287.57799149
 53
135.0
 43
103.80000114
 44
186.80000305
 45
-296.47290887
 46
0.0000000000000355
 79
     2
 49
8.385999799999998
 49
-410.8900070199999
 53
90.0
 43
97.79999733
 44
192.80000687
 45
-296.47199631
 46
0.0000000000000182
 79
     2
 49
5.92999995
 49
-290.5439949
 53
18.43490028
 43
97.79999733
 44
198.6000061
 45
592.9456423699999
 46
296.47124934
 79
     2
 49
9.376000169999999
 49
-928.1539917000001
 53
14.03619957
 43
106.80000305
 44
201.59999847
 45
889.4166912599999
 46
296.47244202
 79
     2
 49
12.2239995
 49
-1210.16403198
 53
0.0
 43
118.59999657
 44
204.59999084
 45
0.0
 46
296.47199631
 79
     2
 49
11.85799956
 49
-284.61399078
 53
326.30990601
 43
130.39999962
 44
204.59999084
 45
592.9449951399999
 46
-296.47367579
 79
     2
 49
10.69000006
 49
-1058.25798035
 53
270.0
 43
162.99999237
 44
198.6000061
 45
296.47199631
 46
-0.0000000000000545
 79
     2
 49
5.92999995
 49
-290.5439949
 53
206.56500244
 43
162.99999237
 44
192.80000687
 45
-296.47335758
 46
-296.47195758
 79
     2
 49
6.629999879999999
 49
-656.3040161099999
 53
180.0
 43
157.20000267
 44
189.79999542
 45
-0.0000000000000363
 46
-296.47199631
 79
     2
 49
8.89400005
 49
-287.57799149
 53
153.43499756
 43
148.19999695
 44
189.79999542
 45
-296.4731053999999
 46
0.00064346
 79
     2
 49
6.629999879999999
 49
-656.3040161099999
 53
135.0
 43
142.39999771
 44
192.80000687
 45
-296.47290887
 46
0.0000000000000355
 79
     2
 49
4.192000029999999
 49
-415.08201599
 53
90.0
 43
139.3999958
 44
195.59999466
 45
-296.47199631
 46
0.0000000000000182
 79
     2
 49
5.92999995
 49
-290.5439949
 53
26.56509972
 43
139.3999958
 44
201.59999847
 45
296.47285424
 46
296.47246092
 79
     2
 49
6.629999879999999
 49
-656.3040161099999
 53
0.0
 43
145.20000458
 44
204.59999084
 45
0.0
 46
296.47199631
 79
     2
 49
11.85799956
 49
-284.61399078
 53
333.43490601
 43
157.20000267
 44
204.59999084
 45
296.4731053999999
 46
-0.0011172
 79
     2
 49
6.629999879999999
 49
-656.3040161099999
 53
180.0
 43
195.59999466
 44
183.79999161
 45
-0.0000000000000363
 46
-296.47199631
 79
     2
 49
8.89400005
 49
-287.57799149
 53
165.96380615
 43
186.80000305
 44
183.79999161
 45
-296.47214391
 46
-0.00122822
 79
     2
 49
12.2239995
 49
-1210.16403198
 53
146.30990601
 43
175.0
 44
186.80000305
 45
-592.9449951399999
 46
296.47367579
 79
     2
 49
10.69000006
 49
-1058.25798035
 53
116.56500244
 43
166.00000381
 44
192.80000687
 45
-296.47195758
 46
296.47335758
 79
     2
 49
6.629999879999999
 49
-656.3040161099999
 53
90.0
 43
162.99999237
 44
198.6000061
 45
-296.47199631
 46
0.0000000000000182
 79
     2
 49
5.92999995
 49
-290.5439949
 53
33.69010162
 43
162.99999237
 44
204.59999084
 45
296.47320692
 46
296.47245153
 79
     2
 49
10.69000006
 49
-1058.25798035
 53
18.43490028
 43
172.00000763
 44
210.40000916
 45
592.9456423699999
 46
296.47124934
 79
     2
 49
9.376000169999999
 49
-928.1539917000001
 53
0.0
 43
180.79999924
 44
213.40000153
 45
0.0
 46
296.47199631
 79
     2
 49
11.85799956
 49
-284.61399078
 53
350.53768921
 43
192.80000687
 44
213.40000153
 45
296.47186526
 46
0.00038989
 79
     2
 49
18.0340004
 49
-1785.33798218
 53
296.56509399
 43
210.40000916
 44
210.40000916
 45
296.47243131
 46
-296.47288385
 79
     2
 49
6.629999879999999
 49
-656.3040161099999
 53
270.0
 43
213.40000153
 44
204.59999084
 45
296.47199631
 46
-0.0000000000000545
 79
     2
 49
11.85799956
 49
-284.61399078
 53
243.43499756
 43
213.40000153
 44
192.80000687
 45
-0.00064346
 46
-296.4731053999999
 79
     2
 49
6.629999879999999
 49
-656.3040161099999
 53
198.43499756
 43
210.40000916
 44
186.80000305
 45
-592.9451390299999
 46
-296.47225602
 79
     2
 49
9.376000169999999
 49
-928.1539917000001
 53
180.0
 43
201.59999847
 44
183.79999161
 45
-0.0000000000000363
 46
-296.47199631
 79
     2
 49
5.92999995
 49
-290.5439949
 53
180.0
 43
154.20000076
 44
204.59999084
 45
-0.0000000000000363
 46
-296.47199631
 79
     2
 49
26.68200016
 49
-269.79000092
 53
165.96380615
 43
127.39999771
 44
204.59999084
 45
-296.47214391
 46
-0.00122822
 79
     2
 49
12.2239995
 49
-1210.16403198
 53
135.0
 43
115.6000042
 44
207.60000229
 45
-296.47290887
 46
0.0000000000000355
 79
     2
 49
4.192000029999999
 49
-415.08201599
 53
90.0
 43
112.60000229
 44
210.40000916
 45
-296.47199631
 46
0.0000000000000182
 79
     2
 49
5.92999995
 49
-290.5439949
 53
63.43489838
 43
112.60000229
 44
216.3999939
 45
0.00115667
 46
296.4731053999999
 79
     2
 49
6.629999879999999
 49
-656.3040161099999
 53
18.43490028
 43
115.6000042
 44
222.39999771
 45
592.9456423699999
 46
296.47124934
 79
     2
 49
9.376000169999999
 49
-928.1539917000001
 53
11.30990028
 43
124.60000038
 44
225.40000916
 45
1185.89014473
 46
296.47280949
 79
     2
 49
15.11800051
 49
-1496.60202026
 53
0.0
 43
139.3999958
 44
228.19999695
 45
0.0
 46
296.47199631
 79
     2
 49
11.85799956
 49
-284.61399078
 53
0.0
 43
151.19999886
 44
228.19999695
 45
0.0
 46
296.47199631
 79
     2
 49
11.85799956
 49
-284.61399078
 53
333.43490601
 43
162.99999237
 44
228.19999695
 45
296.4731053999999
 46
-0.0011172
 79
     2
 49
13.25799942
 49
-649.67399597
 53
296.56509399
 43
175.0
 44
222.39999771
 45
296.47243131
 46
-296.47288385
 79
     2
 49
6.629999879999999
 49
-656.3040161099999
 53
270.0
 43
177.80000687
 44
216.3999939
 45
296.47199631
 46
-0.0000000000000545
 79
     2
 49
2.96400011
 49
-293.50799561
 53
206.56500244
 43
177.80000687
 44
213.40000153
 45
-296.47335758
 46
-296.47195758
 79
     2
 49
6.629999879999999
 49
-656.3040161099999
 53
206.56500244
 43
172.00000763
 44
210.40000916
 45
-296.47335758
 46
-296.47195758
 79
     2
 49
6.629999879999999
 49
-656.3040161099999
 53
206.56500244
 43
166.00000381
 44
207.60000229
 45
-296.47335758
 46
-296.47195758
 79
     2
 49
6.629999879999999
 49
-656.3040161099999
 53
180.0
 43
160.0
 44
204.59999084
 45
-0.0000000000000363
 46
-296.47199631
 79
     2
 49
5.92999995
 49
-290.5439949
 53
63.43489838
 43
94.79999541999999
 44
266.80000305
 45
0.00115667
 46
296.4731053999999
 79
     2
 49
6.629999879999999
 49
-656.3040161099999
 53
45.0
 43
97.79999733
 44
272.80000687
 45
0.0000000000000355
 46
296.47290887
 79
     2
 49
8.385999799999998
 49
-410.8900070199999
 53
0.0
 43
103.80000114
 44
278.6000061
 45
0.0
 46
296.47199631
 79
     2
 49
8.89400005
 49
-287.57799149
 53
341.56509399
 43
112.60000229
 44
278.6000061
 45
296.47174563
 46
-0.00040573
 79
     2
 49
9.376000169999999
 49
-928.1539917000001
 53
270.0
 43
121.59999847
 44
275.79999924
 45
296.47199631
 46
-0.0000000000000545
 79
     2
 49
5.92999995
 49
-290.5439949
 53
243.43499756
 43
121.59999847
 44
269.79999542
 45
-0.00064346
 46
-296.4731053999999
 79
     2
 49
6.629999879999999
 49
-656.3040161099999
 53
213.69009399
 43
118.59999657
 44
263.79999161
 45
-296.4732464
 46
-296.47241205
 79
     2
 49
10.69000006
 49
-1058.25798035
 53
180.0
 43
109.60000038
 44
257.99999237
 45
-0.0000000000000363
 46
-296.47199631
 79
     2
 49
5.92999995
 49
-290.5439949
 53
161.56500244
 43
103.80000114
 44
257.99999237
 45
-296.47174563
 46
0.00087946
 79
     2
 49
9.376000169999999
 49
-928.1539917000001
 53
90.0
 43
94.79999541999999
 44
260.79999924
 45
-296.47199631
 46
0.0000000000000182
 79
     2
 49
5.92999995
 49
-290.5439949
 53
90.0
 43
154.20000076
 44
243.19999695
 45
-296.47199631
 46
0.0000000000000182
 79
     2
 49
5.92999995
 49
-290.5439949
 53
26.56509972
 43
154.20000076
 44
248.99999619
 45
296.47285424
 46
296.47246092
 79
     2
 49
6.629999879999999
 49
-656.3040161099999
 53
11.30990028
 43
160.0
 44
252.00000763
 45
1185.89014473
 46
296.47280949
 79
     2
 49
15.11800051
 49
-1496.60202026
 53
315.0
 43
175.0
 44
255.0
 45
296.47290887
 46
-0.0000000000000711
 79
     2
 49
8.385999799999998
 49
-410.8900070199999
 53
251.56500244
 43
180.79999924
 44
248.99999619
 45
-0.00087946
 46
-296.47174563
 79
     2
 49
9.376000169999999
 49
-928.1539917000001
 53
206.56500244
 43
177.80000687
 44
240.20000458
 45
-296.47335758
 46
-296.47195758
 79
     2
 49
6.629999879999999
 49
-656.3040161099999
 53
180.0
 43
172.00000763
 44
237.19999313
 45
-0.0000000000000363
 46
-296.47199631
 79
     2
 49
8.89400005
 49
-287.57799149
 53
146.30990601
 43
162.99999237
 44
237.19999313
 45
-592.9449951399999
 46
296.47367579
 79
     2
 49
10.69000006
 49
-1058.25798035
 53
26.56509972
 43
124.60000038
 44
246.00000381
 45
296.47285424
 46
296.47246092
 79
     2
 49
6.629999879999999
 49
-656.3040161099999
 53
0.0
 43
130.39999962
 44
248.99999619
 45
0.0
 46
296.47199631
 79
     2
 49
11.85799956
 49
-284.61399078
 53
333.43490601
 43
142.39999771
 44
248.99999619
 45
296.4731053999999
 46
-0.0011172
 79
     2
 49
13.25799942
 49
-649.67399597
 53
296.56509399
 43
154.20000076
 44
243.19999695
 45
296.47243131
 46
-296.47288385
 79
     2
 49
6.629999879999999
 49
-656.3040161099999
 53
270.0
 43
157.20000267
 44
237.19999313
 45
296.47199631
 46
-0.0000000000000545
 79
     2
 49
5.92999995
 49
-290.5439949
 53
206.56500244
 43
157.20000267
 44
231.20000839
 45
-296.47335758
 46
-296.47195758
 79
     2
 49
6.629999879999999
 49
-656.3040161099999
 53
180.0
 43
151.19999886
 44
228.19999695
 45
-0.0000000000000363
 46
-296.47199631
 79
     2
 49
11.85799956
 49
-284.61399078
 53
191.30990601
 43
139.3999958
 44
228.19999695
 45
-1185.89011512
 46
-296.47292792
 79
     2
 49
15.11800051
 49
-1496.60202026
 53
153.43499756
 43
124.60000038
 44
225.40000916
 45
-296.4731053999999
 46
0.00064346
 79
     2
 49
6.629999879999999
 49
-656.3040161099999
 53
90.0
 43
118.59999657
 44
228.19999695
 45
-296.47199631
 46
0.0000000000000182
 79
     2
 49
5.92999995
 49
-290.5439949
 53
63.43489838
 43
118.59999657
 44
234.20000076
 45
0.00115667
 46
296.4731053999999
 79
     2
 49
6.629999879999999
 49
-656.3040161099999
 53
63.43489838
 43
121.59999847
 44
240.20000458
 45
0.00115667
 46
296.4731053999999
 79
     2
 49
6.629999879999999
 49
-656.3040161099999
 53
21.80139923
 43
124.60000038
 44
266.80000305
 45
592.9442207000001
 46
296.47253553
 79
     2
 49
15.96600056
 49
-1580.58807373
 53
0.0
 43
139.3999958
 44
272.80000687
 45
0.0
 46
296.47199631
 79
     2
 49
14.8239994
 49
-281.64800644
 53
348.69009399
 43
154.20000076
 44
272.80000687
 45
296.47346827
 46
0.00092342
 79
     2
 49
15.11800051
 49
-1496.60202026
 53
341.56509399
 43
168.99999619
 44
269.79999542
 45
296.47174563
 46
-0.00040573
 79
     2
 49
9.376000169999999
 49
-928.1539917000001
 53
296.56509399
 43
177.80000687
 44
266.80000305
 45
296.47243131
 46
-296.47288385
 79
     2
 49
6.629999879999999
 49
-656.3040161099999
 53
270.0
 43
180.79999924
 44
260.79999924
 45
296.47199631
 46
-0.0000000000000545
 79
     2
 49
2.96400011
 49
-293.50799561
 53
198.43499756
 43
180.79999924
 44
257.99999237
 45
-592.9451390299999
 46
-296.47225602
 79
     2
 49
9.376000169999999
 49
-928.1539917000001
 53
191.30990601
 43
172.00000763
 44
255.0
 45
-1185.89011512
 46
-296.47292792
 79
     2
 49
15.11800051
 49
-1496.60202026
 53
191.30990601
 43
157.20000267
 44
252.00000763
 45
-1185.89011512
 46
-296.47292792
 79
     2
 49
15.11800051
 49
-1496.60202026
 53
180.0
 43
142.39999771
 44
248.99999619
 45
-0.0000000000000363
 46
-296.47199631
 79
     2
 49
11.85799956
 49
-284.61399078
 53
206.56500244
 43
130.39999962
 44
248.99999619
 45
-296.47335758
 46
-296.47195758
 79
     2
 49
6.629999879999999
 49
-656.3040161099999
 53
180.0
 43
124.60000038
 44
246.00000381
 45
-0.0000000000000363
 46
-296.47199631
 79
     2
 49
8.89400005
 49
-287.57799149
 53
153.43499756
 43
115.6000042
 44
246.00000381
 45
-296.4731053999999
 46
0.00064346
 79
     2
 49
6.629999879999999
 49
-656.3040161099999
 53
90.0
 43
109.60000038
 44
248.99999619
 45
-296.47199631
 46
0.0000000000000182
 79
     2
 49
5.92999995
 49
-290.5439949
 53
45.0
 43
109.60000038
 44
255.0
 45
0.0000000000000355
 46
296.47290887
 79
     2
 49
12.57799983
 49
-406.69799805
 53
26.56509972
 43
118.59999657
 44
263.79999161
 45
296.47285424
 46
296.47246092
 79
     2
 49
6.629999879999999
 49
-656.3040161099999
 53
18.43490028
 43
189.79999542
 44
257.99999237
 45
592.9456423699999
 46
296.47124934
 79
     2
 49
9.376000169999999
 49
-928.1539917000001
 53
341.56509399
 43
198.6000061
 44
260.79999924
 45
296.47174563
 46
-0.00040573
 79
     2
 49
18.75
 49
-918.7779998799999
 53
315.0
 43
216.3999939
 44
255.0
 45
296.47290887
 46
-0.0000000000000711
 79
     2
 49
12.57799983
 49
-406.69799805
 53
303.69009399
 43
225.40000916
 44
246.00000381
 45
296.47241205
 46
-296.4732464
 79
     2
 49
10.69000006
 49
-1058.25798035
 53
270.0
 43
231.20000839
 44
237.19999313
 45
296.47199631
 46
-0.0000000000000545
 79
     2
 49
11.85799956
 49
-284.61399078
 53
270.0
 43
231.20000839
 44
225.40000916
 45
296.47199631
 46
-0.0000000000000545
 79
     2
 49
5.92999995
 49
-290.5439949
 53
225.0
 43
231.20000839
 44
219.40000534
 45
-0.0000000000000533
 46
-296.47290887
 79
     2
 49
4.192000029999999
 49
-415.08201599
 53
225.0
 43
228.19999695
 44
216.3999939
 45
-0.0000000000000533
 46
-296.47290887
 79
     2
 49
8.385999799999998
 49
-410.8900070199999
 53
180.0
 43
222.39999771
 44
210.40000916
 45
-0.0000000000000363
 46
-296.47199631
 79
     2
 49
5.92999995
 49
-290.5439949
 53
170.53770447
 43
216.3999939
 44
210.40000916
 45
-296.47186526
 46
-0.00046884
 79
     2
 49
18.0340004
 49
-1785.33798218
 53
170.53770447
 43
198.6000061
 44
213.40000153
 45
-296.47186526
 46
-0.00046884
 79
     2
 49
18.0340004
 49
-1785.33798218
 53
135.0
 43
180.79999924
 44
216.3999939
 45
-296.47290887
 46
0.0000000000000355
 79
     2
 49
8.385999799999998
 49
-410.8900070199999
 53
90.0
 43
175.0
 44
222.39999771
 45
-296.47199631
 46
0.0000000000000182
 79
     2
 49
8.89400005
 49
-287.57799149
 53
68.19860077
 43
175.0
 44
231.20000839
 45
296.47174398
 46
889.4172475300001
 79
     2
 49
15.96600056
 49
-1580.58807373
 53
53.13010025
 43
180.79999924
 44
246.00000381
 45
592.9460432499999
 46
889.4179918
 79
     2
 49
14.8239994
 49
-1467.53997803
 53
104.03620148
 43
216.3999939
 44
183.79999161
 45
-296.47247163
 46
889.41668139
 79
     2
 49
12.2239995
 49
-1210.16403198
 53
71.56500244
 43
213.40000153
 44
195.59999466
 45
0.00087946
 46
296.47174563
 79
     2
 49
9.376000169999999
 49
-928.1539917000001
 53
45.0
 43
216.3999939
 44
204.59999084
 45
0.0000000000000355
 46
296.47290887
 79
     2
 49
8.385999799999998
 49
-410.8900070199999
 53
33.69010162
 43
222.39999771
 44
210.40000916
 45
296.47320692
 46
296.47245153
 79
     2
 49
10.69000006
 49
-1058.25798035
 53
0.0
 43
231.20000839
 44
216.3999939
 45
0.0
 46
296.47199631
 79
     2
 49
11.85799956
 49
-284.61399078
 53
326.30990601
 43
243.19999695
 44
216.3999939
 45
592.9449951399999
 46
-296.47367579
 79
     2
 49
10.69000006
 49
-1058.25798035
 53
315.0
 43
252.00000763
 44
210.40000916
 45
296.47290887
 46
-0.0000000000000711
 79
     2
 49
16.7719996
 49
-402.5040054299999
 53
300.9637146
 43
263.79999161
 44
198.6000061
 45
592.9444088999999
 46
-889.41922419
 79
     2
 49
17.28800058
 49
-1711.43005371
 53
284.0362854
 43
272.80000687
 44
183.79999161
 45
296.47377439
 46
-889.4162471299999
 79
     2
 49
12.2239995
 49
-1210.16403198
 53
270.0
 43
275.79999924
 44
172.00000763
 45
296.47199631
 46
-0.0000000000000545
 79
     2
 49
8.89400005
 49
-287.57799149
 53
243.43499756
 43
275.79999924
 44
162.99999237
 45
-0.00064346
 46
-296.4731053999999
 79
     2
 49
6.629999879999999
 49
-656.3040161099999
 53
206.56500244
 43
272.80000687
 44
157.20000267
 45
-296.47335758
 46
-296.47195758
 79
     2
 49
6.629999879999999
 49
-656.3040161099999
 53
180.0
 43
266.80000305
 44
154.20000076
 45
-0.0000000000000363
 46
-296.47199631
 79
     2
 49
8.89400005
 49
-287.57799149
 53
135.0
 43
257.99999237
 44
154.20000076
 45
-296.47290887
 46
0.0000000000000355
 79
     2
 49
8.385999799999998
 49
-410.8900070199999
 53
146.30990601
 43
252.00000763
 44
160.0
 45
-592.9449951399999
 46
296.47367579
 79
     2
 49
10.69000006
 49
-1058.25798035
 53
165.96380615
 43
243.19999695
 44
166.00000381
 45
-296.47214391
 46
-0.00122822
 79
     2
 49
12.2239995
 49
-1210.16403198
 53
153.43499756
 43
231.20000839
 44
168.99999619
 45
-296.4731053999999
 46
0.00064346
 79
     2
 49
6.629999879999999
 49
-656.3040161099999
 53
126.86990356
 43
225.40000916
 44
172.00000763
 45
-296.47242366
 46
296.47316064
 79
     2
 49
14.8239994
 49
-1467.53997803
 53
71.56500244
 43
263.79999161
 44
204.59999084
 45
0.00087946
 46
296.47174563
 79
     2
 49
9.376000169999999
 49
-928.1539917000001
 53
26.56509972
 43
266.80000305
 44
213.40000153
 45
296.47285424
 46
296.47246092
 79
     2
 49
6.629999879999999
 49
-656.3040161099999
 53
18.43490028
 43
272.80000687
 44
216.3999939
 45
592.9456423699999
 46
296.47124934
 79
     2
 49
9.376000169999999
 49
-928.1539917000001
 53
0.0
 43
281.59999847
 44
219.40000534
 45
0.0
 46
296.47199631
 79
     2
 49
5.92999995
 49
-290.5439949
 53
333.43490601
 43
287.60000229
 44
219.40000534
 45
296.4731053999999
 46
-0.0011172
 79
     2
 49
6.629999879999999
 49
-656.3040161099999
 53
0.0
 43
293.6000061000001
 44
216.3999939
 45
0.0
 46
296.47199631
 79
     2
 49
2.96400011
 49
-293.50799561
 53
333.43490601
 43
0.0
 44
216.3999939
 45
296.4731053999999
 46
-0.0011172
 79
     2
 49
13.25799942
 49
-649.67399597
 53
296.56509399
 43
11.79999948
 44
210.40000916
 45
296.47243131
 46
-296.47288385
 79
     2
 49
6.629999879999999
 49
-656.3040161099999
 53
251.56500244
 43
14.80000019
 44
204.59999084
 45
-0.00087946
 46
-296.47174563
 79
     2
 49
9.376000169999999
 49
-928.1539917000001
 53
251.56500244
 43
11.79999948
 44
195.59999466
 45
-0.00087946
 46
-296.47174563
 79
     2
 49
9.376000169999999
 49
-928.1539917000001
 53
243.43499756
 43
8.79999995
 44
186.80000305
 45
-0.00064346
 46
-296.4731053999999
 79
     2
 49
6.629999879999999
 49
-656.3040161099999
 53
206.56500244
 43
6.00000024
 44
180.79999924
 45
-296.47335758
 46
-296.47195758
 79
     2
 49
6.629999879999999
 49
-656.3040161099999
 53
225.0
 43
296.3999939
 44
177.80000687
 45
-0.0000000000000533
 46
-296.47290887
 79
     2
 49
4.192000029999999
 49
-415.08201599
 53
135.0
 43
281.59999847
 44
175.0
 45
-296.47290887
 46
0.0000000000000355
 79
     2
 49
8.385999799999998
 49
-410.8900070199999
 53
123.69010162
 43
275.79999924
 44
180.79999924
 45
-296.47245153
 46
296.47320692
 79
     2
 49
10.69000006
 49
-1058.25798035
 53
116.56500244
 43
269.79999542
 44
189.79999542
 45
-296.47195758
 46
296.47335758
 79
     2
 49
6.629999879999999
 49
-656.3040161099999
 53
108.43499756
 43
266.80000305
 44
195.59999466
 45
-296.47225602
 46
592.9451390299999
 79
     2
 49
9.376000169999999
 49
-928.1539917000001
 53
153.43499756
 43
243.19999695
 44
216.3999939
 45
-296.4731053999999
 46
0.00064346
 79
     2
 49
6.629999879999999
 49
-656.3040161099999
 53
123.69010162
 43
237.19999313
 44
219.40000534
 45
-296.47245153
 46
296.47320692
 79
     2
 49
10.69000006
 49
-1058.25798035
 53
90.0
 43
231.20000839
 44
228.19999695
 45
-296.47199631
 46
0.0000000000000182
 79
     2
 49
5.92999995
 49
-290.5439949
 53
45.0
 43
231.20000839
 44
234.20000076
 45
0.0000000000000355
 46
296.47290887
 79
     2
 49
4.192000029999999
 49
-415.08201599
 53
26.56509972
 43
234.20000076
 44
237.19999313
 45
296.47285424
 46
296.47246092
 79
     2
 49
6.629999879999999
 49
-656.3040161099999
 53
345.9637146
 43
240.20000458
 44
240.20000458
 45
296.47214391
 46
0.00075448
 79
     2
 49
12.2239995
 49
-1210.16403198
 53
315.0
 43
252.00000763
 44
237.19999313
 45
296.47290887
 46
-0.0000000000000711
 79
     2
 49
8.385999799999998
 49
-410.8900070199999
 53
270.0
 43
257.99999237
 44
231.20000839
 45
296.47199631
 46
-0.0000000000000545
 79
     2
 49
8.89400005
 49
-287.57799149
 53
243.43499756
 43
257.99999237
 44
222.39999771
 45
-0.00064346
 46
-296.4731053999999
 79
     2
 49
6.629999879999999
 49
-656.3040161099999
 53
206.56500244
 43
255.0
 44
216.3999939
 45
-296.47335758
 46
-296.47195758
 79
     2
 49
6.629999879999999
 49
-656.3040161099999
 53
153.43499756
 43
248.99999619
 44
213.40000153
 45
-296.4731053999999
 46
0.00064346
 79
     2
 49
6.629999879999999
 49
-656.3040161099999
 53
198.43499756
 43
14.80000019
 44
219.40000534
 45
-592.9451390299999
 46
-296.47225602
 79
     2
 49
9.376000169999999
 49
-928.1539917000001
 53
180.0
 43
6.00000024
 44
216.3999939
 45
-0.0000000000000363
 46
-296.47199631
 79
     2
 49
5.92999995
 49
-290.5439949
 53
180.0
 43
296.3999939
 44
216.3999939
 45
-0.0000000000000363
 46
-296.47199631
 79
     2
 49
2.96400011
 49
-293.50799561
 53
153.43499756
 43
293.6000061000001
 44
216.3999939
 45
-296.4731053999999
 46
0.00064346
 79
     2
 49
6.629999879999999
 49
-656.3040161099999
 53
180.0
 43
287.60000229
 44
219.40000534
 45
-0.0000000000000363
 46
-296.47199631
 79
     2
 49
5.92999995
 49
-290.5439949
 53
198.43499756
 43
281.59999847
 44
219.40000534
 45
-592.9451390299999
 46
-296.47225602
 79
     2
 49
9.376000169999999
 49
-928.1539917000001
 53
180.0
 43
272.80000687
 44
216.3999939
 45
-0.0000000000000363
 46
-296.47199631
 79
     2
 49
8.89400005
 49
-287.57799149
 53
135.0
 43
263.79999161
 44
216.3999939
 45
-296.47290887
 46
0.0000000000000355
 79
     2
 49
4.192000029999999
 49
-415.08201599
 53
135.0
 43
260.79999924
 44
219.40000534
 45
-296.47290887
 46
0.0000000000000355
 79
     2
 49
4.192000029999999
 49
-415.08201599
 53
90.0
 43
257.99999237
 44
222.39999771
 45
-296.47199631
 46
0.0000000000000182
 79
     2
 49
2.96400011
 49
-293.50799561
 53
45.0
 43
257.99999237
 44
225.40000916
 45
0.0000000000000355
 46
296.47290887
 79
     2
 49
8.385999799999998
 49
-410.8900070199999
 53
26.56509972
 43
263.79999161
 44
231.20000839
 45
296.47285424
 46
296.47246092
 79
     2
 49
6.629999879999999
 49
-656.3040161099999
 53
14.03619957
 43
269.79999542
 44
234.20000076
 45
889.4166912599999
 46
296.47244202
 79
     2
 49
12.2239995
 49
-1210.16403198
 53
0.0
 43
281.59999847
 44
237.19999313
 45
0.0
 46
296.47199631
 79
     2
 49
8.89400005
 49
-287.57799149
 53
333.43490601
 43
290.59999466
 44
237.19999313
 45
296.4731053999999
 46
-0.0011172
 79
     2
 49
6.629999879999999
 49
-656.3040161099999
 53
0.0
 43
0.0
 44
234.20000076
 45
0.0
 46
296.47199631
 79
     2
 49
2.96400011
 49
-293.50799561
 53
0.0
 43
3.00000012
 44
234.20000076
 45
0.0
 46
296.47199631
 79
     2
 49
2.96400011
 49
-293.50799561
 53
341.56509399
 43
6.00000024
 44
234.20000076
 45
296.47174563
 46
-0.00040573
 79
     2
 49
9.376000169999999
 49
-928.1539917000001
 53
315.0
 43
14.80000019
 44
231.20000839
 45
296.47290887
 46
-0.0000000000000711
 79
     2
 49
4.192000029999999
 49
-415.08201599
 53
270.0
 43
17.79999971
 44
228.19999695
 45
296.47199631
 46
-0.0000000000000545
 79
     2
 49
5.92999995
 49
-290.5439949
 53
225.0
 43
17.79999971
 44
222.39999771
 45
-0.0000000000000533
 46
-296.47290887
 79
     2
 49
4.192000029999999
 49
-415.08201599
 53
161.56500244
 43
281.59999847
 44
237.19999313
 45
-296.47174563
 46
0.00087946
 79
     2
 49
9.376000169999999
 49
-928.1539917000001
 53
135.0
 43
272.80000687
 44
240.20000458
 45
-296.47290887
 46
0.0000000000000355
 79
     2
 49
4.192000029999999
 49
-415.08201599
 53
116.56500244
 43
269.79999542
 44
243.19999695
 45
-296.47195758
 46
296.47335758
 79
     2
 49
6.629999879999999
 49
-656.3040161099999
 53
90.0
 43
266.80000305
 44
248.99999619
 45
-296.47199631
 46
0.0000000000000182
 79
     2
 49
5.92999995
 49
-290.5439949
 53
63.43489838
 43
266.80000305
 44
255.0
 45
0.00115667
 46
296.4731053999999
 79
     2
 49
6.629999879999999
 49
-656.3040161099999
 53
33.69010162
 43
269.79999542
 44
260.79999924
 45
296.47320692
 46
296.47245153
 79
     2
 49
10.69000006
 49
-1058.25798035
 53
0.0
 43
278.6000061
 44
266.80000305
 45
0.0
 46
296.47199631
 79
     2
 49
11.85799956
 49
-284.61399078
 53
333.43490601
 43
290.59999466
 44
266.80000305
 45
296.4731053999999
 46
-0.0011172
 79
     2
 49
6.629999879999999
 49
-656.3040161099999
 53
0.0
 43
0.0
 44
263.79999161
 45
0.0
 46
296.47199631
 79
     2
 49
2.96400011
 49
-293.50799561
 53
326.30990601
 43
3.00000012
 44
263.79999161
 45
592.9449951399999
 46
-296.47367579
 79
     2
 49
10.69000006
 49
-1058.25798035
 53
296.56509399
 43
11.79999948
 44
257.99999237
 45
296.47243131
 46
-296.47288385
 79
     2
 49
6.629999879999999
 49
-656.3040161099999
 53
251.56500244
 43
14.80000019
 44
252.00000763
 45
-0.00087946
 46
-296.47174563
 79
     2
 49
9.376000169999999
 49
-928.1539917000001
 53
225.0
 43
8.79999995
 44
237.19999313
 45
-0.0000000000000533
 46
-296.47290887
 79
     2
 49
4.192000029999999
 49
-415.08201599
 53
180.0
 43
6.00000024
 44
234.20000076
 45
-0.0000000000000363
 46
-296.47199631
 79
     2
 49
2.96400011
 49
-293.50799561
 53
153.43499756
 43
296.3999939
 44
234.20000076
 45
-296.4731053999999
 46
0.00064346
 79
     2
 49
6.629999879999999
 49
-656.3040161099999
 53
180.0
 43
3.00000012
 44
234.20000076
 45
-0.0000000000000363
 46
-296.47199631
 79
     2
 49
2.96400011
 49
-293.50799561
 53
180.0
 43
290.59999466
 44
237.19999313
 45
-0.0000000000000363
 46
-296.47199631
 79
     2
 49
8.89400005
 49
-287.57799149
 53
90.0
 43
228.19999695
 44
243.19999695
 45
-296.47199631
 46
0.0000000000000182
 79
     2
 49
2.96400011
 49
-293.50799561
 53
45.0
 43
228.19999695
 44
246.00000381
 45
0.0000000000000355
 46
296.47290887
 79
     2
 49
4.192000029999999
 49
-415.08201599
 53
18.43490028
 43
231.20000839
 44
248.99999619
 45
592.9456423699999
 46
296.47124934
 79
     2
 49
9.376000169999999
 49
-928.1539917000001
 53
345.9637146
 43
240.20000458
 44
252.00000763
 45
296.47214391
 46
0.00075448
 79
     2
 49
12.2239995
 49
-1210.16403198
 53
0.0
 43
252.00000763
 44
248.99999619
 45
0.0
 46
296.47199631
 79
     2
 49
14.8239994
 49
-281.64800644
 53
296.56509399
 43
266.80000305
 44
248.99999619
 45
296.47243131
 46
-296.47288385
 79
     2
 49
6.629999879999999
 49
-656.3040161099999
 53
270.0
 43
269.79999542
 44
243.19999695
 45
296.47199631
 46
-0.0000000000000545
 79
     2
 49
2.96400011
 49
-293.50799561
 53
225.0
 43
269.79999542
 44
240.20000458
 45
-0.0000000000000533
 46
-296.47290887
 79
     2
 49
4.192000029999999
 49
-415.08201599
 53
180.0
 43
266.80000305
 44
237.19999313
 45
-0.0000000000000363
 46
-296.47199631
 79
     2
 49
14.8239994
 49
-281.64800644
 53
165.96380615
 43
252.00000763
 44
237.19999313
 45
-296.47214391
 46
-0.00122822
 79
     2
 49
12.2239995
 49
-1210.16403198
 53
206.56500244
 43
240.20000458
 44
240.20000458
 45
-296.47335758
 46
-296.47195758
 79
     2
 49
6.629999879999999
 49
-656.3040161099999
 53
135.0
 43
234.20000076
 44
237.19999313
 45
-296.47290887
 46
0.0000000000000355
 79
     2
 49
4.192000029999999
 49
-415.08201599
 53
135.0
 43
231.20000839
 44
240.20000458
 45
-296.47290887
 46
0.0000000000000355
 79
     2
 49
4.192000029999999
 49
-415.08201599
 53
180.0
 43
160.0
 44
284.5999908399999
 45
-0.0000000000000363
 46
-296.47199631
 79
     2
 49
2.96400011
 49
-293.50799561
 53
225.0
 43
157.20000267
 44
284.5999908399999
 45
-0.0000000000000533
 46
-296.47290887
 79
     2
 49
4.192000029999999
 49
-415.08201599
 53
270.0
 43
154.20000076
 44
281.59999847
 45
296.47199631
 46
-0.0000000000000545
 79
     2
 49
2.96400011
 49
-293.50799561
 53
270.0
 43
154.20000076
 44
278.6000061
 45
296.47199631
 46
-0.0000000000000545
 79
     2
 49
2.96400011
 49
-293.50799561
 53
315.0
 43
154.20000076
 44
275.79999924
 45
296.47290887
 46
-0.0000000000000711
 79
     2
 49
4.192000029999999
 49
-415.08201599
 53
0.0
 43
157.20000267
 44
272.80000687
 45
0.0
 46
296.47199631
 79
     2
 49
2.96400011
 49
-293.50799561
 53
0.0
 43
160.0
 44
272.80000687
 45
0.0
 46
296.47199631
 79
     2
 49
2.96400011
 49
-293.50799561
 53
333.43490601
 43
162.99999237
 44
272.80000687
 45
296.4731053999999
 46
-0.0011172
 79
     2
 49
6.629999879999999
 49
-656.3040161099999
 53
0.0
 43
168.99999619
 44
269.79999542
 45
0.0
 46
296.47199631
 79
     2
 49
2.96400011
 49
-293.50799561
 53
0.0
 43
172.00000763
 44
269.79999542
 45
0.0
 46
296.47199631
 79
     2
 49
2.96400011
 49
-293.50799561
 53
45.0
 43
175.0
 44
269.79999542
 45
0.0000000000000355
 46
296.47290887
 79
     2
 49
4.192000029999999
 49
-415.08201599
 53
63.43489838
 43
177.80000687
 44
272.80000687
 45
0.00115667
 46
296.4731053999999
 79
     2
 49
6.629999879999999
 49
-656.3040161099999
 53
135.0
 43
180.79999924
 44
278.6000061
 45
-296.47290887
 46
0.0000000000000355
 79
     2
 49
4.192000029999999
 49
-415.08201599
 53
180.0
 43
177.80000687
 44
281.59999847
 45
-0.0000000000000363
 46
-296.47199631
 79
     2
 49
2.96400011
 49
-293.50799561
 53
90.0
 43
195.59999466
 44
287.60000229
 45
-296.47199631
 46
0.0000000000000182
 79
     2
 49
2.96400011
 49
-293.50799561
 53
135.0
 43
195.59999466
 44
290.59999466
 45
-296.47290887
 46
0.0000000000000355
 79
     2
 49
4.192000029999999
 49
-415.08201599
 53
165.96380615
 43
192.80000687
 44
293.6000061000001
 45
-296.47214391
 46
-0.00122822
 79
     2
 49
12.2239995
 49
-1210.16403198
 53
225.0
 43
160.0
 44
296.3999939
 45
-0.0000000000000533
 46
-296.47290887
 79
     2
 49
4.192000029999999
 49
-415.08201599
 53
270.0
 43
157.20000267
 44
293.6000061000001
 45
296.47199631
 46
-0.0000000000000545
 79
     2
 49
2.96400011
 49
-293.50799561
 53
270.0
 43
157.20000267
 44
290.59999466
 45
296.47199631
 46
-0.0000000000000545
 79
     2
 49
2.96400011
 49
-293.50799561
 53
315.0
 43
157.20000267
 44
287.60000229
 45
296.47290887
 46
-0.0000000000000711
 79
     2
 49
4.192000029999999
 49
-415.08201599
 53
0.0
 43
160.0
 44
284.5999908399999
 45
0.0
 46
296.47199631
 79
     2
 49
8.89400005
 49
-287.57799149
 53
341.56509399
 43
168.99999619
 44
284.5999908399999
 45
296.47174563
 46
-0.00040573
 79
     2
 49
9.376000169999999
 49
-928.1539917000001
 53
0.0
 43
177.80000687
 44
281.59999847
 45
0.0
 46
296.47199631
 79
     2
 49
5.92999995
 49
-290.5439949
 53
26.56509972
 43
183.79999161
 44
281.59999847
 45
296.47285424
 46
296.47246092
 79
     2
 49
6.629999879999999
 49
-656.3040161099999
 53
45.0
 43
263.79999161
 44
272.80000687
 45
0.0000000000000355
 46
296.47290887
 79
     2
 49
4.192000029999999
 49
-415.08201599
 53
206.56500244
 43
263.79999161
 44
272.80000687
 45
-296.47335758
 46
-296.47195758
 79
     2
 49
6.629999879999999
 49
-656.3040161099999
 53
206.56500244
 43
257.99999237
 44
269.79999542
 45
-296.47335758
 46
-296.47195758
 79
     2
 49
6.629999879999999
 49
-656.3040161099999
 53
206.56500244
 43
252.00000763
 44
266.80000305
 45
-296.47335758
 46
-296.47195758
 79
     2
 49
6.629999879999999
 49
-656.3040161099999
 53
206.56500244
 43
246.00000381
 44
263.79999161
 45
-296.47335758
 46
-296.47195758
 79
     2
 49
6.629999879999999
 49
-656.3040161099999
 53
243.43499756
 43
240.20000458
 44
260.79999924
 45
-0.00064346
 46
-296.4731053999999
 79
     2
 49
6.629999879999999
 49
-656.3040161099999
 53
225.0
 43
237.19999313
 44
255.0
 45
-0.0000000000000533
 46
-296.47290887
 79
     2
 49
4.192000029999999
 49
-415.08201599
 53
225.0
 43
234.20000076
 44
252.00000763
 45
-0.0000000000000533
 46
-296.47290887
 79
     2
 49
4.192000029999999
 49
-415.08201599
 53
180.0
 43
231.20000839
 44
248.99999619
 45
-0.0000000000000363
 46
-296.47199631
 79
     2
 49
5.92999995
 49
-290.5439949
 53
135.0
 43
225.40000916
 44
248.99999619
 45
-296.47290887
 46
0.0000000000000355
 79
     2
 49
4.192000029999999
 49
-415.08201599
 53
153.43499756
 43
222.39999771
 44
252.00000763
 45
-296.4731053999999
 46
0.00064346
 79
     2
 49
6.629999879999999
 49
-656.3040161099999
 53
161.56500244
 43
216.3999939
 44
255.0
 45
-296.47174563
 46
0.00087946
 79
     2
 49
9.376000169999999
 49
-928.1539917000001
 53
161.56500244
 43
207.60000229
 44
257.99999237
 45
-296.47174563
 46
0.00087946
 79
     2
 49
9.376000169999999
 49
-928.1539917000001
 53
198.43499756
 43
198.6000061
 44
260.79999924
 45
-592.9451390299999
 46
-296.47225602
 79
     2
 49
9.376000169999999
 49
-928.1539917000001
 53
153.43499756
 43
189.79999542
 44
257.99999237
 45
-296.4731053999999
 46
0.00064346
 79
     2
 49
6.629999879999999
 49
-656.3040161099999
 53
135.0
 43
183.79999161
 44
260.79999924
 45
-296.47290887
 46
0.0000000000000355
 79
     2
 49
4.192000029999999
 49
-415.08201599
 53
116.56500244
 43
180.79999924
 44
263.79999161
 45
-296.47195758
 46
296.47335758
 79
     2
 49
6.629999879999999
 49
-656.3040161099999
 53
90.0
 43
177.80000687
 44
269.79999542
 45
-296.47199631
 46
0.0000000000000182
 79
     2
 49
2.96400011
 49
-293.50799561
 53
63.43489838
 43
177.80000687
 44
272.80000687
 45
0.00115667
 46
296.4731053999999
 79
     2
 49
6.629999879999999
 49
-656.3040161099999
 53
45.0
 43
180.79999924
 44
278.6000061
 45
0.0000000000000355
 46
296.47290887
 79
     2
 49
4.192000029999999
 49
-415.08201599
 53
18.43490028
 43
183.79999161
 44
281.59999847
 45
592.9456423699999
 46
296.47124934
 79
     2
 49
9.376000169999999
 49
-928.1539917000001
 53
26.56509972
 43
192.80000687
 44
284.5999908399999
 45
296.47285424
 46
296.47246092
 79
     2
 49
6.629999879999999
 49
-656.3040161099999
 53
33.69010162
 43
198.6000061
 44
287.60000229
 45
296.47320692
 46
296.47245153
 79
     2
 49
10.69000006
 49
-1058.25798035
 53
45.0
 43
207.60000229
 44
293.6000061000001
 45
0.0000000000000355
 46
296.47290887
 79
     2
 49
4.192000029999999
 49
-415.08201599
 53
63.43489838
 43
210.40000916
 44
0.0
 45
0.00115667
 46
296.4731053999999
 79
     2
 49
6.629999879999999
 49
-656.3040161099999
 53
45.0
 43
213.40000153
 44
6.00000024
 45
0.0000000000000355
 46
296.47290887
 79
     2
 49
4.192000029999999
 49
-415.08201599
 53
26.56509972
 43
216.3999939
 44
8.79999995
 45
296.47285424
 46
296.47246092
 79
     2
 49
6.629999879999999
 49
-656.3040161099999
 53
26.56509972
 43
222.39999771
 44
11.79999948
 45
296.47285424
 46
296.47246092
 79
     2
 49
6.629999879999999
 49
-656.3040161099999
 53
345.9637146
 43
228.19999695
 44
14.80000019
 45
296.47214391
 46
0.00075448
 79
     2
 49
12.2239995
 49
-1210.16403198
 53
341.56509399
 43
240.20000458
 44
11.79999948
 45
296.47174563
 46
-0.00040573
 79
     2
 49
9.376000169999999
 49
-928.1539917000001
 53
326.30990601
 43
248.99999619
 44
8.79999995
 45
592.9449951399999
 46
-296.47367579
 79
     2
 49
10.69000006
 49
-1058.25798035
 53
315.0
 43
257.99999237
 44
3.00000012
 45
296.47290887
 46
-0.0000000000000711
 79
     2
 49
4.192000029999999
 49
-415.08201599
 53
315.0
 43
260.79999924
 44
296.3999939
 45
296.47290887
 46
-0.0000000000000711
 79
     2
 49
4.192000029999999
 49
-415.08201599
 53
296.56509399
 43
263.79999161
 44
293.6000061000001
 45
296.47243131
 46
-296.47288385
 79
     2
 49
6.629999879999999
 49
-656.3040161099999
 53
270.0
 43
266.80000305
 44
287.60000229
 45
296.47199631
 46
-0.0000000000000545
 79
     2
 49
5.92999995
 49
-290.5439949
 53
270.0
 43
266.80000305
 44
281.59999847
 45
296.47199631
 46
-0.0000000000000545
 79
     2
 49
5.92999995
 49
-290.5439949
 47
0.775229
 98
        1
 10
0.0
 20
0.0
  0
LWPOLYLINE
  5
D0
330
5D
100
AcDbEntity
  8
Ech.1_5
 62
     7
100
AcDbPolyline
 90
        6
 70
     0
 43
0.0
 10
35481.73677341
 20
7503.742786460001
 10
35484.73535819999
 20
7503.742717539999
 42
-0.41421356
 10
35494.73535819999
 20
7493.74271754
 10
35494.73535819999
 20
7438.077944229999
 10
35481.73535822
 20
7438.077941900001
 10
35481.73535822
 20
7503.742715209999
  0
LWPOLYLINE
  5
D1
330
5D
100
AcDbEntity
  8
Ech.1_5
  6
Continuous
 62
     9
370
    -3
100
AcDbPolyline
 90
        4
 70
     1
 43
0.0
 10
35740.01395230001
 20
7424.077941900001
 10
35740.01394059
 20
7438.077941900001
 10
35491.73539101
 20
7438.077941900001
 10
35491.73539101
 20
7424.077941900001
  0
HATCH
  5
D2
330
5D
100
AcDbEntity
  8
Ech.1_5
  6
Continuous
 62
     9
100
AcDbHatch
 10
0.0
 20
0.0
 30
0.0
210
0.0
220
0.0
230
1.0
  2
ANSI31
 70
     0
 71
     0
 91
        1
 92
        7
 72
     0
 73
     1
 93
        4
 10
35740.01395230001
 20
7424.077941900001
 10
35740.01394059
 20
7438.077941900001
 10
35491.73539101
 20
7438.077941900001
 10
35491.73539101
 20
7424.077941900001
 97
        0
 75
     0
 76
     2
 52
90.0
 41
3.14962605
 77
     0
 78
     1
 53
-45.0
 43
0.0
 44
0.0
 45
7.071067809999999
 46
7.071067809999999
 79
     0
 47
0.775229
 98
        1
 10
0.0
 20
0.0
  0
LWPOLYLINE
  5
D3
330
5D
100
AcDbEntity
  8
Ech.1_5
 62
     7
100
AcDbPolyline
 90
        6
 70
     0
 43
0.0
 10
35147.73394303
 20
7503.742773439999
 10
35144.73535823
 20
7503.74270452
 42
0.41421356
 10
35134.73535823
 20
7493.742704520001
 10
35134.73535823
 20
7438.07793121
 10
35147.73535822
 20
7438.07792887
 10
35147.73535822
 20
7503.74270218
  0
LWPOLYLINE
  5
D4
330
5D
100
AcDbEntity
  8
Ech.1_5
  6
Continuous
 62
     9
370
    -3
100
AcDbPolyline
 90
        4
 70
     1
 43
0.0
 10
34900.34943
 20
7424.07792887
 10
34900.34944172
 20
7438.07792887
 10
35137.62807515
 20
7438.07792887
 10
35137.62807515
 20
7424.07792887
  0
HATCH
  5
D5
330
5D
100
AcDbEntity
  8
Ech.1_5
  6
Continuous
 62
     9
100
AcDbHatch
 10
0.0
 20
0.0
 30
0.0
210
0.0
220
0.0
230
1.0
  2
ANSI31
 70
     0
 71
     0
 91
        1
 92
        7
 72
     0
 73
     1
 93
        4
 10
34900.34943
 20
7424.07792887
 10
34900.34944172
 20
7438.07792887
 10
35137.62807515
 20
7438.07792887
 10
35137.62807515
 20
7424.07792887
 97
        0
 75
     0
 76
     2
 52
90.0
 41
3.14962605
 77
     0
 78
     1
 53
-45.0
 43
0.0
 44
0.0
 45
7.071067809999999
 46
7.071067809999999
 79
     0
 47
0.775229
 98
        1
 10
0.0
 20
0.0
  0
3DFACE
  5
D6
102
{ACAD_REACTORS
330
D7
102
}
330
5D
100
AcDbEntity
  8
Ech.1_5
  6
Continuous
 62
     9
370
    -3
100
AcDbFace
 10
34900.2156166
 20
7384.0779419
 30
2500.0
 11
35147.73535822
 21
7384.0779419
 31
2500.0
 12
35147.73535822
 22
7424.07792887
 32
2500.0
 13
34900.2147967
 23
7424.07792887
 33
2500.0
  0
HATCH
  5
D7
330
5D
100
AcDbEntity
  8
Ech.1_5
  6
Continuous
 62
     9
100
AcDbHatch
 10
0.0
 20
0.0
 30
0.0
210
0.0
220
0.0
230
1.0
  2
AR-CONC
 70
     0
 71
     1
 91
        1
 92
        7
 72
     0
 73
     1
 93
        4
 10
34900.2156166
 20
7384.0779419
 10
35147.73535822
 20
7384.0779419
 10
35147.73535822
 20
7424.07792887
 10
34900.2147967
 20
7424.07792887
 97
        1
330
D6
 75
     0
 76
     2
 52
45.0
 41
0.06299252
 77
     0
 78
    13
 53
50.0
 43
0.0
 44
0.0
 45
-10.04951288
 46
0.87921838
 79
     2
 49
1.050822989999999
 49
-11.55905264
 53
355.0
 43
0.0
 44
0.0
 45
-1.944041389999999
 46
10.53894322
 79
     2
 49
0.84065802
 49
-9.24724211
 53
100.45140076
 43
0.83745904
 44
-0.073268
 45
-8.10547867
 46
-9.65971878
 79
     2
 49
0.8930620099999998
 49
-9.82368293
 53
46.18420029
 43
0.0
 44
2.802195109999999
 45
-14.95308477
 46
2.31908205
 79
     2
 49
1.57623401
 49
-17.33857753
 53
96.63559723
 43
1.246090069999999
 44
2.60893706
 45
-13.09553414
 46
-13.64833836
 79
     2
 49
1.33959307
 49
-14.73552249
 53
351.1842041
 43
0.0
 44
2.802195109999999
 45
13.09552173
 46
13.64835069
 79
     2
 49
1.26098802
 49
-13.87086317
 53
21.0
 43
1.401097079999999
 44
2.101645979999999
 45
-8.36324849
 46
5.64108224
 79
     2
 49
1.050822989999999
 49
-11.55905264
 53
326.0
 43
1.401097079999999
 44
2.101645979999999
 45
3.40908414
 46
10.1600574
 79
     2
 49
0.84065802
 49
-9.24724211
 53
71.45140076
 43
2.09803394
 44
1.631554989999999
 45
-11.77233597
 46
-4.51896637
 79
     2
 49
0.8930620099999998
 49
-9.82368293
 53
37.5
 43
0.0
 44
0.0
 45
0.17037085
 46
4.664166709999999
 79
     6
 49
0.01
 49
-9.135153909999999
 49
0.01
 49
-9.38735213
 49
0.01
 49
-9.282268659999999
 53
7.499999999999999
 43
0.0
 44
0.0
 45
3.68586042
 46
5.526091919999999
 79
     6
 49
0.01
 49
-5.35219105
 49
0.01
 49
-8.92498888
 49
0.01
 49
-3.537771039999999
 53
-32.5
 43
-3.124447149999999
 44
0.0
 45
7.479371099999999
 46
-0.31601602
 79
     6
 49
0.01
 49
-3.502743059999999
 49
0.01
 49
-10.92855947
 49
0.01
 49
-14.50135729
 53
-42.5
 43
-4.52554423
 44
0.0
 45
8.17100583
 46
1.402568239999999
 79
     6
 49
0.01
 49
-4.553566049999999
 49
0.01
 49
-7.257684339999999
 49
0.01
 49
-10.29806534
 47
0.775229
 98
        1
 10
0.0
 20
0.0
  0
LWPOLYLINE
  5
D8
330
5D
100
AcDbEntity
  8
Ech.1_5
  6
Continuous
 62
     7
370
    -3
100
AcDbPolyline
 90
        4
 70
     1
 43
0.0
 10
35428.73535822
 20
7779.588666239999
 10
35468.73535822
 20
7779.588666239999
 10
35468.73535822
 20
7734.58866624
 10
35428.73535822
 20
7734.58866624
  0
LWPOLYLINE
  5
D9
330
5D
100
AcDbEntity
  8
Ech.1_5
  6
Continuous
 62
     7
370
    -3
100
AcDbPolyline
 90
        4
 70
     1
 43
0.0
 10
35160.73535822
 20
7419.07759433
 10
35200.73535822
 20
7419.07759433
 10
35200.73535822
 20
7374.07759433
 10
35160.73535822
 20
7374.07759433
  0
LWPOLYLINE
  5
DA
330
5D
100
AcDbEntity
  8
Ech.1_5
  6
Continuous
 62
     7
370
    -3
100
AcDbPolyline
 90
        4
 70
     1
 43
0.0
 10
35428.73535822
 20
7419.07759433
 10
35468.73535822
 20
7419.07759433
 10
35468.73535822
 20
7374.07759433
 10
35428.73535822
 20
7374.07759433
  0
LWPOLYLINE
  5
DB
330
5D
100
AcDbEntity
  8
Ech.1_5
  6
Continuous
 62
     7
370
    -3
100
AcDbPolyline
 90
        4
 70
     1
 43
0.0
 10
35147.73535822
 20
7837.55331829
 10
35160.73535822
 20
7837.55331829
 10
35160.73535822
 20
7354.077594329999
 10
35147.73535822
 20
7354.077594329999
  0
HATCH
  5
DC
330
5D
100
AcDbEntity
  8
Ech.1_5
  6
Continuous
 62
     7
100
AcDbHatch
 10
0.0
 20
0.0
 30
0.0
210
0.0
220
0.0
230
1.0
  2
DOTS2
 70
     0
 71
     0
 91
        1
 92
        7
 72
     0
 73
     1
 93
        4
 10
35147.73535822
 20
7837.55331829
 10
35160.73535822
 20
7837.55331829
 10
35160.73535822
 20
7354.077594329999
 10
35147.73535822
 20
7354.077594329999
 97
        0
 75
     0
 76
     2
 52
0.0
 41
4.72440952
 77
     0
 78
     1
 53
0.0
 43
0.0
 44
0.0
 45
3.75
 46
3.535
 79
     2
 49
0.0
 49
-3.535
 47
0.775229
 98
        1
 10
0.0
 20
0.0
  0
LWPOLYLINE
  5
DD
330
5D
100
AcDbEntity
  8
Ech.1_5
  6
Continuous
 62
     7
370
    -3
100
AcDbPolyline
 90
        4
 70
     1
 43
0.0
 10
35200.73535822
 20
7837.553757329999
 10
35209.73535822
 20
7837.553757329999
 10
35209.73535822
 20
7354.077594329999
 10
35200.73535822
 20
7354.077594329999
  0
HATCH
  5
DE
330
5D
100
AcDbEntity
  8
Ech.1_5
  6
Continuous
 62
     7
100
AcDbHatch
 10
0.0
 20
0.0
 30
0.0
210
0.0
220
0.0
230
1.0
  2
CDWK10A
 70
     0
 71
     0
 91
        1
 92
        7
 72
     0
 73
     1
 93
        4
 10
35200.73535822
 20
7837.553757329999
 10
35209.73535822
 20
7837.553757329999
 10
35209.73535822
 20
7354.077594329999
 10
35200.73535822
 20
7354.077594329999
 97
        0
 75
     0
 76
     2
 52
0.0
 41
1.0
 77
     0
 78
     3
 53
45.0
 43
0.0
 44
0.0
 45
0.0
 46
42.00000167
 79
     0
 53
45.0
 43
0.0
 44
10.80000043
 45
0.0
 46
42.00000167
 79
     0
 53
45.0
 43
0.0
 44
21.60000086
 45
0.0
 46
42.00000167
 79
     0
 47
0.775229
 98
        1
 10
0.0
 20
0.0
  0
LWPOLYLINE
  5
DF
330
5D
100
AcDbEntity
  8
Ech.1_5
  6
Continuous
 62
     7
370
    -3
100
AcDbPolyline
 90
        4
 70
     1
 43
0.0
 10
35468.73535822
 20
7837.55331829
 10
35481.73535822
 20
7837.55331829
 10
35481.73535822
 20
7354.077594329999
 10
35468.73535822
 20
7354.077594329999
  0
HATCH
  5
E0
330
5D
100
AcDbEntity
  8
Ech.1_5
  6
Continuous
 62
     7
100
AcDbHatch
 10
0.0
 20
0.0
 30
0.0
210
0.0
220
0.0
230
1.0
  2
DOTS2
 70
     0
 71
     0
 91
        1
 92
        7
 72
     0
 73
     1
 93
        4
 10
35468.73535822
 20
7837.55331829
 10
35481.73535822
 20
7837.55331829
 10
35481.73535822
 20
7354.077594329999
 10
35468.73535822
 20
7354.077594329999
 97
        0
 75
     0
 76
     2
 52
0.0
 41
4.72440952
 77
     0
 78
     1
 53
0.0
 43
0.0
 44
0.0
 45
3.75
 46
3.535
 79
     2
 49
0.0
 49
-3.535
 47
0.775229
 98
        1
 10
0.0
 20
0.0
  0
LWPOLYLINE
  5
E1
330
5D
100
AcDbEntity
  8
Ech.1_5
  6
Continuous
 62
     7
370
    -3
100
AcDbPolyline
 90
        4
 70
     1
 43
0.0
 10
35160.73535822
 20
7779.588666239999
 10
35200.73535822
 20
7779.588666239999
 10
35200.73535822
 20
7734.58866624
 10
35160.73535822
 20
7734.58866624
  0
LINE
  5
E2
330
5D
100
AcDbEntity
  8
Ech.1_5
  6
Continuous
 62
     7
370
    -3
100
AcDbLine
 10
35304.73535822
 20
7837.554030559999
 30
0.0
 11
35304.73535822
 21
7389.07759433
 31
0.0
  0
LWPOLYLINE
  5
E3
330
5D
100
AcDbEntity
  8
Ech.1_5
  6
Continuous
 62
     7
370
    -3
100
AcDbPolyline
 90
        4
 70
     1
 43
0.0
 10
35419.73535822
 20
7837.553757329999
 10
35428.73535822
 20
7837.553757329999
 10
35428.73535822
 20
7354.077594329999
 10
35419.73535822
 20
7354.077594329999
  0
HATCH
  5
E4
330
5D
100
AcDbEntity
  8
Ech.1_5
  6
Continuous
 62
     7
100
AcDbHatch
 10
0.0
 20
0.0
 30
0.0
210
0.0
220
0.0
230
1.0
  2
CDWK10A
 70
     0
 71
     0
 91
        1
 92
        7
 72
     0
 73
     1
 93
        4
 10
35419.73535822
 20
7837.553757329999
 10
35428.73535822
 20
7837.553757329999
 10
35428.73535822
 20
7354.077594329999
 10
35419.73535822
 20
7354.077594329999
 97
        0
 75
     0
 76
     2
 52
0.0
 41
1.0
 77
     0
 78
     3
 53
45.0
 43
0.0
 44
0.0
 45
0.0
 46
42.00000167
 79
     0
 53
45.0
 43
0.0
 44
10.80000043
 45
0.0
 46
42.00000167
 79
     0
 53
45.0
 43
0.0
 44
21.60000086
 45
0.0
 46
42.00000167
 79
     0
 47
0.775229
 98
        1
 10
0.0
 20
0.0
  0
LINE
  5
E5
330
5D
100
AcDbEntity
  8
Ech.1_5
  6
Continuous
 62
     7
370
    -3
100
AcDbLine
 10
35324.73535822
 20
7837.554030559999
 30
0.0
 11
35324.73535822
 21
7389.07759433
 31
0.0
  0
LWPOLYLINE
  5
E6
330
5D
100
AcDbEntity
  8
Ech.1_5
  6
Continuous
 62
     7
370
    -3
100
AcDbPolyline
 90
        4
 70
     0
 43
0.0
 10
35419.73535822
 20
7389.07759433
 10
35324.73535822
 20
7344.077594329999
 10
35324.73535822
 20
7389.07759433
 10
35419.73535822
 20
7344.077594329999
  0
LWPOLYLINE
  5
E7
330
5D
100
AcDbEntity
  8
Ech.1_5
  6
Continuous
 62
     7
370
    -3
100
AcDbPolyline
 90
        4
 70
     0
 43
0.0
 10
35304.73535822
 20
7389.07759433
 10
35209.73535822
 20
7344.077594329999
 10
35209.73535822
 20
7389.07759433
 10
35304.73535822
 20
7344.077594329999
  0
LWPOLYLINE
  5
E8
330
5D
100
AcDbEntity
  8
Ech.1_5
  6
Continuous
 62
     7
370
    -3
100
AcDbPolyline
 90
        5
 70
     0
 43
0.0
 10
35160.73535822
 20
7779.588666239999
 10
35200.73535822
 20
7779.588666239999
 10
35200.73535822
 20
7734.58866624
 10
35160.73535822
 20
7734.58866624
 10
35160.73535822
 20
7779.588666239999
  0
LWPOLYLINE
  5
E9
330
5D
100
AcDbEntity
  8
Ech.1_5
  6
Continuous
 62
     7
370
    -3
100
AcDbPolyline
 90
        5
 70
     0
 43
0.0
 10
35160.73535822
 20
7419.07759433
 10
35200.73535822
 20
7419.07759433
 10
35200.73535822
 20
7374.07759433
 10
35160.73535822
 20
7374.07759433
 10
35160.73535822
 20
7419.07759433
  0
LWPOLYLINE
  5
EA
330
5D
100
AcDbEntity
  8
Ech.1_5
  6
Continuous
 62
     7
370
    -3
100
AcDbPolyline
 90
        5
 70
     0
 43
0.0
 10
35428.73535822
 20
7779.588666239999
 10
35468.73535822
 20
7779.588666239999
 10
35468.73535822
 20
7734.58866624
 10
35428.73535822
 20
7734.58866624
 10
35428.73535822
 20
7779.588666239999
  0
LWPOLYLINE
  5
EB
330
5D
100
AcDbEntity
  8
Ech.1_5
  6
Continuous
 62
     7
370
    -3
100
AcDbPolyline
 90
        5
 70
     0
 43
0.0
 10
35419.73535822
 20
7344.077594329999
 10
35324.73535822
 20
7344.077594329999
 10
35324.73535822
 20
7389.07759433
 10
35419.73535822
 20
7389.07759433
 10
35419.73535822
 20
7344.077594329999
  0
LWPOLYLINE
  5
EC
330
5D
100
AcDbEntity
  8
Ech.1_5
  6
Continuous
 62
     7
370
    -3
100
AcDbPolyline
 90
        5
 70
     0
 43
0.0
 10
35304.73535822
 20
7344.077594329999
 10
35209.73535822
 20
7344.077594329999
 10
35209.73535822
 20
7389.07759433
 10
35304.73535822
 20
7389.07759433
 10
35304.73535822
 20
7344.077594329999
  0
LWPOLYLINE
  5
ED
330
5D
100
AcDbEntity
  8
Ech.1_5
  6
Continuous
 62
     7
370
    -3
100
AcDbPolyline
 90
        5
 70
     0
 43
0.0
 10
35428.73535822
 20
7419.07759433
 10
35468.73535822
 20
7419.07759433
 10
35468.73535822
 20
7374.07759433
 10
35428.73535822
 20
7374.07759433
 10
35428.73535822
 20
7419.07759433
  0
LWPOLYLINE
  5
EE
330
5D
100
AcDbEntity
  8
Ech.1_5
  6
Continuous
 62
     9
370
    -3
100
AcDbPolyline
 90
       76
 70
     0
 43
0.0
 10
35147.73535822
 20
7344.08625536
 42
-0.5087895900000001
 10
35140.9625124
 20
7352.47005042
 10
35147.17485785
 20
7375.685795959999
 42
1.303226189999999
 10
35134.29584472
 20
7375.68579661
 10
35140.50818785
 20
7352.47005044
 42
-1.303226189999999
 10
35127.62917473
 20
7352.47005109
 10
35133.84152018
 20
7375.68579663
 42
1.303226189999999
 10
35120.96250705
 20
7375.68579728
 10
35127.17485018
 20
7352.47005111
 42
-1.303226189999999
 10
35114.29583705
 20
7352.47005175
 10
35120.5081825
 20
7375.6857973
 42
1.303226189999999
 10
35107.62916937
 20
7375.685797940001
 10
35113.84151250001
 20
7352.47005178
 42
-1.303226189999999
 10
35100.96249938
 20
7352.47005242
 10
35107.17484483
 20
7375.68579796
 42
1.303226189999999
 10
35094.2958317
 20
7375.68579861
 10
35100.50817483
 20
7352.470052440001
 42
-1.303226189999999
 10
35087.6291617
 20
7352.470053090001
 10
35093.84150715
 20
7375.685798630001
 42
1.303226189999999
 10
35080.96249402
 20
7375.685799270001
 10
35087.17483715
 20
7352.47005311
 42
-1.303226189999999
 10
35074.29582403
 20
7352.470053750001
 10
35080.50816948
 20
7375.685799300001
 42
1.303226189999999
 10
35067.62915635
 20
7375.68579994
 10
35073.84149948
 20
7352.47005378
 42
-1.303226189999999
 10
35060.96248635
 20
7352.47005442
 10
35067.1748318
 20
7375.68579996
 42
1.303226189999999
 10
35054.29581867
 20
7375.68580061
 10
35060.50816180001
 20
7352.470054440001
 42
-1.303226189999999
 10
35047.62914868
 20
7352.470055089999
 10
35053.84149413
 20
7375.685800630001
 42
1.303226189999999
 10
35040.962481
 20
7375.685801270001
 10
35047.17482413
 20
7352.470055110001
 42
-1.303226189999999
 10
35034.29581100001
 20
7352.47005575
 10
35040.50815645
 20
7375.6858013
 42
1.303226189999999
 10
35027.62914332
 20
7375.68580194
 10
35033.84148646
 20
7352.47005578
 42
-1.303226189999999
 10
35020.96247333
 20
7352.47005642
 10
35027.17481878
 20
7375.68580196
 42
1.303226189999999
 10
35014.29580565
 20
7375.68580261
 10
35020.50814878
 20
7352.470056440001
 42
-1.303226189999999
 10
35007.62913565
 20
7352.470057090001
 10
35013.8414811
 20
7375.685802629999
 42
1.303226189999999
 10
35000.96246798
 20
7375.685803270001
 10
35007.17481111
 20
7352.47005711
 42
-1.303226189999999
 10
34994.29579798
 20
7352.47005775
 10
35000.50814343
 20
7375.685803300001
 42
1.303226189999999
 10
34987.62913030001
 20
7375.68580394
 10
34993.84147343
 20
7352.47005778
 42
-1.303226189999999
 10
34980.96246030001
 20
7352.47005842
 10
34987.17480575
 20
7375.68580396
 42
1.303226189999999
 10
34974.29579263
 20
7375.685804609999
 10
34980.50813576
 20
7352.470058439999
 42
-1.303226189999999
 10
34967.62912263
 20
7352.470059089999
 10
34973.84146808
 20
7375.685804630001
 42
1.303226189999999
 10
34960.96245495
 20
7375.685805269999
 10
34967.17479808
 20
7352.47005911
 42
-1.303226189999999
 10
34954.29578495
 20
7352.47005975
 10
34960.5081304
 20
7375.6858053
 42
1.303226189999999
 10
34947.62911728
 20
7375.68580594
 10
34953.84146041001
 20
7352.47005978
 42
-1.303226189999999
 10
34940.96244728
 20
7352.470060419999
 10
34947.17479273
 20
7375.68580596
 42
1.303226189999999
 10
34934.2957796
 20
7375.68580661
 10
34940.50812273
 20
7352.470060440001
 42
-1.303226189999999
 10
34927.6291096
 20
7352.47006109
 10
34933.84145505
 20
7375.685806629999
 42
1.303226189999999
 10
34920.96244193
 20
7375.68580727
 10
34927.17478506
 20
7352.47006111
 42
-1.303226189999999
 10
34914.29577193001
 20
7352.47006175
 10
34920.50811738
 20
7375.6858073
 42
1.303226189999999
 10
34907.62910425
 20
7375.68580794
 10
34913.84144738
 20
7352.47006178
 42
-1.303226189999999
 10
34900.96243425
 20
7352.470062420001
 10
34907.17477971001
 20
7375.68580796
 42
0.5176351600000001
 10
34900.2156166
 20
7384.057657790001
  0
3DFACE
  5
EF
102
{ACAD_REACTORS
330
F0
102
}
330
5D
100
AcDbEntity
  8
Ech.1_5
  6
Continuous
 62
     9
370
    -3
100
AcDbFace
 10
35740.01312645
 20
7384.0779419
 30
2500.0
 11
35481.73535822
 21
7384.0779419
 31
2500.0
 12
35481.73535822
 22
7424.07792887
 32
2500.0
 13
35740.01394636
 23
7424.07792887
 33
2500.0
  0
HATCH
  5
F0
330
5D
100
AcDbEntity
  8
Ech.1_5
  6
Continuous
 62
     9
100
AcDbHatch
 10
0.0
 20
0.0
 30
0.0
210
0.0
220
0.0
230
1.0
  2
AR-CONC
 70
     0
 71
     1
 91
        1
 92
        7
 72
     0
 73
     1
 93
        4
 10
35740.01312645
 20
7384.0779419
 10
35481.73535822
 20
7384.0779419
 10
35481.73535822
 20
7424.07792887
 10
35740.01394636
 20
7424.07792887
 97
        1
330
EF
 75
     0
 76
     2
 52
45.0
 41
0.06299252
 77
     0
 78
    13
 53
50.0
 43
0.0
 44
0.0
 45
-10.04951288
 46
0.87921838
 79
     2
 49
1.050822989999999
 49
-11.55905264
 53
355.0
 43
0.0
 44
0.0
 45
-1.944041389999999
 46
10.53894322
 79
     2
 49
0.84065802
 49
-9.24724211
 53
100.45140076
 43
0.83745904
 44
-0.073268
 45
-8.10547867
 46
-9.65971878
 79
     2
 49
0.8930620099999998
 49
-9.82368293
 53
46.18420029
 43
0.0
 44
2.802195109999999
 45
-14.95308477
 46
2.31908205
 79
     2
 49
1.57623401
 49
-17.33857753
 53
96.63559723
 43
1.246090069999999
 44
2.60893706
 45
-13.09553414
 46
-13.64833836
 79
     2
 49
1.33959307
 49
-14.73552249
 53
351.1842041
 43
0.0
 44
2.802195109999999
 45
13.09552173
 46
13.64835069
 79
     2
 49
1.26098802
 49
-13.87086317
 53
21.0
 43
1.401097079999999
 44
2.101645979999999
 45
-8.36324849
 46
5.64108224
 79
     2
 49
1.050822989999999
 49
-11.55905264
 53
326.0
 43
1.401097079999999
 44
2.101645979999999
 45
3.40908414
 46
10.1600574
 79
     2
 49
0.84065802
 49
-9.24724211
 53
71.45140076
 43
2.09803394
 44
1.631554989999999
 45
-11.77233597
 46
-4.51896637
 79
     2
 49
0.8930620099999998
 49
-9.82368293
 53
37.5
 43
0.0
 44
0.0
 45
0.17037085
 46
4.664166709999999
 79
     6
 49
0.01
 49
-9.135153909999999
 49
0.01
 49
-9.38735213
 49
0.01
 49
-9.282268659999999
 53
7.499999999999999
 43
0.0
 44
0.0
 45
3.68586042
 46
5.526091919999999
 79
     6
 49
0.01
 49
-5.35219105
 49
0.01
 49
-8.92498888
 49
0.01
 49
-3.537771039999999
 53
-32.5
 43
-3.124447149999999
 44
0.0
 45
7.479371099999999
 46
-0.31601602
 79
     6
 49
0.01
 49
-3.502743059999999
 49
0.01
 49
-10.92855947
 49
0.01
 49
-14.50135729
 53
-42.5
 43
-4.52554423
 44
0.0
 45
8.17100583
 46
1.402568239999999
 79
     6
 49
0.01
 49
-4.553566049999999
 49
0.01
 49
-7.257684339999999
 49
0.01
 49
-10.29806534
 47
0.775229
 98
        1
 10
0.0
 20
0.0
  0
3DFACE
  5
F1
102
{ACAD_REACTORS
330
F2
102
}
330
5D
100
AcDbEntity
  8
Ech.1_5
  6
Continuous
 62
     9
370
    -3
100
AcDbFace
 10
35322.04855424
 20
6997.650043429999
 30
2500.0
 11
35324.73535822
 21
7000.579988050001
 31
2500.0
 12
35324.73535822
 22
7004.496700309999
 32
2500.0
 13
35324.73535822
 23
7004.496700309999
 33
2500.0
  0
HATCH
  5
F2
330
5D
100
AcDbEntity
  8
Ech.1_5
  6
Continuous
 62
     9
100
AcDbHatch
 10
0.0
 20
0.0
 30
0.0
210
0.0
220
0.0
230
1.0
  2
AR-CONC
 70
     0
 71
     1
 91
        1
 92
        7
 72
     0
 73
     1
 93
        3
 10
35322.04855424
 20
6997.650043429999
 10
35324.73535822
 20
7000.579988050001
 10
35324.73535822
 20
7004.496700309999
 97
        1
330
F1
 75
     0
 76
     2
 52
5.0
 41
0.11811097
 77
     0
 78
    13
 53
50.0
 43
0.0
 44
0.0
 45
-18.84283637
 46
1.648534429999999
 79
     2
 49
1.97029307
 49
-21.67322338
 53
355.0
 43
0.0
 44
0.0
 45
-3.645077559999999
 46
19.76051824
 79
     2
 49
1.576233769999999
 49
-17.3385787
 53
100.45140076
 43
1.570235679999999
 44
-0.13737749
 45
-15.19777228
 46
-18.11197244
 79
     2
 49
1.67449124
 49
-18.41940522
 53
46.18420029
 43
0.0
 44
5.25411576
 45
-28.03703353
 46
4.34827878
 79
     2
 49
2.95543872
 49
-32.50983238
 53
96.63559723
 43
2.336418849999999
 44
4.891756919999999
 45
-24.55412615
 46
-25.59063404
 79
     2
 49
2.511736969999999
 49
-27.62910426
 53
351.1842041
 43
0.0
 44
5.25411576
 45
24.55410288
 46
25.59065715
 79
     2
 49
2.364352489999999
 49
-26.00786805
 53
21.0
 43
2.627056989999999
 44
3.94058615
 45
-15.68109068
 46
10.57702905
 79
     2
 49
1.97029307
 49
-21.67322338
 53
326.0
 43
2.627056989999999
 44
3.94058615
 45
6.392032679999999
 46
19.05010734
 79
     2
 49
1.576233769999999
 49
-17.3385787
 53
71.45140076
 43
3.933813569999999
 44
3.059165549999999
 45
-22.07312962
 46
-8.473061819999999
 79
     2
 49
1.67449124
 49
-18.41940522
 53
37.5
 43
0.0
 44
0.0
 45
0.31944534
 46
8.74531245
 79
     6
 49
0.01875
 49
-17.12841332
 49
0.01875
 49
-17.60128498
 49
0.01875
 49
-17.40425348
 53
7.499999999999999
 43
0.0
 44
0.0
 45
6.91098818
 46
10.3614222
 79
     6
 49
0.01875
 49
-10.03535807
 49
0.01875
 49
-16.7343539
 49
0.01875
 49
-6.633320599999999
 53
-32.5
 43
-5.858338329999999
 44
0.0
 45
14.02382061
 46
-0.59253003
 79
     6
 49
0.01875
 49
-6.56764314
 49
0.01875
 49
-20.49104869
 49
0.01875
 49
-27.19004452
 53
-42.5
 43
-8.485395309999999
 44
0.0
 45
15.32063571
 46
2.629815419999999
 79
     6
 49
0.01875
 49
-8.537936209999999
 49
0.01875
 49
-13.60815793
 49
0.01875
 49
-19.30887222
 47
0.775229
 98
        1
 10
0.0
 20
0.0
  0
LWPOLYLINE
  5
F3
102
{ACAD_REACTORS
330
F4
102
}
330
5D
100
AcDbEntity
  8
Ech.1_5
  6
Continuous
 62
     9
370
    -3
100
AcDbPolyline
 90
       10
 70
     1
 43
0.0
 38
2500.0
 39
-2500.0
 10
35413.54369732
 20
7164.07762471
 10
35235.92636816
 20
7164.07762471
 10
35224.73505083
 20
7164.07762471
 10
35224.73505083
 20
7023.18842966
 10
35323.93325099
 20
7046.564115240001
 10
35335.20470638
 20
7067.608317920001
 10
35330.88157085
 20
7029.22585747
 10
35342.15246396001
 20
7050.857404770001
 10
35424.73534013
 20
7070.343817379999
 10
35424.73534013
 20
7164.07762471
  0
HATCH
  5
F4
330
5D
100
AcDbEntity
  8
Ech.1_5
  6
Continuous
 62
     9
100
AcDbHatch
 10
0.0
 20
0.0
 30
0.0
210
0.0
220
0.0
230
1.0
  2
AR-CONC
 70
     0
 71
     1
 91
        1
 92
        7
 72
     0
 73
     1
 93
        7
 10
35224.73505083
 20
7023.18842966
 10
35323.93325099
 20
7046.564115240004
 10
35335.20470638001
 20
7067.608317920003
 10
35333.07679391494
 20
7048.715892395859
 10
35424.73534012999
 20
7070.343817379999
 10
35424.73534013001
 20
7164.07762471
 10
35224.73505083
 20
7164.07762471
 97
        1
330
F3
 75
     0
 76
     2
 52
5.0
 41
0.11811097
 77
     0
 78
    13
 53
50.0
 43
0.0
 44
0.0
 45
-18.84283637
 46
1.648534429999999
 79
     2
 49
1.97029307
 49
-21.67322338
 53
355.0
 43
0.0
 44
0.0
 45
-3.645077559999999
 46
19.76051824
 79
     2
 49
1.576233769999999
 49
-17.3385787
 53
100.45140076
 43
1.570235679999999
 44
-0.13737749
 45
-15.19777228
 46
-18.11197244
 79
     2
 49
1.67449124
 49
-18.41940522
 53
46.18420029
 43
0.0
 44
5.25411576
 45
-28.03703353
 46
4.34827878
 79
     2
 49
2.95543872
 49
-32.50983238
 53
96.63559723
 43
2.336418849999999
 44
4.891756919999999
 45
-24.55412615
 46
-25.59063404
 79
     2
 49
2.511736969999999
 49
-27.62910426
 53
351.1842041
 43
0.0
 44
5.25411576
 45
24.55410288
 46
25.59065715
 79
     2
 49
2.364352489999999
 49
-26.00786805
 53
21.0
 43
2.627056989999999
 44
3.94058615
 45
-15.68109068
 46
10.57702905
 79
     2
 49
1.97029307
 49
-21.67322338
 53
326.0
 43
2.627056989999999
 44
3.94058615
 45
6.392032679999999
 46
19.05010734
 79
     2
 49
1.576233769999999
 49
-17.3385787
 53
71.45140076
 43
3.933813569999999
 44
3.059165549999999
 45
-22.07312962
 46
-8.473061819999999
 79
     2
 49
1.67449124
 49
-18.41940522
 53
37.5
 43
0.0
 44
0.0
 45
0.31944534
 46
8.74531245
 79
     6
 49
0.01875
 49
-17.12841332
 49
0.01875
 49
-17.60128498
 49
0.01875
 49
-17.40425348
 53
7.499999999999999
 43
0.0
 44
0.0
 45
6.91098818
 46
10.3614222
 79
     6
 49
0.01875
 49
-10.03535807
 49
0.01875
 49
-16.7343539
 49
0.01875
 49
-6.633320599999999
 53
-32.5
 43
-5.858338329999999
 44
0.0
 45
14.02382061
 46
-0.59253003
 79
     6
 49
0.01875
 49
-6.56764314
 49
0.01875
 49
-20.49104869
 49
0.01875
 49
-27.19004452
 53
-42.5
 43
-8.485395309999999
 44
0.0
 45
15.32063571
 46
2.629815419999999
 79
     6
 49
0.01875
 49
-8.537936209999999
 49
0.01875
 49
-13.60815793
 49
0.01875
 49
-19.30887222
 47
0.775229
 98
        1
 10
0.0
 20
0.0
  0
LWPOLYLINE
  5
F5
102
{ACAD_REACTORS
330
F6
102
}
330
5D
100
AcDbEntity
  8
Ech.1_5
  6
Continuous
 62
     9
370
    -3
100
AcDbPolyline
 90
        8
 70
     1
 43
0.0
 38
2500.0
 39
-2500.0
 10
35424.7353877
 20
6951.76242707
 10
35424.7353877
 20
7065.38556105
 10
35343.50948779
 20
7046.26276188
 10
35325.09297604001
 20
7010.917058469999
 10
35329.45803788
 20
7049.67175683
 10
35325.11354098
 20
7041.92211667
 10
35224.73505083
 20
7018.23030025
 10
35224.73505083
 20
6951.76242707
  0
HATCH
  5
F6
330
5D
100
AcDbEntity
  8
Ech.1_5
  6
Continuous
 62
     9
100
AcDbHatch
 10
0.0
 20
0.0
 30
0.0
210
0.0
220
0.0
230
1.0
  2
AR-CONC
 70
     0
 71
     1
 91
        1
 92
        7
 72
     0
 73
     1
 93
        7
 10
35224.73505083
 20
6951.762427070001
 10
35424.7353877
 20
6951.76242707
 10
35424.73538769999
 20
7065.38556105
 10
35343.50948778999
 20
7046.262761879998
 10
35325.09297604001
 20
7010.91705846998
 10
35328.67998291726
 20
7042.763885534263
 10
35224.73505083
 20
7018.23030025
 97
        1
330
F5
 75
     0
 76
     2
 52
45.0
 41
0.11811097
 77
     0
 78
    13
 53
50.0
 43
0.0
 44
0.0
 45
-18.84283637
 46
1.648534429999999
 79
     2
 49
1.97029307
 49
-21.67322338
 53
355.0
 43
0.0
 44
0.0
 45
-3.645077559999999
 46
19.76051824
 79
     2
 49
1.576233769999999
 49
-17.3385787
 53
100.45140076
 43
1.570235679999999
 44
-0.13737749
 45
-15.19777228
 46
-18.11197244
 79
     2
 49
1.67449124
 49
-18.41940522
 53
46.18420029
 43
0.0
 44
5.25411576
 45
-28.03703353
 46
4.34827878
 79
     2
 49
2.95543872
 49
-32.50983238
 53
96.63559723
 43
2.336418849999999
 44
4.891756919999999
 45
-24.55412615
 46
-25.59063404
 79
     2
 49
2.511736969999999
 49
-27.62910426
 53
351.1842041
 43
0.0
 44
5.25411576
 45
24.55410288
 46
25.59065715
 79
     2
 49
2.364352489999999
 49
-26.00786805
 53
21.0
 43
2.627056989999999
 44
3.94058615
 45
-15.68109068
 46
10.57702905
 79
     2
 49
1.97029307
 49
-21.67322338
 53
326.0
 43
2.627056989999999
 44
3.94058615
 45
6.392032679999999
 46
19.05010734
 79
     2
 49
1.576233769999999
 49
-17.3385787
 53
71.45140076
 43
3.933813569999999
 44
3.059165549999999
 45
-22.07312962
 46
-8.473061819999999
 79
     2
 49
1.67449124
 49
-18.41940522
 53
37.5
 43
0.0
 44
0.0
 45
0.31944534
 46
8.74531245
 79
     6
 49
0.01875
 49
-17.12841332
 49
0.01875
 49
-17.60128498
 49
0.01875
 49
-17.40425348
 53
7.499999999999999
 43
0.0
 44
0.0
 45
6.91098818
 46
10.3614222
 79
     6
 49
0.01875
 49
-10.03535807
 49
0.01875
 49
-16.7343539
 49
0.01875
 49
-6.633320599999999
 53
-32.5
 43
-5.858338329999999
 44
0.0
 45
14.02382061
 46
-0.59253003
 79
     6
 49
0.01875
 49
-6.56764314
 49
0.01875
 49
-20.49104869
 49
0.01875
 49
-27.19004452
 53
-42.5
 43
-8.485395309999999
 44
0.0
 45
15.32063571
 46
2.629815419999999
 79
     6
 49
0.01875
 49
-8.537936209999999
 49
0.01875
 49
-13.60815793
 49
0.01875
 49
-19.30887222
 47
0.775229
 98
        1
 10
0.0
 20
0.0
  0
LWPOLYLINE
  5
F7
102
{ACAD_REACTORS
330
F8
102
}
330
5D
100
AcDbEntity
  8
Ech.1_5
  6
Continuous
 62
     9
370
    -3
100
AcDbPolyline
 90
        8
 70
     1
 43
0.0
 10
35740.01408356
 20
7220.302936359999
 10
35740.01408356
 20
7304.075742790001
 10
35524.73534013
 20
7304.07736061
 10
35524.73534013
 20
7109.077518800001
 10
35740.01408356
 20
7109.077146210001
 10
35740.01408356
 20
7201.44101913
 10
35722.03673515
 20
7217.926522289999
 10
35757.99243516
 20
7203.81658227
  0
HATCH
  5
F8
330
5D
100
AcDbEntity
  8
Ech.1_5
  6
Continuous
 62
     9
100
AcDbHatch
 10
0.0
 20
0.0
 30
0.0
210
0.0
220
0.0
230
1.0
  2
ANSI31
 70
     0
 71
     1
 91
        1
 92
        7
 72
     0
 73
     1
 93
        7
 10
35524.73534013
 20
7109.077518799999
 10
35740.01408356
 20
7109.077146210001
 10
35740.01408356
 20
7201.441019129998
 10
35722.03673515
 20
7217.926522290001
 10
35740.01408356
 20
7210.871749118758
 10
35740.01408356
 20
7304.075742789999
 10
35524.73534013
 20
7304.07736061
 97
        1
330
F7
 75
     0
 76
     2
 52
5.0
 41
6.299252099999999
 77
     0
 78
     1
 53
50.0
 43
0.0
 44
0.0
 45
15.32088886
 46
-12.85575219
 79
     0
 47
0.775229
 98
        1
 10
0.0
 20
0.0
  0
LWPOLYLINE
  5
F9
102
{ACAD_REACTORS
330
FA
102
}
330
5D
100
AcDbEntity
  8
Ech.1_5
  6
Continuous
 62
     9
370
    -3
100
AcDbPolyline
 90
       12
 70
     1
 43
0.0
 10
35124.73505083
 20
7109.077518800001
 10
35124.73505083
 20
6999.62395748
 10
35224.73505083
 20
7023.18842966
 10
35224.73505083
 20
7164.078126870001
 10
35235.92669364
 20
7164.07762471
 10
35235.92669364
 20
7209.077624710001
 10
35257.92669364
 20
7209.077624710001
 10
35257.92669364
 20
7254.077624709999
 10
35227.92669364
 20
7254.077624709999
 10
35158.92669364
 20
7296.07762471
 10
35158.92669364
 20
7304.07761756
 10
35124.73505083
 20
7304.07736061
  0
HATCH
  5
FA
330
5D
100
AcDbEntity
  8
Ech.1_5
  6
Continuous
 62
     9
100
AcDbHatch
 10
0.0
 20
0.0
 30
0.0
210
0.0
220
0.0
230
1.0
  2
ANSI31
 70
     0
 71
     1
 91
        1
 92
        7
 72
     0
 73
     1
 93
       10
 10
35124.73505083
 20
6999.62395748
 10
35224.73505083001
 20
7023.18842966
 10
35224.73505083
 20
7164.078126870001
 10
35235.92669364
 20
7209.077624710001
 10
35257.92669364
 20
7209.077624710001
 10
35257.92669364
 20
7254.077624710001
 10
35227.92669364
 20
7254.077624709999
 10
35145.78401050395
 20
7304.077518792812
 10
35124.73505083001
 20
7304.077360610001
 10
35124.73505083
 20
7109.077518800001
 97
        1
330
F9
 75
     0
 76
     2
 52
5.0
 41
6.299252099999999
 77
     0
 78
     1
 53
50.0
 43
0.0
 44
0.0
 45
15.32088886
 46
-12.85575219
 79
     0
 47
0.775229
 98
        1
 10
0.0
 20
0.0
  0
LWPOLYLINE
  5
FB
102
{ACAD_REACTORS
330
FC
102
}
330
5D
100
AcDbEntity
  8
Ech.1_5
  6
Continuous
 62
     9
370
    -3
100
AcDbPolyline
 90
        9
 70
     1
 43
0.0
 10
35124.73505083
 20
7122.76446009
 10
35124.73505083
 20
7109.077522229999
 10
34900.21531998
 20
7109.077146210001
 10
34900.21531998
 20
7201.44101913
 10
34882.23801991
 20
7217.926522289999
 10
34918.19371992
 20
7203.81658227
 10
34900.21531998
 20
7220.30298068
 10
34900.21531998
 20
7304.075742790001
 10
35124.73505083
 20
7304.07736979
  0
HATCH
  5
FC
330
5D
100
AcDbEntity
  8
Ech.1_5
  6
Continuous
 62
     9
100
AcDbHatch
 10
0.0
 20
0.0
 30
0.0
210
0.0
220
0.0
230
1.0
  2
ANSI31
 70
     0
 71
     1
 91
        1
 92
        7
 72
     0
 73
     1
 93
        8
 10
34900.21531998
 20
7109.077146210001
 10
35124.73505083
 20
7109.077522229999
 10
35124.73505083
 20
7122.76446009
 10
35124.73505083
 20
7304.07736979
 10
34900.21531997999
 20
7304.075742790001
 10
34900.21531998
 20
7220.302980679997
 10
34918.19371992001
 20
7203.816582269993
 10
34900.21531998
 20
7210.871768088613
 97
        1
330
FB
 75
     0
 76
     2
 52
5.0
 41
6.299252099999999
 77
     0
 78
     1
 53
50.0
 43
0.0
 44
0.0
 45
15.32088886
 46
-12.85575219
 79
     0
 47
0.775229
 98
        1
 10
0.0
 20
0.0
  0
LWPOLYLINE
  5
FD
102
{ACAD_REACTORS
330
FE
102
}
330
5D
100
AcDbEntity
  8
Ech.1_5
  6
Continuous
 62
     9
370
    -3
100
AcDbPolyline
 90
        4
 70
     1
 43
0.0
 10
35124.73505083
 20
6994.665688660001
 10
35124.73505083
 20
6951.76242707
 10
35224.73505083
 20
6951.76242707
 10
35224.73505083
 20
7018.23030025
  0
HATCH
  5
FE
330
5D
100
AcDbEntity
  8
Ech.1_5
  6
Continuous
 62
     9
100
AcDbHatch
 10
0.0
 20
0.0
 30
0.0
210
0.0
220
0.0
230
1.0
  2
ANSI31
 70
     0
 71
     1
 91
        1
 92
        7
 72
     0
 73
     1
 93
        4
 10
35124.73505083001
 20
6951.76242707
 10
35224.73505083
 20
6951.76242707
 10
35224.73505083
 20
7018.23030025
 10
35124.73505083
 20
6994.665688660001
 97
        1
330
FD
 75
     0
 76
     2
 52
5.0
 41
6.299252099999999
 77
     0
 78
     1
 53
50.0
 43
0.0
 44
0.0
 45
15.32088886
 46
-12.85575219
 79
     0
 47
0.775229
 98
        1
 10
0.0
 20
0.0
  0
LWPOLYLINE
  5
FF
330
5D
100
AcDbEntity
  8
Ech.1_5
  6
Continuous
 62
     9
370
    -3
100
AcDbPolyline
 90
       76
 70
     0
 43
0.0
 38
2500.0
 10
35740.01312611001
 20
7377.41120557
 42
1.14028181
 10
35726.90684354
 20
7375.685727379999
 10
35733.11923742001
 20
7352.469791539999
 42
-1.303226189999999
 10
35720.24011907
 20
7352.469792189999
 10
35726.45251529
 20
7375.68572741
 42
1.303226189999999
 10
35713.57339693
 20
7375.68572806
 10
35719.78579081
 20
7352.46979221
 42
-1.303226189999999
 10
35706.90667246
 20
7352.46979286
 10
35713.11906868
 20
7375.68572808
 42
1.303226189999999
 10
35700.23995033
 20
7375.685728730001
 10
35706.4523442
 20
7352.46979289
 42
-1.303226189999999
 10
35693.57322585
 20
7352.46979354
 10
35699.78562207
 20
7375.685728749999
 42
1.303226189999999
 10
35686.90650372
 20
7375.6857294
 10
35693.11889759
 20
7352.46979356
 42
-1.303226189999999
 10
35680.23977924
 20
7352.469794210001
 10
35686.45217546
 20
7375.68572942
 42
1.303226189999999
 10
35673.57305711
 20
7375.68573007
 10
35679.78545098
 20
7352.46979423
 42
-1.303226189999999
 10
35666.90633263
 20
7352.469794880001
 10
35673.11872885
 20
7375.685730099999
 42
1.303226189999999
 10
35660.2396105
 20
7375.685730749999
 10
35666.45200437001
 20
7352.4697949
 42
-1.303226189999999
 10
35653.57288602001
 20
7352.46979555
 10
35659.78528224
 20
7375.68573077
 42
1.303226189999999
 10
35646.90616389
 20
7375.68573142
 10
35653.11855777
 20
7352.469795580001
 42
-1.303226189999999
 10
35640.23943942
 20
7352.46979623
 10
35646.45183563
 20
7375.68573144
 42
1.303226189999999
 10
35633.57271728
 20
7375.68573209
 10
35639.78511116
 20
7352.46979625
 42
-1.303226189999999
 10
35626.90599281
 20
7352.4697969
 10
35633.11838902
 20
7375.68573211
 42
1.303226189999999
 10
35620.23927067
 20
7375.68573276
 10
35626.45166455
 20
7352.469796920001
 42
-1.303226189999999
 10
35613.5725462
 20
7352.469797570001
 10
35619.78494241
 20
7375.68573279
 42
1.303226189999999
 10
35606.90582406
 20
7375.685733430001
 10
35613.11821794
 20
7352.46979759
 42
-1.303226189999999
 10
35600.23909959
 20
7352.46979824
 10
35606.45149581
 20
7375.68573346
 42
1.303226189999999
 10
35593.57237745
 20
7375.68573411
 10
35599.78477133
 20
7352.46979827
 42
-1.303226189999999
 10
35586.90565298
 20
7352.469798920001
 10
35593.1180492
 20
7375.685734130001
 42
1.303226189999999
 10
35580.23893085
 20
7375.685734779999
 10
35586.45132472
 20
7352.469798939999
 42
-1.303226189999999
 10
35573.57220637
 20
7352.46979959
 10
35579.78460259
 20
7375.685734800001
 42
1.303226189999999
 10
35566.90548424
 20
7375.68573545
 10
35573.11787811
 20
7352.46979961
 42
-1.303226189999999
 10
35560.23875976
 20
7352.46980026
 10
35566.45115598
 20
7375.68573547
 42
1.303226189999999
 10
35553.57203763
 20
7375.685736120001
 10
35559.7844315
 20
7352.469800279999
 42
-1.303226189999999
 10
35546.90531315
 20
7352.469800929999
 10
35553.11770937001
 20
7375.68573615
 42
1.303226189999999
 10
35540.23859102001
 20
7375.6857368
 10
35546.45098489
 20
7352.46980096
 42
-1.303226189999999
 10
35533.57186654
 20
7352.4698016
 10
35539.78426276
 20
7375.68573682
 42
1.303226189999999
 10
35526.90514441
 20
7375.68573747
 10
35533.11753829
 20
7352.46980163
 42
-1.303226189999999
 10
35520.23841993
 20
7352.469802280001
 10
35526.45081615
 20
7375.685737490001
 42
1.303226189999999
 10
35513.57169780001
 20
7375.685738139999
 10
35519.78409168
 20
7352.469802299999
 42
-1.303226189999999
 10
35506.90497333
 20
7352.46980295
 10
35513.11736954
 20
7375.68573816
 42
1.303226189999999
 10
35500.23825119
 20
7375.68573881
 10
35506.45064507
 20
7352.46980297
 42
-1.303226189999999
 10
35493.57152672
 20
7352.46980362
 10
35499.78392293
 20
7375.685738840001
 42
1.303226189999999
 10
35486.90480458
 20
7375.685739489999
 10
35493.11719846
 20
7352.46980364
 42
-0.7872431500000001
 10
35481.73535631
 20
7346.270060990001
  0
LWPOLYLINE
  5
100
102
{ACAD_REACTORS
330
101
102
}
330
5D
100
AcDbEntity
  8
Ech.1_5
  6
Continuous
 62
     9
370
    -3
100
AcDbPolyline
 90
       11
 70
     1
 43
0.0
 10
35424.73534013
 20
7164.078126870001
 10
35424.73534013
 20
7070.343817379999
 10
35524.73534013
 20
7093.88250705
 10
35524.73534013
 20
7304.07736061
 10
35490.54369732
 20
7304.07761756
 10
35490.54369732
 20
7296.07762471
 10
35421.54369732
 20
7254.077624709999
 10
35391.54369732
 20
7254.077624709999
 10
35391.54369732
 20
7209.077624710001
 10
35413.54369732
 20
7209.077624710001
 10
35413.54369732
 20
7164.07762471
  0
HATCH
  5
101
330
5D
100
AcDbEntity
  8
Ech.1_5
  6
Continuous
 62
     9
100
AcDbHatch
 10
0.0
 20
0.0
 30
0.0
210
0.0
220
0.0
230
1.0
  2
ANSI31
 70
     0
 71
     1
 91
        1
 92
        7
 72
     0
 73
     1
 93
       11
 10
35391.54369732
 20
7209.077624710001
 10
35413.54369732
 20
7209.077624710001
 10
35413.54369732
 20
7164.07762471
 10
35424.73534013001
 20
7164.078126870001
 10
35424.73534013
 20
7070.343817379999
 10
35524.73534013
 20
7093.882507049999
 10
35524.73534013
 20
7304.07736061
 10
35490.54369732
 20
7304.077617560001
 10
35490.54369732
 20
7296.07762471
 10
35421.54369732
 20
7254.077624709999
 10
35391.54369732
 20
7254.077624710001
 97
        1
330
100
 75
     0
 76
     2
 52
5.0
 41
6.299252099999999
 77
     0
 78
     1
 53
50.0
 43
0.0
 44
0.0
 45
15.32088886
 46
-12.85575219
 79
     0
 47
0.775229
 98
        1
 10
0.0
 20
0.0
  0
LWPOLYLINE
  5
102
102
{ACAD_REACTORS
330
103
102
}
330
5D
100
AcDbEntity
  8
Ech.1_5
  6
Continuous
 62
     9
370
    -3
100
AcDbPolyline
 90
        4
 70
     1
 43
0.0
 10
35524.73534013
 20
6951.762311419999
 10
35524.7353877
 20
7088.924250719999
 10
35424.7353877
 20
7065.38556105
 10
35424.73534013
 20
6951.76242707
  0
HATCH
  5
103
330
5D
100
AcDbEntity
  8
Ech.1_5
  6
Continuous
 62
     9
100
AcDbHatch
 10
0.0
 20
0.0
 30
0.0
210
0.0
220
0.0
230
1.0
  2
ANSI31
 70
     0
 71
     1
 91
        1
 92
        7
 72
     0
 73
     1
 93
        4
 10
35424.73534013
 20
6951.762427070001
 10
35524.73534013
 20
6951.762311420002
 10
35524.73538770001
 20
7088.924250719999
 10
35424.73538770001
 20
7065.385561050003
 97
        1
330
102
 75
     0
 76
     2
 52
5.0
 41
6.299252099999999
 77
     0
 78
     1
 53
50.0
 43
0.0
 44
0.0
 45
15.32088886
 46
-12.85575219
 79
     0
 47
0.775229
 98
        1
 10
0.0
 20
0.0
  0
LWPOLYLINE
  5
104
330
5D
100
AcDbEntity
  8
Ech.1_5
  6
Continuous
 62
     9
370
    25
100
AcDbPolyline
 90
        5
 70
     0
 43
0.0
 38
2500.0
 10
35504.61478929
 20
7344.606252460001
 10
35486.9065303
 20
7344.606252460001
 10
35486.9065303
 20
7441.73113481
 10
35484.30172676
 20
7444.682511969999
 10
35484.30172676
 20
7465.82009298
  0
LINE
  5
105
330
5D
100
AcDbEntity
  8
Ech.1_5
  6
Continuous
 62
     9
370
    70
100
AcDbLine
 10
35483.20331712
 20
7441.331575639999
 30
2500.0
 11
35483.20331712
 21
7344.405101319999
 31
2500.0
  0
LWPOLYLINE
  5
106
330
5D
100
AcDbEntity
  8
Ech.1_5
  6
Continuous
 62
     9
370
    25
100
AcDbPolyline
 90
        5
 70
     0
 43
0.0
 38
2500.0
 10
35124.85592715
 20
7344.606252460001
 10
35142.56418613
 20
7344.606252460001
 10
35142.56418613
 20
7441.73113481
 10
35145.16898968
 20
7444.682511969999
 10
35145.16898968
 20
7465.82009298
  0
LINE
  5
107
330
5D
100
AcDbEntity
  8
Ech.1_5
  6
Continuous
 62
     9
370
    70
100
AcDbLine
 10
35146.26739932
 20
7441.331575639999
 30
2500.0
 11
35146.26739932
 21
7344.405101319999
 31
2500.0
  0
CIRCLE
  5
108
330
5D
100
AcDbEntity
  8
Ech.1_5
  6
Continuous
 62
     7
100
AcDbCircle
 10
35454.26318905
 20
7348.99554807
 30
0.0
 40
6.164441209999999
  0
HATCH
  5
109
330
5D
100
AcDbEntity
  8
Ech.1_5
 62
     7
100
AcDbHatch
 10
0.0
 20
0.0
 30
0.0
210
0.0
220
0.0
230
1.0
  2
ANSI31
 70
     0
 71
     0
 91
        1
 92
        7
 72
     1
 73
     1
 93
        2
 10
35460.42763025
 20
7348.99554807
 42
1.0
 10
35448.09874784
 20
7348.99554807
 42
1.0
 97
        0
 75
     0
 76
     2
 52
0.0
 41
0.9448878499999999
 77
     0
 78
     1
 53
45.0
 43
0.0
 44
0.0
 45
2.121320429999999
 46
-2.121320429999999
 79
     0
 47
0.775229
 98
        1
 10
0.0
 20
0.0
  0
CIRCLE
  5
10A
330
5D
100
AcDbEntity
  8
Ech.1_5
  6
Continuous
 62
     7
100
AcDbCircle
 10
35175.20752739
 20
7348.99554807
 30
0.0
 40
6.164441209999999
  0
HATCH
  5
10B
330
5D
100
AcDbEntity
  8
Ech.1_5
 62
     7
100
AcDbHatch
 10
0.0
 20
0.0
 30
0.0
210
0.0
220
0.0
230
1.0
  2
ANSI31
 70
     0
 71
     0
 91
        1
 92
        7
 72
     1
 73
     1
 93
        2
 10
35169.04308618
 20
7348.99554807
 42
-1.0
 10
35181.3719686
 20
7348.99554807
 42
-1.0
 97
        0
 75
     0
 76
     2
 52
0.0
 41
0.9448878499999999
 77
     0
 78
     1
 53
45.0
 43
0.0
 44
0.0
 45
2.121320429999999
 46
-2.121320429999999
 79
     0
 47
0.775229
 98
        1
 10
0.0
 20
0.0
  0
LINE
  5
10C
330
5D
100
AcDbEntity
  8
Ech.1_5
  6
CENTER
 62
   204
370
    70
100
AcDbLine
 10
35170.73535822
 20
7343.233523969999
 30
0.0
 11
35458.73535822
 21
7343.233523969999
 31
0.0
  0
LWPOLYLINE
  5
10D
330
5D
100
AcDbEntity
  8
Ech.1_5
  6
Continuous
 62
     9
370
    35
100
AcDbPolyline
 90
        4
 70
     0
 43
0.0
 38
2500.0
 10
35122.83355918
 20
7384.027160799999
 10
35147.73535822
 20
7384.027160799999
 10
35147.73535822
 20
7344.027173819999
 10
35122.83355918
 20
7344.027173819999
  0
LWPOLYLINE
  5
10E
330
5D
100
AcDbEntity
  8
Ech.1_5
  6
Continuous
 62
     9
370
    35
100
AcDbPolyline
 90
        4
 70
     0
 43
0.0
 38
2500.0
 10
35506.63715726
 20
7384.027160799999
 10
35481.73535822
 20
7384.027160799999
 10
35481.73535822
 20
7344.027173819999
 10
35506.63715726
 20
7344.027173819999
  0
LWPOLYLINE
  5
10F
330
5D
100
AcDbEntity
  8
Ech.1_5
  6
Continuous
 62
     9
370
    35
100
AcDbPolyline
 90
        3
 70
     0
 43
0.0
 38
2500.0
 10
35503.68068682
 20
7384.64734054
 10
35489.13993454
 20
7384.64734054
 10
35489.13993454
 20
7402.40591649
  0
LWPOLYLINE
  5
110
330
5D
100
AcDbEntity
  8
Ech.1_5
  6
Continuous
 62
     9
370
    35
100
AcDbPolyline
 90
        3
 70
     0
 43
0.0
 38
2500.0
 10
35125.79002962
 20
7384.64734054
 10
35140.33078190001
 20
7384.64734054
 10
35140.33078190001
 20
7402.40591649
  0
LWPOLYLINE
  5
111
330
5D
100
AcDbEntity
  8
Ech.1_5
  6
CADWORK_22
 62
     1
370
    35
100
AcDbPolyline
 90
        6
 70
     0
 43
0.0
 10
35430.23535822
 20
7837.554030559999
 10
35430.23535822
 20
7346.35475356
 10
35447.48413373
 20
7346.35475356
 10
35455.69189606
 20
7354.45494676
 10
35462.27125348
 20
7346.35493264
 10
35479.39401783001
 20
7346.35493264
  0
LWPOLYLINE
  5
112
330
5D
100
AcDbEntity
  8
Ech.1_5
  6
CADWORK_22
 62
     1
370
    35
100
AcDbPolyline
 90
        6
 70
     0
 43
0.0
 10
35199.23535822
 20
7837.554030559999
 10
35199.23535822
 20
7346.35475356
 10
35181.9865827
 20
7346.35475356
 10
35173.77882038
 20
7354.45494676
 10
35167.19946296
 20
7346.35493264
 10
35150.07669861
 20
7346.35493264
  0
LWPOLYLINE
  5
113
330
5D
100
AcDbEntity
  8
Ech.1_5
 62
     7
100
AcDbPolyline
 90
        5
 70
     0
 43
0.0
 10
34927.36127974
 20
7836.22562021
 10
35061.79005873
 20
7836.22562021
 10
35061.79005873
 20
7779.502661399999
 10
34927.36127974
 20
7779.502661399999
 10
34927.36127974
 20
7836.22562021
  0
LWPOLYLINE
  5
114
330
5D
100
AcDbEntity
  8
Ech.1_5
 62
     7
100
AcDbPolyline
 90
        5
 70
     0
 43
0.0
 10
34945.64132553
 20
7802.568809090001
 10
34995.64132553
 20
7802.568809090001
 10
34995.64132553
 20
7809.98394662
 10
34945.64132553
 20
7809.98394662
 10
34945.64132553
 20
7802.568809090001
  0
LWPOLYLINE
  5
115
330
5D
100
AcDbEntity
  8
Ech.1_5
 62
     7
100
AcDbPolyline
 90
        5
 70
     0
 43
0.0
 10
34995.64132553
 20
7802.568809090001
 10
35045.64132553
 20
7802.568809090001
 10
35045.64132553
 20
7809.98394662
 10
34995.64132553
 20
7809.98394662
 10
34995.64132553
 20
7802.568809090001
  0
LWPOLYLINE
  5
116
330
5D
100
AcDbEntity
  8
Ech.1_5
  6
Continuous
 62
     9
370
    -3
100
AcDbPolyline
 90
        4
 70
     0
 43
0.0
 10
35147.73535822
 20
7344.077928869999
 10
34900.21556813
 20
7344.077928869999
 10
34900.21556813
 20
7384.077928869999
 10
35147.73535822
 20
7384.077928869999
  0
LWPOLYLINE
  5
117
330
5D
100
AcDbEntity
  8
Ech.1_5
  6
Continuous
 62
     7
370
    -3
100
AcDbPolyline
 90
        6
 70
     0
 43
0.0
 10
35127.73535822
 20
7837.55315261
 10
35233.71928268
 20
7837.554030559999
 10
35250.20478584
 20
7855.531378970001
 10
35236.09484582
 20
7819.575678950001
 10
35252.5811999
 20
7837.554030559999
 10
35501.73535822
 20
7837.554030559999
  0
LWPOLYLINE
  5
118
330
5D
100
AcDbEntity
  8
Ech.1_5
  6
Continuous
 62
     9
370
    -3
100
AcDbPolyline
 90
        4
 70
     0
 43
0.0
 10
35481.73535822
 20
7344.077928869999
 10
35740.01312645
 20
7344.077928869999
 10
35740.01312645
 20
7384.077928869999
 10
35481.73535822
 20
7384.077928869999
  0
LWPOLYLINE
  5
119
330
5D
100
AcDbEntity
  8
Ech.1_5
  6
Continuous
 62
     9
370
    -3
100
AcDbPolyline
 90
        6
 70
     0
 43
0.0
 10
34900.21536832
 20
6933.630928939999
 10
34900.21536832
 20
7201.44101913
 10
34882.23801991
 20
7217.926522289999
 10
34918.19371992
 20
7203.81658227
 10
34900.21536832
 20
7220.302936350001
 10
34900.21523111
 20
7458.07792887
  0
LWPOLYLINE
  5
11A
330
5D
100
AcDbEntity
  8
Ech.1_5
  6
Continuous
 62
     9
370
    -3
100
AcDbPolyline
 90
        6
 70
     0
 43
0.0
 10
35543.1089655
 20
7098.212196270001
 10
35342.15246396001
 20
7050.857404770001
 10
35330.88157085
 20
7029.22585747
 10
35335.20470638
 20
7067.608317920001
 10
35323.93325099
 20
7046.564115240001
 10
35102.77899775
 20
6994.44994099
  0
LWPOLYLINE
  5
11B
330
5D
100
AcDbEntity
  8
Ech.1_5
  6
Continuous
 62
     9
370
    -3
100
AcDbPolyline
 90
        6
 70
     0
 43
0.0
 10
35543.1089655
 20
7093.25393994
 10
35343.50948779
 20
7046.26276188
 10
35325.09297604001
 20
7010.917058469999
 10
35329.45803788
 20
7049.67175683
 10
35325.11354098
 20
7041.92211667
 10
35102.77899775
 20
6989.491826710001
  0
LWPOLYLINE
  5
11C
330
5D
100
AcDbEntity
  8
Ech.1_5
  6
Continuous
 62
     9
370
    -3
100
AcDbPolyline
 90
        6
 70
     0
 43
0.0
 10
35740.01408356
 20
6933.630928939999
 10
35740.01408356
 20
7201.44101913
 10
35722.03673515
 20
7217.926522289999
 10
35757.99243516
 20
7203.81658227
 10
35740.01408356
 20
7220.302936350001
 10
35740.01394636
 20
7458.07792887
  0
LWPOLYLINE
  5
11D
330
5D
100
AcDbEntity
  8
Ech.1_5
  6
Continuous
 62
     7
370
    -3
100
AcDbPolyline
 90
        5
 70
     0
 43
0.0
 10
34810.62262641
 20
6644.907792579999
 10
35795.62262641
 20
6644.907792579999
 10
35795.62262641
 20
7999.907792580001
 10
34810.62262641
 20
7999.907792580001
 10
34810.62262641
 20
6644.907792579999
  0
LWPOLYLINE
  5
11E
330
5D
100
AcDbEntity
  8
Ech.1_5
  6
Continuous
 62
     7
370
    -3
100
AcDbPolyline
 90
        4
 70
     0
 43
0.0
 10
35419.73535822
 20
7434.07759433
 10
35324.73535822
 20
7389.07759433
 10
35324.73535822
 20
7434.07759433
 10
35419.73535822
 20
7389.07759433
  0
LWPOLYLINE
  5
11F
330
5D
100
AcDbEntity
  8
Ech.1_5
  6
Continuous
 62
     7
370
    -3
100
AcDbPolyline
 90
        5
 70
     0
 43
0.0
 10
35419.73535822
 20
7389.07759433
 10
35324.73535822
 20
7389.07759433
 10
35324.73535822
 20
7434.07759433
 10
35419.73535822
 20
7434.07759433
 10
35419.73535822
 20
7389.07759433
  0
LWPOLYLINE
  5
120
330
5D
100
AcDbEntity
  8
Ech.1_5
  6
Continuous
 62
     7
370
    -3
100
AcDbPolyline
 90
        4
 70
     0
 43
0.0
 10
35304.73535822
 20
7434.07759433
 10
35209.73535822
 20
7389.07759433
 10
35209.73535822
 20
7434.07759433
 10
35304.73535822
 20
7389.07759433
  0
LWPOLYLINE
  5
121
330
5D
100
AcDbEntity
  8
Ech.1_5
  6
Continuous
 62
     7
370
    -3
100
AcDbPolyline
 90
        5
 70
     0
 43
0.0
 10
35304.73535822
 20
7389.07759433
 10
35209.73535822
 20
7389.07759433
 10
35209.73535822
 20
7434.07759433
 10
35304.73535822
 20
7434.07759433
 10
35304.73535822
 20
7389.07759433
  0
LWPOLYLINE
  5
122
330
5D
100
AcDbEntity
  8
Ech.1_5
  6
Continuous
 62
     7
370
     5
100
AcDbPolyline
 90
        5
 70
     0
 43
0.0
 10
34945.64132553
 20
7802.568809090001
 10
34995.64132553
 20
7802.568809090001
 10
34995.64132553
 20
7809.98394662
 10
34945.64132553
 20
7809.98394662
 10
34945.64132553
 20
7802.568809090001
  0
LWPOLYLINE
  5
123
330
5D
100
AcDbEntity
  8
Ech.1_5
  6
Continuous
 62
     7
370
    -3
100
AcDbPolyline
 90
        5
 70
     0
 43
0.0
 10
35419.73535822
 20
7837.553757329999
 10
35324.73535822
 20
7837.553912610001
 10
35324.73535822
 20
7389.07759433
 10
35419.73535822
 20
7389.07759433
 10
35419.73535822
 20
7837.553757329999
  0
LWPOLYLINE
  5
124
330
5D
100
AcDbEntity
  8
Ech.1_5
  6
Continuous
 62
     7
370
    -3
100
AcDbPolyline
 90
        5
 70
     0
 43
0.0
 10
35304.73535822
 20
7344.076912210001
 10
35209.73535822
 20
7344.077594329999
 10
35209.73535822
 20
7389.07759433
 10
35304.73535822
 20
7389.07691221
 10
35304.73535822
 20
7344.076912210001
  0
LWPOLYLINE
  5
125
330
5D
100
AcDbEntity
  8
Ech.1_5
  6
Continuous
 62
     7
370
    -3
100
AcDbPolyline
 90
        5
 70
     0
 43
0.0
 10
35419.73535822
 20
7837.553757329999
 10
35428.73535822
 20
7837.553757329999
 10
35428.73535822
 20
7354.077594329999
 10
35419.73535822
 20
7354.077594329999
 10
35419.73535822
 20
7837.553757329999
  0
LWPOLYLINE
  5
126
330
5D
100
AcDbEntity
  8
Ech.1_5
  6
Continuous
 62
     7
370
    -3
100
AcDbPolyline
 90
        9
 70
     0
 43
0.0
 10
35304.73535822
 20
7837.554030559999
 10
35252.5811999
 20
7837.554030559999
 10
35236.09484582
 20
7819.575678950001
 10
35250.20478584
 20
7855.531378970001
 10
35233.71928268
 20
7837.554030559999
 10
35209.73535822
 20
7837.55383188
 10
35209.73535822
 20
7389.077375480001
 10
35304.73535822
 20
7389.07759433
 10
35304.73535822
 20
7837.554030559999
  0
LWPOLYLINE
  5
127
330
5D
100
AcDbEntity
  8
Ech.1_5
  6
Continuous
 62
     7
370
    -3
100
AcDbPolyline
 90
        5
 70
     0
 43
0.0
 10
35428.73535822
 20
7779.588666239999
 10
35468.73535822
 20
7779.588666239999
 10
35468.73535822
 20
7734.58866624
 10
35428.73535822
 20
7734.58866624
 10
35428.73535822
 20
7779.588666239999
  0
LWPOLYLINE
  5
128
330
5D
100
AcDbEntity
  8
Ech.1_5
  6
Continuous
 62
     7
370
    -3
100
AcDbPolyline
 90
        5
 70
     0
 43
0.0
 10
35160.73535822
 20
7419.07759433
 10
35200.73535822
 20
7419.07759433
 10
35200.73535822
 20
7374.07759433
 10
35160.73535822
 20
7374.07759433
 10
35160.73535822
 20
7419.07759433
  0
LWPOLYLINE
  5
129
330
5D
100
AcDbEntity
  8
Ech.1_5
  6
Continuous
 62
     7
370
    -3
100
AcDbPolyline
 90
        5
 70
     0
 43
0.0
 10
35428.73535822
 20
7419.07759433
 10
35468.73535822
 20
7419.07759433
 10
35468.73535822
 20
7374.07759433
 10
35428.73535822
 20
7374.07759433
 10
35428.73535822
 20
7419.07759433
  0
LWPOLYLINE
  5
12A
330
5D
100
AcDbEntity
  8
Ech.1_5
  6
Continuous
 62
     7
370
    -3
100
AcDbPolyline
 90
        5
 70
     0
 43
0.0
 10
35160.73535822
 20
7779.588666239999
 10
35200.73535822
 20
7779.588666239999
 10
35200.73535822
 20
7734.58866624
 10
35160.73535822
 20
7734.58866624
 10
35160.73535822
 20
7779.588666239999
  0
LWPOLYLINE
  5
12B
330
5D
100
AcDbEntity
  8
Ech.1_5
  6
Continuous
 62
     7
370
    15
100
AcDbPolyline
 90
        5
 70
     0
 43
0.0
 10
35468.73535822
 20
7837.55331829
 10
35481.73535822
 20
7837.55331829
 10
35481.73535822
 20
7354.077594329999
 10
35468.73535822
 20
7354.077594329999
 10
35468.73535822
 20
7837.55331829
  0
LWPOLYLINE
  5
12C
330
5D
100
AcDbEntity
  8
Ech.1_5
  6
Continuous
 62
     7
370
    -3
100
AcDbPolyline
 90
        5
 70
     0
 43
0.0
 10
35200.73535822
 20
7837.553757329999
 10
35209.73535822
 20
7837.553757329999
 10
35209.73535822
 20
7354.077594329999
 10
35200.73535822
 20
7354.077594329999
 10
35200.73535822
 20
7837.553757329999
  0
LWPOLYLINE
  5
12D
330
5D
100
AcDbEntity
  8
Ech.1_5
  6
Continuous
 62
     7
370
    15
100
AcDbPolyline
 90
        5
 70
     0
 43
0.0
 10
35147.73535822
 20
7837.55331829
 10
35160.73535822
 20
7837.55331829
 10
35160.73535822
 20
7354.077594329999
 10
35147.73535822
 20
7354.077594329999
 10
35147.73535822
 20
7837.55331829
  0
LWPOLYLINE
  5
12E
330
5D
100
AcDbEntity
  8
Ech.1_5
  6
Continuous
 62
     7
370
    -3
100
AcDbPolyline
 90
        5
 70
     0
 43
0.0
 10
35419.73535822
 20
7344.076912210001
 10
35324.73535822
 20
7344.077594329999
 10
35324.73535822
 20
7389.07759433
 10
35419.73535822
 20
7389.07691221
 10
35419.73535822
 20
7344.076912210001
  0
LWPOLYLINE
  5
12F
330
5D
100
AcDbEntity
  8
Ech.1_5
  6
Continuous
 62
     7
370
     5
100
AcDbPolyline
 90
        4
 70
     0
 43
0.0
 10
35460.42763025
 20
7348.99554807
 42
1.0
 10
35448.09874784
 20
7348.99554807
 10
35448.09874784
 20
7348.99554807
 42
1.0
 10
35460.42763025
 20
7348.99554807
  0
LWPOLYLINE
  5
130
330
5D
100
AcDbEntity
  8
Ech.1_5
  6
Continuous
 62
     7
370
     5
100
AcDbPolyline
 90
        4
 70
     0
 43
0.0
 10
35169.04308618
 20
7348.99554807
 42
-1.0
 10
35181.3719686
 20
7348.99554807
 10
35181.3719686
 20
7348.99554807
 42
-1.0
 10
35169.04308618
 20
7348.99554807
  0
LWPOLYLINE
  5
131
330
5D
100
AcDbEntity
  8
Ech.1_5
  6
Continuous
 62
     7
370
    -3
100
AcDbPolyline
 90
        5
 70
     0
 43
0.0
 10
35304.73535822
 20
7389.07691221
 10
35209.73535822
 20
7389.07759433
 10
35209.73535822
 20
7434.07759433
 10
35304.73535822
 20
7434.07691221
 10
35304.73535822
 20
7389.07691221
  0
LWPOLYLINE
  5
132
330
5D
100
AcDbEntity
  8
Ech.1_5
  6
Continuous
 62
     7
370
    -3
100
AcDbPolyline
 90
        5
 70
     0
 43
0.0
 10
35419.73535822
 20
7389.07691221
 10
35324.73535822
 20
7389.07759433
 10
35324.73535822
 20
7434.07759433
 10
35419.73535822
 20
7434.07691221
 10
35419.73535822
 20
7389.07691221
  0
LWPOLYLINE
  5
133
330
5D
100
AcDbEntity
  8
Ech.1_5
  6
Continuous
 62
     7
370
    -3
100
AcDbPolyline
 90
       50
 70
     0
 43
0.0
 10
35288.90202489
 20
7434.07759433
 42
1.14028181
 10
35284.80404744
 20
7465.20475077
 10
35229.66666899
 20
7450.45043788
 42
-1.303226189999999
 10
35229.66666899
 20
7481.038084100001
 10
35284.80404744
 20
7466.28377122
 42
1.303226189999999
 10
35284.80404744
 20
7496.871417440001
 10
35229.66666899
 20
7482.117104549999
 42
-1.303226189999999
 10
35229.66666899
 20
7512.70475077
 10
35284.80404744
 20
7497.95043788
 42
1.303226189999999
 10
35284.80404744
 20
7528.5380841
 10
35229.66666899
 20
7513.783771219999
 42
-1.303226189999999
 10
35229.66666899
 20
7544.37141744
 10
35284.80404744
 20
7529.61710455
 42
1.303226189999999
 10
35284.80404744
 20
7560.204750770001
 10
35229.66666899
 20
7545.450437880001
 42
-1.303226189999999
 10
35229.66666899
 20
7576.038084100002
 10
35284.80404744
 20
7561.283771220001
 42
1.303226189999999
 10
35284.80404744
 20
7591.871417440001
 10
35229.66666899
 20
7577.11710455
 42
-1.303226189999999
 10
35229.66666899
 20
7607.70475077
 10
35284.80404744
 20
7592.95043788
 42
1.303226189999999
 10
35284.80404744
 20
7623.538084100001
 10
35229.66666899
 20
7608.78377122
 42
-1.303226189999999
 10
35229.66666899
 20
7639.37141744
 10
35284.80404744
 20
7624.617104549999
 42
1.303226189999999
 10
35284.80404744
 20
7655.20475077
 10
35229.66666899
 20
7640.45043788
 42
-1.303226189999999
 10
35229.66666899
 20
7671.0380841
 10
35284.80404744
 20
7656.28377122
 42
1.303226189999999
 10
35284.80404744
 20
7686.871417439999
 10
35229.66666899
 20
7672.11710455
 42
-1.303226189999999
 10
35229.66666899
 20
7702.70475077
 10
35284.80404744
 20
7687.950437880001
 42
1.303226189999999
 10
35284.80404744
 20
7718.538084100001
 10
35229.66666899
 20
7703.78377122
 42
-1.303226189999999
 10
35229.66666899
 20
7734.371417440001
 10
35284.80404744
 20
7719.61710455
 42
1.303226189999999
 10
35284.80404744
 20
7750.20475077
 10
35229.66666899
 20
7735.45043788
 42
-1.303226189999999
 10
35229.66666899
 20
7766.0380841
 10
35284.80404744
 20
7751.283771219999
 42
1.303226189999999
 10
35284.80404744
 20
7781.87141744
 10
35229.66666899
 20
7767.11710455
 42
-1.303226189999999
 10
35229.66666899
 20
7797.704750770001
 10
35284.80404744
 20
7782.950437880001
 42
1.303226189999999
 10
35284.80404744
 20
7813.538084100001
 10
35229.66666899
 20
7798.78377122
 42
-1.303226189999999
 10
35229.66666899
 20
7829.37141744
 10
35284.80404744
 20
7814.617104549999
 42
0.6610286600000001
 10
35302.76843836
 20
7837.554030559999
  0
LWPOLYLINE
  5
134
330
5D
100
AcDbEntity
  8
Ech.1_5
  6
Continuous
 62
     7
370
    -3
100
AcDbPolyline
 90
       50
 70
     0
 43
0.0
 10
35403.90202489
 20
7434.077749610001
 42
1.14028181
 10
35399.80404744
 20
7465.204906060001
 10
35344.66666899
 20
7450.45059317
 42
-1.303226189999999
 10
35344.66666899
 20
7481.03823939
 10
35399.80404744
 20
7466.2839265
 42
1.303226189999999
 10
35399.80404744
 20
7496.871572719999
 10
35344.66666899
 20
7482.117259839999
 42
-1.303226189999999
 10
35344.66666899
 20
7512.70490606
 10
35399.80404744
 20
7497.95059317
 42
1.303226189999999
 10
35399.80404744
 20
7528.538239390001
 10
35344.66666899
 20
7513.783926500001
 42
-1.303226189999999
 10
35344.66666899
 20
7544.37157272
 10
35399.80404744
 20
7529.617259840001
 42
1.303226189999999
 10
35399.80404744
 20
7560.20490606
 10
35344.66666899
 20
7545.450593169999
 42
-1.303226189999999
 10
35344.66666899
 20
7576.03823939
 10
35399.80404744
 20
7561.2839265
 42
1.303226189999999
 10
35399.80404744
 20
7591.871572719999
 10
35344.66666899
 20
7577.11725984
 42
-1.303226189999999
 10
35344.66666899
 20
7607.70490606
 10
35399.80404744
 20
7592.950593169999
 42
1.303226189999999
 10
35399.80404744
 20
7623.53823939
 10
35344.66666899
 20
7608.7839265
 42
-1.303226189999999
 10
35344.66666899
 20
7639.37157272
 10
35399.80404744
 20
7624.617259839999
 42
1.303226189999999
 10
35399.80404744
 20
7655.204906059999
 10
35344.66666899
 20
7640.45059317
 42
-1.303226189999999
 10
35344.66666899
 20
7671.03823939
 10
35399.80404744
 20
7656.283926500001
 42
1.303226189999999
 10
35399.80404744
 20
7686.87157272
 10
35344.66666899
 20
7672.11725984
 42
-1.303226189999999
 10
35344.66666899
 20
7702.704906060001
 10
35399.80404744
 20
7687.95059317
 42
1.303226189999999
 10
35399.80404744
 20
7718.538239389999
 10
35344.66666899
 20
7703.7839265
 42
-1.303226189999999
 10
35344.66666899
 20
7734.371572719999
 10
35399.80404744
 20
7719.617259839999
 42
1.303226189999999
 10
35399.80404744
 20
7750.20490606
 10
35344.66666899
 20
7735.45059317
 42
-1.303226189999999
 10
35344.66666899
 20
7766.038239390001
 10
35399.80404744
 20
7751.283926500001
 42
1.303226189999999
 10
35399.80404744
 20
7781.87157272
 10
35344.66666899
 20
7767.11725984
 42
-1.303226189999999
 10
35344.66666899
 20
7797.704906060001
 10
35399.80404744
 20
7782.950593169999
 42
1.303226189999999
 10
35399.80404744
 20
7813.53823939
 10
35344.66666899
 20
7798.7839265
 42
-1.303226189999999
 10
35344.66666899
 20
7829.371572719999
 10
35399.80404744
 20
7814.61725984
 42
0.6610286600000001
 10
35417.76843836
 20
7837.55418585
  0
TEXT
  5
135
330
5D
100
AcDbEntity
  8
Ech.1_5
 62
     7
100
AcDbText
 10
34956.93561815
 20
7819.569949699999
 30
0.0
 40
8.000000119999999
  1
Echelle en mm
  7
ARIAL
100
AcDbText
  0
TEXT
  5
136
330
5D
100
AcDbEntity
  8
Ech.1_5
 62
     7
100
AcDbText
 10
34942.9550334
 20
7791.36011417
 30
0.0
 40
8.000000119999999
  1
0
  7
ARIAL
100
AcDbText
  0
TEXT
  5
137
330
5D
100
AcDbEntity
  8
Ech.1_5
 62
     7
100
AcDbText
 10
35029.55209130001
 20
7791.36011417
 30
0.0
 40
8.000000119999999
  1
100
  7
ARIAL
100
AcDbText
  0
TEXT
  5
138
330
5D
100
AcDbEntity
  8
Ech.1_5
 62
     7
100
AcDbText
 10
34990.81165973001
 20
7791.36011417
 30
0.0
 40
8.000000119999999
  1
50
  7
ARIAL
100
AcDbText
  0
INSERT
  5
139
330
5D
100
AcDbEntity
  8
Ech.1_5
 62
     0
370
    -3
100
AcDbBlockReference
  2
*D15
 10
0.0
 20
0.0
 30
0.0
  0
INSERT
  5
13A
330
5D
100
AcDbEntity
  8
Ech.1_5
 62
     0
370
    -3
100
AcDbBlockReference
  2
*D16
 10
0.0
 20
0.0
 30
0.0
  0
ENDSEC
  0
SECTION
  2
OBJECTS
  0
DICTIONARY
  5
1
330
0
100
AcDbDictionary
281
     1
  3
ACAD_COLOR
350
172
  3
ACAD_GROUP
350
2
  3
ACAD_LAYOUT
350
18A
  3
ACAD_MATERIAL
350
140
  3
ACAD_MLEADERSTYLE
350
187
  3
ACAD_MLINESTYLE
350
3
  3
ACAD_PLOTSETTINGS
350
18B
  3
ACAD_PLOTSTYLENAME
350
13E
  3
ACAD_SCALELIST
350
175
  3
ACAD_TABLESTYLE
350
173
  3
ACAD_VISUALSTYLE
350
159
  3
ACDB_RECOMPOSE_DATA
350
1DD
  3
AcDbVariableDictionary
350
1D3
  3
DWGPROPS
350
1DE
  0
DICTIONARY
  5
197
330
37
100
AcDbDictionary
280
     1
281
     1
  3
ADSK_XREC_LAYER_RECONCILED
360
198
  0
DICTIONARY
  5
199
330
38
100
AcDbDictionary
280
     1
281
     1
  3
ADSK_XREC_LAYER_RECONCILED
360
19A
  0
DICTIONARY
  5
19B
330
39
100
AcDbDictionary
280
     1
281
     1
  3
ADSK_XREC_LAYER_RECONCILED
360
19C
  0
DICTIONARY
  5
19D
330
3A
100
AcDbDictionary
280
     1
281
     1
  3
ADSK_XREC_LAYER_RECONCILED
360
19E
  0
DICTIONARY
  5
19F
330
3B
100
AcDbDictionary
280
     1
281
     1
  3
ADSK_XREC_LAYER_RECONCILED
360
1A0
  0
DICTIONARY
  5
1A1
330
3C
100
AcDbDictionary
280
     1
281
     1
  3
ADSK_XREC_LAYER_RECONCILED
360
1A2
  0
DICTIONARY
  5
1A3
330
3D
100
AcDbDictionary
280
     1
281
     1
  3
ADSK_XREC_LAYER_RECONCILED
360
1A4
  0
DICTIONARY
  5
1A5
330
3E
100
AcDbDictionary
280
     1
281
     1
  3
ADSK_XREC_LAYER_RECONCILED
360
1A6
  0
DICTIONARY
  5
1A7
330
3F
100
AcDbDictionary
280
     1
281
     1
  3
ADSK_XREC_LAYER_RECONCILED
360
1A8
  0
DICTIONARY
  5
1A9
330
40
100
AcDbDictionary
280
     1
281
     1
  3
ADSK_XREC_LAYER_RECONCILED
360
1AA
  0
DICTIONARY
  5
1AB
330
41
100
AcDbDictionary
280
     1
281
     1
  3
ADSK_XREC_LAYER_RECONCILED
360
1AC
  0
DICTIONARY
  5
1AD
330
42
100
AcDbDictionary
280
     1
281
     1
  3
ADSK_XREC_LAYER_RECONCILED
360
1AE
  0
DICTIONARY
  5
1AF
330
43
100
AcDbDictionary
280
     1
281
     1
  3
ADSK_XREC_LAYER_RECONCILED
360
1B0
  0
DICTIONARY
  5
1B1
330
44
100
AcDbDictionary
280
     1
281
     1
  3
ADSK_XREC_LAYER_RECONCILED
360
1B2
  0
DICTIONARY
  5
1B3
330
45
100
AcDbDictionary
280
     1
281
     1
  3
ADSK_XREC_LAYER_RECONCILED
360
1B4
  0
DICTIONARY
  5
1B5
330
46
100
AcDbDictionary
280
     1
281
     1
  3
ADSK_XREC_LAYER_RECONCILED
360
1B6
  0
DICTIONARY
  5
1B7
330
47
100
AcDbDictionary
280
     1
281
     1
  3
ADSK_XREC_LAYER_RECONCILED
360
1B8
  0
DICTIONARY
  5
1B9
330
48
100
AcDbDictionary
280
     1
281
     1
  3
ADSK_XREC_LAYER_RECONCILED
360
1BA
  0
DICTIONARY
  5
1BB
330
49
100
AcDbDictionary
280
     1
281
     1
  3
ADSK_XREC_LAYER_RECONCILED
360
1BC
  0
DICTIONARY
  5
1BD
330
4A
100
AcDbDictionary
280
     1
281
     1
  3
ADSK_XREC_LAYER_RECONCILED
360
1BE
  0
DICTIONARY
  5
1BF
330
4B
100
AcDbDictionary
280
     1
281
     1
  3
ADSK_XREC_LAYER_RECONCILED
360
1C0
  0
DICTIONARY
  5
1C1
330
4D
100
AcDbDictionary
280
     1
281
     1
  3
ADSK_XREC_LAYER_RECONCILED
360
1C2
  0
DICTIONARY
  5
1C3
330
4E
100
AcDbDictionary
280
     1
281
     1
  3
ADSK_XREC_LAYER_RECONCILED
360
1C4
  0
DICTIONARY
  5
1C5
330
50
100
AcDbDictionary
280
     1
281
     1
  3
ADSK_XREC_LAYER_RECONCILED
360
1C6
  0
DICTIONARY
  5
1C7
330
51
100
AcDbDictionary
280
     1
281
     1
  3
ADSK_XREC_LAYER_RECONCILED
360
1C8
  0
DICTIONARY
  5
1C9
330
52
100
AcDbDictionary
280
     1
281
     1
  3
ADSK_XREC_LAYER_RECONCILED
360
1CA
  0
DICTIONARY
  5
1CB
330
53
100
AcDbDictionary
280
     1
281
     1
  3
ADSK_XREC_LAYER_RECONCILED
360
1CC
  0
DICTIONARY
  5
1CD
330
54
100
AcDbDictionary
280
     1
281
     1
  3
ADSK_XREC_LAYER_RECONCILED
360
1CE
  0
DICTIONARY
  5
1CF
330
55
100
AcDbDictionary
280
     1
281
     1
  3
ADSK_XREC_LAYER_RECONCILED
360
1D0
  0
DICTIONARY
  5
1D1
330
56
100
AcDbDictionary
280
     1
281
     1
  3
ADSK_XREC_LAYER_RECONCILED
360
1D2
  0
DICTIONARY
  5
172
102
{ACAD_REACTORS
330
1
102
}
330
1
100
AcDbDictionary
281
     1
  0
DICTIONARY
  5
2
330
1
100
AcDbDictionary
281
     1
  0
DICTIONARY
  5
18A
102
{ACAD_REACTORS
330
1
102
}
330
1
100
AcDbDictionary
281
     1
  3
Model
350
18C
  3
Présentation1
350
18D
  0
DICTIONARY
  5
140
102
{ACAD_REACTORS
330
1
102
}
330
1
100
AcDbDictionary
281
     1
  3
ByBlock
350
149
  3
ByLayer
350
141
  3
Global
350
151
  0
DICTIONARY
  5
187
102
{ACAD_REACTORS
330
1
102
}
330
1
100
AcDbDictionary
281
     1
  3
Standard
350
188
  0
DICTIONARY
  5
3
330
1
100
AcDbDictionary
281
     1
  3
STANDARD
350
4
  0
DICTIONARY
  5
18B
102
{ACAD_REACTORS
330
1
102
}
330
1
100
AcDbDictionary
281
     1
  0
ACDBDICTIONARYWDFLT
  5
13E
102
{ACAD_REACTORS
330
1
102
}
330
1
100
AcDbDictionary
281
     1
  3
Normal
350
13F
100
AcDbDictionaryWithDefault
340
13F
  0
DICTIONARY
  5
175
102
{ACAD_REACTORS
330
1
102
}
330
1
100
AcDbDictionary
281
     1
  3
A0
350
176
  3
A1
350
177
  3
A2
350
178
  3
A3
350
179
  3
A4
350
17A
  3
A5
350
17B
  3
A6
350
17C
  3
A7
350
17D
  3
A8
350
17E
  3
A9
350
17F
  3
B0
350
180
  3
B1
350
181
  3
B2
350
182
  3
B3
350
183
  3
B4
350
184
  3
B5
350
185
  3
B6
350
186
  0
DICTIONARY
  5
173
102
{ACAD_REACTORS
330
1
102
}
330
1
100
AcDbDictionary
281
     1
  3
Standard
350
174
  0
DICTIONARY
  5
159
102
{ACAD_REACTORS
330
1
102
}
330
1
100
AcDbDictionary
281
     1
  3
2dWireframe
350
15F
  3
Basic
350
15E
  3
Brighten
350
165
  3
ColorChange
350
169
  3
Conceptual
350
162
  3
Dim
350
164
  3
EdgeColorOff
350
171
  3
Facepattern
350
168
  3
Flat
350
15A
  3
FlatWithEdges
350
15B
  3
Gouraud
350
15C
  3
GouraudWithEdges
350
15D
  3
Hidden
350
161
  3
JitterOff
350
16F
  3
Linepattern
350
167
  3
OverhangOff
350
170
  3
Realistic
350
163
  3
Shaded
350
16E
  3
Shaded with edges
350
16D
  3
Shades of Gray
350
16A
  3
Sketchy
350
16B
  3
Thicken
350
166
  3
Wireframe
350
160
  3
X-Ray
350
16C
  0
XRECORD
  5
1DD
102
{ACAD_REACTORS
330
1
102
}
330
1
100
AcDbXrecord
280
     1
 90
        1
330
174
  0
DICTIONARY
  5
1D3
102
{ACAD_REACTORS
330
1
102
}
330
1
100
AcDbDictionary
281
     1
  3
CANNOSCALE
350
1D6
  3
CMLEADERSTYLE
350
1D5
  3
CTABLESTYLE
350
1D4
  3
DIMASSOC
350
1D9
  3
INDEXCTL
350
1D8
  3
SORTENTS
350
1D7
  3
XCLIPFRAME
350
1DA
  0
XRECORD
  5
1DE
102
{ACAD_REACTORS
330
1
102
}
330
1
100
AcDbXrecord
280
     1
  1
DWGPROPS COOKIE
  2

  3

  4

  6

  7

  8
cazeaux
  9

300
=
301
=
302
=
303
=
304
=
305
=
306
=
307
=
308
=
309
=
 40
0.0053381365740741
 41
2456443.0
 42
2456458.466303878
  1

 90
        0
  0
XRECORD
  5
198
102
{ACAD_REACTORS
330
197
102
}
330
197
100
AcDbXrecord
280
     1
290
     1
  0
XRECORD
  5
19A
102
{ACAD_REACTORS
330
199
102
}
330
199
100
AcDbXrecord
280
     1
290
     1
  0
XRECORD
  5
19C
102
{ACAD_REACTORS
330
19B
102
}
330
19B
100
AcDbXrecord
280
     1
290
     1
  0
XRECORD
  5
19E
102
{ACAD_REACTORS
330
19D
102
}
330
19D
100
AcDbXrecord
280
     1
290
     1
  0
XRECORD
  5
1A0
102
{ACAD_REACTORS
330
19F
102
}
330
19F
100
AcDbXrecord
280
     1
290
     1
  0
XRECORD
  5
1A2
102
{ACAD_REACTORS
330
1A1
102
}
330
1A1
100
AcDbXrecord
280
     1
290
     1
  0
XRECORD
  5
1A4
102
{ACAD_REACTORS
330
1A3
102
}
330
1A3
100
AcDbXrecord
280
     1
290
     1
  0
XRECORD
  5
1A6
102
{ACAD_REACTORS
330
1A5
102
}
330
1A5
100
AcDbXrecord
280
     1
290
     1
  0
XRECORD
  5
1A8
102
{ACAD_REACTORS
330
1A7
102
}
330
1A7
100
AcDbXrecord
280
     1
290
     1
  0
XRECORD
  5
1AA
102
{ACAD_REACTORS
330
1A9
102
}
330
1A9
100
AcDbXrecord
280
     1
290
     1
  0
XRECORD
  5
1AC
102
{ACAD_REACTORS
330
1AB
102
}
330
1AB
100
AcDbXrecord
280
     1
290
     1
  0
XRECORD
  5
1AE
102
{ACAD_REACTORS
330
1AD
102
}
330
1AD
100
AcDbXrecord
280
     1
290
     1
  0
XRECORD
  5
1B0
102
{ACAD_REACTORS
330
1AF
102
}
330
1AF
100
AcDbXrecord
280
     1
290
     1
  0
XRECORD
  5
1B2
102
{ACAD_REACTORS
330
1B1
102
}
330
1B1
100
AcDbXrecord
280
     1
290
     1
  0
XRECORD
  5
1B4
102
{ACAD_REACTORS
330
1B3
102
}
330
1B3
100
AcDbXrecord
280
     1
290
     1
  0
XRECORD
  5
1B6
102
{ACAD_REACTORS
330
1B5
102
}
330
1B5
100
AcDbXrecord
280
     1
290
     1
  0
XRECORD
  5
1B8
102
{ACAD_REACTORS
330
1B7
102
}
330
1B7
100
AcDbXrecord
280
     1
290
     1
  0
XRECORD
  5
1BA
102
{ACAD_REACTORS
330
1B9
102
}
330
1B9
100
AcDbXrecord
280
     1
290
     1
  0
XRECORD
  5
1BC
102
{ACAD_REACTORS
330
1BB
102
}
330
1BB
100
AcDbXrecord
280
     1
290
     1
  0
XRECORD
  5
1BE
102
{ACAD_REACTORS
330
1BD
102
}
330
1BD
100
AcDbXrecord
280
     1
290
     1
  0
XRECORD
  5
1C0
102
{ACAD_REACTORS
330
1BF
102
}
330
1BF
100
AcDbXrecord
280
     1
290
     1
  0
XRECORD
  5
1C2
102
{ACAD_REACTORS
330
1C1
102
}
330
1C1
100
AcDbXrecord
280
     1
290
     1
  0
XRECORD
  5
1C4
102
{ACAD_REACTORS
330
1C3
102
}
330
1C3
100
AcDbXrecord
280
     1
290
     1
  0
XRECORD
  5
1C6
102
{ACAD_REACTORS
330
1C5
102
}
330
1C5
100
AcDbXrecord
280
     1
290
     1
  0
XRECORD
  5
1C8
102
{ACAD_REACTORS
330
1C7
102
}
330
1C7
100
AcDbXrecord
280
     1
290
     1
  0
XRECORD
  5
1CA
102
{ACAD_REACTORS
330
1C9
102
}
330
1C9
100
AcDbXrecord
280
     1
290
     1
  0
XRECORD
  5
1CC
102
{ACAD_REACTORS
330
1CB
102
}
330
1CB
100
AcDbXrecord
280
     1
290
     1
  0
XRECORD
  5
1CE
102
{ACAD_REACTORS
330
1CD
102
}
330
1CD
100
AcDbXrecord
280
     1
290
     1
  0
XRECORD
  5
1D0
102
{ACAD_REACTORS
330
1CF
102
}
330
1CF
100
AcDbXrecord
280
     1
290
     1
  0
XRECORD
  5
1D2
102
{ACAD_REACTORS
330
1D1
102
}
330
1D1
100
AcDbXrecord
280
     1
290
     1
  0
LAYOUT
  5
18C
102
{ACAD_XDICTIONARY
360
214
102
}
102
{ACAD_REACTORS
330
18A
102
}
330
18A
100
AcDbPlotSettings
  1

  2
Aucun(e)
  4

  6

 40
0.0
 41
0.0
 42
0.0
 43
0.0
 44
0.0
 45
0.0
 46
0.0
 47
0.0
 48
0.0
 49
0.0
140
0.0
141
0.0
142
1.0
143
1.0
 70
  1712
 72
     0
 73
     0
 74
     0
  7
acad.ctb
 75
     0
147
1.0
148
0.0
149
0.0
100
AcDbLayout
  1
Model
 70
     1
 71
     0
 10
0.0
 20
0.0
 11
12.0
 21
9.0
 12
0.0
 22
0.0
 32
0.0
 14
0.0
 24
0.0
 34
0.0
 15
0.0
 25
0.0
 35
0.0
146
0.0
 13
0.0
 23
0.0
 33
0.0
 16
1.0
 26
0.0
 36
0.0
 17
0.0
 27
1.0
 37
0.0
 76
     0
330
5D
331
190
  0
LAYOUT
  5
18D
102
{ACAD_XDICTIONARY
360
216
102
}
102
{ACAD_REACTORS
330
18A
102
}
330
18A
100
AcDbPlotSettings
  1

  2
Aucun(e)
  4

  6

 40
0.0
 41
0.0
 42
0.0
 43
0.0
 44
0.0
 45
0.0
 46
0.0
 47
0.0
 48
0.0
 49
0.0
140
0.0
141
0.0
142
1.0
143
1.0
 70
   688
 72
     0
 73
     0
 74
     5
  7
acad.ctb
 75
    16
147
1.0
148
0.0
149
0.0
100
AcDbLayout
  1
Présentation1
 70
     1
 71
     1
 10
0.0
 20
0.0
 11
12.0
 21
9.0
 12
0.0
 22
0.0
 32
0.0
 14
1.000000000000000E+20
 24
1.000000000000000E+20
 34
1.000000000000000E+20
 15
-1.000000000000000E+20
 25
-1.000000000000000E+20
 35
-1.000000000000000E+20
146
0.0
 13
0.0
 23
0.0
 33
0.0
 16
1.0
 26
0.0
 36
0.0
 17
0.0
 27
1.0
 37
0.0
 76
     0
330
5E
  0
MATERIAL
  5
149
102
{ACAD_XDICTIONARY
360
14A
102
}
102
{ACAD_REACTORS
330
140
102
}
330
140
100
AcDbMaterial
  1
ByBlock
 72
     0
 43
0.0208333333333333
 43
0.0
 43
0.0
 43
0.0
 43
0.0
 43
0.0208333333333333
 43
0.0
 43
0.0
 43
0.0
 43
0.0
 43
1.0
 43
0.0
 43
0.0
 43
0.0
 43
0.0
 43
1.0
 77
     0
 47
0.0208333333333333
 47
0.0
 47
0.0
 47
0.0
 47
0.0
 47
0.0208333333333333
 47
0.0
 47
0.0
 47
0.0
 47
0.0
 47
1.0
 47
0.0
 47
0.0
 47
0.0
 47
0.0
 47
1.0
171
     0
 49
0.0208333333333333
 49
0.0
 49
0.0
 49
0.0
 49
0.0
 49
0.0208333333333333
 49
0.0
 49
0.0
 49
0.0
 49
0.0
 49
1.0
 49
0.0
 49
0.0
 49
0.0
 49
0.0
 49
1.0
175
     0
142
0.0208333333333333
142
0.0
142
0.0
142
0.0
142
0.0
142
0.0208333333333333
142
0.0
142
0.0
142
0.0
142
0.0
142
1.0
142
0.0
142
0.0
142
0.0
142
0.0
142
1.0
179
     0
144
0.0208333333333333
144
0.0
144
0.0
144
0.0
144
0.0
144
0.0208333333333333
144
0.0
144
0.0
144
0.0
144
0.0
144
1.0
144
0.0
144
0.0
144
0.0
144
0.0
144
1.0
147
0.0208333333333333
147
0.0
147
0.0
147
0.0
147
0.0
147
0.0208333333333333
147
0.0
147
0.0
147
0.0
147
0.0
147
1.0
147
0.0
147
0.0
147
0.0
147
0.0
147
1.0
  0
MATERIAL
  5
141
102
{ACAD_XDICTIONARY
360
142
102
}
102
{ACAD_REACTORS
330
140
102
}
330
140
100
AcDbMaterial
  1
ByLayer
 72
     0
 43
0.0208333333333333
 43
0.0
 43
0.0
 43
0.0
 43
0.0
 43
0.0208333333333333
 43
0.0
 43
0.0
 43
0.0
 43
0.0
 43
1.0
 43
0.0
 43
0.0
 43
0.0
 43
0.0
 43
1.0
 77
     0
 47
0.0208333333333333
 47
0.0
 47
0.0
 47
0.0
 47
0.0
 47
0.0208333333333333
 47
0.0
 47
0.0
 47
0.0
 47
0.0
 47
1.0
 47
0.0
 47
0.0
 47
0.0
 47
0.0
 47
1.0
171
     0
 49
0.0208333333333333
 49
0.0
 49
0.0
 49
0.0
 49
0.0
 49
0.0208333333333333
 49
0.0
 49
0.0
 49
0.0
 49
0.0
 49
1.0
 49
0.0
 49
0.0
 49
0.0
 49
0.0
 49
1.0
175
     0
142
0.0208333333333333
142
0.0
142
0.0
142
0.0
142
0.0
142
0.0208333333333333
142
0.0
142
0.0
142
0.0
142
0.0
142
1.0
142
0.0
142
0.0
142
0.0
142
0.0
142
1.0
179
     0
144
0.0208333333333333
144
0.0
144
0.0
144
0.0
144
0.0
144
0.0208333333333333
144
0.0
144
0.0
144
0.0
144
0.0
144
1.0
144
0.0
144
0.0
144
0.0
144
0.0
144
1.0
147
0.0208333333333333
147
0.0
147
0.0
147
0.0
147
0.0
147
0.0208333333333333
147
0.0
147
0.0
147
0.0
147
0.0
147
1.0
147
0.0
147
0.0
147
0.0
147
0.0
147
1.0
  0
MATERIAL
  5
151
102
{ACAD_XDICTIONARY
360
152
102
}
102
{ACAD_REACTORS
330
140
102
}
330
140
100
AcDbMaterial
  1
Global
 72
     0
 43
0.0208333333333333
 43
0.0
 43
0.0
 43
0.0
 43
0.0
 43
0.0208333333333333
 43
0.0
 43
0.0
 43
0.0
 43
0.0
 43
1.0
 43
0.0
 43
0.0
 43
0.0
 43
0.0
 43
1.0
 77
     0
 47
0.0208333333333333
 47
0.0
 47
0.0
 47
0.0
 47
0.0
 47
0.0208333333333333
 47
0.0
 47
0.0
 47
0.0
 47
0.0
 47
1.0
 47
0.0
 47
0.0
 47
0.0
 47
0.0
 47
1.0
171
     0
 49
0.0208333333333333
 49
0.0
 49
0.0
 49
0.0
 49
0.0
 49
0.0208333333333333
 49
0.0
 49
0.0
 49
0.0
 49
0.0
 49
1.0
 49
0.0
 49
0.0
 49
0.0
 49
0.0
 49
1.0
175
     0
142
0.0208333333333333
142
0.0
142
0.0
142
0.0
142
0.0
142
0.0208333333333333
142
0.0
142
0.0
142
0.0
142
0.0
142
1.0
142
0.0
142
0.0
142
0.0
142
0.0
142
1.0
179
     0
144
0.0208333333333333
144
0.0
144
0.0
144
0.0
144
0.0
144
0.0208333333333333
144
0.0
144
0.0
144
0.0
144
0.0
144
1.0
144
0.0
144
0.0
144
0.0
144
0.0
144
1.0
147
0.0208333333333333
147
0.0
147
0.0
147
0.0
147
0.0
147
0.0208333333333333
147
0.0
147
0.0
147
0.0
147
0.0
147
1.0
147
0.0
147
0.0
147
0.0
147
0.0
147
1.0
  0
MLEADERSTYLE
  5
188
102
{ACAD_REACTORS
330
187
102
}
330
187
100
AcDbMLeaderStyle
170
     2
171
     1
172
     0
 90
        2
 40
0.0
 41
0.0
173
     1
 91
-1056964608
340
29
 92
       -2
290
     1
 42
2.0
291
     1
 43
0.36
  3
Standard
 44
4.0
300

342
24
174
     1
178
     6
175
     1
176
     0
 93
-1056964608
 45
4.0
292
     0
297
     0
 46
4.0
 94
-1056964608
 47
1.0
 49
1.0
140
1.0
293
     1
141
0.0
294
     1
177
     0
142
1.0
295
     0
296
     0
143
0.125
1001
ACAD_MLEADERVER
1070
     2
  0
MLINESTYLE
  5
4
330
3
100
AcDbMlineStyle
  2
STANDARD
 70
     0
  3

 62
     0
 51
90.0
 52
90.0
 71
     2
 49
0.5
 62
   256
  6
BYLAYER
 49
-0.5
 62
   256
  6
BYLAYER
  0
ACDBPLACEHOLDER
  5
13F
102
{ACAD_REACTORS
330
13E
102
}
330
13E
  0
SCALE
  5
176
102
{ACAD_REACTORS
330
175
102
}
330
175
100
AcDbScale
 70
     0
300
1:1
140
1.0
141
1.0
290
     1
  0
SCALE
  5
177
102
{ACAD_REACTORS
330
175
102
}
330
175
100
AcDbScale
 70
     0
300
1:2
140
1.0
141
2.0
290
     0
  0
SCALE
  5
178
102
{ACAD_REACTORS
330
175
102
}
330
175
100
AcDbScale
 70
     0
300
1:4
140
1.0
141
4.0
290
     0
  0
SCALE
  5
179
102
{ACAD_REACTORS
330
175
102
}
330
175
100
AcDbScale
 70
     0
300
1:5
140
1.0
141
5.0
290
     0
  0
SCALE
  5
17A
102
{ACAD_REACTORS
330
175
102
}
330
175
100
AcDbScale
 70
     0
300
1:8
140
1.0
141
8.0
290
     0
  0
SCALE
  5
17B
102
{ACAD_REACTORS
330
175
102
}
330
175
100
AcDbScale
 70
     0
300
1:10
140
1.0
141
10.0
290
     0
  0
SCALE
  5
17C
102
{ACAD_REACTORS
330
175
102
}
330
175
100
AcDbScale
 70
     0
300
1:16
140
1.0
141
16.0
290
     0
  0
SCALE
  5
17D
102
{ACAD_REACTORS
330
175
102
}
330
175
100
AcDbScale
 70
     0
300
1:20
140
1.0
141
20.0
290
     0
  0
SCALE
  5
17E
102
{ACAD_REACTORS
330
175
102
}
330
175
100
AcDbScale
 70
     0
300
1:30
140
1.0
141
30.0
290
     0
  0
SCALE
  5
17F
102
{ACAD_REACTORS
330
175
102
}
330
175
100
AcDbScale
 70
     0
300
1:40
140
1.0
141
40.0
290
     0
  0
SCALE
  5
180
102
{ACAD_REACTORS
330
175
102
}
330
175
100
AcDbScale
 70
     0
300
1:50
140
1.0
141
50.0
290
     0
  0
SCALE
  5
181
102
{ACAD_REACTORS
330
175
102
}
330
175
100
AcDbScale
 70
     0
300
1:100
140
1.0
141
100.0
290
     0
  0
SCALE
  5
182
102
{ACAD_REACTORS
330
175
102
}
330
175
100
AcDbScale
 70
     0
300
2:1
140
2.0
141
1.0
290
     0
  0
SCALE
  5
183
102
{ACAD_REACTORS
330
175
102
}
330
175
100
AcDbScale
 70
     0
300
4:1
140
4.0
141
1.0
290
     0
  0
SCALE
  5
184
102
{ACAD_REACTORS
330
175
102
}
330
175
100
AcDbScale
 70
     0
300
8:1
140
8.0
141
1.0
290
     0
  0
SCALE
  5
185
102
{ACAD_REACTORS
330
175
102
}
330
175
100
AcDbScale
 70
     0
300
10:1
140
10.0
141
1.0
290
     0
  0
SCALE
  5
186
102
{ACAD_REACTORS
330
175
102
}
330
175
100
AcDbScale
 70
     0
300
100:1
140
100.0
141
1.0
290
     0
  0
TABLESTYLE
  5
174
102
{ACAD_XDICTIONARY
360
1DB
102
}
102
{ACAD_REACTORS
330
173
102
}
330
173
100
AcDbTableStyle
  3
Standard
 70
     0
 71
     0
 40
1.5
 41
1.5
280
     0
281
     0
  7
STANDARD
140
4.5
170
     2
 62
     0
 63
     7
283
     0
274
    -2
284
     1
 64
     0
275
    -2
285
     1
 65
     0
276
    -2
286
     1
 66
     0
277
    -2
287
     1
 67
     0
278
    -2
288
     1
 68
     0
279
    -2
289
     1
 69
     0
  7
STANDARD
140
6.0
170
     5
 62
     0
 63
     7
283
     0
274
    -2
284
     1
 64
     0
275
    -2
285
     1
 65
     0
276
    -2
286
     1
 66
     0
277
    -2
287
     1
 67
     0
278
    -2
288
     1
 68
     0
279
    -2
289
     1
 69
     0
  7
STANDARD
140
4.5
170
     5
 62
     0
 63
     7
283
     0
274
    -2
284
     1
 64
     0
275
    -2
285
     1
 65
     0
276
    -2
286
     1
 66
     0
277
    -2
287
     1
 67
     0
278
    -2
288
     1
 68
     0
279
    -2
289
     1
 69
     0
  0
VISUALSTYLE
  5
15F
102
{ACAD_XDICTIONARY
360
1EC
102
}
102
{ACAD_REACTORS
330
159
102
}
330
159
100
AcDbVisualStyle
  2
2dWireframe
 70
     4
 71
     0
 72
     2
 73
     0
 90
        0
 40
-0.6
 41
-30.0
 62
     5
 63
     7
 74
     1
 91
        4
 64
     7
 65
   257
 75
     1
175
     1
 42
1.0
 92
        0
 66
   257
 43
1.0
 76
     1
 77
     6
 78
     2
 67
     7
 79
     5
170
     0
171
     0
290
     0
174
     0
 93
        1
 44
0.0
173
     0
291
     0
 45
0.0
1001
ACAD
1000
AcDbSavedByObjectVersion
1070
     0
  0
VISUALSTYLE
  5
15E
102
{ACAD_XDICTIONARY
360
1EA
102
}
102
{ACAD_REACTORS
330
159
102
}
330
159
100
AcDbVisualStyle
  2
Basic
 70
     7
 71
     1
 72
     0
 73
     1
 90
        0
 40
-0.6
 41
-30.0
 62
     5
 63
     7
 74
     0
 91
        4
 64
     7
 65
   257
 75
     1
175
     1
 42
1.0
 92
        8
 66
     7
 43
1.0
 76
     1
 77
     6
 78
     2
 67
     7
 79
     5
170
     0
171
     0
290
     0
174
     0
 93
        1
 44
0.0
173
     0
291
     1
 45
0.0
1001
ACAD
1000
AcDbSavedByObjectVersion
1070
     0
  0
VISUALSTYLE
  5
165
102
{ACAD_XDICTIONARY
360
1F8
102
}
102
{ACAD_REACTORS
330
159
102
}
330
159
100
AcDbVisualStyle
  2
Brighten
 70
    12
 71
     2
 72
     2
 73
     0
 90
        0
 40
-0.6
 41
-30.0
 62
     5
 63
     7
 74
     1
 91
        4
 64
     7
 65
   257
 75
     1
175
     1
 42
1.0
 92
        8
 66
     7
 43
1.0
 76
     1
 77
     6
 78
     2
 67
     7
 79
     5
170
     0
171
     0
290
     0
174
     0
 93
        1
 44
50.0
173
     0
291
     1
 45
0.0
1001
ACAD
1000
AcDbSavedByObjectVersion
1070
     0
  0
VISUALSTYLE
  5
169
102
{ACAD_XDICTIONARY
360
200
102
}
102
{ACAD_REACTORS
330
159
102
}
330
159
100
AcDbVisualStyle
  2
ColorChange
 70
    16
 71
     2
 72
     2
 73
     3
 90
        0
 40
-0.6
 41
-30.0
 62
     5
 63
     8
 74
     1
 91
        4
 64
     7
 65
   257
 75
     1
175
     1
 42
1.0
 92
        8
 66
     8
 43
1.0
 76
     1
 77
     6
 78
     2
 67
     7
 79
     5
170
     0
171
     0
290
     0
174
     0
 93
        1
 44
0.0
173
     0
291
     1
 45
0.0
1001
ACAD
1000
AcDbSavedByObjectVersion
1070
     0
  0
VISUALSTYLE
  5
162
102
{ACAD_XDICTIONARY
360
1F2
102
}
102
{ACAD_REACTORS
330
159
102
}
330
159
100
AcDbVisualStyle
  2
Conceptual
 70
     9
 71
     3
 72
     2
 73
     0
 90
        0
 40
-0.6
 41
-30.0
 62
     5
 63
     7
 74
     2
 91
        2
 64
     7
 65
   257
 75
     1
175
     1
 42
179.0
 92
        8
 66
     7
 43
1.0
 76
     1
 77
     6
 78
     2
 67
     7
 79
     3
170
     0
171
     0
290
     0
174
     0
 93
        1
 44
0.0
173
     0
291
     0
 45
0.0
1001
ACAD
1000
AcDbSavedByObjectVersion
1070
     0
  0
VISUALSTYLE
  5
164
102
{ACAD_XDICTIONARY
360
1F6
102
}
102
{ACAD_REACTORS
330
159
102
}
330
159
100
AcDbVisualStyle
  2
Dim
 70
    11
 71
     2
 72
     2
 73
     0
 90
        0
 40
-0.6
 41
-30.0
 62
     5
 63
     7
 74
     1
 91
        4
 64
     7
 65
   257
 75
     1
175
     1
 42
1.0
 92
        8
 66
     7
 43
1.0
 76
     1
 77
     6
 78
     2
 67
     7
 79
     5
170
     0
171
     0
290
     0
174
     0
 93
        1
 44
-50.0
173
     0
291
     1
 45
0.0
1001
ACAD
1000
AcDbSavedByObjectVersion
1070
     0
  0
VISUALSTYLE
  5
171
102
{ACAD_XDICTIONARY
360
210
102
}
102
{ACAD_REACTORS
330
159
102
}
330
159
100
AcDbVisualStyle
  2
EdgeColorOff
 70
    22
 71
     2
 72
     2
 73
     0
 90
        0
 40
-0.6
 41
-30.0
 62
     5
 63
     7
 74
     1
 91
        4
 64
     7
 65
   257
 75
     1
175
     1
 42
1.0
 92
        8
 66
     7
 43
1.0
 76
     1
 77
     6
 78
     2
 67
     7
 79
     5
170
     0
171
     0
290
     0
174
     0
 93
        1
 44
0.0
173
     0
291
     1
 45
0.0
1001
ACAD
1000
AcDbSavedByObjectVersion
1070
     0
  0
VISUALSTYLE
  5
168
102
{ACAD_XDICTIONARY
360
1FE
102
}
102
{ACAD_REACTORS
330
159
102
}
330
159
100
AcDbVisualStyle
  2
Facepattern
 70
    15
 71
     2
 72
     2
 73
     0
 90
        0
 40
-0.6
 41
-30.0
 62
     5
 63
     7
 74
     1
 91
        4
 64
     7
 65
   257
 75
     1
175
     1
 42
1.0
 92
        8
 66
     7
 43
1.0
 76
     1
 77
     6
 78
     2
 67
     7
 79
     5
170
     0
171
     0
290
     0
174
     0
 93
        1
 44
0.0
173
     0
291
     1
 45
0.0
1001
ACAD
1000
AcDbSavedByObjectVersion
1070
     0
  0
VISUALSTYLE
  5
15A
102
{ACAD_XDICTIONARY
360
1E2
102
}
102
{ACAD_REACTORS
330
159
102
}
330
159
100
AcDbVisualStyle
  2
Flat
 70
     0
 71
     2
 72
     1
 73
     1
 90
        2
 40
-0.6
 41
30.0
 62
     5
 63
     7
 74
     0
 91
        0
 64
     7
 65
   257
 75
     1
175
     1
 42
1.0
 92
        8
 66
     7
 43
1.0
 76
     1
 77
     6
 78
     2
 67
     7
 79
     5
170
     0
171
     0
290
     0
174
     0
 93
       13
 44
0.0
173
     0
291
     1
 45
0.0
1001
ACAD
1000
AcDbSavedByObjectVersion
1070
     0
  0
VISUALSTYLE
  5
15B
102
{ACAD_XDICTIONARY
360
1E4
102
}
102
{ACAD_REACTORS
330
159
102
}
330
159
100
AcDbVisualStyle
  2
FlatWithEdges
 70
     1
 71
     2
 72
     1
 73
     1
 90
        2
 40
-0.6
 41
30.0
 62
     5
 63
     7
 74
     1
 91
        0
 64
     7
 65
   257
 75
     1
175
     1
 42
1.0
 92
        0
 66
   257
 43
1.0
 76
     1
 77
     6
 78
     2
 67
     7
 79
     5
170
     0
171
     0
290
     0
174
     0
 93
       13
 44
0.0
173
     0
291
     1
 45
0.0
1001
ACAD
1000
AcDbSavedByObjectVersion
1070
     0
  0
VISUALSTYLE
  5
15C
102
{ACAD_XDICTIONARY
360
1E6
102
}
102
{ACAD_REACTORS
330
159
102
}
330
159
100
AcDbVisualStyle
  2
Gouraud
 70
     2
 71
     2
 72
     2
 73
     1
 90
        2
 40
-0.6
 41
30.0
 62
     5
 63
     7
 74
     0
 91
        0
 64
     7
 65
   257
 75
     1
175
     1
 42
1.0
 92
        0
 66
     7
 43
1.0
 76
     1
 77
     6
 78
     2
 67
     7
 79
     5
170
     0
171
     0
290
     0
174
     0
 93
       13
 44
0.0
173
     0
291
     1
 45
0.0
1001
ACAD
1000
AcDbSavedByObjectVersion
1070
     0
  0
VISUALSTYLE
  5
15D
102
{ACAD_XDICTIONARY
360
1E8
102
}
102
{ACAD_REACTORS
330
159
102
}
330
159
100
AcDbVisualStyle
  2
GouraudWithEdges
 70
     3
 71
     2
 72
     2
 73
     1
 90
        2
 40
-0.6
 41
30.0
 62
     5
 63
     7
 74
     1
 91
        0
 64
     7
 65
   257
 75
     1
175
     1
 42
1.0
 92
        0
 66
   257
 43
1.0
 76
     1
 77
     6
 78
     2
 67
     7
 79
     5
170
     0
171
     0
290
     0
174
     0
 93
       13
 44
0.0
173
     0
291
     1
 45
0.0
1001
ACAD
1000
AcDbSavedByObjectVersion
1070
     0
  0
VISUALSTYLE
  5
161
102
{ACAD_XDICTIONARY
360
1F0
102
}
102
{ACAD_REACTORS
330
159
102
}
330
159
100
AcDbVisualStyle
  2
Hidden
 70
     6
 71
     1
 72
     2
 73
     2
 90
        0
 40
-0.6
 41
-30.0
 62
     5
 63
     7
 74
     2
 91
        2
 64
     7
 65
   257
 75
     2
175
     1
 42
40.0
 92
        0
 66
   257
 43
1.0
 76
     1
 77
     6
 78
     2
 67
     7
 79
     3
170
     0
171
     0
290
     0
174
     0
 93
        1
 44
0.0
173
     0
291
     0
 45
0.0
1001
ACAD
1000
AcDbSavedByObjectVersion
1070
     0
  0
VISUALSTYLE
  5
16F
102
{ACAD_XDICTIONARY
360
20C
102
}
102
{ACAD_REACTORS
330
159
102
}
330
159
100
AcDbVisualStyle
  2
JitterOff
 70
    20
 71
     2
 72
     2
 73
     0
 90
        0
 40
-0.6
 41
-30.0
 62
     5
 63
     7
 74
     1
 91
        4
 64
     7
 65
   257
 75
     1
175
     1
 42
1.0
 92
       10
 66
     7
 43
1.0
 76
     1
 77
     6
 78
     2
 67
     7
 79
     5
170
     0
171
     0
290
     0
174
     0
 93
        1
 44
0.0
173
     0
291
     1
 45
0.0
1001
ACAD
1000
AcDbSavedByObjectVersion
1070
     0
  0
VISUALSTYLE
  5
167
102
{ACAD_XDICTIONARY
360
1FC
102
}
102
{ACAD_REACTORS
330
159
102
}
330
159
100
AcDbVisualStyle
  2
Linepattern
 70
    14
 71
     2
 72
     2
 73
     0
 90
        0
 40
-0.6
 41
-30.0
 62
     5
 63
     7
 74
     1
 91
        4
 64
     7
 65
   257
 75
     7
175
     7
 42
1.0
 92
        8
 66
     7
 43
1.0
 76
     1
 77
     6
 78
     2
 67
     7
 79
     5
170
     0
171
     0
290
     0
174
     0
 93
        1
 44
0.0
173
     0
291
     1
 45
0.0
1001
ACAD
1000
AcDbSavedByObjectVersion
1070
     0
  0
VISUALSTYLE
  5
170
102
{ACAD_XDICTIONARY
360
20E
102
}
102
{ACAD_REACTORS
330
159
102
}
330
159
100
AcDbVisualStyle
  2
OverhangOff
 70
    21
 71
     2
 72
     2
 73
     0
 90
        0
 40
-0.6
 41
-30.0
 62
     5
 63
     7
 74
     1
 91
        4
 64
     7
 65
   257
 75
     1
175
     1
 42
1.0
 92
        9
 66
     7
 43
1.0
 76
     1
 77
     6
 78
     2
 67
     7
 79
     5
170
     0
171
     0
290
     0
174
     0
 93
        1
 44
0.0
173
     0
291
     1
 45
0.0
1001
ACAD
1000
AcDbSavedByObjectVersion
1070
     0
  0
VISUALSTYLE
  5
163
102
{ACAD_XDICTIONARY
360
1F4
102
}
102
{ACAD_REACTORS
330
159
102
}
330
159
100
AcDbVisualStyle
  2
Realistic
 70
     8
 71
     2
 72
     3
 73
     0
 90
        2
 40
-0.6
 41
30.0
 62
     5
 63
     7
 74
     0
 91
        0
 64
     7
 65
   257
 75
     1
175
     1
 42
1.0
 92
        8
 66
   257
 43
1.0
 76
     1
 77
     6
 78
     2
 67
     7
 79
     3
170
     0
171
     0
290
     0
174
     0
 93
       13
 44
0.0
173
     0
291
     0
 45
0.0
1001
ACAD
1000
AcDbSavedByObjectVersion
1070
     0
  0
VISUALSTYLE
  5
16E
102
{ACAD_XDICTIONARY
360
20A
102
}
102
{ACAD_REACTORS
330
159
102
}
330
159
100
AcDbVisualStyle
  2
Shaded
 70
    27
 71
     2
 72
     2
 73
     1
 90
        2
 40
-0.6
 41
30.0
 62
     5
 63
     7
 74
     0
 91
        4
 64
     7
 65
   257
 75
     1
175
     1
 42
1.0
 92
        8
 66
   257
 43
1.0
 76
     1
 77
     6
 78
     2
 67
     8
 79
     3
170
     0
171
     0
290
     0
174
     0
 93
        5
 44
0.0
173
     0
291
     0
 45
0.0
1001
ACAD
1000
AcDbSavedByObjectVersion
1070
     0
  0
VISUALSTYLE
  5
16D
102
{ACAD_XDICTIONARY
360
208
102
}
102
{ACAD_REACTORS
330
159
102
}
330
159
100
AcDbVisualStyle
  2
Shaded with edges
 70
    26
 71
     2
 72
     2
 73
     1
 90
        2
 40
-0.6
 41
30.0
 62
     5
 63
     7
 74
     1
 91
       10
 64
     7
 65
   257
 75
     2
175
     1
 42
1.0
 92
        8
 66
   257
 43
1.0
 76
     1
 77
     6
 78
     2
 67
     7
 79
     3
170
     0
171
     0
290
     0
174
     0
 93
        5
 44
0.0
173
     0
291
     0
 45
0.0
1001
ACAD
1000
AcDbSavedByObjectVersion
1070
     0
  0
VISUALSTYLE
  5
16A
102
{ACAD_XDICTIONARY
360
202
102
}
102
{ACAD_REACTORS
330
159
102
}
330
159
100
AcDbVisualStyle
  2
Shades of Gray
 70
    23
 71
     2
 72
     2
 73
     3
 90
        0
 40
-0.6
 41
-30.0
 62
     5
 63
     7
 74
     2
 91
        2
 64
     7
 65
     7
 75
     1
175
     1
 42
40.0
 92
        8
 66
     7
 43
1.0
 76
     1
 77
     6
 78
     2
 67
     7
 79
     3
170
     0
171
     0
290
     0
174
     0
 93
        1
 44
0.0
173
     0
291
     0
 45
0.0
1001
ACAD
1000
AcDbSavedByObjectVersion
1070
     0
  0
VISUALSTYLE
  5
16B
102
{ACAD_XDICTIONARY
360
204
102
}
102
{ACAD_REACTORS
330
159
102
}
330
159
100
AcDbVisualStyle
  2
Sketchy
 70
    24
 71
     1
 72
     2
 73
     2
 90
        0
 40
-0.6
 41
-30.0
 62
     5
 63
     7
 74
     2
 91
        2
 64
     7
 65
     7
 75
     1
175
     1
 42
40.0
 92
       11
 66
     7
 43
1.0
 76
     1
 77
     6
 78
     2
 67
     7
 79
     6
170
     0
171
     0
290
     0
174
     0
 93
        1
 44
0.0
173
     0
291
     0
 45
0.0
1001
ACAD
1000
AcDbSavedByObjectVersion
1070
     0
  0
VISUALSTYLE
  5
166
102
{ACAD_XDICTIONARY
360
1FA
102
}
102
{ACAD_REACTORS
330
159
102
}
330
159
100
AcDbVisualStyle
  2
Thicken
 70
    13
 71
     2
 72
     2
 73
     0
 90
        0
 40
-0.6
 41
-30.0
 62
     5
 63
     7
 74
     1
 91
        4
 64
     7
 65
   257
 75
     1
175
     1
 42
1.0
 92
       12
 66
     7
 43
1.0
 76
     1
 77
     6
 78
     2
 67
     7
 79
     5
170
     0
171
     0
290
     0
174
     0
 93
        1
 44
0.0
173
     0
291
     1
 45
0.0
1001
ACAD
1000
AcDbSavedByObjectVersion
1070
     0
  0
VISUALSTYLE
  5
160
102
{ACAD_XDICTIONARY
360
1EE
102
}
102
{ACAD_REACTORS
330
159
102
}
330
159
100
AcDbVisualStyle
  2
Wireframe
 70
     5
 71
     0
 72
     2
 73
     0
 90
        0
 40
-0.6
 41
-30.0
 62
     5
 63
     7
 74
     1
 91
        4
 64
     7
 65
   257
 75
     1
175
     1
 42
1.0
 92
        0
 66
   257
 43
1.0
 76
     1
 77
     6
 78
     2
 67
     7
 79
     3
170
     0
171
     0
290
     0
174
     0
 93
        1
 44
0.0
173
     0
291
     0
 45
0.0
1001
ACAD
1000
AcDbSavedByObjectVersion
1070
     0
  0
VISUALSTYLE
  5
16C
102
{ACAD_XDICTIONARY
360
206
102
}
102
{ACAD_REACTORS
330
159
102
}
330
159
100
AcDbVisualStyle
  2
X-Ray
 70
    25
 71
     2
 72
     2
 73
     1
 90
        1
 40
0.5
 41
-30.0
 62
     5
 63
     7
 74
     1
 91
        0
 64
     7
 65
   257
 75
     1
175
     1
 42
1.0
 92
        8
 66
     7
 43
1.0
 76
     1
 77
     6
 78
     2
 67
     7
 79
     3
170
     0
171
     0
290
     0
174
     0
 93
       13
 44
0.0
173
     0
291
     0
 45
0.0
1001
ACAD
1000
AcDbSavedByObjectVersion
1070
     0
  0
DICTIONARYVAR
  5
1D6
102
{ACAD_REACTORS
330
1D3
102
}
330
1D3
100
DictionaryVariables
280
     0
  1
1:1
  0
DICTIONARYVAR
  5
1D5
102
{ACAD_REACTORS
330
1D3
102
}
330
1D3
100
DictionaryVariables
280
     0
  1
STANDARD
  0
DICTIONARYVAR
  5
1D4
102
{ACAD_REACTORS
330
1D3
102
}
330
1D3
100
DictionaryVariables
280
     0
  1
STANDARD
  0
DICTIONARYVAR
  5
1D9
102
{ACAD_REACTORS
330
1D3
102
}
330
1D3
100
DictionaryVariables
280
     0
  1
1
  0
DICTIONARYVAR
  5
1D8
102
{ACAD_REACTORS
330
1D3
102
}
330
1D3
100
DictionaryVariables
280
     0
  1
0
  0
DICTIONARYVAR
  5
1D7
102
{ACAD_REACTORS
330
1D3
102
}
330
1D3
100
DictionaryVariables
280
     0
  1
127
  0
DICTIONARYVAR
  5
1DA
102
{ACAD_REACTORS
330
1D3
102
}
330
1D3
100
DictionaryVariables
280
     0
  1
2
  0
DICTIONARY
  5
214
330
18C
100
AcDbDictionary
280
     1
281
     1
  3
ACAD_XREC_ROUNDTRIP
360
215
  0
DICTIONARY
  5
216
330
18D
100
AcDbDictionary
280
     1
281
     1
  3
ACAD_XREC_ROUNDTRIP
360
217
  0
DICTIONARY
  5
14A
330
149
100
AcDbDictionary
280
     1
281
     1
  3
ACAD_XREC_ROUNDTRIP
360
1E0
  3
BUMPTILE
360
14C
  3
DIFFUSETILE
360
14B
  3
OPACITYTILE
360
14F
  3
REFLECTIONTILE
360
14E
  3
REFRACTIONTILE
360
150
  3
SPECULARTILE
360
14D
  0
DICTIONARY
  5
142
330
141
100
AcDbDictionary
280
     1
281
     1
  3
ACAD_XREC_ROUNDTRIP
360
1DF
  3
BUMPTILE
360
144
  3
DIFFUSETILE
360
143
  3
OPACITYTILE
360
147
  3
REFLECTIONTILE
360
146
  3
REFRACTIONTILE
360
148
  3
SPECULARTILE
360
145
  0
DICTIONARY
  5
152
330
151
100
AcDbDictionary
280
     1
281
     1
  3
ACAD_XREC_ROUNDTRIP
360
1E1
  3
BUMPTILE
360
154
  3
DIFFUSETILE
360
153
  3
OPACITYTILE
360
157
  3
REFLECTIONTILE
360
156
  3
REFRACTIONTILE
360
158
  3
SPECULARTILE
360
155
  0
DICTIONARY
  5
1DB
330
174
100
AcDbDictionary
280
     1
281
     1
  3
ACAD_ROUNDTRIP_2008_TABLESTYLE_CELLSTYLEMAP
360
1DC
  3
ACAD_XREC_ROUNDTRIP
360
212
  0
DICTIONARY
  5
1EC
330
15F
100
AcDbDictionary
280
     1
281
     1
  3
ACAD_XREC_ROUNDTRIP
360
1ED
  0
DICTIONARY
  5
1EA
330
15E
100
AcDbDictionary
280
     1
281
     1
  3
ACAD_XREC_ROUNDTRIP
360
1EB
  0
DICTIONARY
  5
1F8
330
165
100
AcDbDictionary
280
     1
281
     1
  3
ACAD_XREC_ROUNDTRIP
360
1F9
  0
DICTIONARY
  5
200
330
169
100
AcDbDictionary
280
     1
281
     1
  3
ACAD_XREC_ROUNDTRIP
360
201
  0
DICTIONARY
  5
1F2
330
162
100
AcDbDictionary
280
     1
281
     1
  3
ACAD_XREC_ROUNDTRIP
360
1F3
  0
DICTIONARY
  5
1F6
330
164
100
AcDbDictionary
280
     1
281
     1
  3
ACAD_XREC_ROUNDTRIP
360
1F7
  0
DICTIONARY
  5
210
330
171
100
AcDbDictionary
280
     1
281
     1
  3
ACAD_XREC_ROUNDTRIP
360
211
  0
DICTIONARY
  5
1FE
330
168
100
AcDbDictionary
280
     1
281
     1
  3
ACAD_XREC_ROUNDTRIP
360
1FF
  0
DICTIONARY
  5
1E2
330
15A
100
AcDbDictionary
280
     1
281
     1
  3
ACAD_XREC_ROUNDTRIP
360
1E3
  0
DICTIONARY
  5
1E4
330
15B
100
AcDbDictionary
280
     1
281
     1
  3
ACAD_XREC_ROUNDTRIP
360
1E5
  0
DICTIONARY
  5
1E6
330
15C
100
AcDbDictionary
280
     1
281
     1
  3
ACAD_XREC_ROUNDTRIP
360
1E7
  0
DICTIONARY
  5
1E8
330
15D
100
AcDbDictionary
280
     1
281
     1
  3
ACAD_XREC_ROUNDTRIP
360
1E9
  0
DICTIONARY
  5
1F0
330
161
100
AcDbDictionary
280
     1
281
     1
  3
ACAD_XREC_ROUNDTRIP
360
1F1
  0
DICTIONARY
  5
20C
330
16F
100
AcDbDictionary
280
     1
281
     1
  3
ACAD_XREC_ROUNDTRIP
360
20D
  0
DICTIONARY
  5
1FC
330
167
100
AcDbDictionary
280
     1
281
     1
  3
ACAD_XREC_ROUNDTRIP
360
1FD
  0
DICTIONARY
  5
20E
330
170
100
AcDbDictionary
280
     1
281
     1
  3
ACAD_XREC_ROUNDTRIP
360
20F
  0
DICTIONARY
  5
1F4
330
163
100
AcDbDictionary
280
     1
281
     1
  3
ACAD_XREC_ROUNDTRIP
360
1F5
  0
DICTIONARY
  5
20A
330
16E
100
AcDbDictionary
280
     1
281
     1
  3
ACAD_XREC_ROUNDTRIP
360
20B
  0
DICTIONARY
  5
208
330
16D
100
AcDbDictionary
280
     1
281
     1
  3
ACAD_XREC_ROUNDTRIP
360
209
  0
DICTIONARY
  5
202
330
16A
100
AcDbDictionary
280
     1
281
     1
  3
ACAD_XREC_ROUNDTRIP
360
203
  0
DICTIONARY
  5
204
330
16B
100
AcDbDictionary
280
     1
281
     1
  3
ACAD_XREC_ROUNDTRIP
360
205
  0
DICTIONARY
  5
1FA
330
166
100
AcDbDictionary
280
     1
281
     1
  3
ACAD_XREC_ROUNDTRIP
360
1FB
  0
DICTIONARY
  5
1EE
330
160
100
AcDbDictionary
280
     1
281
     1
  3
ACAD_XREC_ROUNDTRIP
360
1EF
  0
DICTIONARY
  5
206
330
16C
100
AcDbDictionary
280
     1
281
     1
  3
ACAD_XREC_ROUNDTRIP
360
207
  0
XRECORD
  5
215
102
{ACAD_REACTORS
330
214
102
}
330
214
100
AcDbXrecord
280
     1
102
SHADEPLOT
 70
     0
102
SHADEPLOTRESLEVEL
 70
     2
102
SHADEPLOTCUSTOMDPI
 70
   300
  0
XRECORD
  5
217
102
{ACAD_REACTORS
330
216
102
}
330
216
100
AcDbXrecord
280
     1
102
SHADEPLOT
 70
     0
102
SHADEPLOTRESLEVEL
 70
     2
102
SHADEPLOTCUSTOMDPI
 70
   300
  0
XRECORD
  5
1E0
102
{ACAD_REACTORS
330
14A
102
}
330
14A
100
AcDbXrecord
280
     1
102
MATERIAL
148
0.0
149
0.0
149
0.0
 93
        0
 94
      127
282
     0
 72
     0
 77
     0
171
     0
175
     0
179
     0
273
     0
  0
XRECORD
  5
14C
102
{ACAD_REACTORS
330
14A
102
}
330
14A
100
AcDbXrecord
280
     1
270
     1
271
     1
  0
XRECORD
  5
14B
102
{ACAD_REACTORS
330
14A
102
}
330
14A
100
AcDbXrecord
280
     1
270
     1
271
     1
  0
XRECORD
  5
14F
102
{ACAD_REACTORS
330
14A
102
}
330
14A
100
AcDbXrecord
280
     1
270
     1
271
     1
  0
XRECORD
  5
14E
102
{ACAD_REACTORS
330
14A
102
}
330
14A
100
AcDbXrecord
280
     1
270
     1
271
     1
  0
XRECORD
  5
150
102
{ACAD_REACTORS
330
14A
102
}
330
14A
100
AcDbXrecord
280
     1
270
     1
271
     1
  0
XRECORD
  5
14D
102
{ACAD_REACTORS
330
14A
102
}
330
14A
100
AcDbXrecord
280
     1
270
     1
271
     1
  0
XRECORD
  5
1DF
102
{ACAD_REACTORS
330
142
102
}
330
142
100
AcDbXrecord
280
     1
102
MATERIAL
148
0.0
149
0.0
149
0.0
 93
        0
 94
      127
282
     0
 72
     0
 77
     0
171
     0
175
     0
179
     0
273
     0
  0
XRECORD
  5
144
102
{ACAD_REACTORS
330
142
102
}
330
142
100
AcDbXrecord
280
     1
270
     1
271
     1
  0
XRECORD
  5
143
102
{ACAD_REACTORS
330
142
102
}
330
142
100
AcDbXrecord
280
     1
270
     1
271
     1
  0
XRECORD
  5
147
102
{ACAD_REACTORS
330
142
102
}
330
142
100
AcDbXrecord
280
     1
270
     1
271
     1
  0
XRECORD
  5
146
102
{ACAD_REACTORS
330
142
102
}
330
142
100
AcDbXrecord
280
     1
270
     1
271
     1
  0
XRECORD
  5
148
102
{ACAD_REACTORS
330
142
102
}
330
142
100
AcDbXrecord
280
     1
270
     1
271
     1
  0
XRECORD
  5
145
102
{ACAD_REACTORS
330
142
102
}
330
142
100
AcDbXrecord
280
     1
270
     1
271
     1
  0
XRECORD
  5
1E1
102
{ACAD_REACTORS
330
152
102
}
330
152
100
AcDbXrecord
280
     1
102
MATERIAL
148
0.0
149
0.0
149
0.0
 93
        0
 94
      127
282
     0
 72
     0
 77
     0
171
     0
175
     0
179
     0
273
     0
  0
XRECORD
  5
154
102
{ACAD_REACTORS
330
152
102
}
330
152
100
AcDbXrecord
280
     1
270
     1
271
     1
  0
XRECORD
  5
153
102
{ACAD_REACTORS
330
152
102
}
330
152
100
AcDbXrecord
280
     1
270
     1
271
     1
  0
XRECORD
  5
157
102
{ACAD_REACTORS
330
152
102
}
330
152
100
AcDbXrecord
280
     1
270
     1
271
     1
  0
XRECORD
  5
156
102
{ACAD_REACTORS
330
152
102
}
330
152
100
AcDbXrecord
280
     1
270
     1
271
     1
  0
XRECORD
  5
158
102
{ACAD_REACTORS
330
152
102
}
330
152
100
AcDbXrecord
280
     1
270
     1
271
     1
  0
XRECORD
  5
155
102
{ACAD_REACTORS
330
152
102
}
330
152
100
AcDbXrecord
280
     1
270
     1
271
     1
  0
CELLSTYLEMAP
  5
1DC
102
{ACAD_REACTORS
330
1DB
102
}
330
1DB
100
AcDbCellStyleMap
 90
        3
300
CELLSTYLE
  1
TABLEFORMAT_BEGIN
 90
        5
170
     1
 91
        0
 92
    32768
 62
   257
 93
        1
300
CONTENTFORMAT
  1
CONTENTFORMAT_BEGIN
 90
        0
 91
        0
 92
      512
 93
        0
300

 40
0.0
140
1.0
 94
        5
 62
     0
340
24
144
6.0
309
CONTENTFORMAT_END
171
     1
301
MARGIN
  1
CELLMARGIN_BEGIN
 40
1.5
 40
1.5
 40
1.5
 40
1.5
 40
4.5
 40
4.5
309
CELLMARGIN_END
 94
        6
 95
        1
302
GRIDFORMAT
  1
GRIDFORMAT_BEGIN
 90
        0
 91
        1
 62
     0
 92
       -2
340
0
 93
        0
 40
1.125
309
GRIDFORMAT_END
 95
        2
302
GRIDFORMAT
  1
GRIDFORMAT_BEGIN
 90
        0
 91
        1
 62
     0
 92
       -2
340
0
 93
        0
 40
1.125
309
GRIDFORMAT_END
 95
        4
302
GRIDFORMAT
  1
GRIDFORMAT_BEGIN
 90
        0
 91
        1
 62
     0
 92
       -2
340
0
 93
        0
 40
1.125
309
GRIDFORMAT_END
 95
        8
302
GRIDFORMAT
  1
GRIDFORMAT_BEGIN
 90
        0
 91
        1
 62
     0
 92
       -2
340
0
 93
        0
 40
1.125
309
GRIDFORMAT_END
 95
       16
302
GRIDFORMAT
  1
GRIDFORMAT_BEGIN
 90
        0
 91
        1
 62
     0
 92
       -2
340
0
 93
        0
 40
1.125
309
GRIDFORMAT_END
 95
       32
302
GRIDFORMAT
  1
GRIDFORMAT_BEGIN
 90
        0
 91
        1
 62
     0
 92
       -2
340
0
 93
        0
 40
1.125
309
GRIDFORMAT_END
309
TABLEFORMAT_END
  1
CELLSTYLE_BEGIN
 90
        1
 91
        1
300
_TITLE
309
CELLSTYLE_END
300
CELLSTYLE
  1
TABLEFORMAT_BEGIN
 90
        5
170
     1
 91
        0
 92
        0
 62
   257
 93
        1
300
CONTENTFORMAT
  1
CONTENTFORMAT_BEGIN
 90
        0
 91
        0
 92
      512
 93
        0
300

 40
0.0
140
1.0
 94
        5
 62
     0
340
24
144
4.5
309
CONTENTFORMAT_END
171
     1
301
MARGIN
  1
CELLMARGIN_BEGIN
 40
1.5
 40
1.5
 40
1.5
 40
1.5
 40
4.5
 40
4.5
309
CELLMARGIN_END
 94
        6
 95
        1
302
GRIDFORMAT
  1
GRIDFORMAT_BEGIN
 90
        0
 91
        1
 62
     0
 92
       -2
340
0
 93
        0
 40
1.125
309
GRIDFORMAT_END
 95
        2
302
GRIDFORMAT
  1
GRIDFORMAT_BEGIN
 90
        0
 91
        1
 62
     0
 92
       -2
340
0
 93
        0
 40
1.125
309
GRIDFORMAT_END
 95
        4
302
GRIDFORMAT
  1
GRIDFORMAT_BEGIN
 90
        0
 91
        1
 62
     0
 92
       -2
340
0
 93
        0
 40
1.125
309
GRIDFORMAT_END
 95
        8
302
GRIDFORMAT
  1
GRIDFORMAT_BEGIN
 90
        0
 91
        1
 62
     0
 92
       -2
340
0
 93
        0
 40
1.125
309
GRIDFORMAT_END
 95
       16
302
GRIDFORMAT
  1
GRIDFORMAT_BEGIN
 90
        0
 91
        1
 62
     0
 92
       -2
340
0
 93
        0
 40
1.125
309
GRIDFORMAT_END
 95
       32
302
GRIDFORMAT
  1
GRIDFORMAT_BEGIN
 90
        0
 91
        1
 62
     0
 92
       -2
340
0
 93
        0
 40
1.125
309
GRIDFORMAT_END
309
TABLEFORMAT_END
  1
CELLSTYLE_BEGIN
 90
        2
 91
        1
300
_HEADER
309
CELLSTYLE_END
300
CELLSTYLE
  1
TABLEFORMAT_BEGIN
 90
        5
170
     1
 91
        0
 92
        0
 62
   257
 93
        1
300
CONTENTFORMAT
  1
CONTENTFORMAT_BEGIN
 90
        0
 91
        0
 92
      512
 93
        0
300

 40
0.0
140
1.0
 94
        2
 62
     0
340
24
144
4.5
309
CONTENTFORMAT_END
171
     1
301
MARGIN
  1
CELLMARGIN_BEGIN
 40
1.5
 40
1.5
 40
1.5
 40
1.5
 40
4.5
 40
4.5
309
CELLMARGIN_END
 94
        6
 95
        1
302
GRIDFORMAT
  1
GRIDFORMAT_BEGIN
 90
        0
 91
        1
 62
     0
 92
       -2
340
0
 93
        0
 40
1.125
309
GRIDFORMAT_END
 95
        2
302
GRIDFORMAT
  1
GRIDFORMAT_BEGIN
 90
        0
 91
        1
 62
     0
 92
       -2
340
0
 93
        0
 40
1.125
309
GRIDFORMAT_END
 95
        4
302
GRIDFORMAT
  1
GRIDFORMAT_BEGIN
 90
        0
 91
        1
 62
     0
 92
       -2
340
0
 93
        0
 40
1.125
309
GRIDFORMAT_END
 95
        8
302
GRIDFORMAT
  1
GRIDFORMAT_BEGIN
 90
        0
 91
        1
 62
     0
 92
       -2
340
0
 93
        0
 40
1.125
309
GRIDFORMAT_END
 95
       16
302
GRIDFORMAT
  1
GRIDFORMAT_BEGIN
 90
        0
 91
        1
 62
     0
 92
       -2
340
0
 93
        0
 40
1.125
309
GRIDFORMAT_END
 95
       32
302
GRIDFORMAT
  1
GRIDFORMAT_BEGIN
 90
        0
 91
        1
 62
     0
 92
       -2
340
0
 93
        0
 40
1.125
309
GRIDFORMAT_END
309
TABLEFORMAT_END
  1
CELLSTYLE_BEGIN
 90
        3
 91
        2
300
_DATA
309
CELLSTYLE_END
  0
XRECORD
  5
212
102
{ACAD_REACTORS
330
1DB
102
}
330
1DB
100
AcDbXrecord
280
     1
102
ACAD_ROUNDTRIP_PRE2007_TABLESTYLE
 90
      512
 91
        0
  1

 92
      512
 93
        0
  2

 94
      512
 95
        0
  3

  0
XRECORD
  5
1ED
102
{ACAD_REACTORS
330
1EC
102
}
330
1EC
100
AcDbXrecord
280
     1
102
RTVSPropertyOp0
 70
     1
102
RTVSPropertyOp1
 70
     1
102
RTVSPropertyOp2
 70
     1
102
RTVSPropertyOp3
 70
     1
102
RTVSPropertyOp4
 70
     1
102
RTVSPropertyOp5
 70
     1
102
RTVSPropertyOp6
 70
     1
102
RTVSPropertyOp7
 70
     1
102
RTVSPropertyOp8
 70
     1
102
RTVSPropertyOp9
 70
     1
102
RTVSPropertyOp10
 70
     1
102
RTVSPropertyOp11
 70
     1
102
RTVSPropertyOp12
 70
     1
102
RTVSPropertyOp13
 70
     1
102
RTVSPropertyOp14
 70
     1
102
RTVSPropertyOp15
 70
     1
102
RTVSPropertyOp16
 70
     1
102
RTVSPropertyOp17
 70
     1
102
RTVSPropertyOp18
 70
     1
102
RTVSPropertyOp19
 70
     1
102
RTVSPropertyOp20
 70
     1
102
RTVSPropertyOp21
 70
     1
102
RTVSPropertyOp22
 70
     1
102
RTVSPropertyOp23
 70
     1
102
RTVSPropertyOp24
 70
     1
102
RTVSPropertyOp25
 70
     1
102
RTVSPropertyOp26
 70
     1
102
RTVSPropertyOp27
 70
     1
102
RTVSPropertyOp28
 70
     1
102
RTVSPropertyOp29
 70
     1
102
RTVSPropertyOp30
 70
     1
102
RTVSPropertyOp31
 70
     1
102
RTVSPropertyOp32
 70
     1
  0
XRECORD
  5
1EB
102
{ACAD_REACTORS
330
1EA
102
}
330
1EA
100
AcDbXrecord
280
     1
102
RTVSPropertyOp0
 70
     1
102
RTVSPropertyOp1
 70
     1
102
RTVSPropertyOp2
 70
     1
102
RTVSPropertyOp3
 70
     1
102
RTVSPropertyOp4
 70
     1
102
RTVSPropertyOp5
 70
     1
102
RTVSPropertyOp6
 70
     1
102
RTVSPropertyOp7
 70
     1
102
RTVSPropertyOp8
 70
     1
102
RTVSPropertyOp9
 70
     1
102
RTVSPropertyOp10
 70
     1
102
RTVSPropertyOp11
 70
     1
102
RTVSPropertyOp12
 70
     1
102
RTVSPropertyOp13
 70
     1
102
RTVSPropertyOp14
 70
     1
102
RTVSPropertyOp15
 70
     1
102
RTVSPropertyOp16
 70
     1
102
RTVSPropertyOp17
 70
     1
102
RTVSPropertyOp18
 70
     1
102
RTVSPropertyOp19
 70
     1
102
RTVSPropertyOp20
 70
     1
102
RTVSPropertyOp21
 70
     1
102
RTVSPropertyOp22
 70
     1
102
RTVSPropertyOp23
 70
     1
102
RTVSPropertyOp24
 70
     1
102
RTVSPropertyOp25
 70
     1
102
RTVSPropertyOp26
 70
     1
102
RTVSPropertyOp27
 70
     1
102
RTVSPropertyOp28
 70
     1
102
RTVSPropertyOp29
 70
     1
102
RTVSPropertyOp30
 70
     1
102
RTVSPropertyOp31
 70
     1
102
RTVSPropertyOp32
 70
     1
  0
XRECORD
  5
1F9
102
{ACAD_REACTORS
330
1F8
102
}
330
1F8
100
AcDbXrecord
280
     1
102
RTVSPropertyOp0
 70
     1
102
RTVSPropertyOp1
 70
     1
102
RTVSPropertyOp2
 70
     1
102
RTVSPropertyOp3
 70
     1
102
RTVSPropertyOp4
 70
     1
102
RTVSPropertyOp5
 70
     1
102
RTVSPropertyOp6
 70
     1
102
RTVSPropertyOp7
 70
     1
102
RTVSPropertyOp8
 70
     1
102
RTVSPropertyOp9
 70
     1
102
RTVSPropertyOp10
 70
     1
102
RTVSPropertyOp11
 70
     1
102
RTVSPropertyOp12
 70
     1
102
RTVSPropertyOp13
 70
     1
102
RTVSPropertyOp14
 70
     1
102
RTVSPropertyOp15
 70
     1
102
RTVSPropertyOp16
 70
     1
102
RTVSPropertyOp17
 70
     1
102
RTVSPropertyOp18
 70
     1
102
RTVSPropertyOp19
 70
     1
102
RTVSPropertyOp20
 70
     1
102
RTVSPropertyOp21
 70
     1
102
RTVSPropertyOp22
 70
     1
102
RTVSPropertyOp23
 70
     1
102
RTVSPropertyOp24
 70
     1
102
RTVSPropertyOp25
 70
     1
102
RTVSPropertyOp26
 70
     1
102
RTVSPropertyOp27
 70
     1
102
RTVSPropertyOp28
 70
     1
102
RTVSPropertyOp29
 70
     1
102
RTVSPropertyOp30
 70
     1
102
RTVSPropertyOp31
 70
     1
102
RTVSPropertyOp32
 70
     1
  0
XRECORD
  5
201
102
{ACAD_REACTORS
330
200
102
}
330
200
100
AcDbXrecord
280
     1
102
RTVSPropertyOp0
 70
     1
102
RTVSPropertyOp1
 70
     1
102
RTVSPropertyOp2
 70
     1
102
RTVSPropertyOp3
 70
     1
102
RTVSPropertyOp4
 70
     1
102
RTVSPropertyOp5
 70
     1
102
RTVSPropertyOp6
 70
     1
102
RTVSPropertyOp7
 70
     1
102
RTVSPropertyOp8
 70
     1
102
RTVSPropertyOp9
 70
     1
102
RTVSPropertyOp10
 70
     1
102
RTVSPropertyOp11
 70
     1
102
RTVSPropertyOp12
 70
     1
102
RTVSPropertyOp13
 70
     1
102
RTVSPropertyOp14
 70
     1
102
RTVSPropertyOp15
 70
     1
102
RTVSPropertyOp16
 70
     1
102
RTVSPropertyOp17
 70
     1
102
RTVSPropertyOp18
 70
     1
102
RTVSPropertyOp19
 70
     1
102
RTVSPropertyOp20
 70
     1
102
RTVSPropertyOp21
 70
     1
102
RTVSPropertyOp22
 70
     1
102
RTVSPropertyOp23
 70
     1
102
RTVSPropertyOp24
 70
     1
102
RTVSPropertyOp25
 70
     1
102
RTVSPropertyOp26
 70
     1
102
RTVSPropertyOp27
 70
     1
102
RTVSPropertyOp28
 70
     1
102
RTVSPropertyOp29
 70
     1
102
RTVSPropertyOp30
 70
     1
102
RTVSPropertyOp31
 70
     1
102
RTVSPropertyOp32
 70
     1
  0
XRECORD
  5
1F3
102
{ACAD_REACTORS
330
1F2
102
}
330
1F2
100
AcDbXrecord
280
     1
102
RTVSPropertyOp0
 70
     1
102
RTVSPropertyOp1
 70
     1
102
RTVSPropertyOp2
 70
     1
102
RTVSPropertyOp3
 70
     1
102
RTVSPropertyOp4
 70
     1
102
RTVSPropertyOp5
 70
     1
102
RTVSPropertyOp6
 70
     1
102
RTVSPropertyOp7
 70
     1
102
RTVSPropertyOp8
 70
     1
102
RTVSPropertyOp9
 70
     1
102
RTVSPropertyOp10
 70
     1
102
RTVSPropertyOp11
 70
     1
102
RTVSPropertyOp12
 70
     1
102
RTVSPropertyOp13
 70
     1
102
RTVSPropertyOp14
 70
     1
102
RTVSPropertyOp15
 70
     1
102
RTVSPropertyOp16
 70
     1
102
RTVSPropertyOp17
 70
     1
102
RTVSPropertyOp18
 70
     1
102
RTVSPropertyOp19
 70
     1
102
RTVSPropertyOp20
 70
     1
102
RTVSPropertyOp21
 70
     1
102
RTVSPropertyOp22
 70
     1
102
RTVSPropertyOp23
 70
     1
102
RTVSPropertyOp24
 70
     1
102
RTVSPropertyOp25
 70
     1
102
RTVSPropertyOp26
 70
     1
102
RTVSPropertyOp27
 70
     1
102
RTVSPropertyOp28
 70
     1
102
RTVSPropertyOp29
 70
     1
102
RTVSPropertyOp30
 70
     1
102
RTVSPropertyOp31
 70
     1
102
RTVSPropertyOp32
 70
     1
  0
XRECORD
  5
1F7
102
{ACAD_REACTORS
330
1F6
102
}
330
1F6
100
AcDbXrecord
280
     1
102
RTVSPropertyOp0
 70
     1
102
RTVSPropertyOp1
 70
     1
102
RTVSPropertyOp2
 70
     1
102
RTVSPropertyOp3
 70
     1
102
RTVSPropertyOp4
 70
     1
102
RTVSPropertyOp5
 70
     1
102
RTVSPropertyOp6
 70
     1
102
RTVSPropertyOp7
 70
     1
102
RTVSPropertyOp8
 70
     1
102
RTVSPropertyOp9
 70
     1
102
RTVSPropertyOp10
 70
     1
102
RTVSPropertyOp11
 70
     1
102
RTVSPropertyOp12
 70
     1
102
RTVSPropertyOp13
 70
     1
102
RTVSPropertyOp14
 70
     1
102
RTVSPropertyOp15
 70
     1
102
RTVSPropertyOp16
 70
     1
102
RTVSPropertyOp17
 70
     1
102
RTVSPropertyOp18
 70
     1
102
RTVSPropertyOp19
 70
     1
102
RTVSPropertyOp20
 70
     1
102
RTVSPropertyOp21
 70
     1
102
RTVSPropertyOp22
 70
     1
102
RTVSPropertyOp23
 70
     1
102
RTVSPropertyOp24
 70
     1
102
RTVSPropertyOp25
 70
     1
102
RTVSPropertyOp26
 70
     1
102
RTVSPropertyOp27
 70
     1
102
RTVSPropertyOp28
 70
     1
102
RTVSPropertyOp29
 70
     1
102
RTVSPropertyOp30
 70
     1
102
RTVSPropertyOp31
 70
     1
102
RTVSPropertyOp32
 70
     1
  0
XRECORD
  5
211
102
{ACAD_REACTORS
330
210
102
}
330
210
100
AcDbXrecord
280
     1
102
RTVSPropertyOp0
 70
     0
102
RTVSPropertyOp1
 70
     0
102
RTVSPropertyOp2
 70
     0
102
RTVSPropertyOp3
 70
     0
102
RTVSPropertyOp4
 70
     0
102
RTVSPropertyOp5
 70
     0
102
RTVSPropertyOp6
 70
     0
102
RTVSPropertyOp7
 70
     0
102
RTVSPropertyOp8
 70
     0
102
RTVSPropertyOp9
 70
     0
102
RTVSPropertyOp10
 70
     0
102
RTVSPropertyOp11
 70
     0
102
RTVSPropertyOp12
 70
     0
102
RTVSPropertyOp13
 70
     0
102
RTVSPropertyOp14
 70
     2
102
RTVSPropertyOp15
 70
     0
102
RTVSPropertyOp16
 70
     0
102
RTVSPropertyOp17
 70
     0
102
RTVSPropertyOp18
 70
     0
102
RTVSPropertyOp19
 70
     0
102
RTVSPropertyOp20
 70
     0
102
RTVSPropertyOp21
 70
     0
102
RTVSPropertyOp22
 70
     0
102
RTVSPropertyOp23
 70
     0
102
RTVSPropertyOp24
 70
     0
102
RTVSPropertyOp25
 70
     0
102
RTVSPropertyOp26
 70
     0
102
RTVSPropertyOp27
 70
     0
102
RTVSPropertyOp28
 70
     0
102
RTVSPropertyOp29
 70
     0
102
RTVSPropertyOp30
 70
     0
102
RTVSPropertyOp31
 70
     0
102
RTVSPropertyOp32
 70
     0
  0
XRECORD
  5
1FF
102
{ACAD_REACTORS
330
1FE
102
}
330
1FE
100
AcDbXrecord
280
     1
102
RTVSPropertyOp0
 70
     1
102
RTVSPropertyOp1
 70
     1
102
RTVSPropertyOp2
 70
     1
102
RTVSPropertyOp3
 70
     1
102
RTVSPropertyOp4
 70
     1
102
RTVSPropertyOp5
 70
     1
102
RTVSPropertyOp6
 70
     1
102
RTVSPropertyOp7
 70
     1
102
RTVSPropertyOp8
 70
     1
102
RTVSPropertyOp9
 70
     1
102
RTVSPropertyOp10
 70
     1
102
RTVSPropertyOp11
 70
     1
102
RTVSPropertyOp12
 70
     1
102
RTVSPropertyOp13
 70
     1
102
RTVSPropertyOp14
 70
     1
102
RTVSPropertyOp15
 70
     1
102
RTVSPropertyOp16
 70
     1
102
RTVSPropertyOp17
 70
     1
102
RTVSPropertyOp18
 70
     1
102
RTVSPropertyOp19
 70
     1
102
RTVSPropertyOp20
 70
     1
102
RTVSPropertyOp21
 70
     1
102
RTVSPropertyOp22
 70
     1
102
RTVSPropertyOp23
 70
     1
102
RTVSPropertyOp24
 70
     1
102
RTVSPropertyOp25
 70
     1
102
RTVSPropertyOp26
 70
     1
102
RTVSPropertyOp27
 70
     1
102
RTVSPropertyOp28
 70
     1
102
RTVSPropertyOp29
 70
     1
102
RTVSPropertyOp30
 70
     1
102
RTVSPropertyOp31
 70
     1
102
RTVSPropertyOp32
 70
     1
  0
XRECORD
  5
1E3
102
{ACAD_REACTORS
330
1E2
102
}
330
1E2
100
AcDbXrecord
280
     1
102
RTVSPropertyOp0
 70
     1
102
RTVSPropertyOp1
 70
     1
102
RTVSPropertyOp2
 70
     1
102
RTVSPropertyOp3
 70
     1
102
RTVSPropertyOp4
 70
     1
102
RTVSPropertyOp5
 70
     1
102
RTVSPropertyOp6
 70
     1
102
RTVSPropertyOp7
 70
     1
102
RTVSPropertyOp8
 70
     1
102
RTVSPropertyOp9
 70
     1
102
RTVSPropertyOp10
 70
     1
102
RTVSPropertyOp11
 70
     1
102
RTVSPropertyOp12
 70
     1
102
RTVSPropertyOp13
 70
     1
102
RTVSPropertyOp14
 70
     1
102
RTVSPropertyOp15
 70
     1
102
RTVSPropertyOp16
 70
     1
102
RTVSPropertyOp17
 70
     1
102
RTVSPropertyOp18
 70
     1
102
RTVSPropertyOp19
 70
     1
102
RTVSPropertyOp20
 70
     1
102
RTVSPropertyOp21
 70
     1
102
RTVSPropertyOp22
 70
     1
102
RTVSPropertyOp23
 70
     1
102
RTVSPropertyOp24
 70
     1
102
RTVSPropertyOp25
 70
     1
102
RTVSPropertyOp26
 70
     1
102
RTVSPropertyOp27
 70
     1
102
RTVSPropertyOp28
 70
     1
102
RTVSPropertyOp29
 70
     1
102
RTVSPropertyOp30
 70
     1
102
RTVSPropertyOp31
 70
     1
102
RTVSPropertyOp32
 70
     1
  0
XRECORD
  5
1E5
102
{ACAD_REACTORS
330
1E4
102
}
330
1E4
100
AcDbXrecord
280
     1
102
RTVSPropertyOp0
 70
     1
102
RTVSPropertyOp1
 70
     1
102
RTVSPropertyOp2
 70
     1
102
RTVSPropertyOp3
 70
     1
102
RTVSPropertyOp4
 70
     1
102
RTVSPropertyOp5
 70
     1
102
RTVSPropertyOp6
 70
     1
102
RTVSPropertyOp7
 70
     1
102
RTVSPropertyOp8
 70
     1
102
RTVSPropertyOp9
 70
     1
102
RTVSPropertyOp10
 70
     1
102
RTVSPropertyOp11
 70
     1
102
RTVSPropertyOp12
 70
     1
102
RTVSPropertyOp13
 70
     1
102
RTVSPropertyOp14
 70
     1
102
RTVSPropertyOp15
 70
     1
102
RTVSPropertyOp16
 70
     1
102
RTVSPropertyOp17
 70
     1
102
RTVSPropertyOp18
 70
     1
102
RTVSPropertyOp19
 70
     1
102
RTVSPropertyOp20
 70
     1
102
RTVSPropertyOp21
 70
     1
102
RTVSPropertyOp22
 70
     1
102
RTVSPropertyOp23
 70
     1
102
RTVSPropertyOp24
 70
     1
102
RTVSPropertyOp25
 70
     1
102
RTVSPropertyOp26
 70
     1
102
RTVSPropertyOp27
 70
     1
102
RTVSPropertyOp28
 70
     1
102
RTVSPropertyOp29
 70
     1
102
RTVSPropertyOp30
 70
     1
102
RTVSPropertyOp31
 70
     1
102
RTVSPropertyOp32
 70
     1
  0
XRECORD
  5
1E7
102
{ACAD_REACTORS
330
1E6
102
}
330
1E6
100
AcDbXrecord
280
     1
102
RTVSPropertyOp0
 70
     1
102
RTVSPropertyOp1
 70
     1
102
RTVSPropertyOp2
 70
     1
102
RTVSPropertyOp3
 70
     1
102
RTVSPropertyOp4
 70
     1
102
RTVSPropertyOp5
 70
     1
102
RTVSPropertyOp6
 70
     1
102
RTVSPropertyOp7
 70
     1
102
RTVSPropertyOp8
 70
     1
102
RTVSPropertyOp9
 70
     1
102
RTVSPropertyOp10
 70
     1
102
RTVSPropertyOp11
 70
     1
102
RTVSPropertyOp12
 70
     1
102
RTVSPropertyOp13
 70
     1
102
RTVSPropertyOp14
 70
     1
102
RTVSPropertyOp15
 70
     1
102
RTVSPropertyOp16
 70
     1
102
RTVSPropertyOp17
 70
     1
102
RTVSPropertyOp18
 70
     1
102
RTVSPropertyOp19
 70
     1
102
RTVSPropertyOp20
 70
     1
102
RTVSPropertyOp21
 70
     1
102
RTVSPropertyOp22
 70
     1
102
RTVSPropertyOp23
 70
     1
102
RTVSPropertyOp24
 70
     1
102
RTVSPropertyOp25
 70
     1
102
RTVSPropertyOp26
 70
     1
102
RTVSPropertyOp27
 70
     1
102
RTVSPropertyOp28
 70
     1
102
RTVSPropertyOp29
 70
     1
102
RTVSPropertyOp30
 70
     1
102
RTVSPropertyOp31
 70
     1
102
RTVSPropertyOp32
 70
     1
  0
XRECORD
  5
1E9
102
{ACAD_REACTORS
330
1E8
102
}
330
1E8
100
AcDbXrecord
280
     1
102
RTVSPropertyOp0
 70
     1
102
RTVSPropertyOp1
 70
     1
102
RTVSPropertyOp2
 70
     1
102
RTVSPropertyOp3
 70
     1
102
RTVSPropertyOp4
 70
     1
102
RTVSPropertyOp5
 70
     1
102
RTVSPropertyOp6
 70
     1
102
RTVSPropertyOp7
 70
     1
102
RTVSPropertyOp8
 70
     1
102
RTVSPropertyOp9
 70
     1
102
RTVSPropertyOp10
 70
     1
102
RTVSPropertyOp11
 70
     1
102
RTVSPropertyOp12
 70
     1
102
RTVSPropertyOp13
 70
     1
102
RTVSPropertyOp14
 70
     1
102
RTVSPropertyOp15
 70
     1
102
RTVSPropertyOp16
 70
     1
102
RTVSPropertyOp17
 70
     1
102
RTVSPropertyOp18
 70
     1
102
RTVSPropertyOp19
 70
     1
102
RTVSPropertyOp20
 70
     1
102
RTVSPropertyOp21
 70
     1
102
RTVSPropertyOp22
 70
     1
102
RTVSPropertyOp23
 70
     1
102
RTVSPropertyOp24
 70
     1
102
RTVSPropertyOp25
 70
     1
102
RTVSPropertyOp26
 70
     1
102
RTVSPropertyOp27
 70
     1
102
RTVSPropertyOp28
 70
     1
102
RTVSPropertyOp29
 70
     1
102
RTVSPropertyOp30
 70
     1
102
RTVSPropertyOp31
 70
     1
102
RTVSPropertyOp32
 70
     1
  0
XRECORD
  5
1F1
102
{ACAD_REACTORS
330
1F0
102
}
330
1F0
100
AcDbXrecord
280
     1
102
RTVSPropertyOp0
 70
     1
102
RTVSPropertyOp1
 70
     1
102
RTVSPropertyOp2
 70
     1
102
RTVSPropertyOp3
 70
     1
102
RTVSPropertyOp4
 70
     1
102
RTVSPropertyOp5
 70
     1
102
RTVSPropertyOp6
 70
     1
102
RTVSPropertyOp7
 70
     1
102
RTVSPropertyOp8
 70
     1
102
RTVSPropertyOp9
 70
     1
102
RTVSPropertyOp10
 70
     1
102
RTVSPropertyOp11
 70
     1
102
RTVSPropertyOp12
 70
     1
102
RTVSPropertyOp13
 70
     1
102
RTVSPropertyOp14
 70
     1
102
RTVSPropertyOp15
 70
     1
102
RTVSPropertyOp16
 70
     1
102
RTVSPropertyOp17
 70
     1
102
RTVSPropertyOp18
 70
     1
102
RTVSPropertyOp19
 70
     1
102
RTVSPropertyOp20
 70
     1
102
RTVSPropertyOp21
 70
     1
102
RTVSPropertyOp22
 70
     1
102
RTVSPropertyOp23
 70
     1
102
RTVSPropertyOp24
 70
     1
102
RTVSPropertyOp25
 70
     1
102
RTVSPropertyOp26
 70
     1
102
RTVSPropertyOp27
 70
     1
102
RTVSPropertyOp28
 70
     1
102
RTVSPropertyOp29
 70
     1
102
RTVSPropertyOp30
 70
     1
102
RTVSPropertyOp31
 70
     1
102
RTVSPropertyOp32
 70
     1
  0
XRECORD
  5
20D
102
{ACAD_REACTORS
330
20C
102
}
330
20C
100
AcDbXrecord
280
     1
102
RTVSPropertyOp0
 70
     0
102
RTVSPropertyOp1
 70
     0
102
RTVSPropertyOp2
 70
     0
102
RTVSPropertyOp3
 70
     0
102
RTVSPropertyOp4
 70
     0
102
RTVSPropertyOp5
 70
     0
102
RTVSPropertyOp6
 70
     0
102
RTVSPropertyOp7
 70
     0
102
RTVSPropertyOp8
 70
     0
102
RTVSPropertyOp9
 70
     0
102
RTVSPropertyOp10
 70
     0
102
RTVSPropertyOp11
 70
     0
102
RTVSPropertyOp12
 70
     0
102
RTVSPropertyOp13
 70
     0
102
RTVSPropertyOp14
 70
     2
102
RTVSPropertyOp15
 70
     0
102
RTVSPropertyOp16
 70
     0
102
RTVSPropertyOp17
 70
     0
102
RTVSPropertyOp18
 70
     0
102
RTVSPropertyOp19
 70
     0
102
RTVSPropertyOp20
 70
     0
102
RTVSPropertyOp21
 70
     0
102
RTVSPropertyOp22
 70
     0
102
RTVSPropertyOp23
 70
     0
102
RTVSPropertyOp24
 70
     0
102
RTVSPropertyOp25
 70
     0
102
RTVSPropertyOp26
 70
     0
102
RTVSPropertyOp27
 70
     0
102
RTVSPropertyOp28
 70
     0
102
RTVSPropertyOp29
 70
     0
102
RTVSPropertyOp30
 70
     0
102
RTVSPropertyOp31
 70
     0
102
RTVSPropertyOp32
 70
     0
  0
XRECORD
  5
1FD
102
{ACAD_REACTORS
330
1FC
102
}
330
1FC
100
AcDbXrecord
280
     1
102
RTVSPropertyOp0
 70
     1
102
RTVSPropertyOp1
 70
     1
102
RTVSPropertyOp2
 70
     1
102
RTVSPropertyOp3
 70
     1
102
RTVSPropertyOp4
 70
     1
102
RTVSPropertyOp5
 70
     1
102
RTVSPropertyOp6
 70
     1
102
RTVSPropertyOp7
 70
     1
102
RTVSPropertyOp8
 70
     1
102
RTVSPropertyOp9
 70
     1
102
RTVSPropertyOp10
 70
     1
102
RTVSPropertyOp11
 70
     1
102
RTVSPropertyOp12
 70
     1
102
RTVSPropertyOp13
 70
     1
102
RTVSPropertyOp14
 70
     1
102
RTVSPropertyOp15
 70
     1
102
RTVSPropertyOp16
 70
     1
102
RTVSPropertyOp17
 70
     1
102
RTVSPropertyOp18
 70
     1
102
RTVSPropertyOp19
 70
     1
102
RTVSPropertyOp20
 70
     1
102
RTVSPropertyOp21
 70
     1
102
RTVSPropertyOp22
 70
     1
102
RTVSPropertyOp23
 70
     1
102
RTVSPropertyOp24
 70
     1
102
RTVSPropertyOp25
 70
     1
102
RTVSPropertyOp26
 70
     1
102
RTVSPropertyOp27
 70
     1
102
RTVSPropertyOp28
 70
     1
102
RTVSPropertyOp29
 70
     1
102
RTVSPropertyOp30
 70
     1
102
RTVSPropertyOp31
 70
     1
102
RTVSPropertyOp32
 70
     1
  0
XRECORD
  5
20F
102
{ACAD_REACTORS
330
20E
102
}
330
20E
100
AcDbXrecord
280
     1
102
RTVSPropertyOp0
 70
     0
102
RTVSPropertyOp1
 70
     0
102
RTVSPropertyOp2
 70
     0
102
RTVSPropertyOp3
 70
     0
102
RTVSPropertyOp4
 70
     0
102
RTVSPropertyOp5
 70
     0
102
RTVSPropertyOp6
 70
     0
102
RTVSPropertyOp7
 70
     0
102
RTVSPropertyOp8
 70
     0
102
RTVSPropertyOp9
 70
     0
102
RTVSPropertyOp10
 70
     0
102
RTVSPropertyOp11
 70
     0
102
RTVSPropertyOp12
 70
     0
102
RTVSPropertyOp13
 70
     0
102
RTVSPropertyOp14
 70
     2
102
RTVSPropertyOp15
 70
     0
102
RTVSPropertyOp16
 70
     0
102
RTVSPropertyOp17
 70
     0
102
RTVSPropertyOp18
 70
     0
102
RTVSPropertyOp19
 70
     0
102
RTVSPropertyOp20
 70
     0
102
RTVSPropertyOp21
 70
     0
102
RTVSPropertyOp22
 70
     0
102
RTVSPropertyOp23
 70
     0
102
RTVSPropertyOp24
 70
     0
102
RTVSPropertyOp25
 70
     0
102
RTVSPropertyOp26
 70
     0
102
RTVSPropertyOp27
 70
     0
102
RTVSPropertyOp28
 70
     0
102
RTVSPropertyOp29
 70
     0
102
RTVSPropertyOp30
 70
     0
102
RTVSPropertyOp31
 70
     0
102
RTVSPropertyOp32
 70
     0
  0
XRECORD
  5
1F5
102
{ACAD_REACTORS
330
1F4
102
}
330
1F4
100
AcDbXrecord
280
     1
102
RTVSPropertyOp0
 70
     1
102
RTVSPropertyOp1
 70
     1
102
RTVSPropertyOp2
 70
     1
102
RTVSPropertyOp3
 70
     1
102
RTVSPropertyOp4
 70
     1
102
RTVSPropertyOp5
 70
     1
102
RTVSPropertyOp6
 70
     1
102
RTVSPropertyOp7
 70
     1
102
RTVSPropertyOp8
 70
     1
102
RTVSPropertyOp9
 70
     1
102
RTVSPropertyOp10
 70
     1
102
RTVSPropertyOp11
 70
     1
102
RTVSPropertyOp12
 70
     1
102
RTVSPropertyOp13
 70
     1
102
RTVSPropertyOp14
 70
     1
102
RTVSPropertyOp15
 70
     1
102
RTVSPropertyOp16
 70
     1
102
RTVSPropertyOp17
 70
     1
102
RTVSPropertyOp18
 70
     1
102
RTVSPropertyOp19
 70
     1
102
RTVSPropertyOp20
 70
     1
102
RTVSPropertyOp21
 70
     1
102
RTVSPropertyOp22
 70
     1
102
RTVSPropertyOp23
 70
     1
102
RTVSPropertyOp24
 70
     1
102
RTVSPropertyOp25
 70
     1
102
RTVSPropertyOp26
 70
     1
102
RTVSPropertyOp27
 70
     1
102
RTVSPropertyOp28
 70
     1
102
RTVSPropertyOp29
 70
     1
102
RTVSPropertyOp30
 70
     1
102
RTVSPropertyOp31
 70
     1
102
RTVSPropertyOp32
 70
     1
  0
XRECORD
  5
20B
102
{ACAD_REACTORS
330
20A
102
}
330
20A
100
AcDbXrecord
280
     1
102
RTVSPropertyOp0
 70
     1
102
RTVSPropertyOp1
 70
     1
102
RTVSPropertyOp2
 70
     1
102
RTVSPropertyOp3
 70
     1
102
RTVSPropertyOp4
 70
     1
102
RTVSPropertyOp5
 70
     1
102
RTVSPropertyOp6
 70
     1
102
RTVSPropertyOp7
 70
     1
102
RTVSPropertyOp8
 70
     1
102
RTVSPropertyOp9
 70
     1
102
RTVSPropertyOp10
 70
     1
102
RTVSPropertyOp11
 70
     1
102
RTVSPropertyOp12
 70
     1
102
RTVSPropertyOp13
 70
     1
102
RTVSPropertyOp14
 70
     1
102
RTVSPropertyOp15
 70
     1
102
RTVSPropertyOp16
 70
     1
102
RTVSPropertyOp17
 70
     1
102
RTVSPropertyOp18
 70
     1
102
RTVSPropertyOp19
 70
     1
102
RTVSPropertyOp20
 70
     1
102
RTVSPropertyOp21
 70
     1
102
RTVSPropertyOp22
 70
     1
102
RTVSPropertyOp23
 70
     1
102
RTVSPropertyOp24
 70
     1
102
RTVSPropertyOp25
 70
     1
102
RTVSPropertyOp26
 70
     1
102
RTVSPropertyOp27
 70
     1
102
RTVSPropertyOp28
 70
     1
102
RTVSPropertyOp29
 70
     1
102
RTVSPropertyOp30
 70
     1
102
RTVSPropertyOp31
 70
     1
102
RTVSPropertyOp32
 70
     1
  0
XRECORD
  5
209
102
{ACAD_REACTORS
330
208
102
}
330
208
100
AcDbXrecord
280
     1
102
RTVSPropertyOp0
 70
     1
102
RTVSPropertyOp1
 70
     1
102
RTVSPropertyOp2
 70
     1
102
RTVSPropertyOp3
 70
     1
102
RTVSPropertyOp4
 70
     1
102
RTVSPropertyOp5
 70
     1
102
RTVSPropertyOp6
 70
     1
102
RTVSPropertyOp7
 70
     1
102
RTVSPropertyOp8
 70
     1
102
RTVSPropertyOp9
 70
     1
102
RTVSPropertyOp10
 70
     1
102
RTVSPropertyOp11
 70
     1
102
RTVSPropertyOp12
 70
     1
102
RTVSPropertyOp13
 70
     1
102
RTVSPropertyOp14
 70
     1
102
RTVSPropertyOp15
 70
     1
102
RTVSPropertyOp16
 70
     1
102
RTVSPropertyOp17
 70
     1
102
RTVSPropertyOp18
 70
     1
102
RTVSPropertyOp19
 70
     1
102
RTVSPropertyOp20
 70
     1
102
RTVSPropertyOp21
 70
     1
102
RTVSPropertyOp22
 70
     1
102
RTVSPropertyOp23
 70
     1
102
RTVSPropertyOp24
 70
     1
102
RTVSPropertyOp25
 70
     1
102
RTVSPropertyOp26
 70
     1
102
RTVSPropertyOp27
 70
     1
102
RTVSPropertyOp28
 70
     1
102
RTVSPropertyOp29
 70
     1
102
RTVSPropertyOp30
 70
     1
102
RTVSPropertyOp31
 70
     1
102
RTVSPropertyOp32
 70
     1
  0
XRECORD
  5
203
102
{ACAD_REACTORS
330
202
102
}
330
202
100
AcDbXrecord
280
     1
102
RTVSPropertyOp0
 70
     1
102
RTVSPropertyOp1
 70
     1
102
RTVSPropertyOp2
 70
     1
102
RTVSPropertyOp3
 70
     1
102
RTVSPropertyOp4
 70
     1
102
RTVSPropertyOp5
 70
     1
102
RTVSPropertyOp6
 70
     1
102
RTVSPropertyOp7
 70
     1
102
RTVSPropertyOp8
 70
     1
102
RTVSPropertyOp9
 70
     1
102
RTVSPropertyOp10
 70
     1
102
RTVSPropertyOp11
 70
     1
102
RTVSPropertyOp12
 70
     1
102
RTVSPropertyOp13
 70
     1
102
RTVSPropertyOp14
 70
     1
102
RTVSPropertyOp15
 70
     1
102
RTVSPropertyOp16
 70
     1
102
RTVSPropertyOp17
 70
     1
102
RTVSPropertyOp18
 70
     1
102
RTVSPropertyOp19
 70
     1
102
RTVSPropertyOp20
 70
     1
102
RTVSPropertyOp21
 70
     1
102
RTVSPropertyOp22
 70
     1
102
RTVSPropertyOp23
 70
     1
102
RTVSPropertyOp24
 70
     1
102
RTVSPropertyOp25
 70
     1
102
RTVSPropertyOp26
 70
     1
102
RTVSPropertyOp27
 70
     1
102
RTVSPropertyOp28
 70
     1
102
RTVSPropertyOp29
 70
     1
102
RTVSPropertyOp30
 70
     1
102
RTVSPropertyOp31
 70
     1
102
RTVSPropertyOp32
 70
     1
  0
XRECORD
  5
205
102
{ACAD_REACTORS
330
204
102
}
330
204
100
AcDbXrecord
280
     1
102
RTVSPropertyOp0
 70
     1
102
RTVSPropertyOp1
 70
     1
102
RTVSPropertyOp2
 70
     1
102
RTVSPropertyOp3
 70
     1
102
RTVSPropertyOp4
 70
     1
102
RTVSPropertyOp5
 70
     1
102
RTVSPropertyOp6
 70
     1
102
RTVSPropertyOp7
 70
     1
102
RTVSPropertyOp8
 70
     1
102
RTVSPropertyOp9
 70
     1
102
RTVSPropertyOp10
 70
     1
102
RTVSPropertyOp11
 70
     1
102
RTVSPropertyOp12
 70
     1
102
RTVSPropertyOp13
 70
     1
102
RTVSPropertyOp14
 70
     1
102
RTVSPropertyOp15
 70
     1
102
RTVSPropertyOp16
 70
     1
102
RTVSPropertyOp17
 70
     1
102
RTVSPropertyOp18
 70
     1
102
RTVSPropertyOp19
 70
     1
102
RTVSPropertyOp20
 70
     1
102
RTVSPropertyOp21
 70
     1
102
RTVSPropertyOp22
 70
     1
102
RTVSPropertyOp23
 70
     1
102
RTVSPropertyOp24
 70
     1
102
RTVSPropertyOp25
 70
     1
102
RTVSPropertyOp26
 70
     1
102
RTVSPropertyOp27
 70
     1
102
RTVSPropertyOp28
 70
     1
102
RTVSPropertyOp29
 70
     1
102
RTVSPropertyOp30
 70
     1
102
RTVSPropertyOp31
 70
     1
102
RTVSPropertyOp32
 70
     1
  0
XRECORD
  5
1FB
102
{ACAD_REACTORS
330
1FA
102
}
330
1FA
100
AcDbXrecord
280
     1
102
RTVSPropertyOp0
 70
     1
102
RTVSPropertyOp1
 70
     1
102
RTVSPropertyOp2
 70
     1
102
RTVSPropertyOp3
 70
     1
102
RTVSPropertyOp4
 70
     1
102
RTVSPropertyOp5
 70
     1
102
RTVSPropertyOp6
 70
     1
102
RTVSPropertyOp7
 70
     1
102
RTVSPropertyOp8
 70
     1
102
RTVSPropertyOp9
 70
     1
102
RTVSPropertyOp10
 70
     1
102
RTVSPropertyOp11
 70
     1
102
RTVSPropertyOp12
 70
     1
102
RTVSPropertyOp13
 70
     1
102
RTVSPropertyOp14
 70
     1
102
RTVSPropertyOp15
 70
     1
102
RTVSPropertyOp16
 70
     1
102
RTVSPropertyOp17
 70
     1
102
RTVSPropertyOp18
 70
     1
102
RTVSPropertyOp19
 70
     1
102
RTVSPropertyOp20
 70
     1
102
RTVSPropertyOp21
 70
     1
102
RTVSPropertyOp22
 70
     1
102
RTVSPropertyOp23
 70
     1
102
RTVSPropertyOp24
 70
     1
102
RTVSPropertyOp25
 70
     1
102
RTVSPropertyOp26
 70
     1
102
RTVSPropertyOp27
 70
     1
102
RTVSPropertyOp28
 70
     1
102
RTVSPropertyOp29
 70
     1
102
RTVSPropertyOp30
 70
     1
102
RTVSPropertyOp31
 70
     1
102
RTVSPropertyOp32
 70
     1
  0
XRECORD
  5
1EF
102
{ACAD_REACTORS
330
1EE
102
}
330
1EE
100
AcDbXrecord
280
     1
102
RTVSPropertyOp0
 70
     1
102
RTVSPropertyOp1
 70
     1
102
RTVSPropertyOp2
 70
     1
102
RTVSPropertyOp3
 70
     1
102
RTVSPropertyOp4
 70
     1
102
RTVSPropertyOp5
 70
     1
102
RTVSPropertyOp6
 70
     1
102
RTVSPropertyOp7
 70
     1
102
RTVSPropertyOp8
 70
     1
102
RTVSPropertyOp9
 70
     1
102
RTVSPropertyOp10
 70
     1
102
RTVSPropertyOp11
 70
     1
102
RTVSPropertyOp12
 70
     1
102
RTVSPropertyOp13
 70
     1
102
RTVSPropertyOp14
 70
     1
102
RTVSPropertyOp15
 70
     1
102
RTVSPropertyOp16
 70
     1
102
RTVSPropertyOp17
 70
     1
102
RTVSPropertyOp18
 70
     1
102
RTVSPropertyOp19
 70
     1
102
RTVSPropertyOp20
 70
     1
102
RTVSPropertyOp21
 70
     1
102
RTVSPropertyOp22
 70
     1
102
RTVSPropertyOp23
 70
     1
102
RTVSPropertyOp24
 70
     1
102
RTVSPropertyOp25
 70
     1
102
RTVSPropertyOp26
 70
     1
102
RTVSPropertyOp27
 70
     1
102
RTVSPropertyOp28
 70
     1
102
RTVSPropertyOp29
 70
     1
102
RTVSPropertyOp30
 70
     1
102
RTVSPropertyOp31
 70
     1
102
RTVSPropertyOp32
 70
     1
  0
XRECORD
  5
207
102
{ACAD_REACTORS
330
206
102
}
330
206
100
AcDbXrecord
280
     1
102
RTVSPropertyOp0
 70
     1
102
RTVSPropertyOp1
 70
     1
102
RTVSPropertyOp2
 70
     1
102
RTVSPropertyOp3
 70
     1
102
RTVSPropertyOp4
 70
     1
102
RTVSPropertyOp5
 70
     1
102
RTVSPropertyOp6
 70
     1
102
RTVSPropertyOp7
 70
     1
102
RTVSPropertyOp8
 70
     1
102
RTVSPropertyOp9
 70
     1
102
RTVSPropertyOp10
 70
     1
102
RTVSPropertyOp11
 70
     1
102
RTVSPropertyOp12
 70
     1
102
RTVSPropertyOp13
 70
     1
102
RTVSPropertyOp14
 70
     1
102
RTVSPropertyOp15
 70
     1
102
RTVSPropertyOp16
 70
     1
102
RTVSPropertyOp17
 70
     1
102
RTVSPropertyOp18
 70
     1
102
RTVSPropertyOp19
 70
     1
102
RTVSPropertyOp20
 70
     1
102
RTVSPropertyOp21
 70
     1
102
RTVSPropertyOp22
 70
     1
102
RTVSPropertyOp23
 70
     1
102
RTVSPropertyOp24
 70
     1
102
RTVSPropertyOp25
 70
     1
102
RTVSPropertyOp26
 70
     1
102
RTVSPropertyOp27
 70
     1
102
RTVSPropertyOp28
 70
     1
102
RTVSPropertyOp29
 70
     1
102
RTVSPropertyOp30
 70
     1
102
RTVSPropertyOp31
 70
     1
102
RTVSPropertyOp32
 70
     1
  0
ENDSEC
  0
EOF
