  0
SECTION
  2
HEADER
  9
$ACADVER
  1
AC1015
  9
$ACADMAINTVER
 70
    20
  9
$DWGCODEPAGE
  3
ANSI_1252
  9
$INSBASE
 10
0.0
 20
0.0
 30
0.0
  9
$EXTMIN
 10
31051.63638259
 20
6644.907792579999
 30
0.0
  9
$EXTMAX
 10
32036.63638259
 20
7999.907792580001
 30
2500.0
  9
$LIMMIN
 10
0.0
 20
0.0
  9
$LIMMAX
 10
39995.54275426
 20
11749.95752903
  9
$ORTHOMODE
 70
     0
  9
$REGENMODE
 70
     1
  9
$FILLMODE
 70
     1
  9
$QTEXTMODE
 70
     0
  9
$MIRRTEXT
 70
     1
  9
$LTSCALE
 40
5.0
  9
$ATTMODE
 70
     1
  9
$TEXTSIZE
 40
3.5
  9
$TRACEWID
 40
1.0
  9
$TEXTSTYLE
  7
STANDARD
  9
$CLAYER
  8
0
  9
$CELTYPE
  6
BYLAYER
  9
$CECOLOR
 62
   256
  9
$CELTSCALE
 40
1.0
  9
$DISPSILH
 70
     0
  9
$DIMSCALE
 40
1.0
  9
$DIMASZ
 40
4.0
  9
$DIMEXO
 40
5.0
  9
$DIMDLI
 40
10.0
  9
$DIMRND
 40
0.0
  9
$DIMDLE
 40
2.0
  9
$DIMEXE
 40
2.0
  9
$DIMTP
 40
0.0
  9
$DIMTM
 40
0.0
  9
$DIMTXT
 40
2.0
  9
$DIMCEN
 40
1.5
  9
$DIMTSZ
 40
0.0
  9
$DIMTOL
 70
     0
  9
$DIMLIM
 70
     0
  9
$DIMTIH
 70
     1
  9
$DIMTOH
 70
     0
  9
$DIMSE1
 70
     0
  9
$DIMSE2
 70
     0
  9
$DIMTAD
 70
     1
  9
$DIMZIN
 70
     8
  9
$DIMBLK
  1

  9
$DIMASO
 70
     1
  9
$DIMSHO
 70
     1
  9
$DIMPOST
  1

  9
$DIMAPOST
  1

  9
$DIMALT
 70
     0
  9
$DIMALTD
 70
     2
  9
$DIMALTF
 40
25.4
  9
$DIMLFAC
 40
1.0
  9
$DIMTOFL
 70
     0
  9
$DIMTVP
 40
0.0
  9
$DIMTIX
 70
     0
  9
$DIMSOXD
 70
     0
  9
$DIMSAH
 70
     0
  9
$DIMBLK1
  1

  9
$DIMBLK2
  1

  9
$DIMSTYLE
  2
Standard
  9
$DIMCLRD
 70
     9
  9
$DIMCLRE
 70
     9
  9
$DIMCLRT
 70
     7
  9
$DIMTFAC
 40
1.0
  9
$DIMGAP
 40
0.09
  9
$DIMJUST
 70
     0
  9
$DIMSD1
 70
     0
  9
$DIMSD2
 70
     0
  9
$DIMTOLJ
 70
     1
  9
$DIMTZIN
 70
     0
  9
$DIMALTZ
 70
     0
  9
$DIMALTTZ
 70
     0
  9
$DIMUPT
 70
     0
  9
$DIMDEC
 70
     4
  9
$DIMTDEC
 70
     4
  9
$DIMALTU
 70
     2
  9
$DIMALTTD
 70
     2
  9
$DIMTXSTY
  7
STANDARD
  9
$DIMAUNIT
 70
     0
  9
$DIMADEC
 70
     0
  9
$DIMALTRND
 40
0.0
  9
$DIMAZIN
 70
     0
  9
$DIMDSEP
 70
    46
  9
$DIMATFIT
 70
     3
  9
$DIMFRAC
 70
     0
  9
$DIMLDRBLK
  1

  9
$DIMLUNIT
 70
     2
  9
$DIMLWD
 70
    -2
  9
$DIMLWE
 70
    -2
  9
$DIMTMOVE
 70
     0
  9
$LUNITS
 70
     2
  9
$LUPREC
 70
     6
  9
$SKETCHINC
 40
0.1
  9
$FILLETRAD
 40
0.0
  9
$AUNITS
 70
     0
  9
$AUPREC
 70
     0
  9
$MENU
  1
ACAD
  9
$ELEVATION
 40
0.0
  9
$PELEVATION
 40
0.0
  9
$THICKNESS
 40
0.0
  9
$LIMCHECK
 70
     0
  9
$CHAMFERA
 40
0.0
  9
$CHAMFERB
 40
0.0
  9
$CHAMFERC
 40
0.0
  9
$CHAMFERD
 40
0.0
  9
$SKPOLY
 70
     1
  9
$TDCREATE
 40
2456443.000000000
  9
$TDUCREATE
 40
2456442.916666667
  9
$TDUPDATE
 40
2456458.467493426
  9
$TDUUPDATE
 40
2456458.384160093
  9
$TDINDWG
 40
0.0067529398
  9
$TDUSRTIMER
 40
0.0067529398
  9
$USRTIMER
 70
     1
  9
$ANGBASE
 50
0.0
  9
$ANGDIR
 70
     0
  9
$PDMODE
 70
     0
  9
$PDSIZE
 40
0.0
  9
$PLINEWID
 40
0.0
  9
$SPLFRAME
 70
     0
  9
$SPLINETYPE
 70
     6
  9
$SPLINESEGS
 70
     8
  9
$HANDSEED
  5
204
  9
$SURFTAB1
 70
     6
  9
$SURFTAB2
 70
     6
  9
$SURFTYPE
 70
     6
  9
$SURFU
 70
     6
  9
$SURFV
 70
     6
  9
$UCSBASE
  2

  9
$UCSNAME
  2

  9
$UCSORG
 10
0.0
 20
0.0
 30
0.0
  9
$UCSXDIR
 10
1.0
 20
0.0
 30
0.0
  9
$UCSYDIR
 10
0.0
 20
1.0
 30
0.0
  9
$UCSORTHOREF
  2

  9
$UCSORTHOVIEW
 70
     0
  9
$UCSORGTOP
 10
0.0
 20
0.0
 30
0.0
  9
$UCSORGBOTTOM
 10
0.0
 20
0.0
 30
0.0
  9
$UCSORGLEFT
 10
0.0
 20
0.0
 30
0.0
  9
$UCSORGRIGHT
 10
0.0
 20
0.0
 30
0.0
  9
$UCSORGFRONT
 10
0.0
 20
0.0
 30
0.0
  9
$UCSORGBACK
 10
0.0
 20
0.0
 30
0.0
  9
$PUCSBASE
  2

  9
$PUCSNAME
  2

  9
$PUCSORG
 10
0.0
 20
0.0
 30
0.0
  9
$PUCSXDIR
 10
1.0
 20
0.0
 30
0.0
  9
$PUCSYDIR
 10
0.0
 20
1.0
 30
0.0
  9
$PUCSORTHOREF
  2

  9
$PUCSORTHOVIEW
 70
     0
  9
$PUCSORGTOP
 10
0.0
 20
0.0
 30
0.0
  9
$PUCSORGBOTTOM
 10
0.0
 20
0.0
 30
0.0
  9
$PUCSORGLEFT
 10
0.0
 20
0.0
 30
0.0
  9
$PUCSORGRIGHT
 10
0.0
 20
0.0
 30
0.0
  9
$PUCSORGFRONT
 10
0.0
 20
0.0
 30
0.0
  9
$PUCSORGBACK
 10
0.0
 20
0.0
 30
0.0
  9
$USERI1
 70
     0
  9
$USERI2
 70
     0
  9
$USERI3
 70
     0
  9
$USERI4
 70
     0
  9
$USERI5
 70
     0
  9
$USERR1
 40
0.0
  9
$USERR2
 40
0.0
  9
$USERR3
 40
0.0
  9
$USERR4
 40
0.0
  9
$USERR5
 40
0.0
  9
$WORLDVIEW
 70
     1
  9
$SHADEDGE
 70
     3
  9
$SHADEDIF
 70
    70
  9
$TILEMODE
 70
     1
  9
$MAXACTVP
 70
    16
  9
$PINSBASE
 10
0.0
 20
0.0
 30
0.0
  9
$PLIMCHECK
 70
     0
  9
$PEXTMIN
 10
1.000000000000000E+20
 20
1.000000000000000E+20
 30
1.000000000000000E+20
  9
$PEXTMAX
 10
-1.000000000000000E+20
 20
-1.000000000000000E+20
 30
-1.000000000000000E+20
  9
$PLIMMIN
 10
0.0
 20
0.0
  9
$PLIMMAX
 10
12.0
 20
9.0
  9
$UNITMODE
 70
     0
  9
$VISRETAIN
 70
     0
  9
$PLINEGEN
 70
     0
  9
$PSLTSCALE
 70
     1
  9
$TREEDEPTH
 70
  3020
  9
$CMLSTYLE
  2
STANDARD
  9
$CMLJUST
 70
     0
  9
$CMLSCALE
 40
1.0
  9
$PROXYGRAPHICS
 70
     1
  9
$MEASUREMENT
 70
     1
  9
$CELWEIGHT
370
    -1
  9
$ENDCAPS
280
     0
  9
$JOINSTYLE
280
     0
  9
$LWDISPLAY
290
     0
  9
$INSUNITS
 70
     0
  9
$HYPERLINKBASE
  1

  9
$STYLESHEET
  1

  9
$XEDIT
290
     1
  9
$CEPSNTYPE
380
     0
  9
$PSTYLEMODE
290
     1
  9
$FINGERPRINTGUID
  2
{E981F2B7-8B56-49B8-9A2F-640A64C35BA7}
  9
$VERSIONGUID
  2
{6D5021FC-AD70-4C95-AAF3-C3E235CAAA33}
  9
$EXTNAMES
290
     1
  9
$PSVPSCALE
 40
0.0
  9
$OLESTARTUP
290
     0
  0
ENDSEC
  0
SECTION
  2
CLASSES
  0
CLASS
  1
ACDBDICTIONARYWDFLT
  2
AcDbDictionaryWithDefault
  3
ObjectDBX Classes
 90
        0
280
     0
281
     0
  0
CLASS
  1
MATERIAL
  2
AcDbMaterial
  3
ObjectDBX Classes
 90
     1153
280
     0
281
     0
  0
CLASS
  1
VISUALSTYLE
  2
AcDbVisualStyle
  3
ObjectDBX Classes
 90
     4095
280
     0
281
     0
  0
CLASS
  1
TABLESTYLE
  2
AcDbTableStyle
  3
ObjectDBX Classes
 90
     4095
280
     0
281
     0
  0
CLASS
  1
SCALE
  2
AcDbScale
  3
ObjectDBX Classes
 90
     1153
280
     0
281
     0
  0
CLASS
  1
MLEADERSTYLE
  2
AcDbMLeaderStyle
  3
ACDB_MLEADERSTYLE_CLASS
 90
     4095
280
     0
281
     0
  0
CLASS
  1
DICTIONARYVAR
  2
AcDbDictionaryVar
  3
ObjectDBX Classes
 90
        0
280
     0
281
     0
  0
CLASS
  1
CELLSTYLEMAP
  2
AcDbCellStyleMap
  3
ObjectDBX Classes
 90
     1152
280
     0
281
     0
  0
CLASS
  1
ACDBPLACEHOLDER
  2
AcDbPlaceHolder
  3
ObjectDBX Classes
 90
        0
280
     0
281
     0
  0
CLASS
  1
LAYOUT
  2
AcDbLayout
  3
ObjectDBX Classes
 90
        0
280
     0
281
     0
  0
ENDSEC
  0
SECTION
  2
TABLES
  0
TABLE
  2
VPORT
  5
22
330
0
100
AcDbSymbolTable
 70
     1
  0
VPORT
  5
17C
330
22
100
AcDbSymbolTableRecord
100
AcDbViewportTableRecord
  2
*Active
 70
     0
 10
0.0
 20
0.0
 11
1.0
 21
1.0
 12
31544.13638259
 22
7322.40779258
 13
0.0
 23
0.0
 14
1.0
 24
1.0
 15
0.0
 25
0.0
 16
0.0
 26
0.0
 36
1.0
 17
0.0
 27
0.0
 37
0.0
 40
1365.383141762451
 41
2.015345268542199
 42
50.0
 43
0.0
 44
0.0
 50
0.0
 51
0.0
 71
     0
 72
  1000
 73
     1
 74
     3
 75
     0
 76
     0
 77
     0
 78
     0
281
     0
 65
     1
110
0.0
120
0.0
130
0.0
111
1.0
121
0.0
131
0.0
112
0.0
122
1.0
132
0.0
 79
     0
146
0.0
  0
ENDTAB
  0
TABLE
  2
LTYPE
  5
28
330
0
100
AcDbSymbolTable
 70
    11
  0
LTYPE
  5
29
330
28
100
AcDbSymbolTableRecord
100
AcDbLinetypeTableRecord
  2
BYBLOCK
 70
     0
  3

 72
    65
 73
     0
 40
0.0
  0
LTYPE
  5
2A
330
28
100
AcDbSymbolTableRecord
100
AcDbLinetypeTableRecord
  2
BYLAYER
 70
     0
  3

 72
    65
 73
     0
 40
0.0
  0
LTYPE
  5
2B
330
28
100
AcDbSymbolTableRecord
100
AcDbLinetypeTableRecord
  2
CONTINUOUS
 70
     0
  3
Solid line
 72
    65
 73
     0
 40
0.0
  0
LTYPE
  5
2C
330
28
100
AcDbSymbolTableRecord
100
AcDbLinetypeTableRecord
  2
DOT
 70
     0
  3
. . . . . . . . . . . . . . . . . . . . . . . .
 72
    65
 73
     2
 40
2.5
 49
0.0
 74
     0
 49
-2.5
 74
     0
  0
LTYPE
  5
2D
330
28
100
AcDbSymbolTableRecord
100
AcDbLinetypeTableRecord
  2
HIDDEN
 70
     0
  3
__ __ __ __ __ __ __ __ __ __ __ __ __ __ __ __
 72
    65
 73
     2
 40
1.875
 49
1.25
 74
     0
 49
-0.625
 74
     0
  0
LTYPE
  5
2E
330
28
100
AcDbSymbolTableRecord
100
AcDbLinetypeTableRecord
  2
CENTER
 70
     0
  3
 ____ _ ____ _ ____ _ ____ _ ____ _ ____ _ ____
 72
    65
 73
     4
 40
20.0
 49
12.5
 74
     0
 49
-2.5
 74
     0
 49
2.5
 74
     0
 49
-2.5
 74
     0
  0
LTYPE
  5
2F
330
28
100
AcDbSymbolTableRecord
100
AcDbLinetypeTableRecord
  2
CADWORK_22
 70
     0
  3
22 =======================================
 72
    65
 73
     0
 40
0.0
  0
LTYPE
  5
30
330
28
100
AcDbSymbolTableRecord
100
AcDbLinetypeTableRecord
  2
DAL
 70
     0
  3
Solid line (for MAPS)
 72
    65
 73
     0
 40
0.0
  0
LTYPE
  5
31
330
28
100
AcDbSymbolTableRecord
100
AcDbLinetypeTableRecord
  2
MUR
 70
     0
  3
Solid line (for MAPS)
 72
    65
 73
     0
 40
0.0
  0
LTYPE
  5
32
330
28
100
AcDbSymbolTableRecord
100
AcDbLinetypeTableRecord
  2
SOM
 70
     0
  3
Solid line (for MAPS)
 72
    65
 73
     0
 40
0.0
  0
LTYPE
  5
33
330
28
100
AcDbSymbolTableRecord
100
AcDbLinetypeTableRecord
  2
COL
 70
     0
  3
Solid line (for MAPS)
 72
    65
 73
     0
 40
0.0
  0
LTYPE
  5
34
330
28
100
AcDbSymbolTableRecord
100
AcDbLinetypeTableRecord
  2
LGN
 70
     0
  3
Solid line (for MAPS)
 72
    65
 73
     0
 40
0.0
  0
LTYPE
  5
35
330
28
100
AcDbSymbolTableRecord
100
AcDbLinetypeTableRecord
  2
PNT
 70
     0
  3
Solid line (for MAPS)
 72
    65
 73
     0
 40
0.0
  0
ENDTAB
  0
TABLE
  2
LAYER
  5
36
330
0
100
AcDbSymbolTable
 70
    32
  0
LAYER
  5
37
102
{ACAD_XDICTIONARY
360
183
102
}
330
36
100
AcDbSymbolTableRecord
100
AcDbLayerTableRecord
  2
STANDARD
 70
     0
 62
     7
  6
CONTINUOUS
370
    -3
390
12B
  0
LAYER
  5
38
102
{ACAD_XDICTIONARY
360
185
102
}
330
36
100
AcDbSymbolTableRecord
100
AcDbLayerTableRecord
  2
Ech.1_1
 70
     0
 62
     7
  6
CONTINUOUS
370
    -3
390
12B
  0
LAYER
  5
39
102
{ACAD_XDICTIONARY
360
187
102
}
330
36
100
AcDbSymbolTableRecord
100
AcDbLayerTableRecord
  2
Ech.1_2
 70
     0
 62
     7
  6
CONTINUOUS
370
    -3
390
12B
  0
LAYER
  5
3A
102
{ACAD_XDICTIONARY
360
189
102
}
330
36
100
AcDbSymbolTableRecord
100
AcDbLayerTableRecord
  2
Ech.1_5
 70
     0
 62
     7
  6
CONTINUOUS
370
    -3
390
12B
  0
LAYER
  5
3B
102
{ACAD_XDICTIONARY
360
18B
102
}
330
36
100
AcDbSymbolTableRecord
100
AcDbLayerTableRecord
  2
Ech.1_10
 70
     0
 62
     7
  6
CONTINUOUS
370
    -3
390
12B
  0
LAYER
  5
3C
102
{ACAD_XDICTIONARY
360
18D
102
}
330
36
100
AcDbSymbolTableRecord
100
AcDbLayerTableRecord
  2
Ech.1_20
 70
     0
 62
     7
  6
CONTINUOUS
370
    -3
390
12B
  0
LAYER
  5
3D
102
{ACAD_XDICTIONARY
360
18F
102
}
330
36
100
AcDbSymbolTableRecord
100
AcDbLayerTableRecord
  2
Ech.1_25
 70
     0
 62
     7
  6
CONTINUOUS
370
    -3
390
12B
  0
LAYER
  5
3E
102
{ACAD_XDICTIONARY
360
191
102
}
330
36
100
AcDbSymbolTableRecord
100
AcDbLayerTableRecord
  2
Ech.1_33
 70
     0
 62
     7
  6
CONTINUOUS
370
    -3
390
12B
  0
LAYER
  5
3F
102
{ACAD_XDICTIONARY
360
193
102
}
330
36
100
AcDbSymbolTableRecord
100
AcDbLayerTableRecord
  2
Ech.1_50
 70
     0
 62
     7
  6
CONTINUOUS
370
    -3
390
12B
  0
LAYER
  5
40
102
{ACAD_XDICTIONARY
360
195
102
}
330
36
100
AcDbSymbolTableRecord
100
AcDbLayerTableRecord
  2
Ech.1_75
 70
     0
 62
     7
  6
CONTINUOUS
370
    -3
390
12B
  0
LAYER
  5
41
102
{ACAD_XDICTIONARY
360
197
102
}
330
36
100
AcDbSymbolTableRecord
100
AcDbLayerTableRecord
  2
Ech.1_100
 70
     0
 62
     7
  6
CONTINUOUS
370
    -3
390
12B
  0
LAYER
  5
42
102
{ACAD_XDICTIONARY
360
199
102
}
330
36
100
AcDbSymbolTableRecord
100
AcDbLayerTableRecord
  2
Ech.1_200
 70
     0
 62
     7
  6
CONTINUOUS
370
    -3
390
12B
  0
LAYER
  5
43
102
{ACAD_XDICTIONARY
360
19B
102
}
330
36
100
AcDbSymbolTableRecord
100
AcDbLayerTableRecord
  2
Ech.1_500
 70
     0
 62
     7
  6
CONTINUOUS
370
    -3
390
12B
  0
LAYER
  5
44
102
{ACAD_XDICTIONARY
360
19D
102
}
330
36
100
AcDbSymbolTableRecord
100
AcDbLayerTableRecord
  2
Ech.1_1000
 70
     0
 62
     7
  6
CONTINUOUS
370
    -3
390
12B
  0
LAYER
  5
45
102
{ACAD_XDICTIONARY
360
19F
102
}
330
36
100
AcDbSymbolTableRecord
100
AcDbLayerTableRecord
  2
Cadres traceur
 70
     0
 62
     7
  6
CONTINUOUS
370
    -3
390
12B
  0
LAYER
  5
46
102
{ACAD_XDICTIONARY
360
1A1
102
}
330
36
100
AcDbSymbolTableRecord
100
AcDbLayerTableRecord
  2
Cadres laser
 70
     0
 62
     7
  6
CONTINUOUS
370
    -3
390
12B
  0
LAYER
  5
47
102
{ACAD_XDICTIONARY
360
1A3
102
}
330
36
100
AcDbSymbolTableRecord
100
AcDbLayerTableRecord
  2
Légende d_aide
 70
     0
 62
     7
  6
CONTINUOUS
370
    -3
390
12B
  0
LAYER
  5
48
102
{ACAD_XDICTIONARY
360
1A5
102
}
330
36
100
AcDbSymbolTableRecord
100
AcDbLayerTableRecord
  2
hachures ok
 70
     0
 62
     7
  6
CONTINUOUS
370
    -3
390
12B
  0
LAYER
  5
49
102
{ACAD_XDICTIONARY
360
1A7
102
}
330
36
100
AcDbSymbolTableRecord
100
AcDbLayerTableRecord
  2
ossature bois
 70
     0
 62
     7
  6
CONTINUOUS
370
    -3
390
12B
  0
LAYER
  5
4A
102
{ACAD_XDICTIONARY
360
1A9
102
}
330
36
100
AcDbSymbolTableRecord
100
AcDbLayerTableRecord
  2
VR
 70
     0
 62
     7
  6
CONTINUOUS
370
    -3
390
12B
  0
LAYER
  5
4B
102
{ACAD_XDICTIONARY
360
1AB
102
}
330
36
100
AcDbSymbolTableRecord
100
AcDbLayerTableRecord
  2
CALQUE1
 70
     0
 62
     7
  6
CONTINUOUS
370
    -3
390
12B
  0
LAYER
  5
4C
330
36
100
AcDbSymbolTableRecord
100
AcDbLayerTableRecord
  2
0
 70
     0
 62
     7
  6
CONTINUOUS
370
    -3
390
12B
  0
LAYER
  5
4D
102
{ACAD_XDICTIONARY
360
1AD
102
}
330
36
100
AcDbSymbolTableRecord
100
AcDbLayerTableRecord
  2
MENUISERIE
 70
     0
 62
     7
  6
CONTINUOUS
370
    -3
390
12B
  0
LAYER
  5
4E
102
{ACAD_XDICTIONARY
360
1AF
102
}
330
36
100
AcDbSymbolTableRecord
100
AcDbLayerTableRecord
  2
COTATION
 70
     0
 62
   250
  6
CONTINUOUS
370
    -3
390
12B
  0
LAYER
  5
4F
330
36
100
AcDbSymbolTableRecord
100
AcDbLayerTableRecord
  2
DEFPOINTS
 70
     0
 62
    10
  6
CONTINUOUS
290
     0
370
    -3
390
12B
  0
LAYER
  5
50
102
{ACAD_XDICTIONARY
360
1B1
102
}
330
36
100
AcDbSymbolTableRecord
100
AcDbLayerTableRecord
  2
HACHURE
 70
     0
 62
   254
  6
CONTINUOUS
370
    -3
390
12B
  0
LAYER
  5
51
102
{ACAD_XDICTIONARY
360
1B3
102
}
330
36
100
AcDbSymbolTableRecord
100
AcDbLayerTableRecord
  2
MAT1
 70
     0
 62
     7
  6
CONTINUOUS
370
    -3
390
12B
  0
LAYER
  5
52
102
{ACAD_XDICTIONARY
360
1B5
102
}
330
36
100
AcDbSymbolTableRecord
100
AcDbLayerTableRecord
  2
MAT2
 70
     0
 62
     7
  6
CONTINUOUS
370
    -3
390
12B
  0
LAYER
  5
53
102
{ACAD_XDICTIONARY
360
1B7
102
}
330
36
100
AcDbSymbolTableRecord
100
AcDbLayerTableRecord
  2
HACH
 70
     0
 62
     8
  6
CONTINUOUS
370
    -3
390
12B
  0
LAYER
  5
54
102
{ACAD_XDICTIONARY
360
1B9
102
}
330
36
100
AcDbSymbolTableRecord
100
AcDbLayerTableRecord
  2
MENUISERIES
 70
     0
 62
     7
  6
CONTINUOUS
370
    -3
390
12B
  0
LAYER
  5
55
102
{ACAD_XDICTIONARY
360
1BB
102
}
330
36
100
AcDbSymbolTableRecord
100
AcDbLayerTableRecord
  2
BÉTONMÉTAL
 70
     0
 62
     7
  6
CONTINUOUS
370
    -3
390
12B
  0
LAYER
  5
56
102
{ACAD_XDICTIONARY
360
1BD
102
}
330
36
100
AcDbSymbolTableRecord
100
AcDbLayerTableRecord
  2
BOIS
 70
     0
 62
     7
  6
CONTINUOUS
370
    -3
390
12B
  0
ENDTAB
  0
TABLE
  2
STYLE
  5
23
330
0
100
AcDbSymbolTable
 70
     4
  0
STYLE
  5
24
330
23
100
AcDbSymbolTableRecord
100
AcDbTextStyleTableRecord
  2
STANDARD
 70
     0
 40
0.0
 41
1.0
 50
0.0
 71
     0
 42
3.5
  3
MONOTXT
  4

  0
STYLE
  5
25
330
23
100
AcDbSymbolTableRecord
100
AcDbTextStyleTableRecord
  2
CADWORK1
 70
     0
 40
0.0
 41
1.0
 50
0.0
 71
     0
 42
3.5
  3
MONOTXT
  4

  0
STYLE
  5
26
330
23
100
AcDbSymbolTableRecord
100
AcDbTextStyleTableRecord
  2
MONOTXT
 70
     0
 40
0.0
 41
1.0
 50
0.0
 71
     0
 42
3.5
  3
MONOTXT
  4

  0
STYLE
  5
27
330
23
100
AcDbSymbolTableRecord
100
AcDbTextStyleTableRecord
  2
ARIAL
 70
     0
 40
0.0
 41
1.0
 50
0.0
 71
     0
 42
3.5
  3

  4

1001
ACAD
1000
Arial
1071
        0
  0
ENDTAB
  0
TABLE
  2
VIEW
  5
57
330
0
100
AcDbSymbolTable
 70
     2
  0
ENDTAB
  0
TABLE
  2
UCS
  5
58
330
0
100
AcDbSymbolTable
 70
     0
  0
ENDTAB
  0
TABLE
  2
APPID
  5
59
330
0
100
AcDbSymbolTable
 70
     2
  0
APPID
  5
5A
330
59
100
AcDbSymbolTableRecord
100
AcDbRegAppTableRecord
  2
ACAD
 70
     0
  0
APPID
  5
1FF
330
59
100
AcDbSymbolTableRecord
100
AcDbRegAppTableRecord
  2
ACAD_MLEADERVER
 70
     0
  0
ENDTAB
  0
TABLE
  2
DIMSTYLE
  5
5B
330
0
100
AcDbSymbolTable
 70
     1
100
AcDbDimStyleTable
 71
     0
  0
DIMSTYLE
105
175
330
5B
100
AcDbSymbolTableRecord
100
AcDbDimStyleTableRecord
  2
Standard
 70
     0
340
24
  0
ENDTAB
  0
TABLE
  2
BLOCK_RECORD
  5
5C
330
0
100
AcDbSymbolTable
 70
    17
  0
BLOCK_RECORD
  5
5D
330
5C
100
AcDbSymbolTableRecord
100
AcDbBlockTableRecord
  2
*MODEL_SPACE
340
178
  0
BLOCK_RECORD
  5
5E
330
5C
100
AcDbSymbolTableRecord
100
AcDbBlockTableRecord
  2
*PAPER_SPACE
340
179
  0
BLOCK_RECORD
  5
5F
330
5C
100
AcDbSymbolTableRecord
100
AcDbBlockTableRecord
  2
CDWK_EXTR_0
340
0
  0
BLOCK_RECORD
  5
60
330
5C
100
AcDbSymbolTableRecord
100
AcDbBlockTableRecord
  2
CDWK_EXTR_1D
340
0
  0
BLOCK_RECORD
  5
61
330
5C
100
AcDbSymbolTableRecord
100
AcDbBlockTableRecord
  2
CDWK_EXTR_1G
340
0
  0
BLOCK_RECORD
  5
62
330
5C
100
AcDbSymbolTableRecord
100
AcDbBlockTableRecord
  2
CDWK_EXTR_2
340
0
  0
BLOCK_RECORD
  5
63
330
5C
100
AcDbSymbolTableRecord
100
AcDbBlockTableRecord
  2
CDWK_EXTR_3
340
0
  0
BLOCK_RECORD
  5
64
330
5C
100
AcDbSymbolTableRecord
100
AcDbBlockTableRecord
  2
CDWK_EXTR_4
340
0
  0
BLOCK_RECORD
  5
65
330
5C
100
AcDbSymbolTableRecord
100
AcDbBlockTableRecord
  2
CDWK_PTTYP0
340
0
  0
BLOCK_RECORD
  5
66
330
5C
100
AcDbSymbolTableRecord
100
AcDbBlockTableRecord
  2
*X7
340
0
102
{BLKREFS
331
B0
102
}
  0
BLOCK_RECORD
  5
67
330
5C
100
AcDbSymbolTableRecord
100
AcDbBlockTableRecord
  2
*X8
340
0
102
{BLKREFS
331
B1
102
}
  0
BLOCK_RECORD
  5
68
330
5C
100
AcDbSymbolTableRecord
100
AcDbBlockTableRecord
  2
*X9
340
0
102
{BLKREFS
331
B2
102
}
  0
BLOCK_RECORD
  5
69
330
5C
100
AcDbSymbolTableRecord
100
AcDbBlockTableRecord
  2
*X10
340
0
102
{BLKREFS
331
B3
102
}
  0
BLOCK_RECORD
  5
6A
330
5C
100
AcDbSymbolTableRecord
100
AcDbBlockTableRecord
  2
*X11
340
0
102
{BLKREFS
331
B4
102
}
  0
BLOCK_RECORD
  5
6B
330
5C
100
AcDbSymbolTableRecord
100
AcDbBlockTableRecord
  2
*X12
340
0
102
{BLKREFS
331
B5
102
}
  0
BLOCK_RECORD
  5
6C
330
5C
100
AcDbSymbolTableRecord
100
AcDbBlockTableRecord
  2
*X13
340
0
102
{BLKREFS
331
B6
102
}
  0
BLOCK_RECORD
  5
6D
330
5C
100
AcDbSymbolTableRecord
100
AcDbBlockTableRecord
  2
*X14
340
0
102
{BLKREFS
331
B7
102
}
  0
BLOCK_RECORD
  5
6E
330
5C
100
AcDbSymbolTableRecord
100
AcDbBlockTableRecord
  2
*X15
340
0
102
{BLKREFS
331
B8
102
}
  0
BLOCK_RECORD
  5
6F
330
5C
100
AcDbSymbolTableRecord
100
AcDbBlockTableRecord
  2
*X16
340
0
102
{BLKREFS
331
B9
102
}
  0
ENDTAB
  0
ENDSEC
  0
SECTION
  2
BLOCKS
  0
BLOCK
  5
70
330
5D
100
AcDbEntity
  8
0
100
AcDbBlockBegin
  2
*MODEL_SPACE
 70
     0
 10
0.0
 20
0.0
 30
0.0
  3
*MODEL_SPACE
  1

  0
ENDBLK
  5
71
330
5D
100
AcDbEntity
  8
0
100
AcDbBlockEnd
  0
BLOCK
  5
72
330
5E
100
AcDbEntity
 67
     1
  8
0
100
AcDbBlockBegin
  2
*PAPER_SPACE
 70
     0
 10
0.0
 20
0.0
 30
0.0
  3
*PAPER_SPACE
  1

  0
ENDBLK
  5
73
330
5E
100
AcDbEntity
 67
     1
  8
0
100
AcDbBlockEnd
  0
BLOCK
  5
74
330
5F
100
AcDbEntity
  8
0
100
AcDbBlockBegin
  2
CDWK_EXTR_0
 70
     0
 10
0.0
 20
0.0
 30
0.0
  3
CDWK_EXTR_0
  1

  0
LINE
  5
75
330
5F
100
AcDbEntity
  8
0
 62
     0
370
    -2
100
AcDbLine
 10
0.0
 20
0.0
 30
0.0
 11
2.0
 21
0.5
 31
0.0
  0
LINE
  5
76
330
5F
100
AcDbEntity
  8
0
 62
     0
370
    -2
100
AcDbLine
 10
0.0
 20
0.0
 30
0.0
 11
2.0
 21
-0.5
 31
0.0
  0
LINE
  5
77
330
5F
100
AcDbEntity
  8
0
 62
     0
370
    -2
100
AcDbLine
 10
2.0
 20
0.5
 30
0.0
 11
2.0
 21
-0.5
 31
0.0
  0
ENDBLK
  5
78
330
5F
100
AcDbEntity
  8
0
100
AcDbBlockEnd
  0
BLOCK
  5
79
330
60
100
AcDbEntity
  8
0
100
AcDbBlockBegin
  2
CDWK_EXTR_1D
 70
     0
 10
0.0
 20
0.0
 30
0.0
  3
CDWK_EXTR_1D
  1

  0
LINE
  5
7A
330
60
100
AcDbEntity
  8
0
 62
     0
370
    -2
100
AcDbLine
 10
0.0
 20
0.0
 30
0.0
 11
0.0
 21
1.0
 31
0.0
  0
LINE
  5
7B
330
60
100
AcDbEntity
  8
0
 62
     0
370
    -2
100
AcDbLine
 10
0.0
 20
1.0
 30
0.0
 11
0.5
 21
1.5
 31
0.0
  0
LINE
  5
7C
330
60
100
AcDbEntity
  8
0
 62
     0
370
    -2
100
AcDbLine
 10
0.5
 20
1.5
 30
0.0
 11
1.5
 21
1.5
 31
0.0
  0
ENDBLK
  5
7D
330
60
100
AcDbEntity
  8
0
100
AcDbBlockEnd
  0
BLOCK
  5
7E
330
61
100
AcDbEntity
  8
0
100
AcDbBlockBegin
  2
CDWK_EXTR_1G
 70
     0
 10
0.0
 20
0.0
 30
0.0
  3
CDWK_EXTR_1G
  1

  0
LINE
  5
7F
330
61
100
AcDbEntity
  8
0
 62
     0
370
    -2
100
AcDbLine
 10
0.0
 20
0.0
 30
0.0
 11
0.0
 21
-1.0
 31
0.0
  0
LINE
  5
80
330
61
100
AcDbEntity
  8
0
 62
     0
370
    -2
100
AcDbLine
 10
0.0
 20
-1.0
 30
0.0
 11
0.5
 21
-1.5
 31
0.0
  0
LINE
  5
81
330
61
100
AcDbEntity
  8
0
 62
     0
370
    -2
100
AcDbLine
 10
0.5
 20
-1.5
 30
0.0
 11
1.5
 21
-1.5
 31
0.0
  0
ENDBLK
  5
82
330
61
100
AcDbEntity
  8
0
100
AcDbBlockEnd
  0
BLOCK
  5
83
330
62
100
AcDbEntity
  8
0
100
AcDbBlockBegin
  2
CDWK_EXTR_2
 70
     0
 10
0.0
 20
0.0
 30
0.0
  3
CDWK_EXTR_2
  1

  0
SOLID
  5
84
330
62
100
AcDbEntity
  8
0
 62
     0
100
AcDbTrace
 10
0.0
 20
0.0
 30
0.0
 11
2.0
 21
0.5
 31
0.0
 12
2.0
 22
-0.5
 32
0.0
 13
2.0
 23
-0.5
 33
0.0
  0
ENDBLK
  5
85
330
62
100
AcDbEntity
  8
0
100
AcDbBlockEnd
  0
BLOCK
  5
86
330
63
100
AcDbEntity
  8
0
100
AcDbBlockBegin
  2
CDWK_EXTR_3
 70
     0
 10
0.0
 20
0.0
 30
0.0
  3
CDWK_EXTR_3
  1

  0
SOLID
  5
87
330
63
100
AcDbEntity
  8
0
 62
     0
100
AcDbTrace
 10
0.0
 20
0.0
 30
0.0
 11
2.0
 21
0.5
 31
0.0
 12
2.0
 22
-0.5
 32
0.0
 13
2.0
 23
-0.5
 33
0.0
  0
LINE
  5
88
330
63
100
AcDbEntity
  8
0
 62
     0
370
    -2
100
AcDbLine
 10
0.0
 20
1.0
 30
0.0
 11
0.0
 21
-1.0
 31
0.0
  0
ENDBLK
  5
89
330
63
100
AcDbEntity
  8
0
100
AcDbBlockEnd
  0
BLOCK
  5
8A
330
64
100
AcDbEntity
  8
0
100
AcDbBlockBegin
  2
CDWK_EXTR_4
 70
     0
 10
0.0
 20
0.0
 30
0.0
  3
CDWK_EXTR_4
  1

  0
HATCH
  5
8B
330
64
100
AcDbEntity
  8
0
 62
     0
370
    20
100
AcDbHatch
 10
0.0
 20
0.0
 30
0.0
210
0.0
220
0.0
230
1.0
  2
SOLID
 70
     1
 71
     0
 91
        1
 92
        1
 93
        1
 72
     2
 10
0.0
 20
0.0
 40
0.5
 50
0.0
 51
360.0
 73
     1
 97
        0
 75
     0
 76
     1
 98
        1
 10
0.0
 20
0.0
  0
ENDBLK
  5
8C
330
64
100
AcDbEntity
  8
0
100
AcDbBlockEnd
  0
BLOCK
  5
8D
330
65
100
AcDbEntity
  8
0
100
AcDbBlockBegin
  2
CDWK_PTTYP0
 70
     0
 10
0.0
 20
0.0
 30
0.0
  3
CDWK_PTTYP0
  1

  0
POINT
  5
8E
330
65
100
AcDbEntity
  8
0
 62
     0
100
AcDbPoint
 10
0.0
 20
0.0
 30
0.0
  0
ENDBLK
  5
8F
330
65
100
AcDbEntity
  8
0
100
AcDbBlockEnd
  0
BLOCK
  5
90
330
66
100
AcDbEntity
  8
Ech.1_5
100
AcDbBlockBegin
  2
*X7
 70
     1
 10
0.0
 20
0.0
 30
0.0
  3
*X7
  1

  0
ENDBLK
  5
91
330
66
100
AcDbEntity
  8
0
100
AcDbBlockEnd
  0
BLOCK
  5
92
330
67
100
AcDbEntity
  8
Ech.1_5
100
AcDbBlockBegin
  2
*X8
 70
     1
 10
0.0
 20
0.0
 30
0.0
  3
*X8
  1

  0
ENDBLK
  5
93
330
67
100
AcDbEntity
  8
0
100
AcDbBlockEnd
  0
BLOCK
  5
94
330
68
100
AcDbEntity
  8
Ech.1_5
100
AcDbBlockBegin
  2
*X9
 70
     1
 10
0.0
 20
0.0
 30
0.0
  3
*X9
  1

  0
ENDBLK
  5
95
330
68
100
AcDbEntity
  8
0
100
AcDbBlockEnd
  0
BLOCK
  5
96
330
69
100
AcDbEntity
  8
Ech.1_5
100
AcDbBlockBegin
  2
*X10
 70
     1
 10
0.0
 20
0.0
 30
0.0
  3
*X10
  1

  0
ENDBLK
  5
97
330
69
100
AcDbEntity
  8
0
100
AcDbBlockEnd
  0
BLOCK
  5
98
330
6A
100
AcDbEntity
  8
Ech.1_5
100
AcDbBlockBegin
  2
*X11
 70
     1
 10
0.0
 20
0.0
 30
0.0
  3
*X11
  1

  0
LINE
  5
99
330
6A
100
AcDbEntity
  8
Ech.1_5
  6
Continuous
 62
     7
370
    -2
100
AcDbLine
 10
31467.94573783
 20
7120.814484330001
 30
0.0
 11
31512.94369516
 21
7350.6507982
 31
0.0
  0
LINE
  5
9A
330
6A
100
AcDbEntity
  8
Ech.1_5
  6
Continuous
 62
     7
370
    -2
100
AcDbLine
 10
31512.94369516
 20
7120.814484330001
 30
0.0
 11
31467.94573783
 21
7350.6507982
 31
0.0
  0
ENDBLK
  5
9B
330
6A
100
AcDbEntity
  8
0
100
AcDbBlockEnd
  0
BLOCK
  5
9C
330
6B
100
AcDbEntity
  8
Ech.1_5
100
AcDbBlockBegin
  2
*X12
 70
     1
 10
0.0
 20
0.0
 30
0.0
  3
*X12
  1

  0
LINE
  5
9D
330
6B
100
AcDbEntity
  8
Ech.1_5
  6
Continuous
 62
     7
370
    -2
100
AcDbLine
 10
31636.94426978
 20
7815.37747778
 30
0.0
 11
31676.94327029
 21
7770.377683949999
 31
0.0
  0
LINE
  5
9E
330
6B
100
AcDbEntity
  8
Ech.1_5
  6
Continuous
 62
     7
370
    -2
100
AcDbLine
 10
31676.94327029
 20
7815.37747778
 30
0.0
 11
31636.94426978
 21
7770.377683949999
 31
0.0
  0
ENDBLK
  5
9F
330
6B
100
AcDbEntity
  8
0
100
AcDbBlockEnd
  0
BLOCK
  5
A0
330
6C
100
AcDbEntity
  8
Ech.1_5
100
AcDbBlockBegin
  2
*X13
 70
     1
 10
0.0
 20
0.0
 30
0.0
  3
*X13
  1

  0
LINE
  5
A1
330
6C
100
AcDbEntity
  8
Ech.1_5
  6
Continuous
 62
     7
370
    -2
100
AcDbLine
 10
31368.94362029
 20
7434.86540645
 30
0.0
 11
31408.94262081
 21
7389.865612620001
 31
0.0
  0
LINE
  5
A2
330
6C
100
AcDbEntity
  8
Ech.1_5
  6
Continuous
 62
     7
370
    -2
100
AcDbLine
 10
31408.94262081
 20
7434.86540645
 30
0.0
 11
31368.94362029
 21
7389.865612620001
 31
0.0
  0
ENDBLK
  5
A3
330
6C
100
AcDbEntity
  8
0
100
AcDbBlockEnd
  0
BLOCK
  5
A4
330
6D
100
AcDbEntity
  8
Ech.1_5
100
AcDbBlockBegin
  2
*X14
 70
     1
 10
0.0
 20
0.0
 30
0.0
  3
*X14
  1

  0
LINE
  5
A5
330
6D
100
AcDbEntity
  8
Ech.1_5
  6
Continuous
 62
     7
370
    -2
100
AcDbLine
 10
31636.94426978
 20
7434.86540645
 30
0.0
 11
31676.94327029
 21
7389.865612620001
 31
0.0
  0
LINE
  5
A6
330
6D
100
AcDbEntity
  8
Ech.1_5
  6
Continuous
 62
     7
370
    -2
100
AcDbLine
 10
31676.94327029
 20
7434.86540645
 30
0.0
 11
31636.94426978
 21
7389.865612620001
 31
0.0
  0
ENDBLK
  5
A7
330
6D
100
AcDbEntity
  8
0
100
AcDbBlockEnd
  0
BLOCK
  5
A8
330
6E
100
AcDbEntity
  8
Ech.1_5
100
AcDbBlockBegin
  2
*X15
 70
     1
 10
0.0
 20
0.0
 30
0.0
  3
*X15
  1

  0
LINE
  5
A9
330
6E
100
AcDbEntity
  8
Ech.1_5
  6
Continuous
 62
     7
370
    -2
100
AcDbLine
 10
31368.94362029
 20
7815.37747778
 30
0.0
 11
31408.94262081
 21
7770.377683949999
 31
0.0
  0
LINE
  5
AA
330
6E
100
AcDbEntity
  8
Ech.1_5
  6
Continuous
 62
     7
370
    -2
100
AcDbLine
 10
31408.94262081
 20
7815.37747778
 30
0.0
 11
31368.94362029
 21
7770.377683949999
 31
0.0
  0
ENDBLK
  5
AB
330
6E
100
AcDbEntity
  8
0
100
AcDbBlockEnd
  0
BLOCK
  5
AC
330
6F
100
AcDbEntity
  8
Ech.1_5
100
AcDbBlockBegin
  2
*X16
 70
     1
 10
0.0
 20
0.0
 30
0.0
  3
*X16
  1

  0
LINE
  5
AD
330
6F
100
AcDbEntity
  8
Ech.1_5
  6
Continuous
 62
     7
370
    -2
100
AcDbLine
 10
31532.94319542
 20
7120.814484330001
 30
0.0
 11
31577.94482576
 21
7350.6507982
 31
0.0
  0
LINE
  5
AE
330
6F
100
AcDbEntity
  8
Ech.1_5
  6
Continuous
 62
     7
370
    -2
100
AcDbLine
 10
31577.94482576
 20
7120.814484330001
 30
0.0
 11
31532.94319542
 21
7350.6507982
 31
0.0
  0
ENDBLK
  5
AF
330
6F
100
AcDbEntity
  8
0
100
AcDbBlockEnd
  0
ENDSEC
  0
SECTION
  2
ENTITIES
  0
INSERT
  5
B0
330
5D
100
AcDbEntity
  8
Ech.1_5
 62
     0
370
    -3
100
AcDbBlockReference
  2
*X7
 10
0.0
 20
0.0
 30
0.0
  0
INSERT
  5
B1
330
5D
100
AcDbEntity
  8
Ech.1_5
 62
     0
370
    -3
100
AcDbBlockReference
  2
*X8
 10
0.0
 20
0.0
 30
0.0
  0
INSERT
  5
B2
330
5D
100
AcDbEntity
  8
Ech.1_5
 62
     0
370
    -3
100
AcDbBlockReference
  2
*X9
 10
0.0
 20
0.0
 30
0.0
  0
INSERT
  5
B3
330
5D
100
AcDbEntity
  8
Ech.1_5
 62
     0
370
    -3
100
AcDbBlockReference
  2
*X10
 10
0.0
 20
0.0
 30
0.0
  0
INSERT
  5
B4
330
5D
100
AcDbEntity
  8
Ech.1_5
 62
     0
370
    -3
100
AcDbBlockReference
  2
*X11
 10
0.0
 20
0.0
 30
0.0
  0
INSERT
  5
B5
330
5D
100
AcDbEntity
  8
Ech.1_5
 62
     0
370
    -3
100
AcDbBlockReference
  2
*X12
 10
0.0
 20
0.0
 30
0.0
  0
INSERT
  5
B6
330
5D
100
AcDbEntity
  8
Ech.1_5
 62
     0
370
    -3
100
AcDbBlockReference
  2
*X13
 10
0.0
 20
0.0
 30
0.0
  0
INSERT
  5
B7
330
5D
100
AcDbEntity
  8
Ech.1_5
 62
     0
370
    -3
100
AcDbBlockReference
  2
*X14
 10
0.0
 20
0.0
 30
0.0
  0
INSERT
  5
B8
330
5D
100
AcDbEntity
  8
Ech.1_5
 62
     0
370
    -3
100
AcDbBlockReference
  2
*X15
 10
0.0
 20
0.0
 30
0.0
  0
INSERT
  5
B9
330
5D
100
AcDbEntity
  8
Ech.1_5
 62
     0
370
    -3
100
AcDbBlockReference
  2
*X16
 10
0.0
 20
0.0
 30
0.0
  0
LWPOLYLINE
  5
BA
330
5D
100
AcDbEntity
  8
Ech.1_5
  6
Continuous
 62
     7
370
    -3
100
AcDbPolyline
 90
      202
 70
     0
 43
0.0
 10
31516.27720022
 20
7469.865971699999
 42
1.14028181
 10
31517.13993232
 20
7463.312886130001
 10
31528.74780146
 20
7466.419057260001
 42
-1.303226189999999
 10
31528.74780146
 20
7459.9795528
 10
31517.13993232
 20
7463.085723929999
 42
1.303226189999999
 10
31517.13993232
 20
7456.646219460001
 10
31528.74780146
 20
7459.752390600001
 42
-1.303226189999999
 10
31528.74780146
 20
7453.312886129999
 10
31517.13993232
 20
7456.419057259999
 42
1.303226189999999
 10
31517.13993232
 20
7449.979552799999
 10
31528.74780146
 20
7453.085723930001
 42
-1.303226189999999
 10
31528.74780146
 20
7446.646219459999
 10
31517.13993232
 20
7449.752390600001
 42
1.303226189999999
 10
31517.13993232
 20
7443.312886130001
 10
31528.74780146
 20
7446.41905726
 42
-1.303226189999999
 10
31528.74780146
 20
7439.9795528
 10
31517.13993232
 20
7443.085723930001
 42
1.303226189999999
 10
31517.13993232
 20
7436.64621946
 10
31528.74780146
 20
7439.7523906
 42
-1.303226189999999
 10
31528.74780146
 20
7433.31288613
 10
31517.13993232
 20
7436.419057260001
 42
1.303226189999999
 10
31517.13993232
 20
7429.979552799998
 10
31528.74780146
 20
7433.08572393
 42
-1.303226189999999
 10
31528.74780146
 20
7426.64621946
 10
31517.13993232
 20
7429.7523906
 42
1.303226189999999
 10
31517.13993232
 20
7423.31288613
 10
31528.74780146
 20
7426.41905726
 42
-1.303226189999999
 10
31528.74780146
 20
7419.9795528
 10
31517.13993232
 20
7423.08572393
 42
1.303226189999999
 10
31517.13993232
 20
7416.64621946
 10
31528.74780146
 20
7419.7523906
 42
-1.303226189999999
 10
31528.74780146
 20
7413.31288613
 10
31517.13993232
 20
7416.41905726
 42
1.303226189999999
 10
31517.13993232
 20
7409.9795528
 10
31528.74780146
 20
7413.08572393
 42
-1.303226189999999
 10
31528.74780146
 20
7406.64621946
 10
31517.13993232
 20
7409.752390600001
 42
1.303226189999999
 10
31517.13993232
 20
7403.31288613
 10
31528.74780146
 20
7406.419057259999
 42
-1.303226189999999
 10
31528.74780146
 20
7399.979552799999
 10
31517.13993232
 20
7403.085723930001
 42
1.303226189999999
 10
31517.13993232
 20
7396.64621946
 10
31528.74780146
 20
7399.752390600001
 42
-1.303226189999999
 10
31528.74780146
 20
7393.312886130001
 10
31517.13993232
 20
7396.419057260001
 42
1.303226189999999
 10
31517.13993232
 20
7389.979552799999
 10
31528.74780146
 20
7393.085723930001
 42
-1.303226189999999
 10
31528.74780146
 20
7386.646219460001
 10
31517.13993232
 20
7389.7523906
 42
1.303226189999999
 10
31517.13993232
 20
7383.312886129999
 10
31528.74780146
 20
7386.419057260001
 42
-1.303226189999999
 10
31528.74780146
 20
7379.979552799999
 10
31517.13993232
 20
7383.08572393
 42
1.303226189999999
 10
31517.13993232
 20
7376.646219459999
 10
31528.74780146
 20
7379.752390600001
 42
-1.303226189999999
 10
31528.74780146
 20
7373.31288613
 10
31517.13993232
 20
7376.41905726
 42
1.303226189999999
 10
31517.13993232
 20
7369.9795528
 10
31528.74780146
 20
7373.08572393
 42
-1.303226189999999
 10
31528.74780146
 20
7366.64621946
 10
31517.13993232
 20
7369.7523906
 42
1.303226189999999
 10
31517.13993232
 20
7363.312886130001
 10
31528.74780146
 20
7366.41905726
 42
-1.303226189999999
 10
31528.74780146
 20
7359.9795528
 10
31517.13993232
 20
7363.08572393
 42
1.303226189999999
 10
31517.13993232
 20
7356.64621946
 10
31528.74780146
 20
7359.7523906
 42
-1.303226189999999
 10
31528.74780146
 20
7353.31288613
 10
31517.13993232
 20
7356.41905726
 42
1.303226189999999
 10
31517.13993232
 20
7349.979552799999
 10
31528.74780146
 20
7353.08572393
 42
-1.303226189999999
 10
31528.74780146
 20
7346.64621946
 10
31517.13993232
 20
7349.752390600001
 42
1.303226189999999
 10
31517.13993232
 20
7343.31288613
 10
31528.74780146
 20
7346.41905726
 42
-1.303226189999999
 10
31528.74780146
 20
7339.9795528
 10
31517.13993232
 20
7343.085723930001
 42
1.303226189999999
 10
31517.13993232
 20
7336.64621946
 10
31528.74780146
 20
7339.752390600001
 42
-1.303226189999999
 10
31528.74780146
 20
7333.312886129999
 10
31517.13993232
 20
7336.419057260001
 42
1.303226189999999
 10
31517.13993232
 20
7329.979552799999
 10
31528.74780146
 20
7333.08572393
 42
-1.303226189999999
 10
31528.74780146
 20
7326.646219459999
 10
31517.13993232
 20
7329.752390600001
 42
1.303226189999999
 10
31517.13993232
 20
7323.31288613
 10
31528.74780146
 20
7326.41905726
 42
-1.303226189999999
 10
31528.74780146
 20
7319.979552799999
 10
31517.13993232
 20
7323.085723930001
 42
1.303226189999999
 10
31517.13993232
 20
7316.64621946
 10
31528.74780146
 20
7319.7523906
 42
-1.303226189999999
 10
31528.74780146
 20
7313.312886130001
 10
31517.13993232
 20
7316.41905726
 42
1.303226189999999
 10
31517.13993232
 20
7309.9795528
 10
31528.74780146
 20
7313.08572393
 42
-1.303226189999999
 10
31528.74780146
 20
7306.646219460001
 10
31517.13993232
 20
7309.7523906
 42
1.303226189999999
 10
31517.13993232
 20
7303.31288613
 10
31528.74780146
 20
7306.41905726
 42
-1.303226189999999
 10
31528.74780146
 20
7299.979552799999
 10
31517.13993232
 20
7303.08572393
 42
1.303226189999999
 10
31517.13993232
 20
7296.64621946
 10
31528.74780146
 20
7299.752390600001
 42
-1.303226189999999
 10
31528.74780146
 20
7293.31288613
 10
31517.13993232
 20
7296.41905726
 42
1.303226189999999
 10
31517.13993232
 20
7289.9795528
 10
31528.74780146
 20
7293.085723930001
 42
-1.303226189999999
 10
31528.74780146
 20
7286.64621946
 10
31517.13993232
 20
7289.7523906
 42
1.303226189999999
 10
31517.13993232
 20
7283.31288613
 10
31528.74780146
 20
7286.419057260001
 42
-1.303226189999999
 10
31528.74780146
 20
7279.979552799999
 10
31517.13993232
 20
7283.08572393
 42
1.303226189999999
 10
31517.13993232
 20
7276.646219459999
 10
31528.74780146
 20
7279.752390600001
 42
-1.303226189999999
 10
31528.74780146
 20
7273.31288613
 10
31517.13993232
 20
7276.41905726
 42
1.303226189999999
 10
31517.13993232
 20
7269.979552799999
 10
31528.74780146
 20
7273.085723930001
 42
-1.303226189999999
 10
31528.74780146
 20
7266.64621946
 10
31517.13993232
 20
7269.7523906
 42
1.303226189999999
 10
31517.13993232
 20
7263.312886130001
 10
31528.74780146
 20
7266.419057260001
 42
-1.303226189999999
 10
31528.74780146
 20
7259.9795528
 10
31517.13993232
 20
7263.08572393
 42
1.303226189999999
 10
31517.13993232
 20
7256.646219460001
 10
31528.74780146
 20
7259.7523906
 42
-1.303226189999999
 10
31528.74780146
 20
7253.31288613
 10
31517.13993232
 20
7256.41905726
 42
1.303226189999999
 10
31517.13993232
 20
7249.979552799999
 10
31528.74780146
 20
7253.08572393
 42
-1.303226189999999
 10
31528.74780146
 20
7246.64621946
 10
31517.13993232
 20
7249.752390600001
 42
1.303226189999999
 10
31517.13993232
 20
7243.31288613
 10
31528.74780146
 20
7246.41905726
 42
-1.303226189999999
 10
31528.74780146
 20
7239.9795528
 10
31517.13993232
 20
7243.085723930001
 42
1.303226189999999
 10
31517.13993232
 20
7236.64621946
 10
31528.74780146
 20
7239.7523906
 42
-1.303226189999999
 10
31528.74780146
 20
7233.31288613
 10
31517.13993232
 20
7236.41905726
 42
1.303226189999999
 10
31517.13993232
 20
7229.979552799999
 10
31528.74780146
 20
7233.08572393
 42
-1.303226189999999
 10
31528.74780146
 20
7226.64621946
 10
31517.13993232
 20
7229.752390600001
 42
1.303226189999999
 10
31517.13993232
 20
7223.31288613
 10
31528.74780146
 20
7226.41905726
 42
-1.303226189999999
 10
31528.74780146
 20
7219.979552799999
 10
31517.13993232
 20
7223.085723930001
 42
1.303226189999999
 10
31517.13993232
 20
7216.64621946
 10
31528.74780146
 20
7219.7523906
 42
-1.303226189999999
 10
31528.74780146
 20
7213.312886130001
 10
31517.13993232
 20
7216.419057260001
 42
1.303226189999999
 10
31517.13993232
 20
7209.9795528
 10
31528.74780146
 20
7213.085723929999
 42
-1.303226189999999
 10
31528.74780146
 20
7206.646219460001
 10
31517.13993232
 20
7209.752390600001
 42
1.303226189999999
 10
31517.13993232
 20
7203.312886129999
 10
31528.74780146
 20
7206.419057259999
 42
-1.303226189999999
 10
31528.74780146
 20
7199.979552799999
 10
31517.13993232
 20
7203.085723930001
 42
1.303226189999999
 10
31517.13993232
 20
7196.646219459999
 10
31528.74780146
 20
7199.752390600001
 42
-1.303226189999999
 10
31528.74780146
 20
7193.312886130001
 10
31517.13993232
 20
7196.41905726
 42
1.303226189999999
 10
31517.13993232
 20
7189.9795528
 10
31528.74780146
 20
7193.085723930001
 42
-1.303226189999999
 10
31528.74780146
 20
7186.64621946
 10
31517.13993232
 20
7189.7523906
 42
1.303226189999999
 10
31517.13993232
 20
7183.31288613
 10
31528.74780146
 20
7186.419057260001
 42
-1.303226189999999
 10
31528.74780146
 20
7179.979552799998
 10
31517.13993232
 20
7183.08572393
 42
1.303226189999999
 10
31517.13993232
 20
7176.64621946
 10
31528.74780146
 20
7179.7523906
 42
-1.303226189999999
 10
31528.74780146
 20
7173.31288613
 10
31517.13993232
 20
7176.41905726
 42
1.303226189999999
 10
31517.13993232
 20
7169.9795528
 10
31528.74780146
 20
7173.08572393
 42
-1.303226189999999
 10
31528.74780146
 20
7166.64621946
 10
31517.13993232
 20
7169.7523906
 42
1.303226189999999
 10
31517.13993232
 20
7163.31288613
 10
31528.74780146
 20
7166.41905726
 42
-1.303226189999999
 10
31528.74780146
 20
7159.9795528
 10
31517.13993232
 20
7163.08572393
 42
1.303226189999999
 10
31517.13993232
 20
7156.64621946
 10
31528.74780146
 20
7159.752390600001
 42
-1.303226189999999
 10
31528.74780146
 20
7153.31288613
 10
31517.13993232
 20
7156.419057259999
 42
1.303226189999999
 10
31517.13993232
 20
7149.979552799999
 10
31528.74780146
 20
7153.085723930001
 42
-1.303226189999999
 10
31528.74780146
 20
7146.64621946
 10
31517.13993232
 20
7149.752390600001
 42
1.303226189999999
 10
31517.13993232
 20
7143.312886130001
 10
31528.74780146
 20
7146.419057260001
 42
-1.303226189999999
 10
31528.74780146
 20
7139.979552799999
 10
31517.13993232
 20
7143.085723930001
 42
1.303226189999999
 10
31517.13993232
 20
7136.646219460001
 10
31528.74780146
 20
7139.7523906
 42
-1.303226189999999
 10
31528.74780146
 20
7133.312886129999
 10
31517.13993232
 20
7136.419057260001
 42
0.7452571500000001
 10
31513.79159408
 20
7130.97829778
  0
LWPOLYLINE
  5
BB
102
{ACAD_REACTORS
330
BC
102
}
330
5D
100
AcDbEntity
  8
Ech.1_5
  6
Continuous
 62
     9
370
    -3
100
AcDbPolyline
 90
       10
 70
     1
 43
0.0
 38
2500.0
 39
-2500.0
 10
31622.94386161
 20
7025.814406870001
 10
31622.94386161
 20
7075.814406870001
 10
31422.94386161
 20
7075.814406870001
 10
31422.94386161
 20
7025.814406870001
 10
31422.94386161
 20
6952.714612199999
 10
31512.51175879
 20
6952.714612199999
 10
31528.99811287
 20
6970.692963810001
 10
31514.88817285
 20
6934.737263799999
 10
31531.37367601
 20
6952.714612199999
 10
31622.94386161
 20
6952.714612199999
  0
HATCH
  5
BC
330
5D
100
AcDbEntity
  8
Ech.1_5
  6
Continuous
 62
     9
100
AcDbHatch
 10
0.0
 20
0.0
 30
0.0
210
0.0
220
0.0
230
1.0
  2
AR-CONC
 70
     0
 71
     1
 91
        1
 92
        7
 72
     0
 73
     1
 93
        9
 10
31422.94386161
 20
6952.714612199999
 10
31512.51175879001
 20
6952.714612199999
 10
31528.99811286999
 20
6970.692963809998
 10
31521.94294601731
 20
6952.714612200001
 10
31622.94386161
 20
6952.714612199999
 10
31622.94386161
 20
7025.814406870001
 10
31622.94386161
 20
7075.814406870001
 10
31422.94386161
 20
7075.814406870001
 10
31422.94386161
 20
7025.814406870001
 97
        1
330
BB
 75
     0
 76
     2
 52
5.0
 41
0.11811097
 77
     0
 78
    13
 53
50.0
 43
0.0
 44
0.0
 45
-18.84283637
 46
1.648534429999999
 79
     2
 49
1.97029307
 49
-21.67322338
 53
355.0
 43
0.0
 44
0.0
 45
-3.645077559999999
 46
19.76051824
 79
     2
 49
1.576233769999999
 49
-17.3385787
 53
100.45140076
 43
1.570235679999999
 44
-0.13737749
 45
-15.19777228
 46
-18.11197244
 79
     2
 49
1.67449124
 49
-18.41940522
 53
46.18420029
 43
0.0
 44
5.25411576
 45
-28.03703353
 46
4.34827878
 79
     2
 49
2.95543872
 49
-32.50983238
 53
96.63559723
 43
2.336418849999999
 44
4.891756919999999
 45
-24.55412615
 46
-25.59063404
 79
     2
 49
2.511736969999999
 49
-27.62910426
 53
351.1842041
 43
0.0
 44
5.25411576
 45
24.55410288
 46
25.59065715
 79
     2
 49
2.364352489999999
 49
-26.00786805
 53
21.0
 43
2.627056989999999
 44
3.94058615
 45
-15.68109068
 46
10.57702905
 79
     2
 49
1.97029307
 49
-21.67322338
 53
326.0
 43
2.627056989999999
 44
3.94058615
 45
6.392032679999999
 46
19.05010734
 79
     2
 49
1.576233769999999
 49
-17.3385787
 53
71.45140076
 43
3.933813569999999
 44
3.059165549999999
 45
-22.07312962
 46
-8.473061819999999
 79
     2
 49
1.67449124
 49
-18.41940522
 53
37.5
 43
0.0
 44
0.0
 45
0.31944534
 46
8.74531245
 79
     6
 49
0.01875
 49
-17.12841332
 49
0.01875
 49
-17.60128498
 49
0.01875
 49
-17.40425348
 53
7.499999999999999
 43
0.0
 44
0.0
 45
6.91098818
 46
10.3614222
 79
     6
 49
0.01875
 49
-10.03535807
 49
0.01875
 49
-16.7343539
 49
0.01875
 49
-6.633320599999999
 53
-32.5
 43
-5.858338329999999
 44
0.0
 45
14.02382061
 46
-0.59253003
 79
     6
 49
0.01875
 49
-6.56764314
 49
0.01875
 49
-20.49104869
 49
0.01875
 49
-27.19004452
 53
-42.5
 43
-8.485395309999999
 44
0.0
 45
15.32063571
 46
2.629815419999999
 79
     6
 49
0.01875
 49
-8.537936209999999
 49
0.01875
 49
-13.60815793
 49
0.01875
 49
-19.30887222
 47
0.775229
 98
        1
 10
0.0
 20
0.0
  0
LWPOLYLINE
  5
BD
330
5D
100
AcDbEntity
  8
Ech.1_5
  6
Continuous
 62
     7
370
    -3
100
AcDbPolyline
 90
       30
 70
     0
 43
0.0
 10
31467.94386689
 20
7284.48175566
 42
1.14028181
 10
31422.07226792
 20
7278.44263101
 10
31443.81546586
 20
7197.18754698
 42
-1.303226189999999
 10
31398.73893459
 20
7197.18754698
 10
31420.48213253
 20
7278.44263101
 42
1.303226189999999
 10
31375.40560125
 20
7278.44263101
 10
31397.14879919
 20
7197.18754698
 42
-1.303226189999999
 10
31352.07226792
 20
7197.18754698
 10
31373.81546586
 20
7278.44263101
 42
1.303226189999999
 10
31328.73893459
 20
7278.44263101
 10
31350.48213253
 20
7197.18754698
 42
-1.303226189999999
 10
31305.40560125
 20
7197.18754698
 10
31327.14879919
 20
7278.44263101
 42
1.303226189999999
 10
31282.07226792
 20
7278.44263101
 10
31303.81546586
 20
7197.18754698
 42
-1.303226189999999
 10
31258.73893459
 20
7197.18754698
 10
31280.48213253
 20
7278.44263101
 42
1.303226189999999
 10
31235.40560125
 20
7278.44263101
 10
31257.14879919
 20
7197.18754698
 42
-1.303226189999999
 10
31212.07226792
 20
7197.18754698
 10
31233.81546586
 20
7278.44263101
 42
1.303226189999999
 10
31188.73893459
 20
7278.44263101
 10
31210.48213253
 20
7197.18754698
 42
-1.303226189999999
 10
31165.40560125
 20
7197.18754698
 10
31187.14879919
 20
7278.44263101
 42
1.303226189999999
 10
31142.07226792
 20
7278.44263101
 10
31163.81546586
 20
7197.18754698
 42
-1.303226189999999
 10
31118.73893459
 20
7197.18754698
 10
31140.48213253
 20
7278.44263101
 42
0.85241889
 10
31098.42392378
 20
7297.265192810001
  0
LWPOLYLINE
  5
BE
330
5D
100
AcDbEntity
  8
Ech.1_5
  6
Continuous
 62
     7
370
    -3
100
AcDbPolyline
 90
       30
 70
     0
 43
0.0
 10
31938.22277094
 20
7284.48175566
 42
1.14028181
 10
31892.35117197
 20
7278.44263101
 10
31914.09436991
 20
7197.18754698
 42
-1.303226189999999
 10
31869.01783864
 20
7197.18754698
 10
31890.76103658
 20
7278.44263101
 42
1.303226189999999
 10
31845.68450531
 20
7278.44263101
 10
31867.42770325
 20
7197.18754698
 42
-1.303226189999999
 10
31822.35117197
 20
7197.18754698
 10
31844.09436991
 20
7278.44263101
 42
1.303226189999999
 10
31799.01783864
 20
7278.44263101
 10
31820.76103658
 20
7197.18754698
 42
-1.303226189999999
 10
31775.68450531
 20
7197.18754698
 10
31797.42770325
 20
7278.44263101
 42
1.303226189999999
 10
31752.35117197
 20
7278.44263101
 10
31774.09436991
 20
7197.18754698
 42
-1.303226189999999
 10
31729.01783864
 20
7197.18754698
 10
31750.76103658
 20
7278.44263101
 42
1.303226189999999
 10
31705.68450531
 20
7278.44263101
 10
31727.42770325
 20
7197.18754698
 42
-1.303226189999999
 10
31682.35117197
 20
7197.18754698
 10
31704.09436991
 20
7278.44263101
 42
1.303226189999999
 10
31659.01783864
 20
7278.44263101
 10
31680.76103658
 20
7197.18754698
 42
-1.303226189999999
 10
31635.68450531
 20
7197.18754698
 10
31657.42770325
 20
7278.44263101
 42
1.303226189999999
 10
31612.35117197
 20
7278.44263101
 10
31634.09436991
 20
7197.18754698
 42
-1.303226189999999
 10
31589.01783864
 20
7197.18754698
 10
31610.76103658
 20
7278.44263101
 42
0.6440694000000001
 10
31577.94386689
 20
7305.42903653
  0
LINE
  5
CB
330
5D
100
AcDbEntity
  8
Ech.1_5
 62
     7
100
AcDbLine
 10
31098.42401066
 20
7120.815088989999
 30
0.0
 11
31938.22283309
 21
7120.815088989999
 31
0.0
  0
LWPOLYLINE
  5
CC
330
5D
100
AcDbEntity
  8
Ech.1_5
  6
Continuous
 62
     7
370
    -3
100
AcDbPolyline
 90
        4
 70
     1
 43
0.0
 10
31467.94386689
 20
7158.81508899
 10
31467.94386689
 20
7167.81508899
 10
31098.42401066
 20
7167.81508899
 10
31098.42401066
 20
7158.81508899
  0
HATCH
  5
CD
330
5D
100
AcDbEntity
  8
Ech.1_5
  6
Continuous
 62
     7
100
AcDbHatch
 10
0.0
 20
0.0
 30
0.0
210
0.0
220
0.0
230
1.0
  2
CDWK10A
 70
     0
 71
     0
 91
        1
 92
        7
 72
     0
 73
     1
 93
        4
 10
31467.94386689
 20
7158.81508899
 10
31467.94386689
 20
7167.81508899
 10
31098.42401066
 20
7167.81508899
 10
31098.42401066
 20
7158.81508899
 97
        0
 75
     0
 76
     2
 52
0.0
 41
1.0
 77
     0
 78
     3
 53
45.0
 43
0.0
 44
0.0
 45
0.0
 46
42.00000167
 79
     0
 53
45.0
 43
0.0
 44
10.80000043
 45
0.0
 46
42.00000167
 79
     0
 53
45.0
 43
0.0
 44
21.60000086
 45
0.0
 46
42.00000167
 79
     0
 47
0.775229
 98
        1
 10
0.0
 20
0.0
  0
LWPOLYLINE
  5
CE
330
5D
100
AcDbEntity
  8
Ech.1_5
  6
Continuous
 62
     7
370
    -3
100
AcDbPolyline
 90
        4
 70
     1
 43
0.0
 10
31938.22283309
 20
7158.81508899
 10
31938.22283309
 20
7167.81508899
 10
31577.94386689
 20
7167.81508899
 10
31577.94386689
 20
7158.81508899
  0
HATCH
  5
CF
330
5D
100
AcDbEntity
  8
Ech.1_5
  6
Continuous
 62
     7
100
AcDbHatch
 10
0.0
 20
0.0
 30
0.0
210
0.0
220
0.0
230
1.0
  2
CDWK10A
 70
     0
 71
     0
 91
        1
 92
        7
 72
     0
 73
     1
 93
        4
 10
31938.22283309
 20
7158.81508899
 10
31938.22283309
 20
7167.81508899
 10
31577.94386689
 20
7167.81508899
 10
31577.94386689
 20
7158.81508899
 97
        0
 75
     0
 76
     2
 52
0.0
 41
1.0
 77
     0
 78
     3
 53
45.0
 43
0.0
 44
0.0
 45
0.0
 46
42.00000167
 79
     0
 53
45.0
 43
0.0
 44
10.80000043
 45
0.0
 46
42.00000167
 79
     0
 53
45.0
 43
0.0
 44
21.60000086
 45
0.0
 46
42.00000167
 79
     0
 47
0.775229
 98
        1
 10
0.0
 20
0.0
  0
LWPOLYLINE
  5
D0
330
5D
100
AcDbEntity
  8
Ech.1_5
 62
     7
100
AcDbPolyline
 90
        6
 70
     0
 43
0.0
 10
31689.94528208
 20
7459.479276759999
 10
31692.94386688
 20
7459.479207840001
 42
-0.41421356
 10
31702.94386688
 20
7449.479207839999
 10
31702.94386688
 20
7393.81443453
 10
31689.94386689
 20
7393.81443219
 10
31689.94386689
 20
7459.479205500001
  0
LWPOLYLINE
  5
D1
330
5D
100
AcDbEntity
  8
Ech.1_5
  6
Continuous
 62
     7
370
    -3
100
AcDbPolyline
 90
        4
 70
     1
 43
0.0
 10
31938.22272626
 20
7379.814432189999
 10
31938.22271455
 20
7393.81443219
 10
31699.94389968
 20
7393.81443219
 10
31699.94389968
 20
7379.814432189999
  0
HATCH
  5
D2
330
5D
100
AcDbEntity
  8
Ech.1_5
  6
Continuous
 62
     7
100
AcDbHatch
 10
0.0
 20
0.0
 30
0.0
210
0.0
220
0.0
230
1.0
  2
ANSI31
 70
     0
 71
     0
 91
        1
 92
        7
 72
     0
 73
     1
 93
        4
 10
31938.22272626
 20
7379.814432189999
 10
31938.22271455
 20
7393.81443219
 10
31699.94389968
 20
7393.81443219
 10
31699.94389968
 20
7379.814432189999
 97
        0
 75
     0
 76
     2
 52
90.0
 41
3.14962605
 77
     0
 78
     1
 53
-45.0
 43
0.0
 44
0.0
 45
7.071067809999999
 46
7.071067809999999
 79
     0
 47
0.775229
 98
        1
 10
0.0
 20
0.0
  0
LWPOLYLINE
  5
D3
330
5D
100
AcDbEntity
  8
Ech.1_5
 62
     7
100
AcDbPolyline
 90
        6
 70
     0
 43
0.0
 10
31355.9424517
 20
7459.47926374
 10
31352.94386691
 20
7459.47919482
 42
0.41421356
 10
31342.94386691
 20
7449.47919482
 10
31342.94386691
 20
7393.81442151
 10
31355.94386689
 20
7393.81441917
 10
31355.94386689
 20
7459.47919248
  0
LWPOLYLINE
  5
D4
330
5D
100
AcDbEntity
  8
Ech.1_5
  6
Continuous
 62
     7
370
    -3
100
AcDbPolyline
 90
        4
 70
     1
 43
0.0
 10
31098.42386703
 20
7379.81441917
 10
31098.42387874
 20
7393.81441917
 10
31345.83658382
 20
7393.81441917
 10
31345.83658382
 20
7379.81441917
  0
HATCH
  5
D5
330
5D
100
AcDbEntity
  8
Ech.1_5
  6
Continuous
 62
     7
100
AcDbHatch
 10
0.0
 20
0.0
 30
0.0
210
0.0
220
0.0
230
1.0
  2
ANSI31
 70
     0
 71
     0
 91
        1
 92
        7
 72
     0
 73
     1
 93
        4
 10
31098.42386703
 20
7379.81441917
 10
31098.42387874
 20
7393.81441917
 10
31345.83658382
 20
7393.81441917
 10
31345.83658382
 20
7379.81441917
 97
        0
 75
     0
 76
     2
 52
90.0
 41
3.14962605
 77
     0
 78
     1
 53
-45.0
 43
0.0
 44
0.0
 45
7.071067809999999
 46
7.071067809999999
 79
     0
 47
0.775229
 98
        1
 10
0.0
 20
0.0
  0
LWPOLYLINE
  5
D6
330
5D
100
AcDbEntity
  8
Ech.1_5
  6
Continuous
 62
     7
370
    -3
100
AcDbPolyline
 90
        4
 70
     1
 43
0.0
 10
31467.94386689
 20
7120.815088989999
 10
31512.94386689
 20
7120.815088989999
 10
31512.94386689
 20
7350.65188021
 10
31467.94386689
 20
7350.65188021
  0
LWPOLYLINE
  5
D7
330
5D
100
AcDbEntity
  8
Ech.1_5
  6
Continuous
 62
     7
370
    -3
100
AcDbPolyline
 90
        4
 70
     1
 43
0.0
 10
31512.94386689
 20
7360.81508899
 10
31512.94386689
 20
7379.81508899
 10
31098.42395571
 20
7379.81508899
 10
31098.4239716
 20
7360.81508899
  0
HATCH
  5
D8
330
5D
100
AcDbEntity
  8
Ech.1_5
  6
Continuous
 62
     7
100
AcDbHatch
 10
0.0
 20
0.0
 30
0.0
210
0.0
220
0.0
230
1.0
  2
ANSI38
 70
     0
 71
     0
 91
        1
 92
        7
 72
     0
 73
     1
 93
        4
 10
31512.94386689
 20
7360.81508899
 10
31512.94386689
 20
7379.81508899
 10
31098.42395571
 20
7379.81508899
 10
31098.4239716
 20
7360.81508899
 97
        0
 75
     0
 76
     2
 52
0.0
 41
1.0
 77
     0
 78
     2
 53
45.0
 43
0.0
 44
0.0
 45
-7.071067809999999
 46
7.071067809999999
 79
     2
 49
800.0
 49
0.0
 53
135.0
 43
0.0
 44
0.0
 45
-21.21320344
 46
7.071067809999999
 79
     2
 49
25.0
 49
-15.0
 47
0.775229
 98
        1
 10
0.0
 20
0.0
  0
LWPOLYLINE
  5
D9
330
5D
100
AcDbEntity
  8
Ech.1_5
  6
Continuous
 62
     7
370
    -3
100
AcDbPolyline
 90
        4
 70
     1
 43
0.0
 10
31938.22272817
 20
7360.81508899
 10
31938.22270978
 20
7379.81508899
 10
31532.94386689
 20
7379.81508899
 10
31532.94386689
 20
7360.81508899
  0
HATCH
  5
DA
330
5D
100
AcDbEntity
  8
Ech.1_5
  6
Continuous
 62
     7
100
AcDbHatch
 10
0.0
 20
0.0
 30
0.0
210
0.0
220
0.0
230
1.0
  2
ANSI38
 70
     0
 71
     0
 91
        1
 92
        7
 72
     0
 73
     1
 93
        4
 10
31938.22272817
 20
7360.81508899
 10
31938.22270978
 20
7379.81508899
 10
31532.94386689
 20
7379.81508899
 10
31532.94386689
 20
7360.81508899
 97
        0
 75
     0
 76
     2
 52
0.0
 41
1.0
 77
     0
 78
     2
 53
45.0
 43
0.0
 44
0.0
 45
-7.071067809999999
 46
7.071067809999999
 79
     2
 49
800.0
 49
0.0
 53
135.0
 43
0.0
 44
0.0
 45
-21.21320344
 46
7.071067809999999
 79
     2
 49
25.0
 49
-15.0
 47
0.775229
 98
        1
 10
0.0
 20
0.0
  0
LWPOLYLINE
  5
DB
330
5D
100
AcDbEntity
  8
Ech.1_5
  6
Continuous
 62
     7
370
    -3
100
AcDbPolyline
 90
        4
 70
     1
 43
0.0
 10
31636.94386689
 20
7815.37704361
 10
31676.94386689
 20
7815.37704361
 10
31676.94386689
 20
7770.37704361
 10
31636.94386689
 20
7770.37704361
  0
LWPOLYLINE
  5
DC
330
5D
100
AcDbEntity
  8
Ech.1_5
  6
Continuous
 62
     7
370
    -3
100
AcDbPolyline
 90
        4
 70
     1
 43
0.0
 10
31368.94386689
 20
7434.865971699998
 10
31408.94386689
 20
7434.865971699998
 10
31408.94386689
 20
7389.865971699999
 10
31368.94386689
 20
7389.865971699999
  0
LWPOLYLINE
  5
DD
330
5D
100
AcDbEntity
  8
Ech.1_5
  6
Continuous
 62
     7
370
    -3
100
AcDbPolyline
 90
        4
 70
     1
 43
0.0
 10
31636.94386689
 20
7434.865971699998
 10
31676.94386689
 20
7434.865971699998
 10
31676.94386689
 20
7389.865971699999
 10
31636.94386689
 20
7389.865971699999
  0
LWPOLYLINE
  5
DE
330
5D
100
AcDbEntity
  8
Ech.1_5
  6
Continuous
 62
     7
370
    -3
100
AcDbPolyline
 90
        4
 70
     1
 43
0.0
 10
31355.94386689
 20
7873.341695660001
 10
31368.94386689
 20
7873.341695660001
 10
31368.94386689
 20
7389.865971699999
 10
31355.94386689
 20
7389.865971699999
  0
HATCH
  5
DF
330
5D
100
AcDbEntity
  8
Ech.1_5
  6
Continuous
 62
     7
100
AcDbHatch
 10
0.0
 20
0.0
 30
0.0
210
0.0
220
0.0
230
1.0
  2
DOTS2
 70
     0
 71
     0
 91
        1
 92
        7
 72
     0
 73
     1
 93
        4
 10
31355.94386689
 20
7873.341695660001
 10
31368.94386689
 20
7873.341695660001
 10
31368.94386689
 20
7389.865971699999
 10
31355.94386689
 20
7389.865971699999
 97
        0
 75
     0
 76
     2
 52
0.0
 41
4.72440952
 77
     0
 78
     1
 53
0.0
 43
0.0
 44
0.0
 45
3.75
 46
3.535
 79
     2
 49
0.0
 49
-3.535
 47
0.775229
 98
        1
 10
0.0
 20
0.0
  0
LWPOLYLINE
  5
E0
330
5D
100
AcDbEntity
  8
Ech.1_5
  6
Continuous
 62
     7
370
    -3
100
AcDbPolyline
 90
        4
 70
     1
 43
0.0
 10
31408.94386689
 20
7873.3421347
 10
31417.94386689
 20
7873.3421347
 10
31417.94386689
 20
7389.865971699999
 10
31408.94386689
 20
7389.865971699999
  0
HATCH
  5
E1
330
5D
100
AcDbEntity
  8
Ech.1_5
  6
Continuous
 62
     7
100
AcDbHatch
 10
0.0
 20
0.0
 30
0.0
210
0.0
220
0.0
230
1.0
  2
CDWK10A
 70
     0
 71
     0
 91
        1
 92
        7
 72
     0
 73
     1
 93
        4
 10
31408.94386689
 20
7873.3421347
 10
31417.94386689
 20
7873.3421347
 10
31417.94386689
 20
7389.865971699999
 10
31408.94386689
 20
7389.865971699999
 97
        0
 75
     0
 76
     2
 52
0.0
 41
1.0
 77
     0
 78
     3
 53
45.0
 43
0.0
 44
0.0
 45
0.0
 46
42.00000167
 79
     0
 53
45.0
 43
0.0
 44
10.80000043
 45
0.0
 46
42.00000167
 79
     0
 53
45.0
 43
0.0
 44
21.60000086
 45
0.0
 46
42.00000167
 79
     0
 47
0.775229
 98
        1
 10
0.0
 20
0.0
  0
LWPOLYLINE
  5
E2
330
5D
100
AcDbEntity
  8
Ech.1_5
  6
Continuous
 62
     7
370
    -3
100
AcDbPolyline
 90
        4
 70
     1
 43
0.0
 10
31676.94386689
 20
7873.341695660001
 10
31689.94386689
 20
7873.341695660001
 10
31689.94386689
 20
7389.865971699999
 10
31676.94386689
 20
7389.865971699999
  0
HATCH
  5
E3
330
5D
100
AcDbEntity
  8
Ech.1_5
  6
Continuous
 62
     7
100
AcDbHatch
 10
0.0
 20
0.0
 30
0.0
210
0.0
220
0.0
230
1.0
  2
DOTS2
 70
     0
 71
     0
 91
        1
 92
        7
 72
     0
 73
     1
 93
        4
 10
31676.94386689
 20
7873.341695660001
 10
31689.94386689
 20
7873.341695660001
 10
31689.94386689
 20
7389.865971699999
 10
31676.94386689
 20
7389.865971699999
 97
        0
 75
     0
 76
     2
 52
0.0
 41
4.72440952
 77
     0
 78
     1
 53
0.0
 43
0.0
 44
0.0
 45
3.75
 46
3.535
 79
     2
 49
0.0
 49
-3.535
 47
0.775229
 98
        1
 10
0.0
 20
0.0
  0
LWPOLYLINE
  5
E4
330
5D
100
AcDbEntity
  8
Ech.1_5
  6
Continuous
 62
     7
370
    -3
100
AcDbPolyline
 90
        4
 70
     1
 43
0.0
 10
31368.94386689
 20
7815.37704361
 10
31408.94386689
 20
7815.37704361
 10
31408.94386689
 20
7770.37704361
 10
31368.94386689
 20
7770.37704361
  0
LWPOLYLINE
  5
E5
330
5D
100
AcDbEntity
  8
Ech.1_5
  6
Continuous
 62
     7
370
    -3
100
AcDbPolyline
 90
        4
 70
     1
 43
0.0
 10
31627.94386689
 20
7873.3421347
 10
31636.94386689
 20
7873.3421347
 10
31636.94386689
 20
7389.865971699999
 10
31627.94386689
 20
7389.865971699999
  0
HATCH
  5
E6
330
5D
100
AcDbEntity
  8
Ech.1_5
  6
Continuous
 62
     7
100
AcDbHatch
 10
0.0
 20
0.0
 30
0.0
210
0.0
220
0.0
230
1.0
  2
CDWK10A
 70
     0
 71
     0
 91
        1
 92
        7
 72
     0
 73
     1
 93
        4
 10
31627.94386689
 20
7873.3421347
 10
31636.94386689
 20
7873.3421347
 10
31636.94386689
 20
7389.865971699999
 10
31627.94386689
 20
7389.865971699999
 97
        0
 75
     0
 76
     2
 52
0.0
 41
1.0
 77
     0
 78
     3
 53
45.0
 43
0.0
 44
0.0
 45
0.0
 46
42.00000167
 79
     0
 53
45.0
 43
0.0
 44
10.80000043
 45
0.0
 46
42.00000167
 79
     0
 53
45.0
 43
0.0
 44
21.60000086
 45
0.0
 46
42.00000167
 79
     0
 47
0.775229
 98
        1
 10
0.0
 20
0.0
  0
LWPOLYLINE
  5
E7
330
5D
100
AcDbEntity
  8
Ech.1_5
  6
Continuous
 62
     7
370
    -3
100
AcDbPolyline
 90
       56
 70
     0
 43
0.0
 10
31433.77720022
 20
7873.3421347
 42
1.14028181
 10
31437.87517766
 20
7842.21497825
 10
31493.01255612
 20
7856.96929114
 42
-1.303226189999999
 10
31493.01255612
 20
7826.381644920001
 10
31437.87517766
 20
7841.13595781
 42
1.303226189999999
 10
31437.87517766
 20
7810.54831159
 10
31493.01255612
 20
7825.302624470001
 42
-1.303226189999999
 10
31493.01255612
 20
7794.71497825
 10
31437.87517766
 20
7809.46929114
 42
1.303226189999999
 10
31437.87517766
 20
7778.88164492
 10
31493.01255612
 20
7793.63595781
 42
-1.303226189999999
 10
31493.01255612
 20
7763.048311589999
 10
31437.87517766
 20
7777.80262447
 42
1.303226189999999
 10
31437.87517766
 20
7747.214978249999
 10
31493.01255612
 20
7761.969291139999
 42
-1.303226189999999
 10
31493.01255612
 20
7731.38164492
 10
31437.87517766
 20
7746.13595781
 42
1.303226189999999
 10
31437.87517766
 20
7715.54831159
 10
31493.01255612
 20
7730.302624470001
 42
-1.303226189999999
 10
31493.01255612
 20
7699.71497825
 10
31437.87517766
 20
7714.46929114
 42
1.303226189999999
 10
31437.87517766
 20
7683.881644920001
 10
31493.01255612
 20
7698.635957810001
 42
-1.303226189999999
 10
31493.01255612
 20
7668.04831159
 10
31437.87517766
 20
7682.802624470001
 42
1.303226189999999
 10
31437.87517766
 20
7652.21497825
 10
31493.01255612
 20
7666.96929114
 42
-1.303226189999999
 10
31493.01255612
 20
7636.38164492
 10
31437.87517766
 20
7651.13595781
 42
1.303226189999999
 10
31437.87517766
 20
7620.548311589999
 10
31493.01255612
 20
7635.30262447
 42
-1.303226189999999
 10
31493.01255612
 20
7604.71497825
 10
31437.87517766
 20
7619.469291139999
 42
1.303226189999999
 10
31437.87517766
 20
7588.88164492
 10
31493.01255612
 20
7603.63595781
 42
-1.303226189999999
 10
31493.01255612
 20
7573.04831159
 10
31437.87517766
 20
7587.80262447
 42
1.303226189999999
 10
31437.87517766
 20
7557.214978250001
 10
31493.01255612
 20
7571.96929114
 42
-1.303226189999999
 10
31493.01255612
 20
7541.38164492
 10
31437.87517766
 20
7556.135957809999
 42
1.303226189999999
 10
31437.87517766
 20
7525.548311589999
 10
31493.01255612
 20
7540.30262447
 42
-1.303226189999999
 10
31493.01255612
 20
7509.714978249999
 10
31437.87517766
 20
7524.469291139999
 42
1.303226189999999
 10
31437.87517766
 20
7493.88164492
 10
31493.01255612
 20
7508.63595781
 42
-1.303226189999999
 10
31493.01255612
 20
7478.04831159
 10
31437.87517766
 20
7492.802624470001
 42
1.303226189999999
 10
31437.87517766
 20
7462.21497825
 10
31493.01255612
 20
7476.96929114
 42
-1.303226189999999
 10
31493.01255612
 20
7446.381644920001
 10
31437.87517766
 20
7461.13595781
 42
1.303226189999999
 10
31437.87517766
 20
7430.54831159
 10
31493.01255612
 20
7445.302624470001
 42
-0.60059314
 10
31512.08529554
 20
7424.86575285
  0
LWPOLYLINE
  5
E8
330
5D
100
AcDbEntity
  8
Ech.1_5
  6
Continuous
 62
     7
370
    -3
100
AcDbPolyline
 90
        4
 70
     1
 43
0.0
 10
31532.94386689
 20
7120.815088989999
 10
31577.94386689
 20
7120.815088989999
 10
31577.94386689
 20
7350.65188021
 10
31532.94386689
 20
7350.65188021
  0
LWPOLYLINE
  5
E9
330
5D
100
AcDbEntity
  8
Ech.1_5
  6
Continuous
 62
     7
370
    -3
100
AcDbPolyline
 90
        4
 70
     0
 43
0.0
 10
31612.94386161
 20
7120.815088989999
 10
31432.94386161
 20
7075.815088989999
 10
31432.94386161
 20
7120.815088989999
 10
31612.94386161
 20
7075.815088989999
  0
LWPOLYLINE
  5
EA
330
5D
100
AcDbEntity
  8
Ech.1_5
  6
Continuous
 62
     7
370
    -3
100
AcDbPolyline
 90
        4
 70
     0
 43
0.0
 10
31627.94386689
 20
7424.8659717
 10
31532.94386689
 20
7379.865971699999
 10
31532.94386689
 20
7424.8659717
 10
31627.94386689
 20
7379.865971699999
  0
LWPOLYLINE
  5
EB
330
5D
100
AcDbEntity
  8
Ech.1_5
  6
Continuous
 62
     7
370
    -3
100
AcDbPolyline
 90
        4
 70
     0
 43
0.0
 10
31512.94386689
 20
7424.8659717
 10
31417.94386689
 20
7379.865971699999
 10
31417.94386689
 20
7424.8659717
 10
31512.94386689
 20
7379.865971699999
  0
LWPOLYLINE
  5
EC
330
5D
100
AcDbEntity
  8
Ech.1_5
  6
Continuous
 62
     7
370
    -3
100
AcDbPolyline
 90
        5
 70
     0
 43
0.0
 10
31467.94386689
 20
7350.65188021
 10
31512.94386689
 20
7350.65188021
 10
31512.94386689
 20
7120.815088989999
 10
31467.94386689
 20
7120.815088989999
 10
31467.94386689
 20
7350.65188021
  0
LWPOLYLINE
  5
ED
330
5D
100
AcDbEntity
  8
Ech.1_5
  6
Continuous
 62
     7
370
    -3
100
AcDbPolyline
 90
        5
 70
     0
 43
0.0
 10
31368.94386689
 20
7815.37704361
 10
31408.94386689
 20
7815.37704361
 10
31408.94386689
 20
7770.37704361
 10
31368.94386689
 20
7770.37704361
 10
31368.94386689
 20
7815.37704361
  0
LWPOLYLINE
  5
EE
330
5D
100
AcDbEntity
  8
Ech.1_5
  6
Continuous
 62
     7
370
    -3
100
AcDbPolyline
 90
        5
 70
     0
 43
0.0
 10
31368.94386689
 20
7434.865971699998
 10
31408.94386689
 20
7434.865971699998
 10
31408.94386689
 20
7389.865971699999
 10
31368.94386689
 20
7389.865971699999
 10
31368.94386689
 20
7434.865971699998
  0
LWPOLYLINE
  5
EF
330
5D
100
AcDbEntity
  8
Ech.1_5
  6
Continuous
 62
     7
370
    -3
100
AcDbPolyline
 90
        5
 70
     0
 43
0.0
 10
31636.94386689
 20
7815.37704361
 10
31676.94386689
 20
7815.37704361
 10
31676.94386689
 20
7770.37704361
 10
31636.94386689
 20
7770.37704361
 10
31636.94386689
 20
7815.37704361
  0
LWPOLYLINE
  5
F0
330
5D
100
AcDbEntity
  8
Ech.1_5
  6
Continuous
 62
     7
370
    -3
100
AcDbPolyline
 90
        5
 70
     0
 43
0.0
 10
31636.94386689
 20
7434.865971699998
 10
31676.94386689
 20
7434.865971699998
 10
31676.94386689
 20
7389.865971699999
 10
31636.94386689
 20
7389.865971699999
 10
31636.94386689
 20
7434.865971699998
  0
LWPOLYLINE
  5
F1
330
5D
100
AcDbEntity
  8
Ech.1_5
  6
Continuous
 62
     7
370
    -3
100
AcDbPolyline
 90
        5
 70
     0
 43
0.0
 10
31532.94386689
 20
7350.65188021
 10
31577.94386689
 20
7350.65188021
 10
31577.94386689
 20
7120.815088989999
 10
31532.94386689
 20
7120.815088989999
 10
31532.94386689
 20
7350.65188021
  0
LWPOLYLINE
  5
F2
330
5D
100
AcDbEntity
  8
Ech.1_5
  6
Continuous
 62
     7
370
    -3
100
AcDbPolyline
 90
        5
 70
     0
 43
0.0
 10
31612.94386161
 20
7075.815088989999
 10
31432.94386161
 20
7075.815088989999
 10
31432.94386161
 20
7120.815088989999
 10
31612.94386161
 20
7120.815088989999
 10
31612.94386161
 20
7075.815088989999
  0
LWPOLYLINE
  5
F3
330
5D
100
AcDbEntity
  8
Ech.1_5
  6
Continuous
 62
     7
370
    -3
100
AcDbPolyline
 90
        5
 70
     0
 43
0.0
 10
31627.94386689
 20
7379.865971699999
 10
31532.94386689
 20
7379.865971699999
 10
31532.94386689
 20
7424.8659717
 10
31627.94386689
 20
7424.8659717
 10
31627.94386689
 20
7379.865971699999
  0
LWPOLYLINE
  5
F4
330
5D
100
AcDbEntity
  8
Ech.1_5
  6
Continuous
 62
     7
370
    -3
100
AcDbPolyline
 90
        5
 70
     0
 43
0.0
 10
31512.94386689
 20
7379.865971699999
 10
31417.94386689
 20
7379.865971699999
 10
31417.94386689
 20
7424.8659717
 10
31512.94386689
 20
7424.8659717
 10
31512.94386689
 20
7379.865971699999
  0
LWPOLYLINE
  5
F5
330
5D
100
AcDbEntity
  8
Ech.1_5
  6
Continuous
 62
     7
370
    -3
100
AcDbPolyline
 90
       56
 70
     0
 43
0.0
 10
31612.11053356
 20
7424.866109759999
 42
1.14028181
 10
31608.01255612
 20
7455.99326621
 10
31552.87517766
 20
7441.23895332
 42
-1.303226189999999
 10
31552.87517766
 20
7471.82659954
 10
31608.01255612
 20
7457.07228665
 42
1.303226189999999
 10
31608.01255612
 20
7487.659932870001
 10
31552.87517766
 20
7472.90561998
 42
-1.303226189999999
 10
31552.87517766
 20
7503.49326621
 10
31608.01255612
 20
7488.738953320001
 42
1.303226189999999
 10
31608.01255612
 20
7519.32659954
 10
31552.87517766
 20
7504.57228665
 42
-1.303226189999999
 10
31552.87517766
 20
7535.15993287
 10
31608.01255612
 20
7520.40561998
 42
1.303226189999999
 10
31608.01255612
 20
7550.993266209999
 10
31552.87517766
 20
7536.23895332
 42
-1.303226189999999
 10
31552.87517766
 20
7566.82659954
 10
31608.01255612
 20
7552.072286650001
 42
1.303226189999999
 10
31608.01255612
 20
7582.65993287
 10
31552.87517766
 20
7567.90561998
 42
-1.303226189999999
 10
31552.87517766
 20
7598.493266210001
 10
31608.01255612
 20
7583.738953320001
 42
1.303226189999999
 10
31608.01255612
 20
7614.32659954
 10
31552.87517766
 20
7599.57228665
 42
-1.303226189999999
 10
31552.87517766
 20
7630.15993287
 10
31608.01255612
 20
7615.405619979999
 42
1.303226189999999
 10
31608.01255612
 20
7645.99326621
 10
31552.87517766
 20
7631.23895332
 42
-1.303226189999999
 10
31552.87517766
 20
7661.826599539999
 10
31608.01255612
 20
7647.07228665
 42
1.303226189999999
 10
31608.01255612
 20
7677.65993287
 10
31552.87517766
 20
7662.90561998
 42
-1.303226189999999
 10
31552.87517766
 20
7693.493266209999
 10
31608.01255612
 20
7678.738953319999
 42
1.303226189999999
 10
31608.01255612
 20
7709.32659954
 10
31552.87517766
 20
7694.57228665
 42
-1.303226189999999
 10
31552.87517766
 20
7725.159932870001
 10
31608.01255612
 20
7710.40561998
 42
1.303226189999999
 10
31608.01255612
 20
7740.993266210001
 10
31552.87517766
 20
7726.238953320001
 42
-1.303226189999999
 10
31552.87517766
 20
7756.82659954
 10
31608.01255612
 20
7742.07228665
 42
1.303226189999999
 10
31608.01255612
 20
7772.65993287
 10
31552.87517766
 20
7757.905619979999
 42
-1.303226189999999
 10
31552.87517766
 20
7788.49326621
 10
31608.01255612
 20
7773.73895332
 42
1.303226189999999
 10
31608.01255612
 20
7804.326599540001
 10
31552.87517766
 20
7789.572286650001
 42
-1.303226189999999
 10
31552.87517766
 20
7820.15993287
 10
31608.01255612
 20
7805.40561998
 42
1.303226189999999
 10
31608.01255612
 20
7835.99326621
 10
31552.87517766
 20
7821.238953320001
 42
-1.303226189999999
 10
31552.87517766
 20
7851.82659954
 10
31608.01255612
 20
7837.07228665
 42
1.303226189999999
 10
31608.01255612
 20
7867.659932870001
 10
31552.87517766
 20
7852.905619979999
 42
-0.60058503
 10
31533.80231567
 20
7873.3421347
  0
LWPOLYLINE
  5
F6
330
5D
100
AcDbEntity
  8
Ech.1_5
 62
     3
370
    70
100
AcDbPolyline
 90
        4
 70
     0
 43
0.0
 10
31369.66442008
 20
7384.77828007
 10
31360.25784346
 20
7384.77828007
 10
31356.32311131
 20
7380.644730269999
 10
31347.06768937
 20
7380.644730269999
  0
LWPOLYLINE
  5
F7
330
5D
100
AcDbEntity
  8
Ech.1_5
 62
     3
370
    70
100
AcDbPolyline
 90
        4
 70
     0
 43
0.0
 10
31403.83509152
 20
7384.07951705
 10
31395.25177656
 20
7384.07951705
 10
31391.31704442
 20
7379.96375419
 10
31382.1044324
 20
7379.96375419
  0
LWPOLYLINE
  5
F8
330
5D
100
AcDbEntity
  8
Ech.1_5
 62
     3
370
    70
100
AcDbPolyline
 90
        4
 70
     0
 43
0.0
 10
31676.2233137
 20
7384.77828007
 10
31685.62989033
 20
7384.77828007
 10
31689.56462247
 20
7380.644730269999
 10
31698.82004441
 20
7380.644730269999
  0
LWPOLYLINE
  5
F9
330
5D
100
AcDbEntity
  8
Ech.1_5
 62
     3
370
    70
100
AcDbPolyline
 90
        4
 70
     0
 43
0.0
 10
31642.05264226
 20
7384.07951705
 10
31650.63595722
 20
7384.07951705
 10
31654.57068936
 20
7379.96375419
 10
31663.78330138
 20
7379.96375419
  0
LWPOLYLINE
  5
FA
330
5D
100
AcDbEntity
  8
Ech.1_5
  6
CADWORK_22
 62
     1
370
    35
100
AcDbPolyline
 90
        4
 70
     0
 43
0.0
 10
31098.4239716
 20
7360.81508899
 10
31512.94386689
 20
7360.81508899
 10
31512.94386689
 20
7381.365971699999
 10
31398.54184283
 20
7381.365971699999
  0
LWPOLYLINE
  5
FB
330
5D
100
AcDbEntity
  8
Ech.1_5
  6
CADWORK_22
 62
     1
370
    35
100
AcDbPolyline
 90
        5
 70
     0
 43
0.0
 10
31407.44386689
 20
7873.3421347
 10
31407.44386689
 20
7387.35682583
 10
31385.12256619
 20
7387.35682583
 10
31372.09204349
 20
7381.31508899
 10
31358.87781521
 20
7381.31508899
  0
LWPOLYLINE
  5
FC
330
5D
100
AcDbEntity
  8
Ech.1_5
  6
CADWORK_22
 62
     1
370
    35
100
AcDbPolyline
 90
        4
 70
     0
 43
0.0
 10
31938.22272817
 20
7360.81508899
 10
31532.94386689
 20
7360.81508899
 10
31532.94386689
 20
7381.365971699999
 10
31647.34589095
 20
7381.365971699999
  0
LWPOLYLINE
  5
FD
330
5D
100
AcDbEntity
  8
Ech.1_5
  6
CADWORK_22
 62
     1
370
    35
100
AcDbPolyline
 90
        5
 70
     0
 43
0.0
 10
31638.44386689
 20
7873.3421347
 10
31638.44386689
 20
7387.35682583
 10
31660.7651676
 20
7387.35682583
 10
31673.79569029
 20
7381.31508899
 10
31687.00991857
 20
7381.31508899
  0
LWPOLYLINE
  5
FE
330
5D
100
AcDbEntity
  8
Ech.1_5
  6
Continuous
 62
     7
370
    -3
100
AcDbPolyline
 90
        6
 70
     0
 43
0.0
 10
31938.22283309
 20
7101.67486914
 10
31938.22283309
 20
7236.67486914
 10
31920.24548468
 20
7253.16037229
 10
31956.20118469
 20
7239.05043228
 10
31938.22283309
 20
7255.536786360001
 10
31938.22270927
 20
7413.699995139999
  0
LWPOLYLINE
  5
FF
330
5D
100
AcDbEntity
  8
Ech.1_5
  6
Continuous
 62
     7
370
    -3
100
AcDbPolyline
 90
        6
 70
     0
 43
0.0
 10
31098.42401066
 20
7101.098786210001
 10
31098.42401066
 20
7207.09878621
 10
31080.44666226
 20
7223.584289369999
 10
31116.40236227
 20
7209.47434935
 10
31098.42401066
 20
7225.960703430001
 10
31098.42387346
 20
7400.12391222
  0
LINE
  5
100
330
5D
100
AcDbEntity
  8
Ech.1_5
  6
Continuous
 62
     7
370
    -3
100
AcDbLine
 10
31512.94386689
 20
7873.34240793
 30
0.0
 11
31512.94386689
 21
7424.8659717
 31
0.0
  0
LWPOLYLINE
  5
101
330
5D
100
AcDbEntity
  8
Ech.1_5
  6
Continuous
 62
     7
370
    -3
100
AcDbPolyline
 90
        6
 70
     0
 43
0.0
 10
31335.94386689
 20
7873.34152998
 10
31441.92779136
 20
7873.34240793
 10
31458.41329451
 20
7891.31975634
 10
31444.30335449
 20
7855.36405632
 10
31460.78970857
 20
7873.34240793
 10
31709.94386689
 20
7873.34240793
  0
LINE
  5
102
330
5D
100
AcDbEntity
  8
Ech.1_5
  6
Continuous
 62
     7
370
    -3
100
AcDbLine
 10
31532.94386689
 20
7873.34240793
 30
0.0
 11
31532.94386689
 21
7424.8659717
 31
0.0
  0
LWPOLYLINE
  5
103
330
5D
100
AcDbEntity
  8
Ech.1_5
  6
Continuous
 62
     7
370
    -3
100
AcDbPolyline
 90
        5
 70
     0
 43
0.0
 10
31051.63638259
 20
6644.907792579999
 10
32036.63638259
 20
6644.907792579999
 10
32036.63638259
 20
7999.907792580001
 10
31051.63638259
 20
7999.907792580001
 10
31051.63638259
 20
6644.907792579999
  0
LWPOLYLINE
  5
104
330
5D
100
AcDbEntity
  8
Ech.1_5
 62
     7
100
AcDbPolyline
 90
        5
 70
     0
 43
0.0
 10
31146.96695731
 20
7853.47721066
 10
31281.39573629
 20
7853.47721066
 10
31281.39573629
 20
7796.754251839999
 10
31146.96695731
 20
7796.754251839999
 10
31146.96695731
 20
7853.47721066
  0
LWPOLYLINE
  5
105
330
5D
100
AcDbEntity
  8
Ech.1_5
 62
     7
100
AcDbPolyline
 90
        5
 70
     0
 43
0.0
 10
31165.24700309
 20
7819.820399530001
 10
31215.24700309
 20
7819.820399530001
 10
31215.24700309
 20
7827.235537059999
 10
31165.24700309
 20
7827.235537059999
 10
31165.24700309
 20
7819.820399530001
  0
LWPOLYLINE
  5
106
330
5D
100
AcDbEntity
  8
Ech.1_5
 62
     7
100
AcDbPolyline
 90
        5
 70
     0
 43
0.0
 10
31215.24700309
 20
7819.820399530001
 10
31265.24700309
 20
7819.820399530001
 10
31265.24700309
 20
7827.235537059999
 10
31215.24700309
 20
7827.235537059999
 10
31215.24700309
 20
7819.820399530001
  0
LWPOLYLINE
  5
107
330
5D
100
AcDbEntity
  8
Ech.1_5
  6
CENTER
 62
   204
370
    70
100
AcDbPolyline
 90
        5
 70
     0
 43
0.0
 10
31404.28198545
 20
7063.79063758
 10
31413.87125093
 20
7075.814406870001
 10
31522.94386161
 20
7075.814406870001
 10
31632.01647229
 20
7075.814406870001
 10
31641.60573777
 20
7063.79063758
  0
LWPOLYLINE
  5
108
330
5D
100
AcDbEntity
  8
Ech.1_5
  6
Continuous
 62
     7
370
    -3
100
AcDbPolyline
 90
        5
 70
     0
 43
0.0
 10
31627.94386689
 20
7873.3421347
 10
31532.94386689
 20
7873.342289989999
 10
31532.94386689
 20
7424.8659717
 10
31627.94386689
 20
7424.8659717
 10
31627.94386689
 20
7873.3421347
  0
LWPOLYLINE
  5
109
330
5D
100
AcDbEntity
  8
Ech.1_5
  6
Continuous
 62
     7
370
    -3
100
AcDbPolyline
 90
        5
 70
     0
 43
0.0
 10
31512.94386689
 20
7379.86528958
 10
31417.94386689
 20
7379.865971699999
 10
31417.94386689
 20
7424.8659717
 10
31512.94386689
 20
7424.865289579999
 10
31512.94386689
 20
7379.86528958
  0
LWPOLYLINE
  5
10A
330
5D
100
AcDbEntity
  8
Ech.1_5
  6
Continuous
 62
     7
370
    -3
100
AcDbPolyline
 90
        5
 70
     0
 43
0.0
 10
31512.94386689
 20
7350.65188021
 10
31467.94386689
 20
7350.65188021
 10
31467.94386689
 20
7120.815088989999
 10
31512.94386689
 20
7120.815088989999
 10
31512.94386689
 20
7350.65188021
  0
LWPOLYLINE
  5
10B
330
5D
100
AcDbEntity
  8
Ech.1_5
  6
Continuous
 62
     7
370
    -3
100
AcDbPolyline
 90
        5
 70
     0
 43
0.0
 10
31512.94386689
 20
7360.81508899
 10
31512.94386689
 20
7379.81508899
 10
31098.42395571
 20
7379.81508899
 10
31098.4239716
 20
7360.81508899
 10
31512.94386689
 20
7360.81508899
  0
LWPOLYLINE
  5
10C
330
5D
100
AcDbEntity
  8
Ech.1_5
  6
Continuous
 62
     7
370
    -3
100
AcDbPolyline
 90
        5
 70
     0
 43
0.0
 10
31938.22272817
 20
7360.81508899
 10
31938.22270978
 20
7379.81508899
 10
31532.94386689
 20
7379.81508899
 10
31532.94386689
 20
7360.81508899
 10
31938.22272817
 20
7360.81508899
  0
LWPOLYLINE
  5
10D
330
5D
100
AcDbEntity
  8
Ech.1_5
  6
Continuous
 62
     7
370
    -3
100
AcDbPolyline
 90
        5
 70
     0
 43
0.0
 10
31627.94386689
 20
7873.3421347
 10
31636.94386689
 20
7873.3421347
 10
31636.94386689
 20
7389.865971699999
 10
31627.94386689
 20
7389.865971699999
 10
31627.94386689
 20
7873.3421347
  0
LWPOLYLINE
  5
10E
330
5D
100
AcDbEntity
  8
Ech.1_5
  6
Continuous
 62
     7
370
    -3
100
AcDbPolyline
 90
        9
 70
     0
 43
0.0
 10
31512.94386689
 20
7873.34240793
 10
31460.78970857
 20
7873.34240793
 10
31444.30335449
 20
7855.36405632
 10
31458.41329451
 20
7891.31975634
 10
31441.92779136
 20
7873.34240793
 10
31417.94386689
 20
7873.342209250001
 10
31417.94386689
 20
7424.86575285
 10
31512.94386689
 20
7424.8659717
 10
31512.94386689
 20
7873.34240793
  0
LWPOLYLINE
  5
10F
330
5D
100
AcDbEntity
  8
Ech.1_5
  6
Continuous
 62
     7
370
    -3
100
AcDbPolyline
 90
        5
 70
     0
 43
0.0
 10
31636.94386689
 20
7815.37704361
 10
31676.94386689
 20
7815.37704361
 10
31676.94386689
 20
7770.37704361
 10
31636.94386689
 20
7770.37704361
 10
31636.94386689
 20
7815.37704361
  0
LWPOLYLINE
  5
110
330
5D
100
AcDbEntity
  8
Ech.1_5
  6
Continuous
 62
     7
370
    -3
100
AcDbPolyline
 90
        5
 70
     0
 43
0.0
 10
31368.94386689
 20
7434.865971699998
 10
31408.94386689
 20
7434.865971699998
 10
31408.94386689
 20
7389.865971699999
 10
31368.94386689
 20
7389.865971699999
 10
31368.94386689
 20
7434.865971699998
  0
LWPOLYLINE
  5
111
330
5D
100
AcDbEntity
  8
Ech.1_5
  6
Continuous
 62
     7
370
    -3
100
AcDbPolyline
 90
        5
 70
     0
 43
0.0
 10
31636.94386689
 20
7434.865971699998
 10
31676.94386689
 20
7434.865971699998
 10
31676.94386689
 20
7389.865971699999
 10
31636.94386689
 20
7389.865971699999
 10
31636.94386689
 20
7434.865971699998
  0
LWPOLYLINE
  5
112
330
5D
100
AcDbEntity
  8
Ech.1_5
  6
Continuous
 62
     7
370
    -3
100
AcDbPolyline
 90
        5
 70
     0
 43
0.0
 10
31368.94386689
 20
7815.37704361
 10
31408.94386689
 20
7815.37704361
 10
31408.94386689
 20
7770.37704361
 10
31368.94386689
 20
7770.37704361
 10
31368.94386689
 20
7815.37704361
  0
LWPOLYLINE
  5
113
330
5D
100
AcDbEntity
  8
Ech.1_5
  6
Continuous
 62
     7
370
    15
100
AcDbPolyline
 90
        5
 70
     0
 43
0.0
 10
31676.94386689
 20
7873.341695660001
 10
31689.94386689
 20
7873.341695660001
 10
31689.94386689
 20
7389.865971699999
 10
31676.94386689
 20
7389.865971699999
 10
31676.94386689
 20
7873.341695660001
  0
LWPOLYLINE
  5
114
330
5D
100
AcDbEntity
  8
Ech.1_5
  6
Continuous
 62
     7
370
    -3
100
AcDbPolyline
 90
        5
 70
     0
 43
0.0
 10
31408.94386689
 20
7873.3421347
 10
31417.94386689
 20
7873.3421347
 10
31417.94386689
 20
7389.865971699999
 10
31408.94386689
 20
7389.865971699999
 10
31408.94386689
 20
7873.3421347
  0
LWPOLYLINE
  5
115
330
5D
100
AcDbEntity
  8
Ech.1_5
  6
Continuous
 62
     7
370
    15
100
AcDbPolyline
 90
        5
 70
     0
 43
0.0
 10
31355.94386689
 20
7873.341695660001
 10
31368.94386689
 20
7873.341695660001
 10
31368.94386689
 20
7389.865971699999
 10
31355.94386689
 20
7389.865971699999
 10
31355.94386689
 20
7873.341695660001
  0
LWPOLYLINE
  5
116
330
5D
100
AcDbEntity
  8
Ech.1_5
  6
Continuous
 62
     7
370
    -3
100
AcDbPolyline
 90
        5
 70
     0
 43
0.0
 10
31577.94386689
 20
7350.65188021
 10
31532.94386689
 20
7350.65188021
 10
31532.94386689
 20
7120.815088989999
 10
31577.94386689
 20
7120.815088989999
 10
31577.94386689
 20
7350.65188021
  0
LWPOLYLINE
  5
117
330
5D
100
AcDbEntity
  8
Ech.1_5
  6
Continuous
 62
     7
370
    -3
100
AcDbPolyline
 90
        5
 70
     0
 43
0.0
 10
31627.94386689
 20
7379.86528958
 10
31532.94386689
 20
7379.865971699999
 10
31532.94386689
 20
7424.8659717
 10
31627.94386689
 20
7424.865289579999
 10
31627.94386689
 20
7379.86528958
  0
LWPOLYLINE
  5
118
330
5D
100
AcDbEntity
  8
Ech.1_5
  6
Continuous
 62
     7
370
    -3
100
AcDbPolyline
 90
        5
 70
     0
 43
0.0
 10
31577.94386689
 20
7360.81508899
 10
31577.94386689
 20
7322.815088989999
 10
31938.22270927
 20
7322.815088989999
 10
31938.22270927
 20
7360.81508899
 10
31577.94386689
 20
7360.81508899
  0
LWPOLYLINE
  5
119
330
5D
100
AcDbEntity
  8
Ech.1_5
  6
Continuous
 62
     7
370
    -3
100
AcDbPolyline
 90
        5
 70
     0
 43
0.0
 10
31098.42396632
 20
7360.81508899
 10
31098.42396632
 20
7322.815088989999
 10
31467.94386689
 20
7322.815088989999
 10
31467.94386689
 20
7360.81508899
 10
31098.42396632
 20
7360.81508899
  0
LWPOLYLINE
  5
11A
330
5D
100
AcDbEntity
  8
Ech.1_5
  6
Continuous
 62
     7
370
    -3
100
AcDbPolyline
 90
        5
 70
     0
 43
0.0
 10
31612.94386161
 20
7075.814406870001
 10
31432.94386161
 20
7075.815088989999
 10
31432.94386161
 20
7120.815088989999
 10
31612.94386161
 20
7120.814406870001
 10
31612.94386161
 20
7075.814406870001
  0
LWPOLYLINE
  5
11B
330
5D
100
AcDbEntity
  8
Ech.1_5
  6
Continuous
 62
     7
370
    -3
100
AcDbPolyline
 90
        5
 70
     0
 43
0.0
 10
31577.94386689
 20
7158.81508899
 10
31577.94386689
 20
7120.815088989999
 10
31938.22270927
 20
7120.815088989999
 10
31938.22270927
 20
7158.81508899
 10
31577.94386689
 20
7158.81508899
  0
LWPOLYLINE
  5
11C
330
5D
100
AcDbEntity
  8
Ech.1_5
  6
Continuous
 62
     7
370
    -3
100
AcDbPolyline
 90
        5
 70
     0
 43
0.0
 10
31098.42396632
 20
7158.81508899
 10
31098.42396632
 20
7120.815088989999
 10
31467.94386689
 20
7120.815088989999
 10
31467.94386689
 20
7158.81508899
 10
31098.42396632
 20
7158.81508899
  0
LWPOLYLINE
  5
11D
330
5D
100
AcDbEntity
  8
Ech.1_5
  6
Continuous
 62
     7
370
    -3
100
AcDbPolyline
 90
        5
 70
     0
 43
0.0
 10
31938.22283309
 20
7158.81508899
 10
31938.22283309
 20
7167.81508899
 10
31577.94386689
 20
7167.81508899
 10
31577.94386689
 20
7158.81508899
 10
31938.22283309
 20
7158.81508899
  0
LWPOLYLINE
  5
11E
330
5D
100
AcDbEntity
  8
Ech.1_5
  6
Continuous
 62
     7
370
    -3
100
AcDbPolyline
 90
        5
 70
     0
 43
0.0
 10
31467.94386689
 20
7158.81508899
 10
31467.94386689
 20
7167.81508899
 10
31098.42401066
 20
7167.81508899
 10
31098.42401066
 20
7158.81508899
 10
31467.94386689
 20
7158.81508899
  0
LWPOLYLINE
  5
11F
330
5D
100
AcDbEntity
  8
Ech.1_5
  6
Continuous
 62
     7
370
    -3
100
AcDbPolyline
 90
        9
 70
     0
 43
0.0
 10
31956.20118469
 20
7239.05043228
 10
31938.22283309
 20
7255.536786360001
 10
31938.22277094
 20
7307.81508899
 10
31577.94386689
 20
7307.81508899
 10
31577.94386689
 20
7167.81508899
 10
31938.22283309
 20
7167.81508899
 10
31938.22283309
 20
7236.67486914
 10
31920.24548468
 20
7253.16037229
 10
31956.20118469
 20
7239.05043228
  0
LWPOLYLINE
  5
120
330
5D
100
AcDbEntity
  8
Ech.1_5
  6
Continuous
 62
     7
370
    -3
100
AcDbPolyline
 90
        9
 70
     0
 43
0.0
 10
31080.44666226
 20
7223.584289369999
 10
31098.42401066
 20
7207.09878621
 10
31098.42401066
 20
7167.81508899
 10
31467.94386689
 20
7167.81508899
 10
31467.94386689
 20
7307.81508899
 10
31098.42392378
 20
7307.81508899
 10
31098.42401066
 20
7225.960703430001
 10
31116.40236227
 20
7209.47434935
 10
31080.44666226
 20
7223.584289369999
  0
LWPOLYLINE
  5
121
330
5D
100
AcDbEntity
  8
Ech.1_5
  6
Continuous
 62
     7
370
    -3
100
AcDbPolyline
 90
        5
 70
     0
 43
0.0
 10
31512.94386689
 20
7130.97829778
 10
31532.94386689
 20
7130.97829778
 10
31532.94386689
 20
7469.865971699999
 10
31512.94386689
 20
7469.865971699999
 10
31512.94386689
 20
7130.97829778
  0
LWPOLYLINE
  5
122
330
5D
100
AcDbEntity
  8
Ech.1_5
  6
Continuous
 62
     7
370
     5
100
AcDbPolyline
 90
        5
 70
     0
 43
0.0
 10
31165.24700309
 20
7819.820399530001
 10
31215.24700309
 20
7819.820399530001
 10
31215.24700309
 20
7827.235537059999
 10
31165.24700309
 20
7827.235537059999
 10
31165.24700309
 20
7819.820399530001
  0
TEXT
  5
123
330
5D
100
AcDbEntity
  8
Ech.1_5
 62
     7
100
AcDbText
 10
31176.54129572
 20
7836.82154014
 30
0.0
 40
8.000000119999999
  1
Echelle en mm
  7
ARIAL
100
AcDbText
  0
TEXT
  5
124
330
5D
100
AcDbEntity
  8
Ech.1_5
 62
     7
100
AcDbText
 10
31162.56071097
 20
7808.61170461
 30
0.0
 40
8.000000119999999
  1
0
  7
ARIAL
100
AcDbText
  0
TEXT
  5
125
330
5D
100
AcDbEntity
  8
Ech.1_5
 62
     7
100
AcDbText
 10
31249.15776886
 20
7808.61170461
 30
0.0
 40
8.000000119999999
  1
100
  7
ARIAL
100
AcDbText
  0
TEXT
  5
126
330
5D
100
AcDbEntity
  8
Ech.1_5
 62
     7
100
AcDbText
 10
31210.41733729
 20
7808.61170461
 30
0.0
 40
8.000000119999999
  1
50
  7
ARIAL
100
AcDbText
  0
ENDSEC
  0
SECTION
  2
OBJECTS
  0
DICTIONARY
  5
1
330
0
100
AcDbDictionary
281
     1
  3
ACAD_COLOR
350
15E
  3
ACAD_GROUP
350
2
  3
ACAD_LAYOUT
350
176
  3
ACAD_MATERIAL
350
12C
  3
ACAD_MLEADERSTYLE
350
173
  3
ACAD_MLINESTYLE
350
3
  3
ACAD_PLOTSETTINGS
350
177
  3
ACAD_PLOTSTYLENAME
350
12A
  3
ACAD_SCALELIST
350
161
  3
ACAD_TABLESTYLE
350
15F
  3
ACAD_VISUALSTYLE
350
145
  3
ACDB_RECOMPOSE_DATA
350
1C9
  3
AcDbVariableDictionary
350
1BF
  3
DWGPROPS
350
1CA
  0
DICTIONARY
  5
183
330
37
100
AcDbDictionary
280
     1
281
     1
  3
ADSK_XREC_LAYER_RECONCILED
360
184
  0
DICTIONARY
  5
185
330
38
100
AcDbDictionary
280
     1
281
     1
  3
ADSK_XREC_LAYER_RECONCILED
360
186
  0
DICTIONARY
  5
187
330
39
100
AcDbDictionary
280
     1
281
     1
  3
ADSK_XREC_LAYER_RECONCILED
360
188
  0
DICTIONARY
  5
189
330
3A
100
AcDbDictionary
280
     1
281
     1
  3
ADSK_XREC_LAYER_RECONCILED
360
18A
  0
DICTIONARY
  5
18B
330
3B
100
AcDbDictionary
280
     1
281
     1
  3
ADSK_XREC_LAYER_RECONCILED
360
18C
  0
DICTIONARY
  5
18D
330
3C
100
AcDbDictionary
280
     1
281
     1
  3
ADSK_XREC_LAYER_RECONCILED
360
18E
  0
DICTIONARY
  5
18F
330
3D
100
AcDbDictionary
280
     1
281
     1
  3
ADSK_XREC_LAYER_RECONCILED
360
190
  0
DICTIONARY
  5
191
330
3E
100
AcDbDictionary
280
     1
281
     1
  3
ADSK_XREC_LAYER_RECONCILED
360
192
  0
DICTIONARY
  5
193
330
3F
100
AcDbDictionary
280
     1
281
     1
  3
ADSK_XREC_LAYER_RECONCILED
360
194
  0
DICTIONARY
  5
195
330
40
100
AcDbDictionary
280
     1
281
     1
  3
ADSK_XREC_LAYER_RECONCILED
360
196
  0
DICTIONARY
  5
197
330
41
100
AcDbDictionary
280
     1
281
     1
  3
ADSK_XREC_LAYER_RECONCILED
360
198
  0
DICTIONARY
  5
199
330
42
100
AcDbDictionary
280
     1
281
     1
  3
ADSK_XREC_LAYER_RECONCILED
360
19A
  0
DICTIONARY
  5
19B
330
43
100
AcDbDictionary
280
     1
281
     1
  3
ADSK_XREC_LAYER_RECONCILED
360
19C
  0
DICTIONARY
  5
19D
330
44
100
AcDbDictionary
280
     1
281
     1
  3
ADSK_XREC_LAYER_RECONCILED
360
19E
  0
DICTIONARY
  5
19F
330
45
100
AcDbDictionary
280
     1
281
     1
  3
ADSK_XREC_LAYER_RECONCILED
360
1A0
  0
DICTIONARY
  5
1A1
330
46
100
AcDbDictionary
280
     1
281
     1
  3
ADSK_XREC_LAYER_RECONCILED
360
1A2
  0
DICTIONARY
  5
1A3
330
47
100
AcDbDictionary
280
     1
281
     1
  3
ADSK_XREC_LAYER_RECONCILED
360
1A4
  0
DICTIONARY
  5
1A5
330
48
100
AcDbDictionary
280
     1
281
     1
  3
ADSK_XREC_LAYER_RECONCILED
360
1A6
  0
DICTIONARY
  5
1A7
330
49
100
AcDbDictionary
280
     1
281
     1
  3
ADSK_XREC_LAYER_RECONCILED
360
1A8
  0
DICTIONARY
  5
1A9
330
4A
100
AcDbDictionary
280
     1
281
     1
  3
ADSK_XREC_LAYER_RECONCILED
360
1AA
  0
DICTIONARY
  5
1AB
330
4B
100
AcDbDictionary
280
     1
281
     1
  3
ADSK_XREC_LAYER_RECONCILED
360
1AC
  0
DICTIONARY
  5
1AD
330
4D
100
AcDbDictionary
280
     1
281
     1
  3
ADSK_XREC_LAYER_RECONCILED
360
1AE
  0
DICTIONARY
  5
1AF
330
4E
100
AcDbDictionary
280
     1
281
     1
  3
ADSK_XREC_LAYER_RECONCILED
360
1B0
  0
DICTIONARY
  5
1B1
330
50
100
AcDbDictionary
280
     1
281
     1
  3
ADSK_XREC_LAYER_RECONCILED
360
1B2
  0
DICTIONARY
  5
1B3
330
51
100
AcDbDictionary
280
     1
281
     1
  3
ADSK_XREC_LAYER_RECONCILED
360
1B4
  0
DICTIONARY
  5
1B5
330
52
100
AcDbDictionary
280
     1
281
     1
  3
ADSK_XREC_LAYER_RECONCILED
360
1B6
  0
DICTIONARY
  5
1B7
330
53
100
AcDbDictionary
280
     1
281
     1
  3
ADSK_XREC_LAYER_RECONCILED
360
1B8
  0
DICTIONARY
  5
1B9
330
54
100
AcDbDictionary
280
     1
281
     1
  3
ADSK_XREC_LAYER_RECONCILED
360
1BA
  0
DICTIONARY
  5
1BB
330
55
100
AcDbDictionary
280
     1
281
     1
  3
ADSK_XREC_LAYER_RECONCILED
360
1BC
  0
DICTIONARY
  5
1BD
330
56
100
AcDbDictionary
280
     1
281
     1
  3
ADSK_XREC_LAYER_RECONCILED
360
1BE
  0
DICTIONARY
  5
15E
102
{ACAD_REACTORS
330
1
102
}
330
1
100
AcDbDictionary
281
     1
  0
DICTIONARY
  5
2
330
1
100
AcDbDictionary
281
     1
  0
DICTIONARY
  5
176
102
{ACAD_REACTORS
330
1
102
}
330
1
100
AcDbDictionary
281
     1
  3
Model
350
178
  3
Présentation1
350
179
  0
DICTIONARY
  5
12C
102
{ACAD_REACTORS
330
1
102
}
330
1
100
AcDbDictionary
281
     1
  3
ByBlock
350
135
  3
ByLayer
350
12D
  3
Global
350
13D
  0
DICTIONARY
  5
173
102
{ACAD_REACTORS
330
1
102
}
330
1
100
AcDbDictionary
281
     1
  3
Standard
350
174
  0
DICTIONARY
  5
3
330
1
100
AcDbDictionary
281
     1
  3
STANDARD
350
4
  0
DICTIONARY
  5
177
102
{ACAD_REACTORS
330
1
102
}
330
1
100
AcDbDictionary
281
     1
  0
ACDBDICTIONARYWDFLT
  5
12A
102
{ACAD_REACTORS
330
1
102
}
330
1
100
AcDbDictionary
281
     1
  3
Normal
350
12B
100
AcDbDictionaryWithDefault
340
12B
  0
DICTIONARY
  5
161
102
{ACAD_REACTORS
330
1
102
}
330
1
100
AcDbDictionary
281
     1
  3
A0
350
162
  3
A1
350
163
  3
A2
350
164
  3
A3
350
165
  3
A4
350
166
  3
A5
350
167
  3
A6
350
168
  3
A7
350
169
  3
A8
350
16A
  3
A9
350
16B
  3
B0
350
16C
  3
B1
350
16D
  3
B2
350
16E
  3
B3
350
16F
  3
B4
350
170
  3
B5
350
171
  3
B6
350
172
  0
DICTIONARY
  5
15F
102
{ACAD_REACTORS
330
1
102
}
330
1
100
AcDbDictionary
281
     1
  3
Standard
350
160
  0
DICTIONARY
  5
145
102
{ACAD_REACTORS
330
1
102
}
330
1
100
AcDbDictionary
281
     1
  3
2dWireframe
350
14B
  3
Basic
350
14A
  3
Brighten
350
151
  3
ColorChange
350
155
  3
Conceptual
350
14E
  3
Dim
350
150
  3
EdgeColorOff
350
15D
  3
Facepattern
350
154
  3
Flat
350
146
  3
FlatWithEdges
350
147
  3
Gouraud
350
148
  3
GouraudWithEdges
350
149
  3
Hidden
350
14D
  3
JitterOff
350
15B
  3
Linepattern
350
153
  3
OverhangOff
350
15C
  3
Realistic
350
14F
  3
Shaded
350
15A
  3
Shaded with edges
350
159
  3
Shades of Gray
350
156
  3
Sketchy
350
157
  3
Thicken
350
152
  3
Wireframe
350
14C
  3
X-Ray
350
158
  0
XRECORD
  5
1C9
102
{ACAD_REACTORS
330
1
102
}
330
1
100
AcDbXrecord
280
     1
 90
        1
330
160
  0
DICTIONARY
  5
1BF
102
{ACAD_REACTORS
330
1
102
}
330
1
100
AcDbDictionary
281
     1
  3
CANNOSCALE
350
1C2
  3
CMLEADERSTYLE
350
1C1
  3
CTABLESTYLE
350
1C0
  3
DIMASSOC
350
1C5
  3
INDEXCTL
350
1C4
  3
SORTENTS
350
1C3
  3
XCLIPFRAME
350
1C6
  0
XRECORD
  5
1CA
102
{ACAD_REACTORS
330
1
102
}
330
1
100
AcDbXrecord
280
     1
  1
DWGPROPS COOKIE
  2

  3

  4

  6

  7

  8
cazeaux
  9

300
=
301
=
302
=
303
=
304
=
305
=
306
=
307
=
308
=
309
=
 40
0.0067524074074074
 41
2456443.0
 42
2456458.467493426
  1

 90
        0
  0
XRECORD
  5
184
102
{ACAD_REACTORS
330
183
102
}
330
183
100
AcDbXrecord
280
     1
290
     1
  0
XRECORD
  5
186
102
{ACAD_REACTORS
330
185
102
}
330
185
100
AcDbXrecord
280
     1
290
     1
  0
XRECORD
  5
188
102
{ACAD_REACTORS
330
187
102
}
330
187
100
AcDbXrecord
280
     1
290
     1
  0
XRECORD
  5
18A
102
{ACAD_REACTORS
330
189
102
}
330
189
100
AcDbXrecord
280
     1
290
     1
  0
XRECORD
  5
18C
102
{ACAD_REACTORS
330
18B
102
}
330
18B
100
AcDbXrecord
280
     1
290
     1
  0
XRECORD
  5
18E
102
{ACAD_REACTORS
330
18D
102
}
330
18D
100
AcDbXrecord
280
     1
290
     1
  0
XRECORD
  5
190
102
{ACAD_REACTORS
330
18F
102
}
330
18F
100
AcDbXrecord
280
     1
290
     1
  0
XRECORD
  5
192
102
{ACAD_REACTORS
330
191
102
}
330
191
100
AcDbXrecord
280
     1
290
     1
  0
XRECORD
  5
194
102
{ACAD_REACTORS
330
193
102
}
330
193
100
AcDbXrecord
280
     1
290
     1
  0
XRECORD
  5
196
102
{ACAD_REACTORS
330
195
102
}
330
195
100
AcDbXrecord
280
     1
290
     1
  0
XRECORD
  5
198
102
{ACAD_REACTORS
330
197
102
}
330
197
100
AcDbXrecord
280
     1
290
     1
  0
XRECORD
  5
19A
102
{ACAD_REACTORS
330
199
102
}
330
199
100
AcDbXrecord
280
     1
290
     1
  0
XRECORD
  5
19C
102
{ACAD_REACTORS
330
19B
102
}
330
19B
100
AcDbXrecord
280
     1
290
     1
  0
XRECORD
  5
19E
102
{ACAD_REACTORS
330
19D
102
}
330
19D
100
AcDbXrecord
280
     1
290
     1
  0
XRECORD
  5
1A0
102
{ACAD_REACTORS
330
19F
102
}
330
19F
100
AcDbXrecord
280
     1
290
     1
  0
XRECORD
  5
1A2
102
{ACAD_REACTORS
330
1A1
102
}
330
1A1
100
AcDbXrecord
280
     1
290
     1
  0
XRECORD
  5
1A4
102
{ACAD_REACTORS
330
1A3
102
}
330
1A3
100
AcDbXrecord
280
     1
290
     1
  0
XRECORD
  5
1A6
102
{ACAD_REACTORS
330
1A5
102
}
330
1A5
100
AcDbXrecord
280
     1
290
     1
  0
XRECORD
  5
1A8
102
{ACAD_REACTORS
330
1A7
102
}
330
1A7
100
AcDbXrecord
280
     1
290
     1
  0
XRECORD
  5
1AA
102
{ACAD_REACTORS
330
1A9
102
}
330
1A9
100
AcDbXrecord
280
     1
290
     1
  0
XRECORD
  5
1AC
102
{ACAD_REACTORS
330
1AB
102
}
330
1AB
100
AcDbXrecord
280
     1
290
     1
  0
XRECORD
  5
1AE
102
{ACAD_REACTORS
330
1AD
102
}
330
1AD
100
AcDbXrecord
280
     1
290
     1
  0
XRECORD
  5
1B0
102
{ACAD_REACTORS
330
1AF
102
}
330
1AF
100
AcDbXrecord
280
     1
290
     1
  0
XRECORD
  5
1B2
102
{ACAD_REACTORS
330
1B1
102
}
330
1B1
100
AcDbXrecord
280
     1
290
     1
  0
XRECORD
  5
1B4
102
{ACAD_REACTORS
330
1B3
102
}
330
1B3
100
AcDbXrecord
280
     1
290
     1
  0
XRECORD
  5
1B6
102
{ACAD_REACTORS
330
1B5
102
}
330
1B5
100
AcDbXrecord
280
     1
290
     1
  0
XRECORD
  5
1B8
102
{ACAD_REACTORS
330
1B7
102
}
330
1B7
100
AcDbXrecord
280
     1
290
     1
  0
XRECORD
  5
1BA
102
{ACAD_REACTORS
330
1B9
102
}
330
1B9
100
AcDbXrecord
280
     1
290
     1
  0
XRECORD
  5
1BC
102
{ACAD_REACTORS
330
1BB
102
}
330
1BB
100
AcDbXrecord
280
     1
290
     1
  0
XRECORD
  5
1BE
102
{ACAD_REACTORS
330
1BD
102
}
330
1BD
100
AcDbXrecord
280
     1
290
     1
  0
LAYOUT
  5
178
102
{ACAD_XDICTIONARY
360
200
102
}
102
{ACAD_REACTORS
330
176
102
}
330
176
100
AcDbPlotSettings
  1

  2
Aucun(e)
  4

  6

 40
0.0
 41
0.0
 42
0.0
 43
0.0
 44
0.0
 45
0.0
 46
0.0
 47
0.0
 48
0.0
 49
0.0
140
0.0
141
0.0
142
1.0
143
1.0
 70
  1712
 72
     0
 73
     0
 74
     0
  7
acad.ctb
 75
     0
147
1.0
148
0.0
149
0.0
100
AcDbLayout
  1
Model
 70
     1
 71
     0
 10
0.0
 20
0.0
 11
12.0
 21
9.0
 12
0.0
 22
0.0
 32
0.0
 14
0.0
 24
0.0
 34
0.0
 15
0.0
 25
0.0
 35
0.0
146
0.0
 13
0.0
 23
0.0
 33
0.0
 16
1.0
 26
0.0
 36
0.0
 17
0.0
 27
1.0
 37
0.0
 76
     0
330
5D
331
17C
  0
LAYOUT
  5
179
102
{ACAD_XDICTIONARY
360
202
102
}
102
{ACAD_REACTORS
330
176
102
}
330
176
100
AcDbPlotSettings
  1

  2
Aucun(e)
  4

  6

 40
0.0
 41
0.0
 42
0.0
 43
0.0
 44
0.0
 45
0.0
 46
0.0
 47
0.0
 48
0.0
 49
0.0
140
0.0
141
0.0
142
1.0
143
1.0
 70
   688
 72
     0
 73
     0
 74
     5
  7
acad.ctb
 75
    16
147
1.0
148
0.0
149
0.0
100
AcDbLayout
  1
Présentation1
 70
     1
 71
     1
 10
0.0
 20
0.0
 11
12.0
 21
9.0
 12
0.0
 22
0.0
 32
0.0
 14
1.000000000000000E+20
 24
1.000000000000000E+20
 34
1.000000000000000E+20
 15
-1.000000000000000E+20
 25
-1.000000000000000E+20
 35
-1.000000000000000E+20
146
0.0
 13
0.0
 23
0.0
 33
0.0
 16
1.0
 26
0.0
 36
0.0
 17
0.0
 27
1.0
 37
0.0
 76
     0
330
5E
  0
MATERIAL
  5
135
102
{ACAD_XDICTIONARY
360
136
102
}
102
{ACAD_REACTORS
330
12C
102
}
330
12C
100
AcDbMaterial
  1
ByBlock
 72
     0
 43
0.0208333333333333
 43
0.0
 43
0.0
 43
0.0
 43
0.0
 43
0.0208333333333333
 43
0.0
 43
0.0
 43
0.0
 43
0.0
 43
1.0
 43
0.0
 43
0.0
 43
0.0
 43
0.0
 43
1.0
 77
     0
 47
0.0208333333333333
 47
0.0
 47
0.0
 47
0.0
 47
0.0
 47
0.0208333333333333
 47
0.0
 47
0.0
 47
0.0
 47
0.0
 47
1.0
 47
0.0
 47
0.0
 47
0.0
 47
0.0
 47
1.0
171
     0
 49
0.0208333333333333
 49
0.0
 49
0.0
 49
0.0
 49
0.0
 49
0.0208333333333333
 49
0.0
 49
0.0
 49
0.0
 49
0.0
 49
1.0
 49
0.0
 49
0.0
 49
0.0
 49
0.0
 49
1.0
175
     0
142
0.0208333333333333
142
0.0
142
0.0
142
0.0
142
0.0
142
0.0208333333333333
142
0.0
142
0.0
142
0.0
142
0.0
142
1.0
142
0.0
142
0.0
142
0.0
142
0.0
142
1.0
179
     0
144
0.0208333333333333
144
0.0
144
0.0
144
0.0
144
0.0
144
0.0208333333333333
144
0.0
144
0.0
144
0.0
144
0.0
144
1.0
144
0.0
144
0.0
144
0.0
144
0.0
144
1.0
147
0.0208333333333333
147
0.0
147
0.0
147
0.0
147
0.0
147
0.0208333333333333
147
0.0
147
0.0
147
0.0
147
0.0
147
1.0
147
0.0
147
0.0
147
0.0
147
0.0
147
1.0
  0
MATERIAL
  5
12D
102
{ACAD_XDICTIONARY
360
12E
102
}
102
{ACAD_REACTORS
330
12C
102
}
330
12C
100
AcDbMaterial
  1
ByLayer
 72
     0
 43
0.0208333333333333
 43
0.0
 43
0.0
 43
0.0
 43
0.0
 43
0.0208333333333333
 43
0.0
 43
0.0
 43
0.0
 43
0.0
 43
1.0
 43
0.0
 43
0.0
 43
0.0
 43
0.0
 43
1.0
 77
     0
 47
0.0208333333333333
 47
0.0
 47
0.0
 47
0.0
 47
0.0
 47
0.0208333333333333
 47
0.0
 47
0.0
 47
0.0
 47
0.0
 47
1.0
 47
0.0
 47
0.0
 47
0.0
 47
0.0
 47
1.0
171
     0
 49
0.0208333333333333
 49
0.0
 49
0.0
 49
0.0
 49
0.0
 49
0.0208333333333333
 49
0.0
 49
0.0
 49
0.0
 49
0.0
 49
1.0
 49
0.0
 49
0.0
 49
0.0
 49
0.0
 49
1.0
175
     0
142
0.0208333333333333
142
0.0
142
0.0
142
0.0
142
0.0
142
0.0208333333333333
142
0.0
142
0.0
142
0.0
142
0.0
142
1.0
142
0.0
142
0.0
142
0.0
142
0.0
142
1.0
179
     0
144
0.0208333333333333
144
0.0
144
0.0
144
0.0
144
0.0
144
0.0208333333333333
144
0.0
144
0.0
144
0.0
144
0.0
144
1.0
144
0.0
144
0.0
144
0.0
144
0.0
144
1.0
147
0.0208333333333333
147
0.0
147
0.0
147
0.0
147
0.0
147
0.0208333333333333
147
0.0
147
0.0
147
0.0
147
0.0
147
1.0
147
0.0
147
0.0
147
0.0
147
0.0
147
1.0
  0
MATERIAL
  5
13D
102
{ACAD_XDICTIONARY
360
13E
102
}
102
{ACAD_REACTORS
330
12C
102
}
330
12C
100
AcDbMaterial
  1
Global
 72
     0
 43
0.0208333333333333
 43
0.0
 43
0.0
 43
0.0
 43
0.0
 43
0.0208333333333333
 43
0.0
 43
0.0
 43
0.0
 43
0.0
 43
1.0
 43
0.0
 43
0.0
 43
0.0
 43
0.0
 43
1.0
 77
     0
 47
0.0208333333333333
 47
0.0
 47
0.0
 47
0.0
 47
0.0
 47
0.0208333333333333
 47
0.0
 47
0.0
 47
0.0
 47
0.0
 47
1.0
 47
0.0
 47
0.0
 47
0.0
 47
0.0
 47
1.0
171
     0
 49
0.0208333333333333
 49
0.0
 49
0.0
 49
0.0
 49
0.0
 49
0.0208333333333333
 49
0.0
 49
0.0
 49
0.0
 49
0.0
 49
1.0
 49
0.0
 49
0.0
 49
0.0
 49
0.0
 49
1.0
175
     0
142
0.0208333333333333
142
0.0
142
0.0
142
0.0
142
0.0
142
0.0208333333333333
142
0.0
142
0.0
142
0.0
142
0.0
142
1.0
142
0.0
142
0.0
142
0.0
142
0.0
142
1.0
179
     0
144
0.0208333333333333
144
0.0
144
0.0
144
0.0
144
0.0
144
0.0208333333333333
144
0.0
144
0.0
144
0.0
144
0.0
144
1.0
144
0.0
144
0.0
144
0.0
144
0.0
144
1.0
147
0.0208333333333333
147
0.0
147
0.0
147
0.0
147
0.0
147
0.0208333333333333
147
0.0
147
0.0
147
0.0
147
0.0
147
1.0
147
0.0
147
0.0
147
0.0
147
0.0
147
1.0
  0
MLEADERSTYLE
  5
174
102
{ACAD_REACTORS
330
173
102
}
330
173
100
AcDbMLeaderStyle
170
     2
171
     1
172
     0
 90
        2
 40
0.0
 41
0.0
173
     1
 91
-1056964608
340
29
 92
       -2
290
     1
 42
2.0
291
     1
 43
0.36
  3
Standard
 44
4.0
300

342
24
174
     1
178
     6
175
     1
176
     0
 93
-1056964608
 45
4.0
292
     0
297
     0
 46
4.0
 94
-1056964608
 47
1.0
 49
1.0
140
1.0
293
     1
141
0.0
294
     1
177
     0
142
1.0
295
     0
296
     0
143
0.125
1001
ACAD_MLEADERVER
1070
     2
  0
MLINESTYLE
  5
4
330
3
100
AcDbMlineStyle
  2
STANDARD
 70
     0
  3

 62
     0
 51
90.0
 52
90.0
 71
     2
 49
0.5
 62
   256
  6
BYLAYER
 49
-0.5
 62
   256
  6
BYLAYER
  0
ACDBPLACEHOLDER
  5
12B
102
{ACAD_REACTORS
330
12A
102
}
330
12A
  0
SCALE
  5
162
102
{ACAD_REACTORS
330
161
102
}
330
161
100
AcDbScale
 70
     0
300
1:1
140
1.0
141
1.0
290
     1
  0
SCALE
  5
163
102
{ACAD_REACTORS
330
161
102
}
330
161
100
AcDbScale
 70
     0
300
1:2
140
1.0
141
2.0
290
     0
  0
SCALE
  5
164
102
{ACAD_REACTORS
330
161
102
}
330
161
100
AcDbScale
 70
     0
300
1:4
140
1.0
141
4.0
290
     0
  0
SCALE
  5
165
102
{ACAD_REACTORS
330
161
102
}
330
161
100
AcDbScale
 70
     0
300
1:5
140
1.0
141
5.0
290
     0
  0
SCALE
  5
166
102
{ACAD_REACTORS
330
161
102
}
330
161
100
AcDbScale
 70
     0
300
1:8
140
1.0
141
8.0
290
     0
  0
SCALE
  5
167
102
{ACAD_REACTORS
330
161
102
}
330
161
100
AcDbScale
 70
     0
300
1:10
140
1.0
141
10.0
290
     0
  0
SCALE
  5
168
102
{ACAD_REACTORS
330
161
102
}
330
161
100
AcDbScale
 70
     0
300
1:16
140
1.0
141
16.0
290
     0
  0
SCALE
  5
169
102
{ACAD_REACTORS
330
161
102
}
330
161
100
AcDbScale
 70
     0
300
1:20
140
1.0
141
20.0
290
     0
  0
SCALE
  5
16A
102
{ACAD_REACTORS
330
161
102
}
330
161
100
AcDbScale
 70
     0
300
1:30
140
1.0
141
30.0
290
     0
  0
SCALE
  5
16B
102
{ACAD_REACTORS
330
161
102
}
330
161
100
AcDbScale
 70
     0
300
1:40
140
1.0
141
40.0
290
     0
  0
SCALE
  5
16C
102
{ACAD_REACTORS
330
161
102
}
330
161
100
AcDbScale
 70
     0
300
1:50
140
1.0
141
50.0
290
     0
  0
SCALE
  5
16D
102
{ACAD_REACTORS
330
161
102
}
330
161
100
AcDbScale
 70
     0
300
1:100
140
1.0
141
100.0
290
     0
  0
SCALE
  5
16E
102
{ACAD_REACTORS
330
161
102
}
330
161
100
AcDbScale
 70
     0
300
2:1
140
2.0
141
1.0
290
     0
  0
SCALE
  5
16F
102
{ACAD_REACTORS
330
161
102
}
330
161
100
AcDbScale
 70
     0
300
4:1
140
4.0
141
1.0
290
     0
  0
SCALE
  5
170
102
{ACAD_REACTORS
330
161
102
}
330
161
100
AcDbScale
 70
     0
300
8:1
140
8.0
141
1.0
290
     0
  0
SCALE
  5
171
102
{ACAD_REACTORS
330
161
102
}
330
161
100
AcDbScale
 70
     0
300
10:1
140
10.0
141
1.0
290
     0
  0
SCALE
  5
172
102
{ACAD_REACTORS
330
161
102
}
330
161
100
AcDbScale
 70
     0
300
100:1
140
100.0
141
1.0
290
     0
  0
TABLESTYLE
  5
160
102
{ACAD_XDICTIONARY
360
1C7
102
}
102
{ACAD_REACTORS
330
15F
102
}
330
15F
100
AcDbTableStyle
  3
Standard
 70
     0
 71
     0
 40
1.5
 41
1.5
280
     0
281
     0
  7
STANDARD
140
4.5
170
     2
 62
     0
 63
     7
283
     0
274
    -2
284
     1
 64
     0
275
    -2
285
     1
 65
     0
276
    -2
286
     1
 66
     0
277
    -2
287
     1
 67
     0
278
    -2
288
     1
 68
     0
279
    -2
289
     1
 69
     0
  7
STANDARD
140
6.0
170
     5
 62
     0
 63
     7
283
     0
274
    -2
284
     1
 64
     0
275
    -2
285
     1
 65
     0
276
    -2
286
     1
 66
     0
277
    -2
287
     1
 67
     0
278
    -2
288
     1
 68
     0
279
    -2
289
     1
 69
     0
  7
STANDARD
140
4.5
170
     5
 62
     0
 63
     7
283
     0
274
    -2
284
     1
 64
     0
275
    -2
285
     1
 65
     0
276
    -2
286
     1
 66
     0
277
    -2
287
     1
 67
     0
278
    -2
288
     1
 68
     0
279
    -2
289
     1
 69
     0
  0
VISUALSTYLE
  5
14B
102
{ACAD_XDICTIONARY
360
1D8
102
}
102
{ACAD_REACTORS
330
145
102
}
330
145
100
AcDbVisualStyle
  2
2dWireframe
 70
     4
 71
     0
 72
     2
 73
     0
 90
        0
 40
-0.6
 41
-30.0
 62
     5
 63
     7
 74
     1
 91
        4
 64
     7
 65
   257
 75
     1
175
     1
 42
1.0
 92
        0
 66
   257
 43
1.0
 76
     1
 77
     6
 78
     2
 67
     7
 79
     5
170
     0
171
     0
290
     0
174
     0
 93
        1
 44
0.0
173
     0
291
     0
 45
0.0
1001
ACAD
1000
AcDbSavedByObjectVersion
1070
     0
  0
VISUALSTYLE
  5
14A
102
{ACAD_XDICTIONARY
360
1D6
102
}
102
{ACAD_REACTORS
330
145
102
}
330
145
100
AcDbVisualStyle
  2
Basic
 70
     7
 71
     1
 72
     0
 73
     1
 90
        0
 40
-0.6
 41
-30.0
 62
     5
 63
     7
 74
     0
 91
        4
 64
     7
 65
   257
 75
     1
175
     1
 42
1.0
 92
        8
 66
     7
 43
1.0
 76
     1
 77
     6
 78
     2
 67
     7
 79
     5
170
     0
171
     0
290
     0
174
     0
 93
        1
 44
0.0
173
     0
291
     1
 45
0.0
1001
ACAD
1000
AcDbSavedByObjectVersion
1070
     0
  0
VISUALSTYLE
  5
151
102
{ACAD_XDICTIONARY
360
1E4
102
}
102
{ACAD_REACTORS
330
145
102
}
330
145
100
AcDbVisualStyle
  2
Brighten
 70
    12
 71
     2
 72
     2
 73
     0
 90
        0
 40
-0.6
 41
-30.0
 62
     5
 63
     7
 74
     1
 91
        4
 64
     7
 65
   257
 75
     1
175
     1
 42
1.0
 92
        8
 66
     7
 43
1.0
 76
     1
 77
     6
 78
     2
 67
     7
 79
     5
170
     0
171
     0
290
     0
174
     0
 93
        1
 44
50.0
173
     0
291
     1
 45
0.0
1001
ACAD
1000
AcDbSavedByObjectVersion
1070
     0
  0
VISUALSTYLE
  5
155
102
{ACAD_XDICTIONARY
360
1EC
102
}
102
{ACAD_REACTORS
330
145
102
}
330
145
100
AcDbVisualStyle
  2
ColorChange
 70
    16
 71
     2
 72
     2
 73
     3
 90
        0
 40
-0.6
 41
-30.0
 62
     5
 63
     8
 74
     1
 91
        4
 64
     7
 65
   257
 75
     1
175
     1
 42
1.0
 92
        8
 66
     8
 43
1.0
 76
     1
 77
     6
 78
     2
 67
     7
 79
     5
170
     0
171
     0
290
     0
174
     0
 93
        1
 44
0.0
173
     0
291
     1
 45
0.0
1001
ACAD
1000
AcDbSavedByObjectVersion
1070
     0
  0
VISUALSTYLE
  5
14E
102
{ACAD_XDICTIONARY
360
1DE
102
}
102
{ACAD_REACTORS
330
145
102
}
330
145
100
AcDbVisualStyle
  2
Conceptual
 70
     9
 71
     3
 72
     2
 73
     0
 90
        0
 40
-0.6
 41
-30.0
 62
     5
 63
     7
 74
     2
 91
        2
 64
     7
 65
   257
 75
     1
175
     1
 42
179.0
 92
        8
 66
     7
 43
1.0
 76
     1
 77
     6
 78
     2
 67
     7
 79
     3
170
     0
171
     0
290
     0
174
     0
 93
        1
 44
0.0
173
     0
291
     0
 45
0.0
1001
ACAD
1000
AcDbSavedByObjectVersion
1070
     0
  0
VISUALSTYLE
  5
150
102
{ACAD_XDICTIONARY
360
1E2
102
}
102
{ACAD_REACTORS
330
145
102
}
330
145
100
AcDbVisualStyle
  2
Dim
 70
    11
 71
     2
 72
     2
 73
     0
 90
        0
 40
-0.6
 41
-30.0
 62
     5
 63
     7
 74
     1
 91
        4
 64
     7
 65
   257
 75
     1
175
     1
 42
1.0
 92
        8
 66
     7
 43
1.0
 76
     1
 77
     6
 78
     2
 67
     7
 79
     5
170
     0
171
     0
290
     0
174
     0
 93
        1
 44
-50.0
173
     0
291
     1
 45
0.0
1001
ACAD
1000
AcDbSavedByObjectVersion
1070
     0
  0
VISUALSTYLE
  5
15D
102
{ACAD_XDICTIONARY
360
1FC
102
}
102
{ACAD_REACTORS
330
145
102
}
330
145
100
AcDbVisualStyle
  2
EdgeColorOff
 70
    22
 71
     2
 72
     2
 73
     0
 90
        0
 40
-0.6
 41
-30.0
 62
     5
 63
     7
 74
     1
 91
        4
 64
     7
 65
   257
 75
     1
175
     1
 42
1.0
 92
        8
 66
     7
 43
1.0
 76
     1
 77
     6
 78
     2
 67
     7
 79
     5
170
     0
171
     0
290
     0
174
     0
 93
        1
 44
0.0
173
     0
291
     1
 45
0.0
1001
ACAD
1000
AcDbSavedByObjectVersion
1070
     0
  0
VISUALSTYLE
  5
154
102
{ACAD_XDICTIONARY
360
1EA
102
}
102
{ACAD_REACTORS
330
145
102
}
330
145
100
AcDbVisualStyle
  2
Facepattern
 70
    15
 71
     2
 72
     2
 73
     0
 90
        0
 40
-0.6
 41
-30.0
 62
     5
 63
     7
 74
     1
 91
        4
 64
     7
 65
   257
 75
     1
175
     1
 42
1.0
 92
        8
 66
     7
 43
1.0
 76
     1
 77
     6
 78
     2
 67
     7
 79
     5
170
     0
171
     0
290
     0
174
     0
 93
        1
 44
0.0
173
     0
291
     1
 45
0.0
1001
ACAD
1000
AcDbSavedByObjectVersion
1070
     0
  0
VISUALSTYLE
  5
146
102
{ACAD_XDICTIONARY
360
1CE
102
}
102
{ACAD_REACTORS
330
145
102
}
330
145
100
AcDbVisualStyle
  2
Flat
 70
     0
 71
     2
 72
     1
 73
     1
 90
        2
 40
-0.6
 41
30.0
 62
     5
 63
     7
 74
     0
 91
        0
 64
     7
 65
   257
 75
     1
175
     1
 42
1.0
 92
        8
 66
     7
 43
1.0
 76
     1
 77
     6
 78
     2
 67
     7
 79
     5
170
     0
171
     0
290
     0
174
     0
 93
       13
 44
0.0
173
     0
291
     1
 45
0.0
1001
ACAD
1000
AcDbSavedByObjectVersion
1070
     0
  0
VISUALSTYLE
  5
147
102
{ACAD_XDICTIONARY
360
1D0
102
}
102
{ACAD_REACTORS
330
145
102
}
330
145
100
AcDbVisualStyle
  2
FlatWithEdges
 70
     1
 71
     2
 72
     1
 73
     1
 90
        2
 40
-0.6
 41
30.0
 62
     5
 63
     7
 74
     1
 91
        0
 64
     7
 65
   257
 75
     1
175
     1
 42
1.0
 92
        0
 66
   257
 43
1.0
 76
     1
 77
     6
 78
     2
 67
     7
 79
     5
170
     0
171
     0
290
     0
174
     0
 93
       13
 44
0.0
173
     0
291
     1
 45
0.0
1001
ACAD
1000
AcDbSavedByObjectVersion
1070
     0
  0
VISUALSTYLE
  5
148
102
{ACAD_XDICTIONARY
360
1D2
102
}
102
{ACAD_REACTORS
330
145
102
}
330
145
100
AcDbVisualStyle
  2
Gouraud
 70
     2
 71
     2
 72
     2
 73
     1
 90
        2
 40
-0.6
 41
30.0
 62
     5
 63
     7
 74
     0
 91
        0
 64
     7
 65
   257
 75
     1
175
     1
 42
1.0
 92
        0
 66
     7
 43
1.0
 76
     1
 77
     6
 78
     2
 67
     7
 79
     5
170
     0
171
     0
290
     0
174
     0
 93
       13
 44
0.0
173
     0
291
     1
 45
0.0
1001
ACAD
1000
AcDbSavedByObjectVersion
1070
     0
  0
VISUALSTYLE
  5
149
102
{ACAD_XDICTIONARY
360
1D4
102
}
102
{ACAD_REACTORS
330
145
102
}
330
145
100
AcDbVisualStyle
  2
GouraudWithEdges
 70
     3
 71
     2
 72
     2
 73
     1
 90
        2
 40
-0.6
 41
30.0
 62
     5
 63
     7
 74
     1
 91
        0
 64
     7
 65
   257
 75
     1
175
     1
 42
1.0
 92
        0
 66
   257
 43
1.0
 76
     1
 77
     6
 78
     2
 67
     7
 79
     5
170
     0
171
     0
290
     0
174
     0
 93
       13
 44
0.0
173
     0
291
     1
 45
0.0
1001
ACAD
1000
AcDbSavedByObjectVersion
1070
     0
  0
VISUALSTYLE
  5
14D
102
{ACAD_XDICTIONARY
360
1DC
102
}
102
{ACAD_REACTORS
330
145
102
}
330
145
100
AcDbVisualStyle
  2
Hidden
 70
     6
 71
     1
 72
     2
 73
     2
 90
        0
 40
-0.6
 41
-30.0
 62
     5
 63
     7
 74
     2
 91
        2
 64
     7
 65
   257
 75
     2
175
     1
 42
40.0
 92
        0
 66
   257
 43
1.0
 76
     1
 77
     6
 78
     2
 67
     7
 79
     3
170
     0
171
     0
290
     0
174
     0
 93
        1
 44
0.0
173
     0
291
     0
 45
0.0
1001
ACAD
1000
AcDbSavedByObjectVersion
1070
     0
  0
VISUALSTYLE
  5
15B
102
{ACAD_XDICTIONARY
360
1F8
102
}
102
{ACAD_REACTORS
330
145
102
}
330
145
100
AcDbVisualStyle
  2
JitterOff
 70
    20
 71
     2
 72
     2
 73
     0
 90
        0
 40
-0.6
 41
-30.0
 62
     5
 63
     7
 74
     1
 91
        4
 64
     7
 65
   257
 75
     1
175
     1
 42
1.0
 92
       10
 66
     7
 43
1.0
 76
     1
 77
     6
 78
     2
 67
     7
 79
     5
170
     0
171
     0
290
     0
174
     0
 93
        1
 44
0.0
173
     0
291
     1
 45
0.0
1001
ACAD
1000
AcDbSavedByObjectVersion
1070
     0
  0
VISUALSTYLE
  5
153
102
{ACAD_XDICTIONARY
360
1E8
102
}
102
{ACAD_REACTORS
330
145
102
}
330
145
100
AcDbVisualStyle
  2
Linepattern
 70
    14
 71
     2
 72
     2
 73
     0
 90
        0
 40
-0.6
 41
-30.0
 62
     5
 63
     7
 74
     1
 91
        4
 64
     7
 65
   257
 75
     7
175
     7
 42
1.0
 92
        8
 66
     7
 43
1.0
 76
     1
 77
     6
 78
     2
 67
     7
 79
     5
170
     0
171
     0
290
     0
174
     0
 93
        1
 44
0.0
173
     0
291
     1
 45
0.0
1001
ACAD
1000
AcDbSavedByObjectVersion
1070
     0
  0
VISUALSTYLE
  5
15C
102
{ACAD_XDICTIONARY
360
1FA
102
}
102
{ACAD_REACTORS
330
145
102
}
330
145
100
AcDbVisualStyle
  2
OverhangOff
 70
    21
 71
     2
 72
     2
 73
     0
 90
        0
 40
-0.6
 41
-30.0
 62
     5
 63
     7
 74
     1
 91
        4
 64
     7
 65
   257
 75
     1
175
     1
 42
1.0
 92
        9
 66
     7
 43
1.0
 76
     1
 77
     6
 78
     2
 67
     7
 79
     5
170
     0
171
     0
290
     0
174
     0
 93
        1
 44
0.0
173
     0
291
     1
 45
0.0
1001
ACAD
1000
AcDbSavedByObjectVersion
1070
     0
  0
VISUALSTYLE
  5
14F
102
{ACAD_XDICTIONARY
360
1E0
102
}
102
{ACAD_REACTORS
330
145
102
}
330
145
100
AcDbVisualStyle
  2
Realistic
 70
     8
 71
     2
 72
     3
 73
     0
 90
        2
 40
-0.6
 41
30.0
 62
     5
 63
     7
 74
     0
 91
        0
 64
     7
 65
   257
 75
     1
175
     1
 42
1.0
 92
        8
 66
   257
 43
1.0
 76
     1
 77
     6
 78
     2
 67
     7
 79
     3
170
     0
171
     0
290
     0
174
     0
 93
       13
 44
0.0
173
     0
291
     0
 45
0.0
1001
ACAD
1000
AcDbSavedByObjectVersion
1070
     0
  0
VISUALSTYLE
  5
15A
102
{ACAD_XDICTIONARY
360
1F6
102
}
102
{ACAD_REACTORS
330
145
102
}
330
145
100
AcDbVisualStyle
  2
Shaded
 70
    27
 71
     2
 72
     2
 73
     1
 90
        2
 40
-0.6
 41
30.0
 62
     5
 63
     7
 74
     0
 91
        4
 64
     7
 65
   257
 75
     1
175
     1
 42
1.0
 92
        8
 66
   257
 43
1.0
 76
     1
 77
     6
 78
     2
 67
     8
 79
     3
170
     0
171
     0
290
     0
174
     0
 93
        5
 44
0.0
173
     0
291
     0
 45
0.0
1001
ACAD
1000
AcDbSavedByObjectVersion
1070
     0
  0
VISUALSTYLE
  5
159
102
{ACAD_XDICTIONARY
360
1F4
102
}
102
{ACAD_REACTORS
330
145
102
}
330
145
100
AcDbVisualStyle
  2
Shaded with edges
 70
    26
 71
     2
 72
     2
 73
     1
 90
        2
 40
-0.6
 41
30.0
 62
     5
 63
     7
 74
     1
 91
       10
 64
     7
 65
   257
 75
     2
175
     1
 42
1.0
 92
        8
 66
   257
 43
1.0
 76
     1
 77
     6
 78
     2
 67
     7
 79
     3
170
     0
171
     0
290
     0
174
     0
 93
        5
 44
0.0
173
     0
291
     0
 45
0.0
1001
ACAD
1000
AcDbSavedByObjectVersion
1070
     0
  0
VISUALSTYLE
  5
156
102
{ACAD_XDICTIONARY
360
1EE
102
}
102
{ACAD_REACTORS
330
145
102
}
330
145
100
AcDbVisualStyle
  2
Shades of Gray
 70
    23
 71
     2
 72
     2
 73
     3
 90
        0
 40
-0.6
 41
-30.0
 62
     5
 63
     7
 74
     2
 91
        2
 64
     7
 65
     7
 75
     1
175
     1
 42
40.0
 92
        8
 66
     7
 43
1.0
 76
     1
 77
     6
 78
     2
 67
     7
 79
     3
170
     0
171
     0
290
     0
174
     0
 93
        1
 44
0.0
173
     0
291
     0
 45
0.0
1001
ACAD
1000
AcDbSavedByObjectVersion
1070
     0
  0
VISUALSTYLE
  5
157
102
{ACAD_XDICTIONARY
360
1F0
102
}
102
{ACAD_REACTORS
330
145
102
}
330
145
100
AcDbVisualStyle
  2
Sketchy
 70
    24
 71
     1
 72
     2
 73
     2
 90
        0
 40
-0.6
 41
-30.0
 62
     5
 63
     7
 74
     2
 91
        2
 64
     7
 65
     7
 75
     1
175
     1
 42
40.0
 92
       11
 66
     7
 43
1.0
 76
     1
 77
     6
 78
     2
 67
     7
 79
     6
170
     0
171
     0
290
     0
174
     0
 93
        1
 44
0.0
173
     0
291
     0
 45
0.0
1001
ACAD
1000
AcDbSavedByObjectVersion
1070
     0
  0
VISUALSTYLE
  5
152
102
{ACAD_XDICTIONARY
360
1E6
102
}
102
{ACAD_REACTORS
330
145
102
}
330
145
100
AcDbVisualStyle
  2
Thicken
 70
    13
 71
     2
 72
     2
 73
     0
 90
        0
 40
-0.6
 41
-30.0
 62
     5
 63
     7
 74
     1
 91
        4
 64
     7
 65
   257
 75
     1
175
     1
 42
1.0
 92
       12
 66
     7
 43
1.0
 76
     1
 77
     6
 78
     2
 67
     7
 79
     5
170
     0
171
     0
290
     0
174
     0
 93
        1
 44
0.0
173
     0
291
     1
 45
0.0
1001
ACAD
1000
AcDbSavedByObjectVersion
1070
     0
  0
VISUALSTYLE
  5
14C
102
{ACAD_XDICTIONARY
360
1DA
102
}
102
{ACAD_REACTORS
330
145
102
}
330
145
100
AcDbVisualStyle
  2
Wireframe
 70
     5
 71
     0
 72
     2
 73
     0
 90
        0
 40
-0.6
 41
-30.0
 62
     5
 63
     7
 74
     1
 91
        4
 64
     7
 65
   257
 75
     1
175
     1
 42
1.0
 92
        0
 66
   257
 43
1.0
 76
     1
 77
     6
 78
     2
 67
     7
 79
     3
170
     0
171
     0
290
     0
174
     0
 93
        1
 44
0.0
173
     0
291
     0
 45
0.0
1001
ACAD
1000
AcDbSavedByObjectVersion
1070
     0
  0
VISUALSTYLE
  5
158
102
{ACAD_XDICTIONARY
360
1F2
102
}
102
{ACAD_REACTORS
330
145
102
}
330
145
100
AcDbVisualStyle
  2
X-Ray
 70
    25
 71
     2
 72
     2
 73
     1
 90
        1
 40
0.5
 41
-30.0
 62
     5
 63
     7
 74
     1
 91
        0
 64
     7
 65
   257
 75
     1
175
     1
 42
1.0
 92
        8
 66
     7
 43
1.0
 76
     1
 77
     6
 78
     2
 67
     7
 79
     3
170
     0
171
     0
290
     0
174
     0
 93
       13
 44
0.0
173
     0
291
     0
 45
0.0
1001
ACAD
1000
AcDbSavedByObjectVersion
1070
     0
  0
DICTIONARYVAR
  5
1C2
102
{ACAD_REACTORS
330
1BF
102
}
330
1BF
100
DictionaryVariables
280
     0
  1
1:1
  0
DICTIONARYVAR
  5
1C1
102
{ACAD_REACTORS
330
1BF
102
}
330
1BF
100
DictionaryVariables
280
     0
  1
STANDARD
  0
DICTIONARYVAR
  5
1C0
102
{ACAD_REACTORS
330
1BF
102
}
330
1BF
100
DictionaryVariables
280
     0
  1
STANDARD
  0
DICTIONARYVAR
  5
1C5
102
{ACAD_REACTORS
330
1BF
102
}
330
1BF
100
DictionaryVariables
280
     0
  1
1
  0
DICTIONARYVAR
  5
1C4
102
{ACAD_REACTORS
330
1BF
102
}
330
1BF
100
DictionaryVariables
280
     0
  1
0
  0
DICTIONARYVAR
  5
1C3
102
{ACAD_REACTORS
330
1BF
102
}
330
1BF
100
DictionaryVariables
280
     0
  1
127
  0
DICTIONARYVAR
  5
1C6
102
{ACAD_REACTORS
330
1BF
102
}
330
1BF
100
DictionaryVariables
280
     0
  1
2
  0
DICTIONARY
  5
200
330
178
100
AcDbDictionary
280
     1
281
     1
  3
ACAD_XREC_ROUNDTRIP
360
201
  0
DICTIONARY
  5
202
330
179
100
AcDbDictionary
280
     1
281
     1
  3
ACAD_XREC_ROUNDTRIP
360
203
  0
DICTIONARY
  5
136
330
135
100
AcDbDictionary
280
     1
281
     1
  3
ACAD_XREC_ROUNDTRIP
360
1CC
  3
BUMPTILE
360
138
  3
DIFFUSETILE
360
137
  3
OPACITYTILE
360
13B
  3
REFLECTIONTILE
360
13A
  3
REFRACTIONTILE
360
13C
  3
SPECULARTILE
360
139
  0
DICTIONARY
  5
12E
330
12D
100
AcDbDictionary
280
     1
281
     1
  3
ACAD_XREC_ROUNDTRIP
360
1CB
  3
BUMPTILE
360
130
  3
DIFFUSETILE
360
12F
  3
OPACITYTILE
360
133
  3
REFLECTIONTILE
360
132
  3
REFRACTIONTILE
360
134
  3
SPECULARTILE
360
131
  0
DICTIONARY
  5
13E
330
13D
100
AcDbDictionary
280
     1
281
     1
  3
ACAD_XREC_ROUNDTRIP
360
1CD
  3
BUMPTILE
360
140
  3
DIFFUSETILE
360
13F
  3
OPACITYTILE
360
143
  3
REFLECTIONTILE
360
142
  3
REFRACTIONTILE
360
144
  3
SPECULARTILE
360
141
  0
DICTIONARY
  5
1C7
330
160
100
AcDbDictionary
280
     1
281
     1
  3
ACAD_ROUNDTRIP_2008_TABLESTYLE_CELLSTYLEMAP
360
1C8
  3
ACAD_XREC_ROUNDTRIP
360
1FE
  0
DICTIONARY
  5
1D8
330
14B
100
AcDbDictionary
280
     1
281
     1
  3
ACAD_XREC_ROUNDTRIP
360
1D9
  0
DICTIONARY
  5
1D6
330
14A
100
AcDbDictionary
280
     1
281
     1
  3
ACAD_XREC_ROUNDTRIP
360
1D7
  0
DICTIONARY
  5
1E4
330
151
100
AcDbDictionary
280
     1
281
     1
  3
ACAD_XREC_ROUNDTRIP
360
1E5
  0
DICTIONARY
  5
1EC
330
155
100
AcDbDictionary
280
     1
281
     1
  3
ACAD_XREC_ROUNDTRIP
360
1ED
  0
DICTIONARY
  5
1DE
330
14E
100
AcDbDictionary
280
     1
281
     1
  3
ACAD_XREC_ROUNDTRIP
360
1DF
  0
DICTIONARY
  5
1E2
330
150
100
AcDbDictionary
280
     1
281
     1
  3
ACAD_XREC_ROUNDTRIP
360
1E3
  0
DICTIONARY
  5
1FC
330
15D
100
AcDbDictionary
280
     1
281
     1
  3
ACAD_XREC_ROUNDTRIP
360
1FD
  0
DICTIONARY
  5
1EA
330
154
100
AcDbDictionary
280
     1
281
     1
  3
ACAD_XREC_ROUNDTRIP
360
1EB
  0
DICTIONARY
  5
1CE
330
146
100
AcDbDictionary
280
     1
281
     1
  3
ACAD_XREC_ROUNDTRIP
360
1CF
  0
DICTIONARY
  5
1D0
330
147
100
AcDbDictionary
280
     1
281
     1
  3
ACAD_XREC_ROUNDTRIP
360
1D1
  0
DICTIONARY
  5
1D2
330
148
100
AcDbDictionary
280
     1
281
     1
  3
ACAD_XREC_ROUNDTRIP
360
1D3
  0
DICTIONARY
  5
1D4
330
149
100
AcDbDictionary
280
     1
281
     1
  3
ACAD_XREC_ROUNDTRIP
360
1D5
  0
DICTIONARY
  5
1DC
330
14D
100
AcDbDictionary
280
     1
281
     1
  3
ACAD_XREC_ROUNDTRIP
360
1DD
  0
DICTIONARY
  5
1F8
330
15B
100
AcDbDictionary
280
     1
281
     1
  3
ACAD_XREC_ROUNDTRIP
360
1F9
  0
DICTIONARY
  5
1E8
330
153
100
AcDbDictionary
280
     1
281
     1
  3
ACAD_XREC_ROUNDTRIP
360
1E9
  0
DICTIONARY
  5
1FA
330
15C
100
AcDbDictionary
280
     1
281
     1
  3
ACAD_XREC_ROUNDTRIP
360
1FB
  0
DICTIONARY
  5
1E0
330
14F
100
AcDbDictionary
280
     1
281
     1
  3
ACAD_XREC_ROUNDTRIP
360
1E1
  0
DICTIONARY
  5
1F6
330
15A
100
AcDbDictionary
280
     1
281
     1
  3
ACAD_XREC_ROUNDTRIP
360
1F7
  0
DICTIONARY
  5
1F4
330
159
100
AcDbDictionary
280
     1
281
     1
  3
ACAD_XREC_ROUNDTRIP
360
1F5
  0
DICTIONARY
  5
1EE
330
156
100
AcDbDictionary
280
     1
281
     1
  3
ACAD_XREC_ROUNDTRIP
360
1EF
  0
DICTIONARY
  5
1F0
330
157
100
AcDbDictionary
280
     1
281
     1
  3
ACAD_XREC_ROUNDTRIP
360
1F1
  0
DICTIONARY
  5
1E6
330
152
100
AcDbDictionary
280
     1
281
     1
  3
ACAD_XREC_ROUNDTRIP
360
1E7
  0
DICTIONARY
  5
1DA
330
14C
100
AcDbDictionary
280
     1
281
     1
  3
ACAD_XREC_ROUNDTRIP
360
1DB
  0
DICTIONARY
  5
1F2
330
158
100
AcDbDictionary
280
     1
281
     1
  3
ACAD_XREC_ROUNDTRIP
360
1F3
  0
XRECORD
  5
201
102
{ACAD_REACTORS
330
200
102
}
330
200
100
AcDbXrecord
280
     1
102
SHADEPLOT
 70
     0
102
SHADEPLOTRESLEVEL
 70
     2
102
SHADEPLOTCUSTOMDPI
 70
   300
  0
XRECORD
  5
203
102
{ACAD_REACTORS
330
202
102
}
330
202
100
AcDbXrecord
280
     1
102
SHADEPLOT
 70
     0
102
SHADEPLOTRESLEVEL
 70
     2
102
SHADEPLOTCUSTOMDPI
 70
   300
  0
XRECORD
  5
1CC
102
{ACAD_REACTORS
330
136
102
}
330
136
100
AcDbXrecord
280
     1
102
MATERIAL
148
0.0
149
0.0
149
0.0
 93
        0
 94
      127
282
     0
 72
     0
 77
     0
171
     0
175
     0
179
     0
273
     0
  0
XRECORD
  5
138
102
{ACAD_REACTORS
330
136
102
}
330
136
100
AcDbXrecord
280
     1
270
     1
271
     1
  0
XRECORD
  5
137
102
{ACAD_REACTORS
330
136
102
}
330
136
100
AcDbXrecord
280
     1
270
     1
271
     1
  0
XRECORD
  5
13B
102
{ACAD_REACTORS
330
136
102
}
330
136
100
AcDbXrecord
280
     1
270
     1
271
     1
  0
XRECORD
  5
13A
102
{ACAD_REACTORS
330
136
102
}
330
136
100
AcDbXrecord
280
     1
270
     1
271
     1
  0
XRECORD
  5
13C
102
{ACAD_REACTORS
330
136
102
}
330
136
100
AcDbXrecord
280
     1
270
     1
271
     1
  0
XRECORD
  5
139
102
{ACAD_REACTORS
330
136
102
}
330
136
100
AcDbXrecord
280
     1
270
     1
271
     1
  0
XRECORD
  5
1CB
102
{ACAD_REACTORS
330
12E
102
}
330
12E
100
AcDbXrecord
280
     1
102
MATERIAL
148
0.0
149
0.0
149
0.0
 93
        0
 94
      127
282
     0
 72
     0
 77
     0
171
     0
175
     0
179
     0
273
     0
  0
XRECORD
  5
130
102
{ACAD_REACTORS
330
12E
102
}
330
12E
100
AcDbXrecord
280
     1
270
     1
271
     1
  0
XRECORD
  5
12F
102
{ACAD_REACTORS
330
12E
102
}
330
12E
100
AcDbXrecord
280
     1
270
     1
271
     1
  0
XRECORD
  5
133
102
{ACAD_REACTORS
330
12E
102
}
330
12E
100
AcDbXrecord
280
     1
270
     1
271
     1
  0
XRECORD
  5
132
102
{ACAD_REACTORS
330
12E
102
}
330
12E
100
AcDbXrecord
280
     1
270
     1
271
     1
  0
XRECORD
  5
134
102
{ACAD_REACTORS
330
12E
102
}
330
12E
100
AcDbXrecord
280
     1
270
     1
271
     1
  0
XRECORD
  5
131
102
{ACAD_REACTORS
330
12E
102
}
330
12E
100
AcDbXrecord
280
     1
270
     1
271
     1
  0
XRECORD
  5
1CD
102
{ACAD_REACTORS
330
13E
102
}
330
13E
100
AcDbXrecord
280
     1
102
MATERIAL
148
0.0
149
0.0
149
0.0
 93
        0
 94
      127
282
     0
 72
     0
 77
     0
171
     0
175
     0
179
     0
273
     0
  0
XRECORD
  5
140
102
{ACAD_REACTORS
330
13E
102
}
330
13E
100
AcDbXrecord
280
     1
270
     1
271
     1
  0
XRECORD
  5
13F
102
{ACAD_REACTORS
330
13E
102
}
330
13E
100
AcDbXrecord
280
     1
270
     1
271
     1
  0
XRECORD
  5
143
102
{ACAD_REACTORS
330
13E
102
}
330
13E
100
AcDbXrecord
280
     1
270
     1
271
     1
  0
XRECORD
  5
142
102
{ACAD_REACTORS
330
13E
102
}
330
13E
100
AcDbXrecord
280
     1
270
     1
271
     1
  0
XRECORD
  5
144
102
{ACAD_REACTORS
330
13E
102
}
330
13E
100
AcDbXrecord
280
     1
270
     1
271
     1
  0
XRECORD
  5
141
102
{ACAD_REACTORS
330
13E
102
}
330
13E
100
AcDbXrecord
280
     1
270
     1
271
     1
  0
CELLSTYLEMAP
  5
1C8
102
{ACAD_REACTORS
330
1C7
102
}
330
1C7
100
AcDbCellStyleMap
 90
        3
300
CELLSTYLE
  1
TABLEFORMAT_BEGIN
 90
        5
170
     1
 91
        0
 92
    32768
 62
   257
 93
        1
300
CONTENTFORMAT
  1
CONTENTFORMAT_BEGIN
 90
        0
 91
        0
 92
      512
 93
        0
300

 40
0.0
140
1.0
 94
        5
 62
     0
340
24
144
6.0
309
CONTENTFORMAT_END
171
     1
301
MARGIN
  1
CELLMARGIN_BEGIN
 40
1.5
 40
1.5
 40
1.5
 40
1.5
 40
4.5
 40
4.5
309
CELLMARGIN_END
 94
        6
 95
        1
302
GRIDFORMAT
  1
GRIDFORMAT_BEGIN
 90
        0
 91
        1
 62
     0
 92
       -2
340
0
 93
        0
 40
1.125
309
GRIDFORMAT_END
 95
        2
302
GRIDFORMAT
  1
GRIDFORMAT_BEGIN
 90
        0
 91
        1
 62
     0
 92
       -2
340
0
 93
        0
 40
1.125
309
GRIDFORMAT_END
 95
        4
302
GRIDFORMAT
  1
GRIDFORMAT_BEGIN
 90
        0
 91
        1
 62
     0
 92
       -2
340
0
 93
        0
 40
1.125
309
GRIDFORMAT_END
 95
        8
302
GRIDFORMAT
  1
GRIDFORMAT_BEGIN
 90
        0
 91
        1
 62
     0
 92
       -2
340
0
 93
        0
 40
1.125
309
GRIDFORMAT_END
 95
       16
302
GRIDFORMAT
  1
GRIDFORMAT_BEGIN
 90
        0
 91
        1
 62
     0
 92
       -2
340
0
 93
        0
 40
1.125
309
GRIDFORMAT_END
 95
       32
302
GRIDFORMAT
  1
GRIDFORMAT_BEGIN
 90
        0
 91
        1
 62
     0
 92
       -2
340
0
 93
        0
 40
1.125
309
GRIDFORMAT_END
309
TABLEFORMAT_END
  1
CELLSTYLE_BEGIN
 90
        1
 91
        1
300
_TITLE
309
CELLSTYLE_END
300
CELLSTYLE
  1
TABLEFORMAT_BEGIN
 90
        5
170
     1
 91
        0
 92
        0
 62
   257
 93
        1
300
CONTENTFORMAT
  1
CONTENTFORMAT_BEGIN
 90
        0
 91
        0
 92
      512
 93
        0
300

 40
0.0
140
1.0
 94
        5
 62
     0
340
24
144
4.5
309
CONTENTFORMAT_END
171
     1
301
MARGIN
  1
CELLMARGIN_BEGIN
 40
1.5
 40
1.5
 40
1.5
 40
1.5
 40
4.5
 40
4.5
309
CELLMARGIN_END
 94
        6
 95
        1
302
GRIDFORMAT
  1
GRIDFORMAT_BEGIN
 90
        0
 91
        1
 62
     0
 92
       -2
340
0
 93
        0
 40
1.125
309
GRIDFORMAT_END
 95
        2
302
GRIDFORMAT
  1
GRIDFORMAT_BEGIN
 90
        0
 91
        1
 62
     0
 92
       -2
340
0
 93
        0
 40
1.125
309
GRIDFORMAT_END
 95
        4
302
GRIDFORMAT
  1
GRIDFORMAT_BEGIN
 90
        0
 91
        1
 62
     0
 92
       -2
340
0
 93
        0
 40
1.125
309
GRIDFORMAT_END
 95
        8
302
GRIDFORMAT
  1
GRIDFORMAT_BEGIN
 90
        0
 91
        1
 62
     0
 92
       -2
340
0
 93
        0
 40
1.125
309
GRIDFORMAT_END
 95
       16
302
GRIDFORMAT
  1
GRIDFORMAT_BEGIN
 90
        0
 91
        1
 62
     0
 92
       -2
340
0
 93
        0
 40
1.125
309
GRIDFORMAT_END
 95
       32
302
GRIDFORMAT
  1
GRIDFORMAT_BEGIN
 90
        0
 91
        1
 62
     0
 92
       -2
340
0
 93
        0
 40
1.125
309
GRIDFORMAT_END
309
TABLEFORMAT_END
  1
CELLSTYLE_BEGIN
 90
        2
 91
        1
300
_HEADER
309
CELLSTYLE_END
300
CELLSTYLE
  1
TABLEFORMAT_BEGIN
 90
        5
170
     1
 91
        0
 92
        0
 62
   257
 93
        1
300
CONTENTFORMAT
  1
CONTENTFORMAT_BEGIN
 90
        0
 91
        0
 92
      512
 93
        0
300

 40
0.0
140
1.0
 94
        2
 62
     0
340
24
144
4.5
309
CONTENTFORMAT_END
171
     1
301
MARGIN
  1
CELLMARGIN_BEGIN
 40
1.5
 40
1.5
 40
1.5
 40
1.5
 40
4.5
 40
4.5
309
CELLMARGIN_END
 94
        6
 95
        1
302
GRIDFORMAT
  1
GRIDFORMAT_BEGIN
 90
        0
 91
        1
 62
     0
 92
       -2
340
0
 93
        0
 40
1.125
309
GRIDFORMAT_END
 95
        2
302
GRIDFORMAT
  1
GRIDFORMAT_BEGIN
 90
        0
 91
        1
 62
     0
 92
       -2
340
0
 93
        0
 40
1.125
309
GRIDFORMAT_END
 95
        4
302
GRIDFORMAT
  1
GRIDFORMAT_BEGIN
 90
        0
 91
        1
 62
     0
 92
       -2
340
0
 93
        0
 40
1.125
309
GRIDFORMAT_END
 95
        8
302
GRIDFORMAT
  1
GRIDFORMAT_BEGIN
 90
        0
 91
        1
 62
     0
 92
       -2
340
0
 93
        0
 40
1.125
309
GRIDFORMAT_END
 95
       16
302
GRIDFORMAT
  1
GRIDFORMAT_BEGIN
 90
        0
 91
        1
 62
     0
 92
       -2
340
0
 93
        0
 40
1.125
309
GRIDFORMAT_END
 95
       32
302
GRIDFORMAT
  1
GRIDFORMAT_BEGIN
 90
        0
 91
        1
 62
     0
 92
       -2
340
0
 93
        0
 40
1.125
309
GRIDFORMAT_END
309
TABLEFORMAT_END
  1
CELLSTYLE_BEGIN
 90
        3
 91
        2
300
_DATA
309
CELLSTYLE_END
  0
XRECORD
  5
1FE
102
{ACAD_REACTORS
330
1C7
102
}
330
1C7
100
AcDbXrecord
280
     1
102
ACAD_ROUNDTRIP_PRE2007_TABLESTYLE
 90
      512
 91
        0
  1

 92
      512
 93
        0
  2

 94
      512
 95
        0
  3

  0
XRECORD
  5
1D9
102
{ACAD_REACTORS
330
1D8
102
}
330
1D8
100
AcDbXrecord
280
     1
102
RTVSPropertyOp0
 70
     1
102
RTVSPropertyOp1
 70
     1
102
RTVSPropertyOp2
 70
     1
102
RTVSPropertyOp3
 70
     1
102
RTVSPropertyOp4
 70
     1
102
RTVSPropertyOp5
 70
     1
102
RTVSPropertyOp6
 70
     1
102
RTVSPropertyOp7
 70
     1
102
RTVSPropertyOp8
 70
     1
102
RTVSPropertyOp9
 70
     1
102
RTVSPropertyOp10
 70
     1
102
RTVSPropertyOp11
 70
     1
102
RTVSPropertyOp12
 70
     1
102
RTVSPropertyOp13
 70
     1
102
RTVSPropertyOp14
 70
     1
102
RTVSPropertyOp15
 70
     1
102
RTVSPropertyOp16
 70
     1
102
RTVSPropertyOp17
 70
     1
102
RTVSPropertyOp18
 70
     1
102
RTVSPropertyOp19
 70
     1
102
RTVSPropertyOp20
 70
     1
102
RTVSPropertyOp21
 70
     1
102
RTVSPropertyOp22
 70
     1
102
RTVSPropertyOp23
 70
     1
102
RTVSPropertyOp24
 70
     1
102
RTVSPropertyOp25
 70
     1
102
RTVSPropertyOp26
 70
     1
102
RTVSPropertyOp27
 70
     1
102
RTVSPropertyOp28
 70
     1
102
RTVSPropertyOp29
 70
     1
102
RTVSPropertyOp30
 70
     1
102
RTVSPropertyOp31
 70
     1
102
RTVSPropertyOp32
 70
     1
  0
XRECORD
  5
1D7
102
{ACAD_REACTORS
330
1D6
102
}
330
1D6
100
AcDbXrecord
280
     1
102
RTVSPropertyOp0
 70
     1
102
RTVSPropertyOp1
 70
     1
102
RTVSPropertyOp2
 70
     1
102
RTVSPropertyOp3
 70
     1
102
RTVSPropertyOp4
 70
     1
102
RTVSPropertyOp5
 70
     1
102
RTVSPropertyOp6
 70
     1
102
RTVSPropertyOp7
 70
     1
102
RTVSPropertyOp8
 70
     1
102
RTVSPropertyOp9
 70
     1
102
RTVSPropertyOp10
 70
     1
102
RTVSPropertyOp11
 70
     1
102
RTVSPropertyOp12
 70
     1
102
RTVSPropertyOp13
 70
     1
102
RTVSPropertyOp14
 70
     1
102
RTVSPropertyOp15
 70
     1
102
RTVSPropertyOp16
 70
     1
102
RTVSPropertyOp17
 70
     1
102
RTVSPropertyOp18
 70
     1
102
RTVSPropertyOp19
 70
     1
102
RTVSPropertyOp20
 70
     1
102
RTVSPropertyOp21
 70
     1
102
RTVSPropertyOp22
 70
     1
102
RTVSPropertyOp23
 70
     1
102
RTVSPropertyOp24
 70
     1
102
RTVSPropertyOp25
 70
     1
102
RTVSPropertyOp26
 70
     1
102
RTVSPropertyOp27
 70
     1
102
RTVSPropertyOp28
 70
     1
102
RTVSPropertyOp29
 70
     1
102
RTVSPropertyOp30
 70
     1
102
RTVSPropertyOp31
 70
     1
102
RTVSPropertyOp32
 70
     1
  0
XRECORD
  5
1E5
102
{ACAD_REACTORS
330
1E4
102
}
330
1E4
100
AcDbXrecord
280
     1
102
RTVSPropertyOp0
 70
     1
102
RTVSPropertyOp1
 70
     1
102
RTVSPropertyOp2
 70
     1
102
RTVSPropertyOp3
 70
     1
102
RTVSPropertyOp4
 70
     1
102
RTVSPropertyOp5
 70
     1
102
RTVSPropertyOp6
 70
     1
102
RTVSPropertyOp7
 70
     1
102
RTVSPropertyOp8
 70
     1
102
RTVSPropertyOp9
 70
     1
102
RTVSPropertyOp10
 70
     1
102
RTVSPropertyOp11
 70
     1
102
RTVSPropertyOp12
 70
     1
102
RTVSPropertyOp13
 70
     1
102
RTVSPropertyOp14
 70
     1
102
RTVSPropertyOp15
 70
     1
102
RTVSPropertyOp16
 70
     1
102
RTVSPropertyOp17
 70
     1
102
RTVSPropertyOp18
 70
     1
102
RTVSPropertyOp19
 70
     1
102
RTVSPropertyOp20
 70
     1
102
RTVSPropertyOp21
 70
     1
102
RTVSPropertyOp22
 70
     1
102
RTVSPropertyOp23
 70
     1
102
RTVSPropertyOp24
 70
     1
102
RTVSPropertyOp25
 70
     1
102
RTVSPropertyOp26
 70
     1
102
RTVSPropertyOp27
 70
     1
102
RTVSPropertyOp28
 70
     1
102
RTVSPropertyOp29
 70
     1
102
RTVSPropertyOp30
 70
     1
102
RTVSPropertyOp31
 70
     1
102
RTVSPropertyOp32
 70
     1
  0
XRECORD
  5
1ED
102
{ACAD_REACTORS
330
1EC
102
}
330
1EC
100
AcDbXrecord
280
     1
102
RTVSPropertyOp0
 70
     1
102
RTVSPropertyOp1
 70
     1
102
RTVSPropertyOp2
 70
     1
102
RTVSPropertyOp3
 70
     1
102
RTVSPropertyOp4
 70
     1
102
RTVSPropertyOp5
 70
     1
102
RTVSPropertyOp6
 70
     1
102
RTVSPropertyOp7
 70
     1
102
RTVSPropertyOp8
 70
     1
102
RTVSPropertyOp9
 70
     1
102
RTVSPropertyOp10
 70
     1
102
RTVSPropertyOp11
 70
     1
102
RTVSPropertyOp12
 70
     1
102
RTVSPropertyOp13
 70
     1
102
RTVSPropertyOp14
 70
     1
102
RTVSPropertyOp15
 70
     1
102
RTVSPropertyOp16
 70
     1
102
RTVSPropertyOp17
 70
     1
102
RTVSPropertyOp18
 70
     1
102
RTVSPropertyOp19
 70
     1
102
RTVSPropertyOp20
 70
     1
102
RTVSPropertyOp21
 70
     1
102
RTVSPropertyOp22
 70
     1
102
RTVSPropertyOp23
 70
     1
102
RTVSPropertyOp24
 70
     1
102
RTVSPropertyOp25
 70
     1
102
RTVSPropertyOp26
 70
     1
102
RTVSPropertyOp27
 70
     1
102
RTVSPropertyOp28
 70
     1
102
RTVSPropertyOp29
 70
     1
102
RTVSPropertyOp30
 70
     1
102
RTVSPropertyOp31
 70
     1
102
RTVSPropertyOp32
 70
     1
  0
XRECORD
  5
1DF
102
{ACAD_REACTORS
330
1DE
102
}
330
1DE
100
AcDbXrecord
280
     1
102
RTVSPropertyOp0
 70
     1
102
RTVSPropertyOp1
 70
     1
102
RTVSPropertyOp2
 70
     1
102
RTVSPropertyOp3
 70
     1
102
RTVSPropertyOp4
 70
     1
102
RTVSPropertyOp5
 70
     1
102
RTVSPropertyOp6
 70
     1
102
RTVSPropertyOp7
 70
     1
102
RTVSPropertyOp8
 70
     1
102
RTVSPropertyOp9
 70
     1
102
RTVSPropertyOp10
 70
     1
102
RTVSPropertyOp11
 70
     1
102
RTVSPropertyOp12
 70
     1
102
RTVSPropertyOp13
 70
     1
102
RTVSPropertyOp14
 70
     1
102
RTVSPropertyOp15
 70
     1
102
RTVSPropertyOp16
 70
     1
102
RTVSPropertyOp17
 70
     1
102
RTVSPropertyOp18
 70
     1
102
RTVSPropertyOp19
 70
     1
102
RTVSPropertyOp20
 70
     1
102
RTVSPropertyOp21
 70
     1
102
RTVSPropertyOp22
 70
     1
102
RTVSPropertyOp23
 70
     1
102
RTVSPropertyOp24
 70
     1
102
RTVSPropertyOp25
 70
     1
102
RTVSPropertyOp26
 70
     1
102
RTVSPropertyOp27
 70
     1
102
RTVSPropertyOp28
 70
     1
102
RTVSPropertyOp29
 70
     1
102
RTVSPropertyOp30
 70
     1
102
RTVSPropertyOp31
 70
     1
102
RTVSPropertyOp32
 70
     1
  0
XRECORD
  5
1E3
102
{ACAD_REACTORS
330
1E2
102
}
330
1E2
100
AcDbXrecord
280
     1
102
RTVSPropertyOp0
 70
     1
102
RTVSPropertyOp1
 70
     1
102
RTVSPropertyOp2
 70
     1
102
RTVSPropertyOp3
 70
     1
102
RTVSPropertyOp4
 70
     1
102
RTVSPropertyOp5
 70
     1
102
RTVSPropertyOp6
 70
     1
102
RTVSPropertyOp7
 70
     1
102
RTVSPropertyOp8
 70
     1
102
RTVSPropertyOp9
 70
     1
102
RTVSPropertyOp10
 70
     1
102
RTVSPropertyOp11
 70
     1
102
RTVSPropertyOp12
 70
     1
102
RTVSPropertyOp13
 70
     1
102
RTVSPropertyOp14
 70
     1
102
RTVSPropertyOp15
 70
     1
102
RTVSPropertyOp16
 70
     1
102
RTVSPropertyOp17
 70
     1
102
RTVSPropertyOp18
 70
     1
102
RTVSPropertyOp19
 70
     1
102
RTVSPropertyOp20
 70
     1
102
RTVSPropertyOp21
 70
     1
102
RTVSPropertyOp22
 70
     1
102
RTVSPropertyOp23
 70
     1
102
RTVSPropertyOp24
 70
     1
102
RTVSPropertyOp25
 70
     1
102
RTVSPropertyOp26
 70
     1
102
RTVSPropertyOp27
 70
     1
102
RTVSPropertyOp28
 70
     1
102
RTVSPropertyOp29
 70
     1
102
RTVSPropertyOp30
 70
     1
102
RTVSPropertyOp31
 70
     1
102
RTVSPropertyOp32
 70
     1
  0
XRECORD
  5
1FD
102
{ACAD_REACTORS
330
1FC
102
}
330
1FC
100
AcDbXrecord
280
     1
102
RTVSPropertyOp0
 70
     0
102
RTVSPropertyOp1
 70
     0
102
RTVSPropertyOp2
 70
     0
102
RTVSPropertyOp3
 70
     0
102
RTVSPropertyOp4
 70
     0
102
RTVSPropertyOp5
 70
     0
102
RTVSPropertyOp6
 70
     0
102
RTVSPropertyOp7
 70
     0
102
RTVSPropertyOp8
 70
     0
102
RTVSPropertyOp9
 70
     0
102
RTVSPropertyOp10
 70
     0
102
RTVSPropertyOp11
 70
     0
102
RTVSPropertyOp12
 70
     0
102
RTVSPropertyOp13
 70
     0
102
RTVSPropertyOp14
 70
     2
102
RTVSPropertyOp15
 70
     0
102
RTVSPropertyOp16
 70
     0
102
RTVSPropertyOp17
 70
     0
102
RTVSPropertyOp18
 70
     0
102
RTVSPropertyOp19
 70
     0
102
RTVSPropertyOp20
 70
     0
102
RTVSPropertyOp21
 70
     0
102
RTVSPropertyOp22
 70
     0
102
RTVSPropertyOp23
 70
     0
102
RTVSPropertyOp24
 70
     0
102
RTVSPropertyOp25
 70
     0
102
RTVSPropertyOp26
 70
     0
102
RTVSPropertyOp27
 70
     0
102
RTVSPropertyOp28
 70
     0
102
RTVSPropertyOp29
 70
     0
102
RTVSPropertyOp30
 70
     0
102
RTVSPropertyOp31
 70
     0
102
RTVSPropertyOp32
 70
     0
  0
XRECORD
  5
1EB
102
{ACAD_REACTORS
330
1EA
102
}
330
1EA
100
AcDbXrecord
280
     1
102
RTVSPropertyOp0
 70
     1
102
RTVSPropertyOp1
 70
     1
102
RTVSPropertyOp2
 70
     1
102
RTVSPropertyOp3
 70
     1
102
RTVSPropertyOp4
 70
     1
102
RTVSPropertyOp5
 70
     1
102
RTVSPropertyOp6
 70
     1
102
RTVSPropertyOp7
 70
     1
102
RTVSPropertyOp8
 70
     1
102
RTVSPropertyOp9
 70
     1
102
RTVSPropertyOp10
 70
     1
102
RTVSPropertyOp11
 70
     1
102
RTVSPropertyOp12
 70
     1
102
RTVSPropertyOp13
 70
     1
102
RTVSPropertyOp14
 70
     1
102
RTVSPropertyOp15
 70
     1
102
RTVSPropertyOp16
 70
     1
102
RTVSPropertyOp17
 70
     1
102
RTVSPropertyOp18
 70
     1
102
RTVSPropertyOp19
 70
     1
102
RTVSPropertyOp20
 70
     1
102
RTVSPropertyOp21
 70
     1
102
RTVSPropertyOp22
 70
     1
102
RTVSPropertyOp23
 70
     1
102
RTVSPropertyOp24
 70
     1
102
RTVSPropertyOp25
 70
     1
102
RTVSPropertyOp26
 70
     1
102
RTVSPropertyOp27
 70
     1
102
RTVSPropertyOp28
 70
     1
102
RTVSPropertyOp29
 70
     1
102
RTVSPropertyOp30
 70
     1
102
RTVSPropertyOp31
 70
     1
102
RTVSPropertyOp32
 70
     1
  0
XRECORD
  5
1CF
102
{ACAD_REACTORS
330
1CE
102
}
330
1CE
100
AcDbXrecord
280
     1
102
RTVSPropertyOp0
 70
     1
102
RTVSPropertyOp1
 70
     1
102
RTVSPropertyOp2
 70
     1
102
RTVSPropertyOp3
 70
     1
102
RTVSPropertyOp4
 70
     1
102
RTVSPropertyOp5
 70
     1
102
RTVSPropertyOp6
 70
     1
102
RTVSPropertyOp7
 70
     1
102
RTVSPropertyOp8
 70
     1
102
RTVSPropertyOp9
 70
     1
102
RTVSPropertyOp10
 70
     1
102
RTVSPropertyOp11
 70
     1
102
RTVSPropertyOp12
 70
     1
102
RTVSPropertyOp13
 70
     1
102
RTVSPropertyOp14
 70
     1
102
RTVSPropertyOp15
 70
     1
102
RTVSPropertyOp16
 70
     1
102
RTVSPropertyOp17
 70
     1
102
RTVSPropertyOp18
 70
     1
102
RTVSPropertyOp19
 70
     1
102
RTVSPropertyOp20
 70
     1
102
RTVSPropertyOp21
 70
     1
102
RTVSPropertyOp22
 70
     1
102
RTVSPropertyOp23
 70
     1
102
RTVSPropertyOp24
 70
     1
102
RTVSPropertyOp25
 70
     1
102
RTVSPropertyOp26
 70
     1
102
RTVSPropertyOp27
 70
     1
102
RTVSPropertyOp28
 70
     1
102
RTVSPropertyOp29
 70
     1
102
RTVSPropertyOp30
 70
     1
102
RTVSPropertyOp31
 70
     1
102
RTVSPropertyOp32
 70
     1
  0
XRECORD
  5
1D1
102
{ACAD_REACTORS
330
1D0
102
}
330
1D0
100
AcDbXrecord
280
     1
102
RTVSPropertyOp0
 70
     1
102
RTVSPropertyOp1
 70
     1
102
RTVSPropertyOp2
 70
     1
102
RTVSPropertyOp3
 70
     1
102
RTVSPropertyOp4
 70
     1
102
RTVSPropertyOp5
 70
     1
102
RTVSPropertyOp6
 70
     1
102
RTVSPropertyOp7
 70
     1
102
RTVSPropertyOp8
 70
     1
102
RTVSPropertyOp9
 70
     1
102
RTVSPropertyOp10
 70
     1
102
RTVSPropertyOp11
 70
     1
102
RTVSPropertyOp12
 70
     1
102
RTVSPropertyOp13
 70
     1
102
RTVSPropertyOp14
 70
     1
102
RTVSPropertyOp15
 70
     1
102
RTVSPropertyOp16
 70
     1
102
RTVSPropertyOp17
 70
     1
102
RTVSPropertyOp18
 70
     1
102
RTVSPropertyOp19
 70
     1
102
RTVSPropertyOp20
 70
     1
102
RTVSPropertyOp21
 70
     1
102
RTVSPropertyOp22
 70
     1
102
RTVSPropertyOp23
 70
     1
102
RTVSPropertyOp24
 70
     1
102
RTVSPropertyOp25
 70
     1
102
RTVSPropertyOp26
 70
     1
102
RTVSPropertyOp27
 70
     1
102
RTVSPropertyOp28
 70
     1
102
RTVSPropertyOp29
 70
     1
102
RTVSPropertyOp30
 70
     1
102
RTVSPropertyOp31
 70
     1
102
RTVSPropertyOp32
 70
     1
  0
XRECORD
  5
1D3
102
{ACAD_REACTORS
330
1D2
102
}
330
1D2
100
AcDbXrecord
280
     1
102
RTVSPropertyOp0
 70
     1
102
RTVSPropertyOp1
 70
     1
102
RTVSPropertyOp2
 70
     1
102
RTVSPropertyOp3
 70
     1
102
RTVSPropertyOp4
 70
     1
102
RTVSPropertyOp5
 70
     1
102
RTVSPropertyOp6
 70
     1
102
RTVSPropertyOp7
 70
     1
102
RTVSPropertyOp8
 70
     1
102
RTVSPropertyOp9
 70
     1
102
RTVSPropertyOp10
 70
     1
102
RTVSPropertyOp11
 70
     1
102
RTVSPropertyOp12
 70
     1
102
RTVSPropertyOp13
 70
     1
102
RTVSPropertyOp14
 70
     1
102
RTVSPropertyOp15
 70
     1
102
RTVSPropertyOp16
 70
     1
102
RTVSPropertyOp17
 70
     1
102
RTVSPropertyOp18
 70
     1
102
RTVSPropertyOp19
 70
     1
102
RTVSPropertyOp20
 70
     1
102
RTVSPropertyOp21
 70
     1
102
RTVSPropertyOp22
 70
     1
102
RTVSPropertyOp23
 70
     1
102
RTVSPropertyOp24
 70
     1
102
RTVSPropertyOp25
 70
     1
102
RTVSPropertyOp26
 70
     1
102
RTVSPropertyOp27
 70
     1
102
RTVSPropertyOp28
 70
     1
102
RTVSPropertyOp29
 70
     1
102
RTVSPropertyOp30
 70
     1
102
RTVSPropertyOp31
 70
     1
102
RTVSPropertyOp32
 70
     1
  0
XRECORD
  5
1D5
102
{ACAD_REACTORS
330
1D4
102
}
330
1D4
100
AcDbXrecord
280
     1
102
RTVSPropertyOp0
 70
     1
102
RTVSPropertyOp1
 70
     1
102
RTVSPropertyOp2
 70
     1
102
RTVSPropertyOp3
 70
     1
102
RTVSPropertyOp4
 70
     1
102
RTVSPropertyOp5
 70
     1
102
RTVSPropertyOp6
 70
     1
102
RTVSPropertyOp7
 70
     1
102
RTVSPropertyOp8
 70
     1
102
RTVSPropertyOp9
 70
     1
102
RTVSPropertyOp10
 70
     1
102
RTVSPropertyOp11
 70
     1
102
RTVSPropertyOp12
 70
     1
102
RTVSPropertyOp13
 70
     1
102
RTVSPropertyOp14
 70
     1
102
RTVSPropertyOp15
 70
     1
102
RTVSPropertyOp16
 70
     1
102
RTVSPropertyOp17
 70
     1
102
RTVSPropertyOp18
 70
     1
102
RTVSPropertyOp19
 70
     1
102
RTVSPropertyOp20
 70
     1
102
RTVSPropertyOp21
 70
     1
102
RTVSPropertyOp22
 70
     1
102
RTVSPropertyOp23
 70
     1
102
RTVSPropertyOp24
 70
     1
102
RTVSPropertyOp25
 70
     1
102
RTVSPropertyOp26
 70
     1
102
RTVSPropertyOp27
 70
     1
102
RTVSPropertyOp28
 70
     1
102
RTVSPropertyOp29
 70
     1
102
RTVSPropertyOp30
 70
     1
102
RTVSPropertyOp31
 70
     1
102
RTVSPropertyOp32
 70
     1
  0
XRECORD
  5
1DD
102
{ACAD_REACTORS
330
1DC
102
}
330
1DC
100
AcDbXrecord
280
     1
102
RTVSPropertyOp0
 70
     1
102
RTVSPropertyOp1
 70
     1
102
RTVSPropertyOp2
 70
     1
102
RTVSPropertyOp3
 70
     1
102
RTVSPropertyOp4
 70
     1
102
RTVSPropertyOp5
 70
     1
102
RTVSPropertyOp6
 70
     1
102
RTVSPropertyOp7
 70
     1
102
RTVSPropertyOp8
 70
     1
102
RTVSPropertyOp9
 70
     1
102
RTVSPropertyOp10
 70
     1
102
RTVSPropertyOp11
 70
     1
102
RTVSPropertyOp12
 70
     1
102
RTVSPropertyOp13
 70
     1
102
RTVSPropertyOp14
 70
     1
102
RTVSPropertyOp15
 70
     1
102
RTVSPropertyOp16
 70
     1
102
RTVSPropertyOp17
 70
     1
102
RTVSPropertyOp18
 70
     1
102
RTVSPropertyOp19
 70
     1
102
RTVSPropertyOp20
 70
     1
102
RTVSPropertyOp21
 70
     1
102
RTVSPropertyOp22
 70
     1
102
RTVSPropertyOp23
 70
     1
102
RTVSPropertyOp24
 70
     1
102
RTVSPropertyOp25
 70
     1
102
RTVSPropertyOp26
 70
     1
102
RTVSPropertyOp27
 70
     1
102
RTVSPropertyOp28
 70
     1
102
RTVSPropertyOp29
 70
     1
102
RTVSPropertyOp30
 70
     1
102
RTVSPropertyOp31
 70
     1
102
RTVSPropertyOp32
 70
     1
  0
XRECORD
  5
1F9
102
{ACAD_REACTORS
330
1F8
102
}
330
1F8
100
AcDbXrecord
280
     1
102
RTVSPropertyOp0
 70
     0
102
RTVSPropertyOp1
 70
     0
102
RTVSPropertyOp2
 70
     0
102
RTVSPropertyOp3
 70
     0
102
RTVSPropertyOp4
 70
     0
102
RTVSPropertyOp5
 70
     0
102
RTVSPropertyOp6
 70
     0
102
RTVSPropertyOp7
 70
     0
102
RTVSPropertyOp8
 70
     0
102
RTVSPropertyOp9
 70
     0
102
RTVSPropertyOp10
 70
     0
102
RTVSPropertyOp11
 70
     0
102
RTVSPropertyOp12
 70
     0
102
RTVSPropertyOp13
 70
     0
102
RTVSPropertyOp14
 70
     2
102
RTVSPropertyOp15
 70
     0
102
RTVSPropertyOp16
 70
     0
102
RTVSPropertyOp17
 70
     0
102
RTVSPropertyOp18
 70
     0
102
RTVSPropertyOp19
 70
     0
102
RTVSPropertyOp20
 70
     0
102
RTVSPropertyOp21
 70
     0
102
RTVSPropertyOp22
 70
     0
102
RTVSPropertyOp23
 70
     0
102
RTVSPropertyOp24
 70
     0
102
RTVSPropertyOp25
 70
     0
102
RTVSPropertyOp26
 70
     0
102
RTVSPropertyOp27
 70
     0
102
RTVSPropertyOp28
 70
     0
102
RTVSPropertyOp29
 70
     0
102
RTVSPropertyOp30
 70
     0
102
RTVSPropertyOp31
 70
     0
102
RTVSPropertyOp32
 70
     0
  0
XRECORD
  5
1E9
102
{ACAD_REACTORS
330
1E8
102
}
330
1E8
100
AcDbXrecord
280
     1
102
RTVSPropertyOp0
 70
     1
102
RTVSPropertyOp1
 70
     1
102
RTVSPropertyOp2
 70
     1
102
RTVSPropertyOp3
 70
     1
102
RTVSPropertyOp4
 70
     1
102
RTVSPropertyOp5
 70
     1
102
RTVSPropertyOp6
 70
     1
102
RTVSPropertyOp7
 70
     1
102
RTVSPropertyOp8
 70
     1
102
RTVSPropertyOp9
 70
     1
102
RTVSPropertyOp10
 70
     1
102
RTVSPropertyOp11
 70
     1
102
RTVSPropertyOp12
 70
     1
102
RTVSPropertyOp13
 70
     1
102
RTVSPropertyOp14
 70
     1
102
RTVSPropertyOp15
 70
     1
102
RTVSPropertyOp16
 70
     1
102
RTVSPropertyOp17
 70
     1
102
RTVSPropertyOp18
 70
     1
102
RTVSPropertyOp19
 70
     1
102
RTVSPropertyOp20
 70
     1
102
RTVSPropertyOp21
 70
     1
102
RTVSPropertyOp22
 70
     1
102
RTVSPropertyOp23
 70
     1
102
RTVSPropertyOp24
 70
     1
102
RTVSPropertyOp25
 70
     1
102
RTVSPropertyOp26
 70
     1
102
RTVSPropertyOp27
 70
     1
102
RTVSPropertyOp28
 70
     1
102
RTVSPropertyOp29
 70
     1
102
RTVSPropertyOp30
 70
     1
102
RTVSPropertyOp31
 70
     1
102
RTVSPropertyOp32
 70
     1
  0
XRECORD
  5
1FB
102
{ACAD_REACTORS
330
1FA
102
}
330
1FA
100
AcDbXrecord
280
     1
102
RTVSPropertyOp0
 70
     0
102
RTVSPropertyOp1
 70
     0
102
RTVSPropertyOp2
 70
     0
102
RTVSPropertyOp3
 70
     0
102
RTVSPropertyOp4
 70
     0
102
RTVSPropertyOp5
 70
     0
102
RTVSPropertyOp6
 70
     0
102
RTVSPropertyOp7
 70
     0
102
RTVSPropertyOp8
 70
     0
102
RTVSPropertyOp9
 70
     0
102
RTVSPropertyOp10
 70
     0
102
RTVSPropertyOp11
 70
     0
102
RTVSPropertyOp12
 70
     0
102
RTVSPropertyOp13
 70
     0
102
RTVSPropertyOp14
 70
     2
102
RTVSPropertyOp15
 70
     0
102
RTVSPropertyOp16
 70
     0
102
RTVSPropertyOp17
 70
     0
102
RTVSPropertyOp18
 70
     0
102
RTVSPropertyOp19
 70
     0
102
RTVSPropertyOp20
 70
     0
102
RTVSPropertyOp21
 70
     0
102
RTVSPropertyOp22
 70
     0
102
RTVSPropertyOp23
 70
     0
102
RTVSPropertyOp24
 70
     0
102
RTVSPropertyOp25
 70
     0
102
RTVSPropertyOp26
 70
     0
102
RTVSPropertyOp27
 70
     0
102
RTVSPropertyOp28
 70
     0
102
RTVSPropertyOp29
 70
     0
102
RTVSPropertyOp30
 70
     0
102
RTVSPropertyOp31
 70
     0
102
RTVSPropertyOp32
 70
     0
  0
XRECORD
  5
1E1
102
{ACAD_REACTORS
330
1E0
102
}
330
1E0
100
AcDbXrecord
280
     1
102
RTVSPropertyOp0
 70
     1
102
RTVSPropertyOp1
 70
     1
102
RTVSPropertyOp2
 70
     1
102
RTVSPropertyOp3
 70
     1
102
RTVSPropertyOp4
 70
     1
102
RTVSPropertyOp5
 70
     1
102
RTVSPropertyOp6
 70
     1
102
RTVSPropertyOp7
 70
     1
102
RTVSPropertyOp8
 70
     1
102
RTVSPropertyOp9
 70
     1
102
RTVSPropertyOp10
 70
     1
102
RTVSPropertyOp11
 70
     1
102
RTVSPropertyOp12
 70
     1
102
RTVSPropertyOp13
 70
     1
102
RTVSPropertyOp14
 70
     1
102
RTVSPropertyOp15
 70
     1
102
RTVSPropertyOp16
 70
     1
102
RTVSPropertyOp17
 70
     1
102
RTVSPropertyOp18
 70
     1
102
RTVSPropertyOp19
 70
     1
102
RTVSPropertyOp20
 70
     1
102
RTVSPropertyOp21
 70
     1
102
RTVSPropertyOp22
 70
     1
102
RTVSPropertyOp23
 70
     1
102
RTVSPropertyOp24
 70
     1
102
RTVSPropertyOp25
 70
     1
102
RTVSPropertyOp26
 70
     1
102
RTVSPropertyOp27
 70
     1
102
RTVSPropertyOp28
 70
     1
102
RTVSPropertyOp29
 70
     1
102
RTVSPropertyOp30
 70
     1
102
RTVSPropertyOp31
 70
     1
102
RTVSPropertyOp32
 70
     1
  0
XRECORD
  5
1F7
102
{ACAD_REACTORS
330
1F6
102
}
330
1F6
100
AcDbXrecord
280
     1
102
RTVSPropertyOp0
 70
     1
102
RTVSPropertyOp1
 70
     1
102
RTVSPropertyOp2
 70
     1
102
RTVSPropertyOp3
 70
     1
102
RTVSPropertyOp4
 70
     1
102
RTVSPropertyOp5
 70
     1
102
RTVSPropertyOp6
 70
     1
102
RTVSPropertyOp7
 70
     1
102
RTVSPropertyOp8
 70
     1
102
RTVSPropertyOp9
 70
     1
102
RTVSPropertyOp10
 70
     1
102
RTVSPropertyOp11
 70
     1
102
RTVSPropertyOp12
 70
     1
102
RTVSPropertyOp13
 70
     1
102
RTVSPropertyOp14
 70
     1
102
RTVSPropertyOp15
 70
     1
102
RTVSPropertyOp16
 70
     1
102
RTVSPropertyOp17
 70
     1
102
RTVSPropertyOp18
 70
     1
102
RTVSPropertyOp19
 70
     1
102
RTVSPropertyOp20
 70
     1
102
RTVSPropertyOp21
 70
     1
102
RTVSPropertyOp22
 70
     1
102
RTVSPropertyOp23
 70
     1
102
RTVSPropertyOp24
 70
     1
102
RTVSPropertyOp25
 70
     1
102
RTVSPropertyOp26
 70
     1
102
RTVSPropertyOp27
 70
     1
102
RTVSPropertyOp28
 70
     1
102
RTVSPropertyOp29
 70
     1
102
RTVSPropertyOp30
 70
     1
102
RTVSPropertyOp31
 70
     1
102
RTVSPropertyOp32
 70
     1
  0
XRECORD
  5
1F5
102
{ACAD_REACTORS
330
1F4
102
}
330
1F4
100
AcDbXrecord
280
     1
102
RTVSPropertyOp0
 70
     1
102
RTVSPropertyOp1
 70
     1
102
RTVSPropertyOp2
 70
     1
102
RTVSPropertyOp3
 70
     1
102
RTVSPropertyOp4
 70
     1
102
RTVSPropertyOp5
 70
     1
102
RTVSPropertyOp6
 70
     1
102
RTVSPropertyOp7
 70
     1
102
RTVSPropertyOp8
 70
     1
102
RTVSPropertyOp9
 70
     1
102
RTVSPropertyOp10
 70
     1
102
RTVSPropertyOp11
 70
     1
102
RTVSPropertyOp12
 70
     1
102
RTVSPropertyOp13
 70
     1
102
RTVSPropertyOp14
 70
     1
102
RTVSPropertyOp15
 70
     1
102
RTVSPropertyOp16
 70
     1
102
RTVSPropertyOp17
 70
     1
102
RTVSPropertyOp18
 70
     1
102
RTVSPropertyOp19
 70
     1
102
RTVSPropertyOp20
 70
     1
102
RTVSPropertyOp21
 70
     1
102
RTVSPropertyOp22
 70
     1
102
RTVSPropertyOp23
 70
     1
102
RTVSPropertyOp24
 70
     1
102
RTVSPropertyOp25
 70
     1
102
RTVSPropertyOp26
 70
     1
102
RTVSPropertyOp27
 70
     1
102
RTVSPropertyOp28
 70
     1
102
RTVSPropertyOp29
 70
     1
102
RTVSPropertyOp30
 70
     1
102
RTVSPropertyOp31
 70
     1
102
RTVSPropertyOp32
 70
     1
  0
XRECORD
  5
1EF
102
{ACAD_REACTORS
330
1EE
102
}
330
1EE
100
AcDbXrecord
280
     1
102
RTVSPropertyOp0
 70
     1
102
RTVSPropertyOp1
 70
     1
102
RTVSPropertyOp2
 70
     1
102
RTVSPropertyOp3
 70
     1
102
RTVSPropertyOp4
 70
     1
102
RTVSPropertyOp5
 70
     1
102
RTVSPropertyOp6
 70
     1
102
RTVSPropertyOp7
 70
     1
102
RTVSPropertyOp8
 70
     1
102
RTVSPropertyOp9
 70
     1
102
RTVSPropertyOp10
 70
     1
102
RTVSPropertyOp11
 70
     1
102
RTVSPropertyOp12
 70
     1
102
RTVSPropertyOp13
 70
     1
102
RTVSPropertyOp14
 70
     1
102
RTVSPropertyOp15
 70
     1
102
RTVSPropertyOp16
 70
     1
102
RTVSPropertyOp17
 70
     1
102
RTVSPropertyOp18
 70
     1
102
RTVSPropertyOp19
 70
     1
102
RTVSPropertyOp20
 70
     1
102
RTVSPropertyOp21
 70
     1
102
RTVSPropertyOp22
 70
     1
102
RTVSPropertyOp23
 70
     1
102
RTVSPropertyOp24
 70
     1
102
RTVSPropertyOp25
 70
     1
102
RTVSPropertyOp26
 70
     1
102
RTVSPropertyOp27
 70
     1
102
RTVSPropertyOp28
 70
     1
102
RTVSPropertyOp29
 70
     1
102
RTVSPropertyOp30
 70
     1
102
RTVSPropertyOp31
 70
     1
102
RTVSPropertyOp32
 70
     1
  0
XRECORD
  5
1F1
102
{ACAD_REACTORS
330
1F0
102
}
330
1F0
100
AcDbXrecord
280
     1
102
RTVSPropertyOp0
 70
     1
102
RTVSPropertyOp1
 70
     1
102
RTVSPropertyOp2
 70
     1
102
RTVSPropertyOp3
 70
     1
102
RTVSPropertyOp4
 70
     1
102
RTVSPropertyOp5
 70
     1
102
RTVSPropertyOp6
 70
     1
102
RTVSPropertyOp7
 70
     1
102
RTVSPropertyOp8
 70
     1
102
RTVSPropertyOp9
 70
     1
102
RTVSPropertyOp10
 70
     1
102
RTVSPropertyOp11
 70
     1
102
RTVSPropertyOp12
 70
     1
102
RTVSPropertyOp13
 70
     1
102
RTVSPropertyOp14
 70
     1
102
RTVSPropertyOp15
 70
     1
102
RTVSPropertyOp16
 70
     1
102
RTVSPropertyOp17
 70
     1
102
RTVSPropertyOp18
 70
     1
102
RTVSPropertyOp19
 70
     1
102
RTVSPropertyOp20
 70
     1
102
RTVSPropertyOp21
 70
     1
102
RTVSPropertyOp22
 70
     1
102
RTVSPropertyOp23
 70
     1
102
RTVSPropertyOp24
 70
     1
102
RTVSPropertyOp25
 70
     1
102
RTVSPropertyOp26
 70
     1
102
RTVSPropertyOp27
 70
     1
102
RTVSPropertyOp28
 70
     1
102
RTVSPropertyOp29
 70
     1
102
RTVSPropertyOp30
 70
     1
102
RTVSPropertyOp31
 70
     1
102
RTVSPropertyOp32
 70
     1
  0
XRECORD
  5
1E7
102
{ACAD_REACTORS
330
1E6
102
}
330
1E6
100
AcDbXrecord
280
     1
102
RTVSPropertyOp0
 70
     1
102
RTVSPropertyOp1
 70
     1
102
RTVSPropertyOp2
 70
     1
102
RTVSPropertyOp3
 70
     1
102
RTVSPropertyOp4
 70
     1
102
RTVSPropertyOp5
 70
     1
102
RTVSPropertyOp6
 70
     1
102
RTVSPropertyOp7
 70
     1
102
RTVSPropertyOp8
 70
     1
102
RTVSPropertyOp9
 70
     1
102
RTVSPropertyOp10
 70
     1
102
RTVSPropertyOp11
 70
     1
102
RTVSPropertyOp12
 70
     1
102
RTVSPropertyOp13
 70
     1
102
RTVSPropertyOp14
 70
     1
102
RTVSPropertyOp15
 70
     1
102
RTVSPropertyOp16
 70
     1
102
RTVSPropertyOp17
 70
     1
102
RTVSPropertyOp18
 70
     1
102
RTVSPropertyOp19
 70
     1
102
RTVSPropertyOp20
 70
     1
102
RTVSPropertyOp21
 70
     1
102
RTVSPropertyOp22
 70
     1
102
RTVSPropertyOp23
 70
     1
102
RTVSPropertyOp24
 70
     1
102
RTVSPropertyOp25
 70
     1
102
RTVSPropertyOp26
 70
     1
102
RTVSPropertyOp27
 70
     1
102
RTVSPropertyOp28
 70
     1
102
RTVSPropertyOp29
 70
     1
102
RTVSPropertyOp30
 70
     1
102
RTVSPropertyOp31
 70
     1
102
RTVSPropertyOp32
 70
     1
  0
XRECORD
  5
1DB
102
{ACAD_REACTORS
330
1DA
102
}
330
1DA
100
AcDbXrecord
280
     1
102
RTVSPropertyOp0
 70
     1
102
RTVSPropertyOp1
 70
     1
102
RTVSPropertyOp2
 70
     1
102
RTVSPropertyOp3
 70
     1
102
RTVSPropertyOp4
 70
     1
102
RTVSPropertyOp5
 70
     1
102
RTVSPropertyOp6
 70
     1
102
RTVSPropertyOp7
 70
     1
102
RTVSPropertyOp8
 70
     1
102
RTVSPropertyOp9
 70
     1
102
RTVSPropertyOp10
 70
     1
102
RTVSPropertyOp11
 70
     1
102
RTVSPropertyOp12
 70
     1
102
RTVSPropertyOp13
 70
     1
102
RTVSPropertyOp14
 70
     1
102
RTVSPropertyOp15
 70
     1
102
RTVSPropertyOp16
 70
     1
102
RTVSPropertyOp17
 70
     1
102
RTVSPropertyOp18
 70
     1
102
RTVSPropertyOp19
 70
     1
102
RTVSPropertyOp20
 70
     1
102
RTVSPropertyOp21
 70
     1
102
RTVSPropertyOp22
 70
     1
102
RTVSPropertyOp23
 70
     1
102
RTVSPropertyOp24
 70
     1
102
RTVSPropertyOp25
 70
     1
102
RTVSPropertyOp26
 70
     1
102
RTVSPropertyOp27
 70
     1
102
RTVSPropertyOp28
 70
     1
102
RTVSPropertyOp29
 70
     1
102
RTVSPropertyOp30
 70
     1
102
RTVSPropertyOp31
 70
     1
102
RTVSPropertyOp32
 70
     1
  0
XRECORD
  5
1F3
102
{ACAD_REACTORS
330
1F2
102
}
330
1F2
100
AcDbXrecord
280
     1
102
RTVSPropertyOp0
 70
     1
102
RTVSPropertyOp1
 70
     1
102
RTVSPropertyOp2
 70
     1
102
RTVSPropertyOp3
 70
     1
102
RTVSPropertyOp4
 70
     1
102
RTVSPropertyOp5
 70
     1
102
RTVSPropertyOp6
 70
     1
102
RTVSPropertyOp7
 70
     1
102
RTVSPropertyOp8
 70
     1
102
RTVSPropertyOp9
 70
     1
102
RTVSPropertyOp10
 70
     1
102
RTVSPropertyOp11
 70
     1
102
RTVSPropertyOp12
 70
     1
102
RTVSPropertyOp13
 70
     1
102
RTVSPropertyOp14
 70
     1
102
RTVSPropertyOp15
 70
     1
102
RTVSPropertyOp16
 70
     1
102
RTVSPropertyOp17
 70
     1
102
RTVSPropertyOp18
 70
     1
102
RTVSPropertyOp19
 70
     1
102
RTVSPropertyOp20
 70
     1
102
RTVSPropertyOp21
 70
     1
102
RTVSPropertyOp22
 70
     1
102
RTVSPropertyOp23
 70
     1
102
RTVSPropertyOp24
 70
     1
102
RTVSPropertyOp25
 70
     1
102
RTVSPropertyOp26
 70
     1
102
RTVSPropertyOp27
 70
     1
102
RTVSPropertyOp28
 70
     1
102
RTVSPropertyOp29
 70
     1
102
RTVSPropertyOp30
 70
     1
102
RTVSPropertyOp31
 70
     1
102
RTVSPropertyOp32
 70
     1
  0
ENDSEC
  0
EOF
