  0
SECTION
  2
HEADER
  9
$ACADVER
  1
AC1015
  9
$ACADMAINTVER
 70
    20
  9
$DWGCODEPAGE
  3
ANSI_1252
  9
$INSBASE
 10
0.0
 20
0.0
 30
0.0
  9
$EXTMIN
 10
23405.49936822147
 20
6644.133429116853
 30
-0.0015258207003583
  9
$EXTMAX
 10
24391.41409385584
 20
8000.463200755971
 30
0.0000000349246037
  9
$LIMMIN
 10
0.0
 20
0.0
  9
$LIMMAX
 10
38460.06566561
 20
11749.95752903
  9
$ORTHOMODE
 70
     0
  9
$REGENMODE
 70
     1
  9
$FILLMODE
 70
     1
  9
$QTEXTMODE
 70
     0
  9
$MIRRTEXT
 70
     1
  9
$LTSCALE
 40
5.0
  9
$ATTMODE
 70
     1
  9
$TEXTSIZE
 40
3.5
  9
$TRACEWID
 40
1.0
  9
$TEXTSTYLE
  7
STANDARD
  9
$CLAYER
  8
0
  9
$CELTYPE
  6
BYLAYER
  9
$CECOLOR
 62
   256
  9
$CELTSCALE
 40
1.0
  9
$DISPSILH
 70
     0
  9
$DIMSCALE
 40
1.0
  9
$DIMASZ
 40
4.0
  9
$DIMEXO
 40
5.0
  9
$DIMDLI
 40
10.0
  9
$DIMRND
 40
0.0
  9
$DIMDLE
 40
2.0
  9
$DIMEXE
 40
2.0
  9
$DIMTP
 40
0.0
  9
$DIMTM
 40
0.0
  9
$DIMTXT
 40
2.0
  9
$DIMCEN
 40
1.5
  9
$DIMTSZ
 40
0.0
  9
$DIMTOL
 70
     0
  9
$DIMLIM
 70
     0
  9
$DIMTIH
 70
     1
  9
$DIMTOH
 70
     0
  9
$DIMSE1
 70
     0
  9
$DIMSE2
 70
     0
  9
$DIMTAD
 70
     1
  9
$DIMZIN
 70
     8
  9
$DIMBLK
  1

  9
$DIMASO
 70
     1
  9
$DIMSHO
 70
     1
  9
$DIMPOST
  1

  9
$DIMAPOST
  1

  9
$DIMALT
 70
     0
  9
$DIMALTD
 70
     2
  9
$DIMALTF
 40
25.4
  9
$DIMLFAC
 40
1.0
  9
$DIMTOFL
 70
     0
  9
$DIMTVP
 40
0.0
  9
$DIMTIX
 70
     0
  9
$DIMSOXD
 70
     0
  9
$DIMSAH
 70
     0
  9
$DIMBLK1
  1

  9
$DIMBLK2
  1

  9
$DIMSTYLE
  2
Standard
  9
$DIMCLRD
 70
     9
  9
$DIMCLRE
 70
     9
  9
$DIMCLRT
 70
     7
  9
$DIMTFAC
 40
1.0
  9
$DIMGAP
 40
0.09
  9
$DIMJUST
 70
     0
  9
$DIMSD1
 70
     0
  9
$DIMSD2
 70
     0
  9
$DIMTOLJ
 70
     1
  9
$DIMTZIN
 70
     0
  9
$DIMALTZ
 70
     0
  9
$DIMALTTZ
 70
     0
  9
$DIMUPT
 70
     0
  9
$DIMDEC
 70
     4
  9
$DIMTDEC
 70
     4
  9
$DIMALTU
 70
     2
  9
$DIMALTTD
 70
     2
  9
$DIMTXSTY
  7
STANDARD
  9
$DIMAUNIT
 70
     0
  9
$DIMADEC
 70
     0
  9
$DIMALTRND
 40
0.0
  9
$DIMAZIN
 70
     0
  9
$DIMDSEP
 70
    46
  9
$DIMATFIT
 70
     3
  9
$DIMFRAC
 70
     0
  9
$DIMLDRBLK
  1

  9
$DIMLUNIT
 70
     2
  9
$DIMLWD
 70
    -2
  9
$DIMLWE
 70
    -2
  9
$DIMTMOVE
 70
     0
  9
$LUNITS
 70
     2
  9
$LUPREC
 70
     6
  9
$SKETCHINC
 40
0.1
  9
$FILLETRAD
 40
0.0
  9
$AUNITS
 70
     0
  9
$AUPREC
 70
     0
  9
$MENU
  1
ACAD
  9
$ELEVATION
 40
0.0
  9
$PELEVATION
 40
0.0
  9
$THICKNESS
 40
0.0
  9
$LIMCHECK
 70
     0
  9
$CHAMFERA
 40
0.0
  9
$CHAMFERB
 40
0.0
  9
$CHAMFERC
 40
0.0
  9
$CHAMFERD
 40
0.0
  9
$SKPOLY
 70
     1
  9
$TDCREATE
 40
2456443.000000000
  9
$TDUCREATE
 40
2456442.916666667
  9
$TDUPDATE
 40
2456458.468600903
  9
$TDUUPDATE
 40
2456458.385267569
  9
$TDINDWG
 40
0.0079884144
  9
$TDUSRTIMER
 40
0.0079884144
  9
$USRTIMER
 70
     1
  9
$ANGBASE
 50
0.0
  9
$ANGDIR
 70
     0
  9
$PDMODE
 70
     0
  9
$PDSIZE
 40
0.0
  9
$PLINEWID
 40
0.0
  9
$SPLFRAME
 70
     0
  9
$SPLINETYPE
 70
     6
  9
$SPLINESEGS
 70
     8
  9
$HANDSEED
  5
246
  9
$SURFTAB1
 70
     6
  9
$SURFTAB2
 70
     6
  9
$SURFTYPE
 70
     6
  9
$SURFU
 70
     6
  9
$SURFV
 70
     6
  9
$UCSBASE
  2

  9
$UCSNAME
  2

  9
$UCSORG
 10
0.0
 20
0.0
 30
0.0
  9
$UCSXDIR
 10
1.0
 20
0.0
 30
0.0
  9
$UCSYDIR
 10
0.0
 20
1.0
 30
0.0
  9
$UCSORTHOREF
  2

  9
$UCSORTHOVIEW
 70
     0
  9
$UCSORGTOP
 10
0.0
 20
0.0
 30
0.0
  9
$UCSORGBOTTOM
 10
0.0
 20
0.0
 30
0.0
  9
$UCSORGLEFT
 10
0.0
 20
0.0
 30
0.0
  9
$UCSORGRIGHT
 10
0.0
 20
0.0
 30
0.0
  9
$UCSORGFRONT
 10
0.0
 20
0.0
 30
0.0
  9
$UCSORGBACK
 10
0.0
 20
0.0
 30
0.0
  9
$PUCSBASE
  2

  9
$PUCSNAME
  2

  9
$PUCSORG
 10
0.0
 20
0.0
 30
0.0
  9
$PUCSXDIR
 10
1.0
 20
0.0
 30
0.0
  9
$PUCSYDIR
 10
0.0
 20
1.0
 30
0.0
  9
$PUCSORTHOREF
  2

  9
$PUCSORTHOVIEW
 70
     0
  9
$PUCSORGTOP
 10
0.0
 20
0.0
 30
0.0
  9
$PUCSORGBOTTOM
 10
0.0
 20
0.0
 30
0.0
  9
$PUCSORGLEFT
 10
0.0
 20
0.0
 30
0.0
  9
$PUCSORGRIGHT
 10
0.0
 20
0.0
 30
0.0
  9
$PUCSORGFRONT
 10
0.0
 20
0.0
 30
0.0
  9
$PUCSORGBACK
 10
0.0
 20
0.0
 30
0.0
  9
$USERI1
 70
     0
  9
$USERI2
 70
     0
  9
$USERI3
 70
     0
  9
$USERI4
 70
     0
  9
$USERI5
 70
     0
  9
$USERR1
 40
0.0
  9
$USERR2
 40
0.0
  9
$USERR3
 40
0.0
  9
$USERR4
 40
0.0
  9
$USERR5
 40
0.0
  9
$WORLDVIEW
 70
     1
  9
$SHADEDGE
 70
     3
  9
$SHADEDIF
 70
    70
  9
$TILEMODE
 70
     1
  9
$MAXACTVP
 70
    16
  9
$PINSBASE
 10
0.0
 20
0.0
 30
0.0
  9
$PLIMCHECK
 70
     0
  9
$PEXTMIN
 10
1.000000000000000E+20
 20
1.000000000000000E+20
 30
1.000000000000000E+20
  9
$PEXTMAX
 10
-1.000000000000000E+20
 20
-1.000000000000000E+20
 30
-1.000000000000000E+20
  9
$PLIMMIN
 10
0.0
 20
0.0
  9
$PLIMMAX
 10
12.0
 20
9.0
  9
$UNITMODE
 70
     0
  9
$VISRETAIN
 70
     0
  9
$PLINEGEN
 70
     0
  9
$PSLTSCALE
 70
     1
  9
$TREEDEPTH
 70
  3020
  9
$CMLSTYLE
  2
STANDARD
  9
$CMLJUST
 70
     0
  9
$CMLSCALE
 40
1.0
  9
$PROXYGRAPHICS
 70
     1
  9
$MEASUREMENT
 70
     1
  9
$CELWEIGHT
370
    -1
  9
$ENDCAPS
280
     0
  9
$JOINSTYLE
280
     0
  9
$LWDISPLAY
290
     0
  9
$INSUNITS
 70
     0
  9
$HYPERLINKBASE
  1

  9
$STYLESHEET
  1

  9
$XEDIT
290
     1
  9
$CEPSNTYPE
380
     0
  9
$PSTYLEMODE
290
     1
  9
$FINGERPRINTGUID
  2
{8146E1D5-332F-43FC-A38D-BE660658605D}
  9
$VERSIONGUID
  2
{0D2EC94D-CA3F-4668-B272-85D0686A99B9}
  9
$EXTNAMES
290
     1
  9
$PSVPSCALE
 40
0.0
  9
$OLESTARTUP
290
     0
  0
ENDSEC
  0
SECTION
  2
CLASSES
  0
CLASS
  1
ACDBDICTIONARYWDFLT
  2
AcDbDictionaryWithDefault
  3
ObjectDBX Classes
 90
        0
280
     0
281
     0
  0
CLASS
  1
MATERIAL
  2
AcDbMaterial
  3
ObjectDBX Classes
 90
     1153
280
     0
281
     0
  0
CLASS
  1
VISUALSTYLE
  2
AcDbVisualStyle
  3
ObjectDBX Classes
 90
     4095
280
     0
281
     0
  0
CLASS
  1
TABLESTYLE
  2
AcDbTableStyle
  3
ObjectDBX Classes
 90
     4095
280
     0
281
     0
  0
CLASS
  1
SCALE
  2
AcDbScale
  3
ObjectDBX Classes
 90
     1153
280
     0
281
     0
  0
CLASS
  1
MLEADERSTYLE
  2
AcDbMLeaderStyle
  3
ACDB_MLEADERSTYLE_CLASS
 90
     4095
280
     0
281
     0
  0
CLASS
  1
DICTIONARYVAR
  2
AcDbDictionaryVar
  3
ObjectDBX Classes
 90
        0
280
     0
281
     0
  0
CLASS
  1
AEC_REFEDIT_STATUS_TRACKER
  2
AecDbRefEditStatusTracker
  3
AecArchBase60|Product Desc: Autodesk Architectural Desktop 2007 |Company: Autodesk,Inc. |WEB Address: www.autodesk.com
 90
      129
280
     0
281
     0
  0
CLASS
  1
NPOCOLLECTION
  2
AcDbImpNonPersistentObjectsCollection
  3
ObjectDBX Classes
 90
     1153
280
     0
281
     0
  0
CLASS
  1
SORTENTSTABLE
  2
AcDbSortentsTable
  3
ObjectDBX Classes
 90
        0
280
     0
281
     0
  0
CLASS
  1
CELLSTYLEMAP
  2
AcDbCellStyleMap
  3
ObjectDBX Classes
 90
     1152
280
     0
281
     0
  0
CLASS
  1
ACDBPLACEHOLDER
  2
AcDbPlaceHolder
  3
ObjectDBX Classes
 90
        0
280
     0
281
     0
  0
CLASS
  1
LAYOUT
  2
AcDbLayout
  3
ObjectDBX Classes
 90
        0
280
     0
281
     0
  0
ENDSEC
  0
SECTION
  2
TABLES
  0
TABLE
  2
VPORT
  5
22
330
0
100
AcDbSymbolTable
 70
     1
  0
VPORT
  5
198
330
22
100
AcDbSymbolTableRecord
100
AcDbViewportTableRecord
  2
*Active
 70
     0
 10
0.0
 20
0.0
 11
1.0
 21
1.0
 12
23898.45673103866
 22
7322.298314936412
 13
0.0
 23
0.0
 14
1.0
 24
1.0
 15
0.0
 25
0.0
 16
0.0
 26
0.0
 36
1.0
 17
0.0
 27
0.0
 37
0.0
 40
1366.723103222559
 41
2.015345268542199
 42
50.0
 43
0.0
 44
0.0
 50
0.0
 51
0.0
 71
     0
 72
  1000
 73
     1
 74
     3
 75
     0
 76
     0
 77
     0
 78
     0
281
     0
 65
     1
110
0.0
120
0.0
130
0.0
111
1.0
121
0.0
131
0.0
112
0.0
122
1.0
132
0.0
 79
     0
146
0.0
  0
ENDTAB
  0
TABLE
  2
LTYPE
  5
28
330
0
100
AcDbSymbolTable
 70
    11
  0
LTYPE
  5
29
330
28
100
AcDbSymbolTableRecord
100
AcDbLinetypeTableRecord
  2
BYBLOCK
 70
     0
  3

 72
    65
 73
     0
 40
0.0
  0
LTYPE
  5
2A
330
28
100
AcDbSymbolTableRecord
100
AcDbLinetypeTableRecord
  2
BYLAYER
 70
     0
  3

 72
    65
 73
     0
 40
0.0
  0
LTYPE
  5
2B
330
28
100
AcDbSymbolTableRecord
100
AcDbLinetypeTableRecord
  2
CONTINUOUS
 70
     0
  3
Solid line
 72
    65
 73
     0
 40
0.0
  0
LTYPE
  5
2C
330
28
100
AcDbSymbolTableRecord
100
AcDbLinetypeTableRecord
  2
DOT
 70
     0
  3
. . . . . . . . . . . . . . . . . . . . . . . .
 72
    65
 73
     2
 40
2.5
 49
0.0
 74
     0
 49
-2.5
 74
     0
  0
LTYPE
  5
2D
330
28
100
AcDbSymbolTableRecord
100
AcDbLinetypeTableRecord
  2
HIDDEN
 70
     0
  3
__ __ __ __ __ __ __ __ __ __ __ __ __ __ __ __
 72
    65
 73
     2
 40
1.875
 49
1.25
 74
     0
 49
-0.625
 74
     0
  0
LTYPE
  5
2E
330
28
100
AcDbSymbolTableRecord
100
AcDbLinetypeTableRecord
  2
CENTER
 70
     0
  3
 ____ _ ____ _ ____ _ ____ _ ____ _ ____ _ ____
 72
    65
 73
     4
 40
20.0
 49
12.5
 74
     0
 49
-2.5
 74
     0
 49
2.5
 74
     0
 49
-2.5
 74
     0
  0
LTYPE
  5
2F
330
28
100
AcDbSymbolTableRecord
100
AcDbLinetypeTableRecord
  2
CADWORK_22
 70
     0
  3
22 =======================================
 72
    65
 73
     0
 40
0.0
  0
LTYPE
  5
30
330
28
100
AcDbSymbolTableRecord
100
AcDbLinetypeTableRecord
  2
DAL
 70
     0
  3
Solid line (for MAPS)
 72
    65
 73
     0
 40
0.0
  0
LTYPE
  5
31
330
28
100
AcDbSymbolTableRecord
100
AcDbLinetypeTableRecord
  2
MUR
 70
     0
  3
Solid line (for MAPS)
 72
    65
 73
     0
 40
0.0
  0
LTYPE
  5
32
330
28
100
AcDbSymbolTableRecord
100
AcDbLinetypeTableRecord
  2
SOM
 70
     0
  3
Solid line (for MAPS)
 72
    65
 73
     0
 40
0.0
  0
LTYPE
  5
33
330
28
100
AcDbSymbolTableRecord
100
AcDbLinetypeTableRecord
  2
COL
 70
     0
  3
Solid line (for MAPS)
 72
    65
 73
     0
 40
0.0
  0
LTYPE
  5
34
330
28
100
AcDbSymbolTableRecord
100
AcDbLinetypeTableRecord
  2
LGN
 70
     0
  3
Solid line (for MAPS)
 72
    65
 73
     0
 40
0.0
  0
LTYPE
  5
35
330
28
100
AcDbSymbolTableRecord
100
AcDbLinetypeTableRecord
  2
PNT
 70
     0
  3
Solid line (for MAPS)
 72
    65
 73
     0
 40
0.0
  0
ENDTAB
  0
TABLE
  2
LAYER
  5
36
330
0
100
AcDbSymbolTable
 70
    32
  0
LAYER
  5
37
102
{ACAD_XDICTIONARY
360
1C5
102
}
330
36
100
AcDbSymbolTableRecord
100
AcDbLayerTableRecord
  2
STANDARD
 70
     0
 62
     7
  6
CONTINUOUS
370
    -3
390
147
  0
LAYER
  5
38
102
{ACAD_XDICTIONARY
360
1C7
102
}
330
36
100
AcDbSymbolTableRecord
100
AcDbLayerTableRecord
  2
Ech.1_1
 70
     0
 62
     7
  6
CONTINUOUS
370
    -3
390
147
  0
LAYER
  5
39
102
{ACAD_XDICTIONARY
360
1C9
102
}
330
36
100
AcDbSymbolTableRecord
100
AcDbLayerTableRecord
  2
Ech.1_2
 70
     0
 62
     7
  6
CONTINUOUS
370
    -3
390
147
  0
LAYER
  5
3A
102
{ACAD_XDICTIONARY
360
1CB
102
}
330
36
100
AcDbSymbolTableRecord
100
AcDbLayerTableRecord
  2
Ech.1_5
 70
     0
 62
     7
  6
CONTINUOUS
370
    -3
390
147
  0
LAYER
  5
3B
102
{ACAD_XDICTIONARY
360
1CD
102
}
330
36
100
AcDbSymbolTableRecord
100
AcDbLayerTableRecord
  2
Ech.1_10
 70
     0
 62
     7
  6
CONTINUOUS
370
    -3
390
147
  0
LAYER
  5
3C
102
{ACAD_XDICTIONARY
360
1CF
102
}
330
36
100
AcDbSymbolTableRecord
100
AcDbLayerTableRecord
  2
Ech.1_20
 70
     0
 62
     7
  6
CONTINUOUS
370
    -3
390
147
  0
LAYER
  5
3D
102
{ACAD_XDICTIONARY
360
1D1
102
}
330
36
100
AcDbSymbolTableRecord
100
AcDbLayerTableRecord
  2
Ech.1_25
 70
     0
 62
     7
  6
CONTINUOUS
370
    -3
390
147
  0
LAYER
  5
3E
102
{ACAD_XDICTIONARY
360
1D3
102
}
330
36
100
AcDbSymbolTableRecord
100
AcDbLayerTableRecord
  2
Ech.1_33
 70
     0
 62
     7
  6
CONTINUOUS
370
    -3
390
147
  0
LAYER
  5
3F
102
{ACAD_XDICTIONARY
360
1D5
102
}
330
36
100
AcDbSymbolTableRecord
100
AcDbLayerTableRecord
  2
Ech.1_50
 70
     0
 62
     7
  6
CONTINUOUS
370
    -3
390
147
  0
LAYER
  5
40
102
{ACAD_XDICTIONARY
360
1D7
102
}
330
36
100
AcDbSymbolTableRecord
100
AcDbLayerTableRecord
  2
Ech.1_75
 70
     0
 62
     7
  6
CONTINUOUS
370
    -3
390
147
  0
LAYER
  5
41
102
{ACAD_XDICTIONARY
360
1D9
102
}
330
36
100
AcDbSymbolTableRecord
100
AcDbLayerTableRecord
  2
Ech.1_100
 70
     0
 62
     7
  6
CONTINUOUS
370
    -3
390
147
  0
LAYER
  5
42
102
{ACAD_XDICTIONARY
360
1DB
102
}
330
36
100
AcDbSymbolTableRecord
100
AcDbLayerTableRecord
  2
Ech.1_200
 70
     0
 62
     7
  6
CONTINUOUS
370
    -3
390
147
  0
LAYER
  5
43
102
{ACAD_XDICTIONARY
360
1DD
102
}
330
36
100
AcDbSymbolTableRecord
100
AcDbLayerTableRecord
  2
Ech.1_500
 70
     0
 62
     7
  6
CONTINUOUS
370
    -3
390
147
  0
LAYER
  5
44
102
{ACAD_XDICTIONARY
360
1DF
102
}
330
36
100
AcDbSymbolTableRecord
100
AcDbLayerTableRecord
  2
Ech.1_1000
 70
     0
 62
     7
  6
CONTINUOUS
370
    -3
390
147
  0
LAYER
  5
45
102
{ACAD_XDICTIONARY
360
1E1
102
}
330
36
100
AcDbSymbolTableRecord
100
AcDbLayerTableRecord
  2
Cadres traceur
 70
     0
 62
     7
  6
CONTINUOUS
370
    -3
390
147
  0
LAYER
  5
46
102
{ACAD_XDICTIONARY
360
1E3
102
}
330
36
100
AcDbSymbolTableRecord
100
AcDbLayerTableRecord
  2
Cadres laser
 70
     0
 62
     7
  6
CONTINUOUS
370
    -3
390
147
  0
LAYER
  5
47
102
{ACAD_XDICTIONARY
360
1E5
102
}
330
36
100
AcDbSymbolTableRecord
100
AcDbLayerTableRecord
  2
Légende d_aide
 70
     0
 62
     7
  6
CONTINUOUS
370
    -3
390
147
  0
LAYER
  5
48
102
{ACAD_XDICTIONARY
360
1E7
102
}
330
36
100
AcDbSymbolTableRecord
100
AcDbLayerTableRecord
  2
hachures ok
 70
     0
 62
     7
  6
CONTINUOUS
370
    -3
390
147
  0
LAYER
  5
49
102
{ACAD_XDICTIONARY
360
1E9
102
}
330
36
100
AcDbSymbolTableRecord
100
AcDbLayerTableRecord
  2
ossature bois
 70
     0
 62
     7
  6
CONTINUOUS
370
    -3
390
147
  0
LAYER
  5
4A
102
{ACAD_XDICTIONARY
360
1EB
102
}
330
36
100
AcDbSymbolTableRecord
100
AcDbLayerTableRecord
  2
VR
 70
     0
 62
     7
  6
CONTINUOUS
370
    -3
390
147
  0
LAYER
  5
4B
102
{ACAD_XDICTIONARY
360
1ED
102
}
330
36
100
AcDbSymbolTableRecord
100
AcDbLayerTableRecord
  2
CALQUE1
 70
     0
 62
     7
  6
CONTINUOUS
370
    -3
390
147
  0
LAYER
  5
4C
330
36
100
AcDbSymbolTableRecord
100
AcDbLayerTableRecord
  2
0
 70
     0
 62
     7
  6
CONTINUOUS
370
    -3
390
147
  0
LAYER
  5
4D
102
{ACAD_XDICTIONARY
360
1EF
102
}
330
36
100
AcDbSymbolTableRecord
100
AcDbLayerTableRecord
  2
MENUISERIE
 70
     0
 62
     7
  6
CONTINUOUS
370
    -3
390
147
  0
LAYER
  5
4E
102
{ACAD_XDICTIONARY
360
1F1
102
}
330
36
100
AcDbSymbolTableRecord
100
AcDbLayerTableRecord
  2
COTATION
 70
     0
 62
   250
  6
CONTINUOUS
370
    -3
390
147
  0
LAYER
  5
4F
330
36
100
AcDbSymbolTableRecord
100
AcDbLayerTableRecord
  2
DEFPOINTS
 70
     0
 62
    10
  6
CONTINUOUS
290
     0
370
    -3
390
147
  0
LAYER
  5
50
102
{ACAD_XDICTIONARY
360
1F3
102
}
330
36
100
AcDbSymbolTableRecord
100
AcDbLayerTableRecord
  2
HACHURE
 70
     0
 62
   254
  6
CONTINUOUS
370
    -3
390
147
  0
LAYER
  5
51
102
{ACAD_XDICTIONARY
360
1F5
102
}
330
36
100
AcDbSymbolTableRecord
100
AcDbLayerTableRecord
  2
MAT1
 70
     0
 62
     7
  6
CONTINUOUS
370
    -3
390
147
  0
LAYER
  5
52
102
{ACAD_XDICTIONARY
360
1F7
102
}
330
36
100
AcDbSymbolTableRecord
100
AcDbLayerTableRecord
  2
MAT2
 70
     0
 62
     7
  6
CONTINUOUS
370
    -3
390
147
  0
LAYER
  5
53
102
{ACAD_XDICTIONARY
360
1F9
102
}
330
36
100
AcDbSymbolTableRecord
100
AcDbLayerTableRecord
  2
HACH
 70
     0
 62
     8
  6
CONTINUOUS
370
    -3
390
147
  0
LAYER
  5
54
102
{ACAD_XDICTIONARY
360
1FB
102
}
330
36
100
AcDbSymbolTableRecord
100
AcDbLayerTableRecord
  2
MENUISERIES
 70
     0
 62
     7
  6
CONTINUOUS
370
    -3
390
147
  0
LAYER
  5
55
102
{ACAD_XDICTIONARY
360
1FD
102
}
330
36
100
AcDbSymbolTableRecord
100
AcDbLayerTableRecord
  2
BÉTONMÉTAL
 70
     0
 62
     7
  6
CONTINUOUS
370
    -3
390
147
  0
LAYER
  5
56
102
{ACAD_XDICTIONARY
360
1FF
102
}
330
36
100
AcDbSymbolTableRecord
100
AcDbLayerTableRecord
  2
BOIS
 70
     0
 62
     7
  6
CONTINUOUS
370
    -3
390
147
  0
ENDTAB
  0
TABLE
  2
STYLE
  5
23
330
0
100
AcDbSymbolTable
 70
     4
  0
STYLE
  5
24
330
23
100
AcDbSymbolTableRecord
100
AcDbTextStyleTableRecord
  2
STANDARD
 70
     0
 40
0.0
 41
1.0
 50
0.0
 71
     0
 42
3.5
  3
MONOTXT
  4

  0
STYLE
  5
25
330
23
100
AcDbSymbolTableRecord
100
AcDbTextStyleTableRecord
  2
CADWORK1
 70
     0
 40
0.0
 41
1.0
 50
0.0
 71
     0
 42
3.5
  3
MONOTXT
  4

  0
STYLE
  5
26
330
23
100
AcDbSymbolTableRecord
100
AcDbTextStyleTableRecord
  2
MONOTXT
 70
     0
 40
0.0
 41
1.0
 50
0.0
 71
     0
 42
3.5
  3
MONOTXT
  4

  0
STYLE
  5
27
330
23
100
AcDbSymbolTableRecord
100
AcDbTextStyleTableRecord
  2
ARIAL
 70
     0
 40
0.0
 41
1.0
 50
0.0
 71
     0
 42
3.5
  3

  4

1001
ACAD
1000
Arial
1071
        0
  0
ENDTAB
  0
TABLE
  2
VIEW
  5
57
330
0
100
AcDbSymbolTable
 70
     4
  0
ENDTAB
  0
TABLE
  2
UCS
  5
58
330
0
100
AcDbSymbolTable
 70
     0
  0
ENDTAB
  0
TABLE
  2
APPID
  5
59
330
0
100
AcDbSymbolTable
 70
     2
  0
APPID
  5
5A
330
59
100
AcDbSymbolTableRecord
100
AcDbRegAppTableRecord
  2
ACAD
 70
     0
  0
APPID
  5
241
330
59
100
AcDbSymbolTableRecord
100
AcDbRegAppTableRecord
  2
ACAD_MLEADERVER
 70
     0
  0
ENDTAB
  0
TABLE
  2
DIMSTYLE
  5
5B
330
0
100
AcDbSymbolTable
 70
     1
100
AcDbDimStyleTable
 71
     0
  0
DIMSTYLE
105
191
330
5B
100
AcDbSymbolTableRecord
100
AcDbDimStyleTableRecord
  2
Standard
 70
     0
340
24
  0
ENDTAB
  0
TABLE
  2
BLOCK_RECORD
  5
5C
330
0
100
AcDbSymbolTable
 70
    24
  0
BLOCK_RECORD
  5
5D
102
{ACAD_XDICTIONARY
360
1AD
102
}
330
5C
100
AcDbSymbolTableRecord
100
AcDbBlockTableRecord
  2
*MODEL_SPACE
340
194
  0
BLOCK_RECORD
  5
5E
330
5C
100
AcDbSymbolTableRecord
100
AcDbBlockTableRecord
  2
*PAPER_SPACE
340
195
  0
BLOCK_RECORD
  5
5F
330
5C
100
AcDbSymbolTableRecord
100
AcDbBlockTableRecord
  2
CDWK_EXTR_0
340
0
  0
BLOCK_RECORD
  5
60
330
5C
100
AcDbSymbolTableRecord
100
AcDbBlockTableRecord
  2
CDWK_EXTR_1D
340
0
  0
BLOCK_RECORD
  5
61
330
5C
100
AcDbSymbolTableRecord
100
AcDbBlockTableRecord
  2
CDWK_EXTR_1G
340
0
  0
BLOCK_RECORD
  5
62
330
5C
100
AcDbSymbolTableRecord
100
AcDbBlockTableRecord
  2
CDWK_EXTR_2
340
0
  0
BLOCK_RECORD
  5
63
330
5C
100
AcDbSymbolTableRecord
100
AcDbBlockTableRecord
  2
CDWK_EXTR_3
340
0
  0
BLOCK_RECORD
  5
64
330
5C
100
AcDbSymbolTableRecord
100
AcDbBlockTableRecord
  2
CDWK_EXTR_4
340
0
  0
BLOCK_RECORD
  5
65
330
5C
100
AcDbSymbolTableRecord
100
AcDbBlockTableRecord
  2
CDWK_PTTYP0
340
0
  0
BLOCK_RECORD
  5
66
330
5C
100
AcDbSymbolTableRecord
100
AcDbBlockTableRecord
  2
*X7
340
0
102
{BLKREFS
331
D7
102
}
  0
BLOCK_RECORD
  5
67
330
5C
100
AcDbSymbolTableRecord
100
AcDbBlockTableRecord
  2
*X8
340
0
102
{BLKREFS
331
D8
102
}
  0
BLOCK_RECORD
  5
68
330
5C
100
AcDbSymbolTableRecord
100
AcDbBlockTableRecord
  2
*X9
340
0
102
{BLKREFS
331
D9
102
}
  0
BLOCK_RECORD
  5
69
330
5C
100
AcDbSymbolTableRecord
100
AcDbBlockTableRecord
  2
*X10
340
0
102
{BLKREFS
331
DA
102
}
  0
BLOCK_RECORD
  5
6A
330
5C
100
AcDbSymbolTableRecord
100
AcDbBlockTableRecord
  2
*X11
340
0
102
{BLKREFS
331
DB
102
}
  0
BLOCK_RECORD
  5
6B
330
5C
100
AcDbSymbolTableRecord
100
AcDbBlockTableRecord
  2
*X12
340
0
102
{BLKREFS
331
DC
102
}
  0
BLOCK_RECORD
  5
6C
330
5C
100
AcDbSymbolTableRecord
100
AcDbBlockTableRecord
  2
*X13
340
0
102
{BLKREFS
331
DD
102
}
  0
BLOCK_RECORD
  5
6D
330
5C
100
AcDbSymbolTableRecord
100
AcDbBlockTableRecord
  2
*X14
340
0
102
{BLKREFS
331
DE
102
}
  0
BLOCK_RECORD
  5
6E
330
5C
100
AcDbSymbolTableRecord
100
AcDbBlockTableRecord
  2
*X15
340
0
102
{BLKREFS
331
DF
102
}
  0
BLOCK_RECORD
  5
6F
330
5C
100
AcDbSymbolTableRecord
100
AcDbBlockTableRecord
  2
*X16
340
0
102
{BLKREFS
331
E0
102
}
  0
BLOCK_RECORD
  5
70
330
5C
100
AcDbSymbolTableRecord
100
AcDbBlockTableRecord
  2
*X17
340
0
102
{BLKREFS
331
E1
102
}
  0
BLOCK_RECORD
  5
71
330
5C
100
AcDbSymbolTableRecord
100
AcDbBlockTableRecord
  2
*X18
340
0
102
{BLKREFS
331
E2
102
}
  0
BLOCK_RECORD
  5
72
330
5C
100
AcDbSymbolTableRecord
100
AcDbBlockTableRecord
  2
*X19
340
0
102
{BLKREFS
331
E3
102
}
  0
BLOCK_RECORD
  5
73
330
5C
100
AcDbSymbolTableRecord
100
AcDbBlockTableRecord
  2
*X20
340
0
102
{BLKREFS
331
E4
102
}
  0
BLOCK_RECORD
  5
74
330
5C
100
AcDbSymbolTableRecord
100
AcDbBlockTableRecord
  2
*X21
340
0
102
{BLKREFS
331
E5
102
}
  0
BLOCK_RECORD
  5
75
330
5C
100
AcDbSymbolTableRecord
100
AcDbBlockTableRecord
  2
*X22
340
0
102
{BLKREFS
331
E6
102
}
  0
BLOCK_RECORD
  5
76
330
5C
100
AcDbSymbolTableRecord
100
AcDbBlockTableRecord
  2
*D23
340
0
102
{BLKREFS
331
142
102
}
  0
ENDTAB
  0
ENDSEC
  0
SECTION
  2
BLOCKS
  0
BLOCK
  5
77
330
5D
100
AcDbEntity
  8
0
100
AcDbBlockBegin
  2
*MODEL_SPACE
 70
     0
 10
0.0
 20
0.0
 30
0.0
  3
*MODEL_SPACE
  1

  0
ENDBLK
  5
78
330
5D
100
AcDbEntity
  8
0
100
AcDbBlockEnd
  0
BLOCK
  5
79
330
5E
100
AcDbEntity
 67
     1
  8
0
100
AcDbBlockBegin
  2
*PAPER_SPACE
 70
     0
 10
0.0
 20
0.0
 30
0.0
  3
*PAPER_SPACE
  1

  0
ENDBLK
  5
7A
330
5E
100
AcDbEntity
 67
     1
  8
0
100
AcDbBlockEnd
  0
BLOCK
  5
7B
330
5F
100
AcDbEntity
  8
0
100
AcDbBlockBegin
  2
CDWK_EXTR_0
 70
     0
 10
0.0
 20
0.0
 30
0.0
  3
CDWK_EXTR_0
  1

  0
LINE
  5
7C
330
5F
100
AcDbEntity
  8
0
 62
     0
370
    -2
100
AcDbLine
 10
0.0
 20
0.0
 30
0.0
 11
2.0
 21
0.5
 31
0.0
  0
LINE
  5
7D
330
5F
100
AcDbEntity
  8
0
 62
     0
370
    -2
100
AcDbLine
 10
0.0
 20
0.0
 30
0.0
 11
2.0
 21
-0.5
 31
0.0
  0
LINE
  5
7E
330
5F
100
AcDbEntity
  8
0
 62
     0
370
    -2
100
AcDbLine
 10
2.0
 20
0.5
 30
0.0
 11
2.0
 21
-0.5
 31
0.0
  0
ENDBLK
  5
7F
330
5F
100
AcDbEntity
  8
0
100
AcDbBlockEnd
  0
BLOCK
  5
80
330
60
100
AcDbEntity
  8
0
100
AcDbBlockBegin
  2
CDWK_EXTR_1D
 70
     0
 10
0.0
 20
0.0
 30
0.0
  3
CDWK_EXTR_1D
  1

  0
LINE
  5
81
330
60
100
AcDbEntity
  8
0
 62
     0
370
    -2
100
AcDbLine
 10
0.0
 20
0.0
 30
0.0
 11
0.0
 21
1.0
 31
0.0
  0
LINE
  5
82
330
60
100
AcDbEntity
  8
0
 62
     0
370
    -2
100
AcDbLine
 10
0.0
 20
1.0
 30
0.0
 11
0.5
 21
1.5
 31
0.0
  0
LINE
  5
83
330
60
100
AcDbEntity
  8
0
 62
     0
370
    -2
100
AcDbLine
 10
0.5
 20
1.5
 30
0.0
 11
1.5
 21
1.5
 31
0.0
  0
ENDBLK
  5
84
330
60
100
AcDbEntity
  8
0
100
AcDbBlockEnd
  0
BLOCK
  5
85
330
61
100
AcDbEntity
  8
0
100
AcDbBlockBegin
  2
CDWK_EXTR_1G
 70
     0
 10
0.0
 20
0.0
 30
0.0
  3
CDWK_EXTR_1G
  1

  0
LINE
  5
86
330
61
100
AcDbEntity
  8
0
 62
     0
370
    -2
100
AcDbLine
 10
0.0
 20
0.0
 30
0.0
 11
0.0
 21
-1.0
 31
0.0
  0
LINE
  5
87
330
61
100
AcDbEntity
  8
0
 62
     0
370
    -2
100
AcDbLine
 10
0.0
 20
-1.0
 30
0.0
 11
0.5
 21
-1.5
 31
0.0
  0
LINE
  5
88
330
61
100
AcDbEntity
  8
0
 62
     0
370
    -2
100
AcDbLine
 10
0.5
 20
-1.5
 30
0.0
 11
1.5
 21
-1.5
 31
0.0
  0
ENDBLK
  5
89
330
61
100
AcDbEntity
  8
0
100
AcDbBlockEnd
  0
BLOCK
  5
8A
330
62
100
AcDbEntity
  8
0
100
AcDbBlockBegin
  2
CDWK_EXTR_2
 70
     0
 10
0.0
 20
0.0
 30
0.0
  3
CDWK_EXTR_2
  1

  0
SOLID
  5
8B
330
62
100
AcDbEntity
  8
0
 62
     0
100
AcDbTrace
 10
0.0
 20
0.0
 30
0.0
 11
2.0
 21
0.5
 31
0.0
 12
2.0
 22
-0.5
 32
0.0
 13
2.0
 23
-0.5
 33
0.0
  0
ENDBLK
  5
8C
330
62
100
AcDbEntity
  8
0
100
AcDbBlockEnd
  0
BLOCK
  5
8D
330
63
100
AcDbEntity
  8
0
100
AcDbBlockBegin
  2
CDWK_EXTR_3
 70
     0
 10
0.0
 20
0.0
 30
0.0
  3
CDWK_EXTR_3
  1

  0
SOLID
  5
8E
330
63
100
AcDbEntity
  8
0
 62
     0
100
AcDbTrace
 10
0.0
 20
0.0
 30
0.0
 11
2.0
 21
0.5
 31
0.0
 12
2.0
 22
-0.5
 32
0.0
 13
2.0
 23
-0.5
 33
0.0
  0
LINE
  5
8F
330
63
100
AcDbEntity
  8
0
 62
     0
370
    -2
100
AcDbLine
 10
0.0
 20
1.0
 30
0.0
 11
0.0
 21
-1.0
 31
0.0
  0
ENDBLK
  5
90
330
63
100
AcDbEntity
  8
0
100
AcDbBlockEnd
  0
BLOCK
  5
91
330
64
100
AcDbEntity
  8
0
100
AcDbBlockBegin
  2
CDWK_EXTR_4
 70
     0
 10
0.0
 20
0.0
 30
0.0
  3
CDWK_EXTR_4
  1

  0
HATCH
  5
92
330
64
100
AcDbEntity
  8
0
 62
     0
370
    20
100
AcDbHatch
 10
0.0
 20
0.0
 30
0.0
210
0.0
220
0.0
230
1.0
  2
SOLID
 70
     1
 71
     0
 91
        1
 92
        1
 93
        1
 72
     2
 10
0.0
 20
0.0
 40
0.5
 50
0.0
 51
360.0
 73
     1
 97
        0
 75
     0
 76
     1
 98
        1
 10
0.0
 20
0.0
  0
ENDBLK
  5
93
330
64
100
AcDbEntity
  8
0
100
AcDbBlockEnd
  0
BLOCK
  5
94
330
65
100
AcDbEntity
  8
0
100
AcDbBlockBegin
  2
CDWK_PTTYP0
 70
     0
 10
0.0
 20
0.0
 30
0.0
  3
CDWK_PTTYP0
  1

  0
POINT
  5
95
330
65
100
AcDbEntity
  8
0
 62
     0
100
AcDbPoint
 10
0.0
 20
0.0
 30
0.0
  0
ENDBLK
  5
96
330
65
100
AcDbEntity
  8
0
100
AcDbBlockEnd
  0
BLOCK
  5
97
330
66
100
AcDbEntity
  8
Ech.1_5
100
AcDbBlockBegin
  2
*X7
 70
     1
 10
0.0
 20
0.0
 30
0.0
  3
*X7
  1

  0
ENDBLK
  5
98
330
66
100
AcDbEntity
  8
0
100
AcDbBlockEnd
  0
BLOCK
  5
99
330
67
100
AcDbEntity
  8
Ech.1_5
100
AcDbBlockBegin
  2
*X8
 70
     1
 10
0.0
 20
0.0
 30
0.0
  3
*X8
  1

  0
ENDBLK
  5
9A
330
67
100
AcDbEntity
  8
0
100
AcDbBlockEnd
  0
BLOCK
  5
9B
330
68
100
AcDbEntity
  8
Ech.1_5
100
AcDbBlockBegin
  2
*X9
 70
     1
 10
0.0
 20
0.0
 30
0.0
  3
*X9
  1

  0
ENDBLK
  5
9C
330
68
100
AcDbEntity
  8
0
100
AcDbBlockEnd
  0
BLOCK
  5
9D
330
69
100
AcDbEntity
  8
Ech.1_5
100
AcDbBlockBegin
  2
*X10
 70
     1
 10
0.0
 20
0.0
 30
0.0
  3
*X10
  1

  0
ENDBLK
  5
9E
330
69
100
AcDbEntity
  8
0
100
AcDbBlockEnd
  0
BLOCK
  5
9F
330
6A
100
AcDbEntity
  8
Ech.1_5
100
AcDbBlockBegin
  2
*X11
 70
     1
 10
0.0
 20
0.0
 30
0.0
  3
*X11
  1

  0
LINE
  5
A0
330
6A
100
AcDbEntity
  8
Ech.1_5
  6
Continuous
 62
     7
370
    -2
100
AcDbLine
 10
24027.92581143
 20
7858.31136394
 30
0.0
 11
24067.92561855
 21
7813.31202244
 31
0.0
  0
LINE
  5
A1
330
6A
100
AcDbEntity
  8
Ech.1_5
  6
Continuous
 62
     7
370
    -2
100
AcDbLine
 10
24067.92561855
 20
7858.31136394
 30
0.0
 11
24027.92581143
 21
7813.31202244
 31
0.0
  0
ENDBLK
  5
A2
330
6A
100
AcDbEntity
  8
0
100
AcDbBlockEnd
  0
BLOCK
  5
A3
330
6B
100
AcDbEntity
  8
Ech.1_5
100
AcDbBlockBegin
  2
*X12
 70
     1
 10
0.0
 20
0.0
 30
0.0
  3
*X12
  1

  0
LINE
  5
A4
330
6B
100
AcDbEntity
  8
Ech.1_5
  6
Continuous
 62
     7
370
    -2
100
AcDbLine
 10
23759.92533777
 20
7548.36672168
 30
0.0
 11
23799.92514488
 21
7503.36561417
 31
0.0
  0
LINE
  5
A5
330
6B
100
AcDbEntity
  8
Ech.1_5
  6
Continuous
 62
     7
370
    -2
100
AcDbLine
 10
23799.92514488
 20
7548.36672168
 30
0.0
 11
23759.92533777
 21
7503.36561417
 31
0.0
  0
ENDBLK
  5
A6
330
6B
100
AcDbEntity
  8
0
100
AcDbBlockEnd
  0
BLOCK
  5
A7
330
6C
100
AcDbEntity
  8
Ech.1_5
100
AcDbBlockBegin
  2
*X13
 70
     1
 10
0.0
 20
0.0
 30
0.0
  3
*X13
  1

  0
LINE
  5
A8
330
6C
100
AcDbEntity
  8
Ech.1_5
  6
Continuous
 62
     7
370
    -2
100
AcDbLine
 10
24027.92581143
 20
7548.36672168
 30
0.0
 11
24067.92561855
 21
7503.36561417
 31
0.0
  0
LINE
  5
A9
330
6C
100
AcDbEntity
  8
Ech.1_5
  6
Continuous
 62
     7
370
    -2
100
AcDbLine
 10
24067.92561855
 20
7548.36672168
 30
0.0
 11
24027.92581143
 21
7503.36561417
 31
0.0
  0
ENDBLK
  5
AA
330
6C
100
AcDbEntity
  8
0
100
AcDbBlockEnd
  0
BLOCK
  5
AB
330
6D
100
AcDbEntity
  8
Ech.1_5
100
AcDbBlockBegin
  2
*X14
 70
     1
 10
0.0
 20
0.0
 30
0.0
  3
*X14
  1

  0
LINE
  5
AC
330
6D
100
AcDbEntity
  8
Ech.1_5
  6
Continuous
 62
     7
370
    -2
100
AcDbLine
 10
23759.92533777
 20
7858.31136394
 30
0.0
 11
23799.92514488
 21
7813.31202244
 31
0.0
  0
LINE
  5
AD
330
6D
100
AcDbEntity
  8
Ech.1_5
  6
Continuous
 62
     7
370
    -2
100
AcDbLine
 10
23799.92514488
 20
7858.31136394
 30
0.0
 11
23759.92533777
 21
7813.31202244
 31
0.0
  0
ENDBLK
  5
AE
330
6D
100
AcDbEntity
  8
0
100
AcDbBlockEnd
  0
BLOCK
  5
AF
330
6E
100
AcDbEntity
  8
Ech.1_5
100
AcDbBlockBegin
  2
*X15
 70
     1
 10
0.0
 20
0.0
 30
0.0
  3
*X15
  1

  0
LINE
  5
B0
330
6E
100
AcDbEntity
  8
Ech.1_5
  6
Continuous
 62
     7
370
    -2
100
AcDbLine
 10
24148.2166221
 20
7086.04135726
 30
0.0
 11
24193.21596361
 21
7181.041340660001
 31
0.0
  0
LINE
  5
B1
330
6E
100
AcDbEntity
  8
Ech.1_5
  6
Continuous
 62
     7
370
    -2
100
AcDbLine
 10
24193.21596361
 20
7086.04135726
 30
0.0
 11
24148.2166221
 21
7181.041340660001
 31
0.0
  0
ENDBLK
  5
B2
330
6E
100
AcDbEntity
  8
0
100
AcDbBlockEnd
  0
BLOCK
  5
B3
330
6F
100
AcDbEntity
  8
Ech.1_5
100
AcDbBlockBegin
  2
*X16
 70
     1
 10
0.0
 20
0.0
 30
0.0
  3
*X16
  1

  0
LINE
  5
B4
330
6F
100
AcDbEntity
  8
Ech.1_5
  6
Continuous
 62
     7
370
    -2
100
AcDbLine
 10
23708.90218425
 20
7086.04135726
 30
0.0
 11
23753.90152576
 21
7181.041340660001
 31
0.0
  0
LINE
  5
B5
330
6F
100
AcDbEntity
  8
Ech.1_5
  6
Continuous
 62
     7
370
    -2
100
AcDbLine
 10
23753.90152576
 20
7086.04135726
 30
0.0
 11
23708.90218425
 21
7181.041340660001
 31
0.0
  0
ENDBLK
  5
B6
330
6F
100
AcDbEntity
  8
0
100
AcDbBlockEnd
  0
BLOCK
  5
B7
330
70
100
AcDbEntity
  8
Ech.1_5
100
AcDbBlockBegin
  2
*X17
 70
     1
 10
0.0
 20
0.0
 30
0.0
  3
*X17
  1

  0
LINE
  5
B8
330
70
100
AcDbEntity
  8
Ech.1_5
  6
Continuous
 62
     7
370
    -2
100
AcDbLine
 10
24148.2166221
 20
7201.041244209999
 30
0.0
 11
24193.21596361
 21
7296.04122761
 31
0.0
  0
LINE
  5
B9
330
70
100
AcDbEntity
  8
Ech.1_5
  6
Continuous
 62
     7
370
    -2
100
AcDbLine
 10
24193.21596361
 20
7201.041244209999
 30
0.0
 11
24148.2166221
 21
7296.04122761
 31
0.0
  0
ENDBLK
  5
BA
330
70
100
AcDbEntity
  8
0
100
AcDbBlockEnd
  0
BLOCK
  5
BB
330
71
100
AcDbEntity
  8
Ech.1_5
100
AcDbBlockBegin
  2
*X18
 70
     1
 10
0.0
 20
0.0
 30
0.0
  3
*X18
  1

  0
LINE
  5
BC
330
71
100
AcDbEntity
  8
Ech.1_5
  6
Continuous
 62
     7
370
    -2
100
AcDbLine
 10
23708.90218425
 20
7201.041244209999
 30
0.0
 11
23753.90152576
 21
7296.04122761
 31
0.0
  0
LINE
  5
BD
330
71
100
AcDbEntity
  8
Ech.1_5
  6
Continuous
 62
     7
370
    -2
100
AcDbLine
 10
23753.90152576
 20
7201.041244209999
 30
0.0
 11
23708.90218425
 21
7296.04122761
 31
0.0
  0
ENDBLK
  5
BE
330
71
100
AcDbEntity
  8
0
100
AcDbBlockEnd
  0
BLOCK
  5
BF
330
72
100
AcDbEntity
  8
Ech.1_5
100
AcDbBlockBegin
  2
*X19
 70
     1
 10
0.0
 20
0.0
 30
0.0
  3
*X19
  1

  0
LINE
  5
C0
330
72
100
AcDbEntity
  8
Ech.1_5
  6
Continuous
 62
     7
370
    -2
100
AcDbLine
 10
23753.90152576
 20
7296.04122761
 30
0.0
 11
23708.90218425
 21
7201.041244209999
 31
0.0
  0
LINE
  5
C1
330
72
100
AcDbEntity
  8
Ech.1_5
  6
Continuous
 62
     7
370
    -2
100
AcDbLine
 10
23708.90218425
 20
7296.04122761
 30
0.0
 11
23753.90152576
 21
7201.041244209999
 31
0.0
  0
ENDBLK
  5
C2
330
72
100
AcDbEntity
  8
0
100
AcDbBlockEnd
  0
BLOCK
  5
C3
330
73
100
AcDbEntity
  8
Ech.1_5
100
AcDbBlockBegin
  2
*X20
 70
     1
 10
0.0
 20
0.0
 30
0.0
  3
*X20
  1

  0
LINE
  5
C4
330
73
100
AcDbEntity
  8
Ech.1_5
  6
Continuous
 62
     7
370
    -2
100
AcDbLine
 10
23753.90152576
 20
7181.041340660001
 30
0.0
 11
23708.90218425
 21
7086.04135726
 31
0.0
  0
LINE
  5
C5
330
73
100
AcDbEntity
  8
Ech.1_5
  6
Continuous
 62
     7
370
    -2
100
AcDbLine
 10
23708.90218425
 20
7181.041340660001
 30
0.0
 11
23753.90152576
 21
7086.04135726
 31
0.0
  0
ENDBLK
  5
C6
330
73
100
AcDbEntity
  8
0
100
AcDbBlockEnd
  0
BLOCK
  5
C7
330
74
100
AcDbEntity
  8
Ech.1_5
100
AcDbBlockBegin
  2
*X21
 70
     1
 10
0.0
 20
0.0
 30
0.0
  3
*X21
  1

  0
LINE
  5
C8
330
74
100
AcDbEntity
  8
Ech.1_5
  6
Continuous
 62
     7
370
    -2
100
AcDbLine
 10
24193.21596361
 20
7296.04122761
 30
0.0
 11
24148.2166221
 21
7201.041244209999
 31
0.0
  0
LINE
  5
C9
330
74
100
AcDbEntity
  8
Ech.1_5
  6
Continuous
 62
     7
370
    -2
100
AcDbLine
 10
24148.2166221
 20
7296.04122761
 30
0.0
 11
24193.21596361
 21
7201.041244209999
 31
0.0
  0
ENDBLK
  5
CA
330
74
100
AcDbEntity
  8
0
100
AcDbBlockEnd
  0
BLOCK
  5
CB
330
75
100
AcDbEntity
  8
Ech.1_5
100
AcDbBlockBegin
  2
*X22
 70
     1
 10
0.0
 20
0.0
 30
0.0
  3
*X22
  1

  0
LINE
  5
CC
330
75
100
AcDbEntity
  8
Ech.1_5
  6
Continuous
 62
     7
370
    -2
100
AcDbLine
 10
24193.21596361
 20
7181.041340660001
 30
0.0
 11
24148.2166221
 21
7086.04135726
 31
0.0
  0
LINE
  5
CD
330
75
100
AcDbEntity
  8
Ech.1_5
  6
Continuous
 62
     7
370
    -2
100
AcDbLine
 10
24148.2166221
 20
7181.041340660001
 30
0.0
 11
24193.21596361
 21
7086.04135726
 31
0.0
  0
ENDBLK
  5
CE
330
75
100
AcDbEntity
  8
0
100
AcDbBlockEnd
  0
BLOCK
  5
CF
330
76
100
AcDbEntity
  8
Ech.1_5
100
AcDbBlockBegin
  2
*D23
 70
     1
 10
0.0
 20
0.0
 30
0.0
  3
*D23
  1

  0
TEXT
  5
D0
330
76
100
AcDbEntity
  8
Ech.1_5
 62
     7
370
    18
100
AcDbText
 10
23874.83803495
 20
7931.16093575
 30
0.0
 40
12.5
  1
20 mm mini
  7
ARIAL
100
AcDbText
  0
LINE
  5
D1
330
76
100
AcDbEntity
  8
Ech.1_5
 62
     7
370
    -2
100
AcDbLine
 10
23903.92590461
 20
7921.160935750001
 30
0.0
 11
23903.92590461
 21
7931.27716084
 31
0.0
  0
LINE
  5
D2
330
76
100
AcDbEntity
  8
Ech.1_5
 62
     7
370
    -2
100
AcDbLine
 10
23924.78435339
 20
7921.160935750001
 30
0.0
 11
23924.78435339
 21
7931.27688761
 31
0.0
  0
LINE
  5
D3
330
76
100
AcDbEntity
  8
Ech.1_5
 62
     7
370
    -2
100
AcDbLine
 10
23898.92590461
 20
7926.160935750001
 30
0.0
 11
23929.78435339
 21
7926.160935750001
 31
0.0
  0
LINE
  5
D4
330
76
100
AcDbEntity
  8
Ech.1_5
 62
     7
370
    -2
100
AcDbLine
 10
23901.42590461
 20
7923.66093575
 30
0.0
 11
23906.42590461
 21
7928.660935749999
 31
0.0
  0
LINE
  5
D5
330
76
100
AcDbEntity
  8
Ech.1_5
 62
     7
370
    -2
100
AcDbLine
 10
23922.28435339
 20
7923.66093575
 30
0.0
 11
23927.28435339
 21
7928.660935749999
 31
0.0
  0
ENDBLK
  5
D6
330
76
100
AcDbEntity
  8
0
100
AcDbBlockEnd
  0
ENDSEC
  0
SECTION
  2
ENTITIES
  0
INSERT
  5
D7
330
5D
100
AcDbEntity
  8
Ech.1_5
 62
     0
370
    -3
100
AcDbBlockReference
  2
*X7
 10
0.0
 20
0.0
 30
0.0
  0
INSERT
  5
D8
330
5D
100
AcDbEntity
  8
Ech.1_5
 62
     0
370
    -3
100
AcDbBlockReference
  2
*X8
 10
0.0
 20
0.0
 30
0.0
  0
INSERT
  5
D9
330
5D
100
AcDbEntity
  8
Ech.1_5
 62
     0
370
    -3
100
AcDbBlockReference
  2
*X9
 10
0.0
 20
0.0
 30
0.0
  0
INSERT
  5
DA
330
5D
100
AcDbEntity
  8
Ech.1_5
 62
     0
370
    -3
100
AcDbBlockReference
  2
*X10
 10
0.0
 20
0.0
 30
0.0
  0
INSERT
  5
DB
330
5D
100
AcDbEntity
  8
Ech.1_5
 62
     0
370
    -3
100
AcDbBlockReference
  2
*X11
 10
0.0
 20
0.0
 30
0.0
  0
INSERT
  5
DC
330
5D
100
AcDbEntity
  8
Ech.1_5
 62
     0
370
    -3
100
AcDbBlockReference
  2
*X12
 10
0.0
 20
0.0
 30
0.0
  0
INSERT
  5
DD
330
5D
100
AcDbEntity
  8
Ech.1_5
 62
     0
370
    -3
100
AcDbBlockReference
  2
*X13
 10
0.0
 20
0.0
 30
0.0
  0
INSERT
  5
DE
330
5D
100
AcDbEntity
  8
Ech.1_5
 62
     0
370
    -3
100
AcDbBlockReference
  2
*X14
 10
0.0
 20
0.0
 30
0.0
  0
INSERT
  5
DF
330
5D
100
AcDbEntity
  8
Ech.1_5
 62
     0
370
    -3
100
AcDbBlockReference
  2
*X15
 10
0.0
 20
0.0
 30
0.0
  0
INSERT
  5
E0
330
5D
100
AcDbEntity
  8
Ech.1_5
 62
     0
370
    -3
100
AcDbBlockReference
  2
*X16
 10
0.0
 20
0.0
 30
0.0
  0
INSERT
  5
E1
330
5D
100
AcDbEntity
  8
Ech.1_5
 62
     0
370
    -3
100
AcDbBlockReference
  2
*X17
 10
0.0
 20
0.0
 30
0.0
  0
INSERT
  5
E2
330
5D
100
AcDbEntity
  8
Ech.1_5
 62
     0
370
    -3
100
AcDbBlockReference
  2
*X18
 10
0.0
 20
0.0
 30
0.0
  0
INSERT
  5
E3
330
5D
100
AcDbEntity
  8
Ech.1_5
 62
     0
370
    -3
100
AcDbBlockReference
  2
*X19
 10
0.0
 20
0.0
 30
0.0
  0
INSERT
  5
E4
330
5D
100
AcDbEntity
  8
Ech.1_5
 62
     0
370
    -3
100
AcDbBlockReference
  2
*X20
 10
0.0
 20
0.0
 30
0.0
  0
INSERT
  5
E5
330
5D
100
AcDbEntity
  8
Ech.1_5
 62
     0
370
    -3
100
AcDbBlockReference
  2
*X21
 10
0.0
 20
0.0
 30
0.0
  0
INSERT
  5
E6
330
5D
100
AcDbEntity
  8
Ech.1_5
 62
     0
370
    -3
100
AcDbBlockReference
  2
*X22
 10
0.0
 20
0.0
 30
0.0
  0
LWPOLYLINE
  5
F3
330
5D
100
AcDbEntity
  8
Ech.1_5
  6
Continuous
 62
     7
370
    -3
100
AcDbPolyline
 90
        4
 70
     1
 43
0.0
 10
24027.92590461
 20
7858.31179652
 10
24067.92590461
 20
7858.31179652
 10
24067.92590461
 20
7813.31179652
 10
24027.92590461
 20
7813.31179652
  0
LWPOLYLINE
  5
F4
330
5D
100
AcDbEntity
  8
Ech.1_5
  6
Continuous
 62
     7
370
    -3
100
AcDbPolyline
 90
        4
 70
     1
 43
0.0
 10
23759.92590461
 20
7548.36593799
 10
23799.92590461
 20
7548.36593799
 10
23799.92590461
 20
7503.36593799
 10
23759.92590461
 20
7503.36593799
  0
LWPOLYLINE
  5
F5
330
5D
100
AcDbEntity
  8
Ech.1_5
  6
Continuous
 62
     7
370
    -3
100
AcDbPolyline
 90
        4
 70
     1
 43
0.0
 10
24027.92590461
 20
7548.36593799
 10
24067.92590461
 20
7548.36593799
 10
24067.92590461
 20
7503.36593799
 10
24027.92590461
 20
7503.36593799
  0
LWPOLYLINE
  5
F6
330
5D
100
AcDbEntity
  8
Ech.1_5
  6
Continuous
 62
     7
370
    -3
100
AcDbPolyline
 90
        4
 70
     1
 43
0.0
 10
23746.92590461
 20
7916.276448569999
 10
23759.92590461
 20
7916.276448569999
 10
23759.92590461
 20
7467.800300750001
 10
23746.92590461
 20
7467.800300750001
  0
HATCH
  5
F7
330
5D
100
AcDbEntity
  8
Ech.1_5
  6
Continuous
 62
     7
100
AcDbHatch
 10
0.0
 20
0.0
 30
0.0
210
0.0
220
0.0
230
1.0
  2
DOTS2
 70
     0
 71
     0
 91
        1
 92
        7
 72
     0
 73
     1
 93
        4
 10
23746.92590461
 20
7916.276448569999
 10
23759.92590461
 20
7916.276448569999
 10
23759.92590461
 20
7467.800300750001
 10
23746.92590461
 20
7467.800300750001
 97
        0
 75
     0
 76
     2
 52
0.0
 41
4.72440952
 77
     0
 78
     1
 53
0.0
 43
0.0
 44
0.0
 45
3.75
 46
3.535
 79
     2
 49
0.0
 49
-3.535
 47
0.775229
 98
        1
 10
0.0
 20
0.0
  0
LWPOLYLINE
  5
F8
330
5D
100
AcDbEntity
  8
Ech.1_5
  6
Continuous
 62
     7
370
    -3
100
AcDbPolyline
 90
        4
 70
     1
 43
0.0
 10
23799.92590461
 20
7916.27688761
 10
23808.92590461
 20
7916.27688761
 10
23808.92590461
 20
7467.80050576
 10
23799.92590461
 20
7467.80050576
  0
HATCH
  5
F9
330
5D
100
AcDbEntity
  8
Ech.1_5
  6
Continuous
 62
     7
100
AcDbHatch
 10
0.0
 20
0.0
 30
0.0
210
0.0
220
0.0
230
1.0
  2
CDWK10A
 70
     0
 71
     0
 91
        1
 92
        7
 72
     0
 73
     1
 93
        4
 10
23799.92590461
 20
7916.27688761
 10
23808.92590461
 20
7916.27688761
 10
23808.92590461
 20
7467.80050576
 10
23799.92590461
 20
7467.80050576
 97
        0
 75
     0
 76
     2
 52
0.0
 41
1.0
 77
     0
 78
     3
 53
45.0
 43
0.0
 44
0.0
 45
0.0
 46
42.00000167
 79
     0
 53
45.0
 43
0.0
 44
10.80000043
 45
0.0
 46
42.00000167
 79
     0
 53
45.0
 43
0.0
 44
21.60000086
 45
0.0
 46
42.00000167
 79
     0
 47
0.775229
 98
        1
 10
0.0
 20
0.0
  0
LWPOLYLINE
  5
FA
330
5D
100
AcDbEntity
  8
Ech.1_5
  6
Continuous
 62
     7
370
    -3
100
AcDbPolyline
 90
        4
 70
     1
 43
0.0
 10
24067.92590461
 20
7916.276448569999
 10
24080.92590461
 20
7916.276448569999
 10
24080.92590461
 20
7467.800300750001
 10
24067.92590461
 20
7467.800300750001
  0
HATCH
  5
FB
330
5D
100
AcDbEntity
  8
Ech.1_5
  6
Continuous
 62
     7
100
AcDbHatch
 10
0.0
 20
0.0
 30
0.0
210
0.0
220
0.0
230
1.0
  2
DOTS2
 70
     0
 71
     0
 91
        1
 92
        7
 72
     0
 73
     1
 93
        4
 10
24067.92590461
 20
7916.276448569999
 10
24080.92590461
 20
7916.276448569999
 10
24080.92590461
 20
7467.800300750001
 10
24067.92590461
 20
7467.800300750001
 97
        0
 75
     0
 76
     2
 52
0.0
 41
4.72440952
 77
     0
 78
     1
 53
0.0
 43
0.0
 44
0.0
 45
3.75
 46
3.535
 79
     2
 49
0.0
 49
-3.535
 47
0.775229
 98
        1
 10
0.0
 20
0.0
  0
LWPOLYLINE
  5
FC
330
5D
100
AcDbEntity
  8
Ech.1_5
  6
Continuous
 62
     7
370
    -3
100
AcDbPolyline
 90
        4
 70
     1
 43
0.0
 10
23759.92590461
 20
7858.31179652
 10
23799.92590461
 20
7858.31179652
 10
23799.92590461
 20
7813.31179652
 10
23759.92590461
 20
7813.31179652
  0
LWPOLYLINE
  5
FD
330
5D
100
AcDbEntity
  8
Ech.1_5
  6
Continuous
 62
     7
370
    -3
100
AcDbPolyline
 90
        4
 70
     1
 43
0.0
 10
23657.35323829
 20
7345.04083715
 10
23657.35323829
 20
7358.040837149999
 10
24257.28295067
 20
7358.040837149999
 10
24257.28295067
 20
7345.04083715
  0
HATCH
  5
FE
330
5D
100
AcDbEntity
  8
Ech.1_5
  6
Continuous
 62
     7
100
AcDbHatch
 10
0.0
 20
0.0
 30
0.0
210
0.0
220
0.0
230
1.0
  2
DOTS2
 70
     0
 71
     0
 91
        1
 92
        7
 72
     0
 73
     1
 93
        4
 10
23657.35323829
 20
7345.04083715
 10
23657.35323829
 20
7358.040837149999
 10
24257.28295067
 20
7358.040837149999
 10
24257.28295067
 20
7345.04083715
 97
        0
 75
     0
 76
     2
 52
0.0
 41
4.72440952
 77
     0
 78
     1
 53
0.0
 43
0.0
 44
0.0
 45
3.75
 46
3.535
 79
     2
 49
0.0
 49
-3.535
 47
0.775229
 98
        1
 10
0.0
 20
0.0
  0
LWPOLYLINE
  5
FF
330
5D
100
AcDbEntity
  8
Ech.1_5
  6
Continuous
 62
     7
370
    -3
100
AcDbPolyline
 90
        4
 70
     1
 43
0.0
 10
23657.35323829
 20
7024.04083715
 10
23657.35323829
 20
7037.040837150001
 10
24257.28343502
 20
7037.040837150001
 10
24257.28343502
 20
7024.04083715
  0
HATCH
  5
100
330
5D
100
AcDbEntity
  8
Ech.1_5
  6
Continuous
 62
     7
100
AcDbHatch
 10
0.0
 20
0.0
 30
0.0
210
0.0
220
0.0
230
1.0
  2
DOTS2
 70
     0
 71
     0
 91
        1
 92
        7
 72
     0
 73
     1
 93
        4
 10
23657.35323829
 20
7024.04083715
 10
23657.35323829
 20
7037.040837150001
 10
24257.28343502
 20
7037.040837150001
 10
24257.28343502
 20
7024.04083715
 97
        0
 75
     0
 76
     2
 52
0.0
 41
4.72440952
 77
     0
 78
     1
 53
0.0
 43
0.0
 44
0.0
 45
3.75
 46
3.535
 79
     2
 49
0.0
 49
-3.535
 47
0.775229
 98
        1
 10
0.0
 20
0.0
  0
LWPOLYLINE
  5
101
330
5D
100
AcDbEntity
  8
Ech.1_5
  6
Continuous
 62
     7
370
    -3
100
AcDbPolyline
 90
        4
 70
     1
 43
0.0
 10
23657.35323829
 20
7077.04083715
 10
23657.35323829
 20
7086.04083715
 10
24257.28382422
 20
7086.04083715
 10
24257.28382422
 20
7077.04083715
  0
HATCH
  5
102
330
5D
100
AcDbEntity
  8
Ech.1_5
  6
Continuous
 62
     7
100
AcDbHatch
 10
0.0
 20
0.0
 30
0.0
210
0.0
220
0.0
230
1.0
  2
CDWK10A
 70
     0
 71
     0
 91
        1
 92
        7
 72
     0
 73
     1
 93
        4
 10
23657.35323829
 20
7077.04083715
 10
23657.35323829
 20
7086.04083715
 10
24257.28382422
 20
7086.04083715
 10
24257.28382422
 20
7077.04083715
 97
        0
 75
     0
 76
     2
 52
0.0
 41
1.0
 77
     0
 78
     3
 53
45.0
 43
0.0
 44
0.0
 45
0.0
 46
42.00000167
 79
     0
 53
45.0
 43
0.0
 44
10.80000043
 45
0.0
 46
42.00000167
 79
     0
 53
45.0
 43
0.0
 44
21.60000086
 45
0.0
 46
42.00000167
 79
     0
 47
0.775229
 98
        1
 10
0.0
 20
0.0
  0
LWPOLYLINE
  5
103
330
5D
100
AcDbEntity
  8
Ech.1_5
  6
Continuous
 62
     7
370
    -3
100
AcDbPolyline
 90
        8
 70
     0
 43
0.0
 10
24257.28373171
 20
7165.207503819999
 42
1.140281809999435
 10
24226.15657527
 20
7161.109526379999
 10
24240.91088816
 20
7105.97214793
 42
-1.303226189999999
 10
24210.32324193
 20
7105.97214793
 10
24225.07755482
 20
7161.109526379999
 42
1.303226189999999
 10
24194.4899086
 20
7161.109526379999
 10
24209.24422149
 20
7105.97214793
 42
-0.5076433601371159
 10
24193.21634302
 20
7086.0578621749
 42
-0.5076433601371159
  0
LWPOLYLINE
  5
104
330
5D
100
AcDbEntity
  8
Ech.1_5
  6
Continuous
 62
     7
370
    -3
100
AcDbPolyline
 90
        4
 70
     1
 43
0.0
 10
24148.21634302
 20
7086.04083715
 10
24193.21634302
 20
7086.04083715
 10
24193.21634302
 20
7181.04083715
 10
24148.21634302
 20
7181.04083715
  0
LWPOLYLINE
  5
105
330
5D
100
AcDbEntity
  8
Ech.1_5
  6
Continuous
 62
     7
370
    -3
100
AcDbPolyline
 90
        4
 70
     1
 43
0.0
 10
23708.90155526
 20
7086.04083715
 10
23753.90155526
 20
7086.04083715
 10
23753.90155526
 20
7181.04083715
 10
23708.90155526
 20
7181.04083715
  0
LWPOLYLINE
  5
106
330
5D
100
AcDbEntity
  8
Ech.1_5
  6
Continuous
 62
     7
370
    -3
100
AcDbPolyline
 90
        4
 70
     1
 43
0.0
 10
24018.92590461
 20
7916.27688761
 10
24027.92590461
 20
7916.27688761
 10
24027.92590461
 20
7467.80050576
 10
24018.92590461
 20
7467.80050576
  0
HATCH
  5
107
330
5D
100
AcDbEntity
  8
Ech.1_5
  6
Continuous
 62
     7
100
AcDbHatch
 10
0.0
 20
0.0
 30
0.0
210
0.0
220
0.0
230
1.0
  2
CDWK10A
 70
     0
 71
     0
 91
        1
 92
        7
 72
     0
 73
     1
 93
        4
 10
24018.92590461
 20
7916.27688761
 10
24027.92590461
 20
7916.27688761
 10
24027.92590461
 20
7467.80050576
 10
24018.92590461
 20
7467.80050576
 97
        0
 75
     0
 76
     2
 52
0.0
 41
1.0
 77
     0
 78
     3
 53
45.0
 43
0.0
 44
0.0
 45
0.0
 46
42.00000167
 79
     0
 53
45.0
 43
0.0
 44
10.80000043
 45
0.0
 46
42.00000167
 79
     0
 53
45.0
 43
0.0
 44
21.60000086
 45
0.0
 46
42.00000167
 79
     0
 47
0.775229
 98
        1
 10
0.0
 20
0.0
  0
LWPOLYLINE
  5
108
330
5D
100
AcDbEntity
  8
Ech.1_5
  6
Continuous
 62
     7
370
    -3
100
AcDbPolyline
 90
        8
 70
     0
 43
0.0
 10
24257.28373171
 20
7280.20750382
 42
1.140281809999435
 10
24226.15657527
 20
7276.10952638
 10
24240.91088816
 20
7220.97214793
 42
-1.303226189999999
 10
24210.32324193
 20
7220.97214793
 10
24225.07755482
 20
7276.10952638
 42
1.303226189999999
 10
24194.4899086
 20
7276.10952638
 10
24209.24422149
 20
7220.97214793
 42
-0.5076433601371159
 10
24193.21634302
 20
7201.0578621749
 42
-0.5076433601371159
  0
LWPOLYLINE
  5
109
330
5D
100
AcDbEntity
  8
Ech.1_5
  6
Continuous
 62
     7
370
    -3
100
AcDbPolyline
 90
        4
 70
     1
 43
0.0
 10
24148.21634302
 20
7201.04083715
 10
24193.21634302
 20
7201.04083715
 10
24193.21634302
 20
7296.040837149999
 10
24148.21634302
 20
7296.040837149999
  0
LWPOLYLINE
  5
10A
330
5D
100
AcDbEntity
  8
Ech.1_5
  6
Continuous
 62
     7
370
    -3
100
AcDbPolyline
 90
        4
 70
     1
 43
0.0
 10
23708.90155526
 20
7201.04083715
 10
23753.90155526
 20
7201.04083715
 10
23753.90155526
 20
7296.040837149999
 10
23708.90155526
 20
7296.040837149999
  0
LWPOLYLINE
  5
10B
330
5D
100
AcDbEntity
  8
Ech.1_5
  6
Continuous
 62
     7
370
    -3
100
AcDbPolyline
 90
        4
 70
     1
 43
0.0
 10
23657.35323829
 20
7296.040837149999
 10
23657.35323829
 20
7305.040837149999
 10
24257.28382422
 20
7305.040837149999
 10
24257.28382422
 20
7296.040837149999
  0
HATCH
  5
10C
330
5D
100
AcDbEntity
  8
Ech.1_5
  6
Continuous
 62
     7
100
AcDbHatch
 10
0.0
 20
0.0
 30
0.0
210
0.0
220
0.0
230
1.0
  2
CDWK10A
 70
     0
 71
     0
 91
        1
 92
        7
 72
     0
 73
     1
 93
        4
 10
23657.35323829
 20
7296.040837149999
 10
23657.35323829
 20
7305.040837149999
 10
24257.28382422
 20
7305.040837149999
 10
24257.28382422
 20
7296.040837149999
 97
        0
 75
     0
 76
     2
 52
0.0
 41
1.0
 77
     0
 78
     3
 53
45.0
 43
0.0
 44
0.0
 45
0.0
 46
42.00000167
 79
     0
 53
45.0
 43
0.0
 44
10.80000043
 45
0.0
 46
42.00000167
 79
     0
 53
45.0
 43
0.0
 44
21.60000086
 45
0.0
 46
42.00000167
 79
     0
 47
0.775229
 98
        1
 10
0.0
 20
0.0
  0
LWPOLYLINE
  5
10D
330
5D
100
AcDbEntity
  8
Ech.1_5
  6
Continuous
 62
     7
370
    -3
100
AcDbPolyline
 90
       56
 70
     0
 43
0.0
 10
23824.75923795
 20
7916.27688761
 42
1.14028181
 10
23828.85721539
 20
7885.14973117
 10
23883.99459384
 20
7899.904044050001
 42
-1.303226189999999
 10
23883.99459384
 20
7869.316397830001
 10
23828.85721539
 20
7884.07071072
 42
1.303226189999999
 10
23828.85721539
 20
7853.4830645
 10
23883.99459384
 20
7868.237377389999
 42
-1.303226189999999
 10
23883.99459384
 20
7837.64973117
 10
23828.85721539
 20
7852.40404405
 42
1.303226189999999
 10
23828.85721539
 20
7821.81639783
 10
23883.99459384
 20
7836.57071072
 42
-1.303226189999999
 10
23883.99459384
 20
7805.983064499999
 10
23828.85721539
 20
7820.73737739
 42
1.303226189999999
 10
23828.85721539
 20
7790.149731170001
 10
23883.99459384
 20
7804.904044050001
 42
-1.303226189999999
 10
23883.99459384
 20
7774.31639783
 10
23828.85721539
 20
7789.07071072
 42
1.303226189999999
 10
23828.85721539
 20
7758.4830645
 10
23883.99459384
 20
7773.23737739
 42
-1.303226189999999
 10
23883.99459384
 20
7742.649731170001
 10
23828.85721539
 20
7757.40404405
 42
1.303226189999999
 10
23828.85721539
 20
7726.816397829999
 10
23883.99459384
 20
7741.570710719999
 42
-1.303226189999999
 10
23883.99459384
 20
7710.983064499998
 10
23828.85721539
 20
7725.73737739
 42
1.303226189999999
 10
23828.85721539
 20
7695.149731170001
 10
23883.99459384
 20
7709.90404405
 42
-1.303226189999999
 10
23883.99459384
 20
7679.31639783
 10
23828.85721539
 20
7694.07071072
 42
1.303226189999999
 10
23828.85721539
 20
7663.483064499999
 10
23883.99459384
 20
7678.237377390001
 42
-1.303226189999999
 10
23883.99459384
 20
7647.64973117
 10
23828.85721539
 20
7662.404044050001
 42
1.303226189999999
 10
23828.85721539
 20
7631.81639783
 10
23883.99459384
 20
7646.57071072
 42
-1.303226189999999
 10
23883.99459384
 20
7615.983064499999
 10
23828.85721539
 20
7630.73737739
 42
1.303226189999999
 10
23828.85721539
 20
7600.149731170001
 10
23883.99459384
 20
7614.90404405
 42
-1.303226189999999
 10
23883.99459384
 20
7584.31639783
 10
23828.85721539
 20
7599.070710719999
 42
1.303226189999999
 10
23828.85721539
 20
7568.483064499999
 10
23883.99459384
 20
7583.23737739
 42
-1.303226189999999
 10
23883.99459384
 20
7552.649731170001
 10
23828.85721539
 20
7567.40404405
 42
1.303226189999999
 10
23828.85721539
 20
7536.81639783
 10
23883.99459384
 20
7551.57071072
 42
-1.303226189999999
 10
23883.99459384
 20
7520.9830645
 10
23828.85721539
 20
7535.737377389999
 42
1.303226189999999
 10
23828.85721539
 20
7505.14973117
 10
23883.99459384
 20
7519.90404405
 42
-1.303226189999999
 10
23883.99459384
 20
7489.316397829999
 10
23828.85721539
 20
7504.070710719999
 42
1.303226189999999
 10
23828.85721539
 20
7473.483064499998
 10
23883.99459384
 20
7488.237377389999
 42
-0.60059314
 10
23903.06733326
 20
7467.80050576
  0
LWPOLYLINE
  5
10E
330
5D
100
AcDbEntity
  8
Ech.1_5
  6
Continuous
 62
     7
370
    -3
100
AcDbPolyline
 90
       56
 70
     0
 43
0.0
 10
24003.09257128
 20
7467.80086267
 42
1.14028181
 10
23998.99459384
 20
7498.92801912
 10
23943.85721539
 20
7484.17370623
 42
-1.303226189999999
 10
23943.85721539
 20
7514.76135245
 10
23998.99459384
 20
7500.007039559999
 42
1.303226189999999
 10
23998.99459384
 20
7530.594685779999
 10
23943.85721539
 20
7515.8403729
 42
-1.303226189999999
 10
23943.85721539
 20
7546.42801912
 10
23998.99459384
 20
7531.673706230001
 42
1.303226189999999
 10
23998.99459384
 20
7562.261352450001
 10
23943.85721539
 20
7547.50703956
 42
-1.303226189999999
 10
23943.85721539
 20
7578.09468578
 10
23998.99459384
 20
7563.3403729
 42
1.303226189999999
 10
23998.99459384
 20
7593.928019119999
 10
23943.85721539
 20
7579.17370623
 42
-1.303226189999999
 10
23943.85721539
 20
7609.76135245
 10
23998.99459384
 20
7595.007039559999
 42
1.303226189999999
 10
23998.99459384
 20
7625.59468578
 10
23943.85721539
 20
7610.8403729
 42
-1.303226189999999
 10
23943.85721539
 20
7641.428019119999
 10
23998.99459384
 20
7626.67370623
 42
1.303226189999999
 10
23998.99459384
 20
7657.261352449999
 10
23943.85721539
 20
7642.50703956
 42
-1.303226189999999
 10
23943.85721539
 20
7673.09468578
 10
23998.99459384
 20
7658.340372899999
 42
1.303226189999999
 10
23998.99459384
 20
7688.92801912
 10
23943.85721539
 20
7674.17370623
 42
-1.303226189999999
 10
23943.85721539
 20
7704.761352450001
 10
23998.99459384
 20
7690.00703956
 42
1.303226189999999
 10
23998.99459384
 20
7720.59468578
 10
23943.85721539
 20
7705.8403729
 42
-1.303226189999999
 10
23943.85721539
 20
7736.428019119999
 10
23998.99459384
 20
7721.673706229999
 42
1.303226189999999
 10
23998.99459384
 20
7752.26135245
 10
23943.85721539
 20
7737.507039559999
 42
-1.303226189999999
 10
23943.85721539
 20
7768.094685779999
 10
23998.99459384
 20
7753.3403729
 42
1.303226189999999
 10
23998.99459384
 20
7783.928019120001
 10
23943.85721539
 20
7769.173706230001
 42
-1.303226189999999
 10
23943.85721539
 20
7799.761352450001
 10
23998.99459384
 20
7785.007039559999
 42
1.303226189999999
 10
23998.99459384
 20
7815.59468578
 10
23943.85721539
 20
7800.840372900001
 42
-1.303226189999999
 10
23943.85721539
 20
7831.42801912
 10
23998.99459384
 20
7816.67370623
 42
1.303226189999999
 10
23998.99459384
 20
7847.261352450001
 10
23943.85721539
 20
7832.507039559999
 42
-1.303226189999999
 10
23943.85721539
 20
7863.09468578
 10
23998.99459384
 20
7848.3403729
 42
1.303226189999999
 10
23998.99459384
 20
7878.928019119999
 10
23943.85721539
 20
7864.173706229999
 42
-1.303226189999999
 10
23943.85721539
 20
7894.76135245
 10
23998.99459384
 20
7880.00703956
 42
1.303226189999999
 10
23998.99459384
 20
7910.594685780001
 10
23943.85721539
 20
7895.8403729
 42
-0.60058503
 10
23924.78435339
 20
7916.27688761
  0
LWPOLYLINE
  5
10F
330
5D
100
AcDbEntity
  8
Ech.1_5
  6
Continuous
 62
     7
370
    -3
100
AcDbPolyline
 90
        5
 70
     0
 43
0.0
 10
23759.92590461
 20
7858.31179652
 10
23799.92590461
 20
7858.31179652
 10
23799.92590461
 20
7813.31179652
 10
23759.92590461
 20
7813.31179652
 10
23759.92590461
 20
7858.31179652
  0
LWPOLYLINE
  5
110
330
5D
100
AcDbEntity
  8
Ech.1_5
  6
Continuous
 62
     7
370
    -3
100
AcDbPolyline
 90
        5
 70
     0
 43
0.0
 10
23759.92590461
 20
7548.36593799
 10
23799.92590461
 20
7548.36593799
 10
23799.92590461
 20
7503.36593799
 10
23759.92590461
 20
7503.36593799
 10
23759.92590461
 20
7548.36593799
  0
LWPOLYLINE
  5
111
330
5D
100
AcDbEntity
  8
Ech.1_5
  6
Continuous
 62
     7
370
    -3
100
AcDbPolyline
 90
        5
 70
     0
 43
0.0
 10
24027.92590461
 20
7858.31179652
 10
24067.92590461
 20
7858.31179652
 10
24067.92590461
 20
7813.31179652
 10
24027.92590461
 20
7813.31179652
 10
24027.92590461
 20
7858.31179652
  0
LWPOLYLINE
  5
112
330
5D
100
AcDbEntity
  8
Ech.1_5
  6
Continuous
 62
     7
370
    -3
100
AcDbPolyline
 90
        5
 70
     0
 43
0.0
 10
24027.92590461
 20
7548.36593799
 10
24067.92590461
 20
7548.36593799
 10
24067.92590461
 20
7503.36593799
 10
24027.92590461
 20
7503.36593799
 10
24027.92590461
 20
7548.36593799
  0
LWPOLYLINE
  5
113
330
5D
100
AcDbEntity
  8
Ech.1_5
  6
Continuous
 62
     7
370
    -3
100
AcDbPolyline
 90
        5
 70
     0
 43
0.0
 10
23708.90155526
 20
7181.04083715
 10
23753.90155526
 20
7181.04083715
 10
23753.90155526
 20
7086.04083715
 10
23708.90155526
 20
7086.04083715
 10
23708.90155526
 20
7181.04083715
  0
LWPOLYLINE
  5
114
330
5D
100
AcDbEntity
  8
Ech.1_5
  6
Continuous
 62
     7
370
    -3
100
AcDbPolyline
 90
        5
 70
     0
 43
0.0
 10
24148.21634302
 20
7181.04083715
 10
24193.21634302
 20
7181.04083715
 10
24193.21634302
 20
7086.04083715
 10
24148.21634302
 20
7086.04083715
 10
24148.21634302
 20
7181.04083715
  0
LWPOLYLINE
  5
115
330
5D
100
AcDbEntity
  8
Ech.1_5
  6
Continuous
 62
     7
370
    -3
100
AcDbPolyline
 90
        5
 70
     0
 43
0.0
 10
23708.90155526
 20
7296.040837149999
 10
23753.90155526
 20
7296.040837149999
 10
23753.90155526
 20
7201.04083715
 10
23708.90155526
 20
7201.04083715
 10
23708.90155526
 20
7296.040837149999
  0
LWPOLYLINE
  5
116
330
5D
100
AcDbEntity
  8
Ech.1_5
  6
Continuous
 62
     7
370
    -3
100
AcDbPolyline
 90
        5
 70
     0
 43
0.0
 10
24148.21634302
 20
7296.040837149999
 10
24193.21634302
 20
7296.040837149999
 10
24193.21634302
 20
7201.04083715
 10
24148.21634302
 20
7201.04083715
 10
24148.21634302
 20
7296.040837149999
  0
LINE
  5
117
330
5D
100
AcDbEntity
  8
Ech.1_5
  6
CADWORK_22
 62
     1
370
    35
100
AcDbLine
 10
23798.42590461
 20
7916.27688761
 30
0.0
 11
23798.42590461
 21
7467.80050576
 31
0.0
  0
LINE
  5
118
330
5D
100
AcDbEntity
  8
Ech.1_5
  6
CADWORK_22
 62
     1
370
    35
100
AcDbLine
 10
23657.35323829
 20
7075.54083715
 30
0.0
 11
24257.28382422
 21
7075.54083715
 31
0.0
  0
LINE
  5
119
330
5D
100
AcDbEntity
  8
Ech.1_5
  6
CADWORK_22
 62
     1
370
    35
100
AcDbLine
 10
24029.42590461
 20
7916.27688761
 30
0.0
 11
24029.42590461
 21
7467.80050576
 31
0.0
  0
LINE
  5
11A
330
5D
100
AcDbEntity
  8
Ech.1_5
  6
CADWORK_22
 62
     1
370
    35
100
AcDbLine
 10
23657.35323829
 20
7306.54083715
 30
0.0
 11
24257.28382422
 21
7306.54083715
 31
0.0
  0
LWPOLYLINE
  5
11B
330
5D
100
AcDbEntity
  8
Ech.1_5
 62
     7
100
AcDbPolyline
 90
        5
 70
     0
 43
0.0
 10
24178.13393238
 20
7513.039876669999
 10
24312.56271137
 20
7513.039876669999
 10
24312.56271137
 20
7456.31691786
 10
24178.13393238
 20
7456.31691786
 10
24178.13393238
 20
7513.039876669999
  0
LWPOLYLINE
  5
11C
330
5D
100
AcDbEntity
  8
Ech.1_5
 62
     7
100
AcDbPolyline
 90
        5
 70
     0
 43
0.0
 10
24196.41397817
 20
7479.38306554
 10
24246.41397817
 20
7479.38306554
 10
24246.41397817
 20
7486.798203070001
 10
24196.41397817
 20
7486.798203070001
 10
24196.41397817
 20
7479.38306554
  0
LWPOLYLINE
  5
11D
330
5D
100
AcDbEntity
  8
Ech.1_5
 62
     7
100
AcDbPolyline
 90
        5
 70
     0
 43
0.0
 10
24246.41397817
 20
7479.38306554
 10
24296.41397817
 20
7479.38306554
 10
24296.41397817
 20
7486.798203070001
 10
24246.41397817
 20
7486.798203070001
 10
24246.41397817
 20
7479.38306554
  0
LINE
  5
11E
330
5D
100
AcDbEntity
  8
Ech.1_5
  6
Continuous
 62
     7
370
    -3
100
AcDbLine
 10
23903.92590461
 20
7916.27716084
 30
0.0
 11
23903.92590461
 21
7467.800724609999
 31
0.0
  0
LWPOLYLINE
  5
11F
330
5D
100
AcDbEntity
  8
Ech.1_5
  6
Continuous
 62
     7
370
    -3
100
AcDbPolyline
 90
        6
 70
     0
 43
0.0
 10
23726.92590461
 20
7916.27628289
 10
23832.90982908
 20
7916.27716084
 10
23849.39533223
 20
7934.25450925
 10
23835.28539222
 20
7898.29880924
 10
23851.7717463
 20
7916.27716084
 10
24100.92590461
 20
7916.27716084
  0
LWPOLYLINE
  5
120
330
5D
100
AcDbEntity
  8
Ech.1_5
  6
Continuous
 62
     7
370
    -3
100
AcDbPolyline
 90
        6
 70
     0
 43
0.0
 10
23726.92590461
 20
7467.800300750001
 10
23975.38215644
 20
7467.80086267
 10
23991.8676596
 20
7485.77821108
 10
23977.75771958
 20
7449.822511069999
 10
23994.24407366
 20
7467.80086267
 10
24100.92590461
 20
7467.80086267
  0
LWPOLYLINE
  5
121
330
5D
100
AcDbEntity
  8
Ech.1_5
  6
Continuous
 62
     7
370
    -3
100
AcDbPolyline
 90
        6
 70
     0
 43
0.0
 10
23657.35420392
 20
7004.040837149999
 10
23657.35257437
 20
7106.178919939999
 10
23639.37522596
 20
7122.66442309
 10
23675.33092597
 20
7108.55448307
 10
23657.35257437
 20
7125.04083716
 10
23657.35336011
 20
7378.04083715
  0
LWPOLYLINE
  5
122
330
5D
100
AcDbEntity
  8
Ech.1_5
  6
Continuous
 62
     7
370
    -3
100
AcDbPolyline
 90
        6
 70
     0
 43
0.0
 10
24257.28295067
 20
7378.04083715
 10
24257.28413176
 20
7269.58394025
 10
24275.26148016
 20
7253.09843709
 10
24239.30578015
 20
7267.208377109999
 10
24257.28413176
 20
7250.72202303
 10
24257.28330947
 20
7004.040837149999
  0
LINE
  5
123
330
5D
100
AcDbEntity
  8
Ech.1_5
  6
Continuous
 62
     7
370
    -3
100
AcDbLine
 10
23923.92590461
 20
7916.27716084
 30
0.0
 11
23923.92590461
 21
7467.800724609999
 31
0.0
  0
LINE
  5
124
330
5D
100
AcDbEntity
  8
Ech.1_5
  6
Continuous
 62
     7
370
    -3
100
AcDbLine
 10
23657.35303728
 20
7201.04083715
 30
0.0
 11
24257.28343698
 21
7201.04083715
 31
0.0
  0
LINE
  5
125
330
5D
100
AcDbEntity
  8
Ech.1_5
  6
Continuous
 62
     7
370
    -3
100
AcDbLine
 10
23657.35303728
 20
7181.04083715
 30
0.0
 11
24257.28343698
 21
7181.04083715
 31
0.0
  0
LWPOLYLINE
  5
126
330
5D
100
AcDbEntity
  8
Ech.1_5
  6
Continuous
 62
     7
370
    -3
100
AcDbPolyline
 90
        5
 70
     0
 43
0.0
 10
23406.32125142
 20
6644.907792579999
 10
24391.32125142
 20
6644.907792579999
 10
24391.32125142
 20
7999.907792580001
 10
23406.32125142
 20
7999.907792580001
 10
23406.32125142
 20
6644.907792579999
  0
LWPOLYLINE
  5
127
330
5D
100
AcDbEntity
  8
Ech.1_5
  6
Continuous
 62
     7
370
    -3
100
AcDbPolyline
 90
        9
 70
     0
 43
0.0
 10
24257.28389948
 20
7181.04083715
 10
23657.35303728
 20
7181.04083715
 10
23657.35257437
 20
7125.04083716
 10
23675.33092597
 20
7108.55448307
 10
23639.37522596
 20
7122.66442309
 10
23657.35257437
 20
7106.178919939999
 10
23657.35289566
 20
7086.04083715
 10
24257.28382422
 20
7086.04083715
 10
24257.28389948
 20
7181.04083715
  0
LWPOLYLINE
  5
128
330
5D
100
AcDbEntity
  8
Ech.1_5
  6
Continuous
 62
     7
370
    -3
100
AcDbPolyline
 90
        9
 70
     0
 43
0.0
 10
24257.28413176
 20
7250.72202303
 10
24239.30578015
 20
7267.208377109999
 10
24275.26148016
 20
7253.09843709
 10
24257.28413176
 20
7269.58394025
 10
24257.28384364
 20
7296.040837149999
 10
23657.35323829
 20
7296.040837149999
 10
23657.35286944
 20
7201.04083715
 10
24257.28343698
 20
7201.04083715
 10
24257.28413176
 20
7250.72202303
  0
LWPOLYLINE
  5
129
330
5D
100
AcDbEntity
  8
Ech.1_5
  6
Continuous
 62
     7
370
    -3
100
AcDbPolyline
 90
        9
 70
     0
 43
0.0
 10
23903.92590461
 20
7916.27716084
 10
23851.7717463
 20
7916.27716084
 10
23835.28539222
 20
7898.29880924
 10
23849.39533223
 20
7934.25450925
 10
23832.90982908
 20
7916.27716084
 10
23808.92590461
 20
7916.276962160001
 10
23808.92590461
 20
7467.80050576
 10
23903.92590461
 20
7467.800724609999
 10
23903.92590461
 20
7916.27716084
  0
LWPOLYLINE
  5
12A
330
5D
100
AcDbEntity
  8
Ech.1_5
  6
Continuous
 62
     7
370
    -3
100
AcDbPolyline
 90
        5
 70
     0
 43
0.0
 10
24027.92590461
 20
7858.31179652
 10
24067.92590461
 20
7858.31179652
 10
24067.92590461
 20
7813.31179652
 10
24027.92590461
 20
7813.31179652
 10
24027.92590461
 20
7858.31179652
  0
LWPOLYLINE
  5
12B
330
5D
100
AcDbEntity
  8
Ech.1_5
  6
Continuous
 62
     7
370
    -3
100
AcDbPolyline
 90
        5
 70
     0
 43
0.0
 10
23759.92590461
 20
7548.36593799
 10
23799.92590461
 20
7548.36593799
 10
23799.92590461
 20
7503.36593799
 10
23759.92590461
 20
7503.36593799
 10
23759.92590461
 20
7548.36593799
  0
LWPOLYLINE
  5
12C
330
5D
100
AcDbEntity
  8
Ech.1_5
  6
Continuous
 62
     7
370
    -3
100
AcDbPolyline
 90
        5
 70
     0
 43
0.0
 10
24027.92590461
 20
7548.36593799
 10
24067.92590461
 20
7548.36593799
 10
24067.92590461
 20
7503.36593799
 10
24027.92590461
 20
7503.36593799
 10
24027.92590461
 20
7548.36593799
  0
LWPOLYLINE
  5
12D
330
5D
100
AcDbEntity
  8
Ech.1_5
  6
Continuous
 62
     7
370
    -3
100
AcDbPolyline
 90
        5
 70
     0
 43
0.0
 10
23759.92590461
 20
7858.31179652
 10
23799.92590461
 20
7858.31179652
 10
23799.92590461
 20
7813.31179652
 10
23759.92590461
 20
7813.31179652
 10
23759.92590461
 20
7858.31179652
  0
LWPOLYLINE
  5
12E
330
5D
100
AcDbEntity
  8
Ech.1_5
  6
Continuous
 62
     7
370
    15
100
AcDbPolyline
 90
        5
 70
     0
 43
0.0
 10
24067.92590461
 20
7916.276448569999
 10
24080.92590461
 20
7916.276448569999
 10
24080.92590461
 20
7467.800300750001
 10
24067.92590461
 20
7467.800300750001
 10
24067.92590461
 20
7916.276448569999
  0
LWPOLYLINE
  5
12F
330
5D
100
AcDbEntity
  8
Ech.1_5
  6
Continuous
 62
     7
370
    -3
100
AcDbPolyline
 90
        5
 70
     0
 43
0.0
 10
23799.92590461
 20
7916.27688761
 10
23808.92590461
 20
7916.27688761
 10
23808.92590461
 20
7467.80050576
 10
23799.92590461
 20
7467.80050576
 10
23799.92590461
 20
7916.27688761
  0
LWPOLYLINE
  5
130
330
5D
100
AcDbEntity
  8
Ech.1_5
  6
Continuous
 62
     7
370
    15
100
AcDbPolyline
 90
        5
 70
     0
 43
0.0
 10
23746.92590461
 20
7916.276448569999
 10
23759.92590461
 20
7916.276448569999
 10
23759.92590461
 20
7467.800300750001
 10
23746.92590461
 20
7467.800300750001
 10
23746.92590461
 20
7916.276448569999
  0
LWPOLYLINE
  5
131
330
5D
100
AcDbEntity
  8
Ech.1_5
  6
Continuous
 62
     7
370
     5
100
AcDbPolyline
 90
        5
 70
     0
 43
0.0
 10
24196.41397817
 20
7479.38306554
 10
24246.41397817
 20
7479.38306554
 10
24246.41397817
 20
7486.798203070001
 10
24196.41397817
 20
7486.798203070001
 10
24196.41397817
 20
7479.38306554
  0
LWPOLYLINE
  5
132
330
5D
100
AcDbEntity
  8
Ech.1_5
  6
Continuous
 62
     7
370
    15
100
AcDbPolyline
 90
        5
 70
     0
 43
0.0
 10
23657.35323829
 20
7345.04083715
 10
23657.35323829
 20
7358.040837149999
 10
24257.28295067
 20
7358.040837149999
 10
24257.28295067
 20
7345.04083715
 10
23657.35323829
 20
7345.04083715
  0
LWPOLYLINE
  5
133
330
5D
100
AcDbEntity
  8
Ech.1_5
  6
Continuous
 62
     7
370
    15
100
AcDbPolyline
 90
        5
 70
     0
 43
0.0
 10
23657.35323829
 20
7024.04083715
 10
23657.35323829
 20
7037.040837150001
 10
24257.28343502
 20
7037.040837150001
 10
24257.28343502
 20
7024.04083715
 10
23657.35323829
 20
7024.04083715
  0
LWPOLYLINE
  5
134
330
5D
100
AcDbEntity
  8
Ech.1_5
  6
Continuous
 62
     7
370
    -3
100
AcDbPolyline
 90
        5
 70
     0
 43
0.0
 10
23657.35323829
 20
7345.04083715
 10
24257.28373171
 20
7345.04083715
 10
24257.28373171
 20
7305.040837149999
 10
23657.35323829
 20
7305.040837149999
 10
23657.35323829
 20
7345.04083715
  0
LWPOLYLINE
  5
135
330
5D
100
AcDbEntity
  8
Ech.1_5
  6
Continuous
 62
     7
370
    -3
100
AcDbPolyline
 90
        5
 70
     0
 43
0.0
 10
23657.35323829
 20
7077.04083715
 10
24257.28373171
 20
7077.04083715
 10
24257.28373171
 20
7037.040837150001
 10
23657.35323829
 20
7037.040837150001
 10
23657.35323829
 20
7077.04083715
  0
LWPOLYLINE
  5
136
330
5D
100
AcDbEntity
  8
Ech.1_5
  6
Continuous
 62
     7
370
    -3
100
AcDbPolyline
 90
        5
 70
     0
 43
0.0
 10
23657.35323829
 20
7077.04083715
 10
23657.35323829
 20
7086.04083715
 10
24257.28382422
 20
7086.04083715
 10
24257.28382422
 20
7077.04083715
 10
23657.35323829
 20
7077.04083715
  0
LWPOLYLINE
  5
137
330
5D
100
AcDbEntity
  8
Ech.1_5
  6
Continuous
 62
     7
370
    -3
100
AcDbPolyline
 90
        5
 70
     0
 43
0.0
 10
24018.92590461
 20
7916.27688761
 10
24027.92590461
 20
7916.27688761
 10
24027.92590461
 20
7467.80050576
 10
24018.92590461
 20
7467.80050576
 10
24018.92590461
 20
7916.27688761
  0
LWPOLYLINE
  5
138
330
5D
100
AcDbEntity
  8
Ech.1_5
  6
Continuous
 62
     7
370
    -3
100
AcDbPolyline
 90
        9
 70
     0
 43
0.0
 10
24018.92590461
 20
7916.27688761
 10
23923.92590461
 20
7916.277042899999
 10
23923.92590461
 20
7467.8007463
 10
23975.38215644
 20
7467.80086267
 10
23991.8676596
 20
7485.77821108
 10
23977.75771958
 20
7449.822511069999
 10
23994.24407366
 20
7467.80086267
 10
24018.92590461
 20
7467.80086267
 10
24018.92590461
 20
7916.27688761
  0
LWPOLYLINE
  5
139
330
5D
100
AcDbEntity
  8
Ech.1_5
  6
Continuous
 62
     7
370
    -3
100
AcDbPolyline
 90
        5
 70
     0
 43
0.0
 10
23657.35323829
 20
7296.040837149999
 10
23657.35323829
 20
7305.040837149999
 10
24257.28382422
 20
7305.040837149999
 10
24257.28382422
 20
7296.040837149999
 10
23657.35323829
 20
7296.040837149999
  0
LWPOLYLINE
  5
13A
330
5D
100
AcDbEntity
  8
Ech.1_5
  6
Continuous
 62
     7
370
    -3
100
AcDbPolyline
 90
        4
 70
     1
 43
0.0
 10
23753.90155526
 20
7296.040837149999
 10
23708.90155526
 20
7296.040837149999
 10
23708.90155526
 20
7201.04083715
 10
23753.90155526
 20
7201.04083715
  0
LWPOLYLINE
  5
13B
330
5D
100
AcDbEntity
  8
Ech.1_5
  6
Continuous
 62
     7
370
    -3
100
AcDbPolyline
 90
        4
 70
     1
 43
0.0
 10
23753.90155526
 20
7181.04083715
 10
23708.90155526
 20
7181.04083715
 10
23708.90155526
 20
7086.04083715
 10
23753.90155526
 20
7086.04083715
  0
LWPOLYLINE
  5
13C
330
5D
100
AcDbEntity
  8
Ech.1_5
  6
Continuous
 62
     7
370
    -3
100
AcDbPolyline
 90
        4
 70
     1
 43
0.0
 10
24193.21634302
 20
7296.040837149999
 10
24148.21634302
 20
7296.040837149999
 10
24148.21634302
 20
7201.04083715
 10
24193.21634302
 20
7201.04083715
  0
LWPOLYLINE
  5
13D
330
5D
100
AcDbEntity
  8
Ech.1_5
  6
Continuous
 62
     7
370
    -3
100
AcDbPolyline
 90
        4
 70
     1
 43
0.0
 10
24193.21634302
 20
7181.04083715
 10
24148.21634302
 20
7181.04083715
 10
24148.21634302
 20
7086.04083715
 10
24193.21634302
 20
7086.04083715
  0
TEXT
  5
13E
330
5D
100
AcDbEntity
  8
Ech.1_5
 62
     7
100
AcDbText
 10
24207.7082708
 20
7496.384206160001
 30
0.0
 40
8.000000119999999
  1
Echelle en mm
  7
ARIAL
100
AcDbText
  0
TEXT
  5
13F
330
5D
100
AcDbEntity
  8
Ech.1_5
 62
     7
100
AcDbText
 10
24193.72768605
 20
7468.174370630001
 30
0.0
 40
8.000000119999999
  1
0
  7
ARIAL
100
AcDbText
  0
TEXT
  5
140
330
5D
100
AcDbEntity
  8
Ech.1_5
 62
     7
100
AcDbText
 10
24280.32474394
 20
7468.174370630001
 30
0.0
 40
8.000000119999999
  1
100
  7
ARIAL
100
AcDbText
  0
TEXT
  5
141
330
5D
100
AcDbEntity
  8
Ech.1_5
 62
     7
100
AcDbText
 10
24241.58431237
 20
7468.174370630001
 30
0.0
 40
8.000000119999999
  1
50
  7
ARIAL
100
AcDbText
  0
INSERT
  5
142
330
5D
100
AcDbEntity
  8
Ech.1_5
 62
     0
370
    -3
100
AcDbBlockReference
  2
*D23
 10
0.0
 20
0.0
 30
0.0
  0
LWPOLYLINE
  5
1AA
330
5D
100
AcDbEntity
  8
Ech.1_5
  6
Continuous
 62
     7
370
    -3
100
AcDbPolyline
 90
        6
 70
     0
 43
0.0
 10
23708.90155526
 20
7294.946368059178
 42
0.6153743987559263
 10
23687.82324193
 20
7276.10952638
 10
23702.57755482
 20
7220.97214793
 42
-1.303226189999999
 10
23671.9899086
 20
7220.97214793
 10
23686.74422149
 20
7276.10952638
 42
0.8997478
 10
23657.35323829
 20
7287.416145979999
  0
LWPOLYLINE
  5
1AF
330
5D
100
AcDbEntity
  8
Ech.1_5
  6
Continuous
 62
     7
370
    -3
100
AcDbPolyline
 90
        2
 70
     0
 43
0.0
 10
23718.95155407491
 20
7201.04083715
 42
-0.0000364956281404
 10
23718.94924268513
 20
7201.04083715
 42
-0.0000364956281404
  0
LWPOLYLINE
  5
1B0
330
5D
100
AcDbEntity
  8
Ech.1_5
  6
Continuous
 62
     7
370
    -3
100
AcDbPolyline
 90
        3
 70
     0
 43
0.0
 10
23708.90155526
 20
7204.638354307295
 42
-0.2943396308608308
 10
23703.65657527
 20
7220.97214793
 10
23708.90155526
 20
7240.572819870966
  0
LWPOLYLINE
  5
1B1
330
5D
100
AcDbEntity
  8
Ech.1_5
  6
Continuous
 62
     7
370
    -3
100
AcDbPolyline
 90
        2
 70
     0
 43
0.0
 10
23734.78501716917
 20
7296.040837149999
 42
0.0000405934476185
 10
23734.78244625083
 20
7296.040837149999
  0
LWPOLYLINE
  5
1B2
330
5D
100
AcDbEntity
  8
Ech.1_5
  6
Continuous
 62
     7
370
    -3
100
AcDbPolyline
 90
        3
 70
     0
 43
0.0
 10
23753.90155526
 20
7265.851441054398
 10
23765.91088816
 20
7220.97214793
 42
-0.4931699900278299
 10
23750.61582325586
 20
7201.04083715
  0
LWPOLYLINE
  5
1B3
330
5D
100
AcDbEntity
  8
Ech.1_5
  6
Continuous
 62
     7
370
    -3
100
AcDbPolyline
 90
        2
 70
     0
 43
0.0
 10
23734.78501716917
 20
7181.04083715
 42
0.0000405934475611
 10
23734.78244625083
 20
7181.04083715
 42
0.0000405934475611
  0
LWPOLYLINE
  5
1B4
330
5D
100
AcDbEntity
  8
Ech.1_5
  6
Continuous
 62
     7
370
    -3
100
AcDbPolyline
 90
        2
 70
     0
 43
0.0
 10
23718.95155407491
 20
7086.04083715
 42
-0.0000364956281404
 10
23718.94924268513
 20
7086.04083715
 42
-0.0000364956281404
  0
LWPOLYLINE
  5
1B5
330
5D
100
AcDbEntity
  8
Ech.1_5
  6
Continuous
 62
     7
370
    -3
100
AcDbPolyline
 90
        3
 70
     0
 43
0.0
 10
23708.90155526
 20
7089.638354307296
 42
-0.2943396308608621
 10
23703.65657527
 20
7105.97214793
 10
23708.90155526
 20
7125.572819870964
  0
LWPOLYLINE
  5
1B6
330
5D
100
AcDbEntity
  8
Ech.1_5
  6
Continuous
 62
     7
370
    -3
100
AcDbPolyline
 90
        6
 70
     0
 43
0.0
 10
23708.90155526
 20
7179.946368059177
 42
0.6153743987559263
 10
23687.82324193
 20
7161.109526379999
 10
23702.57755482
 20
7105.97214793
 42
-1.303226189999999
 10
23671.9899086
 20
7105.97214793
 10
23686.74422149
 20
7161.109526379999
 42
0.8997478
 10
23657.35323829
 20
7172.41614598
  0
LWPOLYLINE
  5
1B7
330
5D
100
AcDbEntity
  8
Ech.1_5
  6
Continuous
 62
     7
370
    -3
100
AcDbPolyline
 90
        3
 70
     0
 43
0.0
 10
23753.90155526
 20
7150.851441054398
 10
23765.91088816
 20
7105.97214793
 42
-0.4931699900278299
 10
23750.61582325586
 20
7086.04083715
  0
LWPOLYLINE
  5
1B8
330
5D
100
AcDbEntity
  8
Ech.1_5
  6
Continuous
 62
     7
370
    -3
100
AcDbPolyline
 90
       50
 70
     0
 43
0.0
 10
24148.21634302
 20
7295.942048157598
 42
0.5283768741610024
 10
24131.15657527
 20
7276.10952638
 10
24145.91088816
 20
7220.97214793
 42
-1.303226189999999
 10
24115.32324193
 20
7220.97214793
 10
24130.07755482
 20
7276.10952638
 42
1.303226189999999
 10
24099.4899086
 20
7276.10952638
 10
24114.24422149
 20
7220.97214793
 42
-1.303226189999999
 10
24083.65657527
 20
7220.97214793
 10
24098.41088816
 20
7276.10952638
 42
1.303226189999999
 10
24067.82324193
 20
7276.10952638
 10
24082.57755482
 20
7220.97214793
 42
-1.303226189999999
 10
24051.9899086
 20
7220.97214793
 10
24066.74422149
 20
7276.10952638
 42
1.303226189999999
 10
24036.15657527
 20
7276.10952638
 10
24050.91088816
 20
7220.97214793
 42
-1.303226189999999
 10
24020.32324193
 20
7220.97214793
 10
24035.07755482
 20
7276.10952638
 42
1.303226189999999
 10
24004.4899086
 20
7276.10952638
 10
24019.24422149
 20
7220.97214793
 42
-1.303226189999999
 10
23988.65657527
 20
7220.97214793
 10
24003.41088816
 20
7276.10952638
 42
1.303226189999999
 10
23972.82324193
 20
7276.10952638
 10
23987.57755482
 20
7220.97214793
 42
-1.303226189999999
 10
23956.9899086
 20
7220.97214793
 10
23971.74422149
 20
7276.10952638
 42
1.303226189999999
 10
23941.15657527
 20
7276.10952638
 10
23955.91088816
 20
7220.97214793
 42
-1.303226189999999
 10
23925.32324193
 20
7220.97214793
 10
23940.07755482
 20
7276.10952638
 42
1.303226189999999
 10
23909.4899086
 20
7276.10952638
 10
23924.24422149
 20
7220.97214793
 42
-1.303226189999999
 10
23893.65657527
 20
7220.97214793
 10
23908.41088816
 20
7276.10952638
 42
1.303226189999999
 10
23877.82324193
 20
7276.10952638
 10
23892.57755482
 20
7220.97214793
 42
-1.303226189999999
 10
23861.9899086
 20
7220.97214793
 10
23876.74422149
 20
7276.10952638
 42
1.303226189999999
 10
23846.15657527
 20
7276.10952638
 10
23860.91088816
 20
7220.97214793
 42
-1.303226189999999
 10
23830.32324193
 20
7220.97214793
 10
23845.07755482
 20
7276.10952638
 42
1.303226189999999
 10
23814.4899086
 20
7276.10952638
 10
23829.24422149
 20
7220.97214793
 42
-1.303226189999999
 10
23798.65657527
 20
7220.97214793
 10
23813.41088816
 20
7276.10952638
 42
1.303226189999999
 10
23782.82324193
 20
7276.10952638
 10
23797.57755482
 20
7220.97214793
 42
-1.303226189999999
 10
23766.9899086
 20
7220.97214793
 10
23781.74422149
 20
7276.10952638
 42
0.820133399116507
 10
23753.90155526
 20
7289.862605158323
  0
LWPOLYLINE
  5
1B9
330
5D
100
AcDbEntity
  8
Ech.1_5
  6
Continuous
 62
     7
370
    -3
100
AcDbPolyline
 90
        2
 70
     0
 43
0.0
 10
24162.28488745304
 20
7201.04083715
 42
-0.0000364971483943
 10
24162.28257596698
 20
7201.04083715
 42
-0.0000364971483943
  0
LWPOLYLINE
  5
1BA
330
5D
100
AcDbEntity
  8
Ech.1_5
  6
Continuous
 62
     7
370
    -3
100
AcDbPolyline
 90
        2
 70
     0
 43
0.0
 10
24178.11842838782
 20
7296.040837149999
 42
0.0000430529311052
 10
24178.11570170218
 20
7296.040837149999
  0
LWPOLYLINE
  5
1BB
330
5D
100
AcDbEntity
  8
Ech.1_5
  6
Continuous
 62
     7
370
    -3
100
AcDbPolyline
 90
        3
 70
     0
 43
0.0
 10
24193.21634302
 20
7275.382504451584
 10
24193.41088816
 20
7276.10952638
 42
0.1428328612872425
 10
24193.21634302
 20
7284.972611366353
  0
LWPOLYLINE
  5
1BC
330
5D
100
AcDbEntity
  8
Ech.1_5
  6
Continuous
 62
     7
370
    -3
100
AcDbPolyline
 90
        3
 70
     0
 43
0.0
 10
24148.21634302
 20
7209.607601783933
 42
-0.1867784051626568
 10
24146.9899086
 20
7220.97214793
 10
24148.21634302
 20
7225.555375848769
  0
LWPOLYLINE
  5
1BD
330
5D
100
AcDbEntity
  8
Ech.1_5
  6
Continuous
 62
     7
370
    -3
100
AcDbPolyline
 90
       50
 70
     0
 43
0.0
 10
24148.21634302
 20
7180.942048157598
 42
0.5283768741610024
 10
24131.15657527
 20
7161.109526379999
 10
24145.91088816
 20
7105.97214793
 42
-1.303226189999999
 10
24115.32324193
 20
7105.97214793
 10
24130.07755482
 20
7161.109526379999
 42
1.303226189999999
 10
24099.4899086
 20
7161.109526379999
 10
24114.24422149
 20
7105.97214793
 42
-1.303226189999999
 10
24083.65657527
 20
7105.97214793
 10
24098.41088816
 20
7161.109526379999
 42
1.303226189999999
 10
24067.82324193
 20
7161.109526379999
 10
24082.57755482
 20
7105.97214793
 42
-1.303226189999999
 10
24051.9899086
 20
7105.97214793
 10
24066.74422149
 20
7161.109526379999
 42
1.303226189999999
 10
24036.15657527
 20
7161.109526379999
 10
24050.91088816
 20
7105.97214793
 42
-1.303226189999999
 10
24020.32324193
 20
7105.97214793
 10
24035.07755482
 20
7161.109526379999
 42
1.303226189999999
 10
24004.4899086
 20
7161.109526379999
 10
24019.24422149
 20
7105.97214793
 42
-1.303226189999999
 10
23988.65657527
 20
7105.97214793
 10
24003.41088816
 20
7161.109526379999
 42
1.303226189999999
 10
23972.82324193
 20
7161.109526379999
 10
23987.57755482
 20
7105.97214793
 42
-1.303226189999999
 10
23956.9899086
 20
7105.97214793
 10
23971.74422149
 20
7161.109526379999
 42
1.303226189999999
 10
23941.15657527
 20
7161.109526379999
 10
23955.91088816
 20
7105.97214793
 42
-1.303226189999999
 10
23925.32324193
 20
7105.97214793
 10
23940.07755482
 20
7161.109526379999
 42
1.303226189999999
 10
23909.4899086
 20
7161.109526379999
 10
23924.24422149
 20
7105.97214793
 42
-1.303226189999999
 10
23893.65657527
 20
7105.97214793
 10
23908.41088816
 20
7161.109526379999
 42
1.303226189999999
 10
23877.82324193
 20
7161.109526379999
 10
23892.57755482
 20
7105.97214793
 42
-1.303226189999999
 10
23861.9899086
 20
7105.97214793
 10
23876.74422149
 20
7161.109526379999
 42
1.303226189999999
 10
23846.15657527
 20
7161.109526379999
 10
23860.91088816
 20
7105.97214793
 42
-1.303226189999999
 10
23830.32324193
 20
7105.97214793
 10
23845.07755482
 20
7161.109526379999
 42
1.303226189999999
 10
23814.4899086
 20
7161.109526379999
 10
23829.24422149
 20
7105.97214793
 42
-1.303226189999999
 10
23798.65657527
 20
7105.97214793
 10
23813.41088816
 20
7161.109526379999
 42
1.303226189999999
 10
23782.82324193
 20
7161.109526379999
 10
23797.57755482
 20
7105.97214793
 42
-1.303226189999999
 10
23766.9899086
 20
7105.97214793
 10
23781.74422149
 20
7161.109526379999
 42
0.820133399116507
 10
23753.90155526
 20
7174.862605158323
  0
LWPOLYLINE
  5
1BE
330
5D
100
AcDbEntity
  8
Ech.1_5
  6
Continuous
 62
     7
370
    -3
100
AcDbPolyline
 90
        2
 70
     0
 43
0.0
 10
24162.28488745304
 20
7086.04083715
 42
-0.0000364971483943
 10
24162.28257596698
 20
7086.04083715
 42
-0.0000364971483943
  0
LWPOLYLINE
  5
1BF
330
5D
100
AcDbEntity
  8
Ech.1_5
  6
Continuous
 62
     7
370
    -3
100
AcDbPolyline
 90
        2
 70
     0
 43
0.0
 10
24178.11842838782
 20
7181.04083715
 42
0.0000430529311052
 10
24178.11570170218
 20
7181.04083715
  0
LWPOLYLINE
  5
1C0
330
5D
100
AcDbEntity
  8
Ech.1_5
  6
Continuous
 62
     7
370
    -3
100
AcDbPolyline
 90
        3
 70
     0
 43
0.0
 10
24193.21634302
 20
7160.382504451586
 10
24193.41088816
 20
7161.109526379999
 42
0.1428328612872425
 10
24193.21634302
 20
7169.972611366354
  0
LWPOLYLINE
  5
1C1
330
5D
100
AcDbEntity
  8
Ech.1_5
  6
Continuous
 62
     7
370
    -3
100
AcDbPolyline
 90
        3
 70
     0
 43
0.0
 10
24148.21634302
 20
7094.607601783934
 42
-0.1867784051626568
 10
24146.9899086
 20
7105.97214793
 10
24148.21634302
 20
7110.55537584877
  0
ENDSEC
  0
SECTION
  2
OBJECTS
  0
DICTIONARY
  5
1
330
0
100
AcDbDictionary
281
     1
  3
ACAD_COLOR
350
17A
  3
ACAD_GROUP
350
2
  3
ACAD_LAYOUT
350
192
  3
ACAD_MATERIAL
350
148
  3
ACAD_MLEADERSTYLE
350
18F
  3
ACAD_MLINESTYLE
350
3
  3
ACAD_PLOTSETTINGS
350
193
  3
ACAD_PLOTSTYLENAME
350
146
  3
ACAD_SCALELIST
350
17D
  3
ACAD_TABLESTYLE
350
17B
  3
ACAD_VISUALSTYLE
350
161
  3
ACDB_RECOMPOSE_DATA
350
20B
  3
AcDbVariableDictionary
350
201
  3
DWGPROPS
350
20C
  0
DICTIONARY
  5
1C5
330
37
100
AcDbDictionary
280
     1
281
     1
  3
ADSK_XREC_LAYER_RECONCILED
360
1C6
  0
DICTIONARY
  5
1C7
330
38
100
AcDbDictionary
280
     1
281
     1
  3
ADSK_XREC_LAYER_RECONCILED
360
1C8
  0
DICTIONARY
  5
1C9
330
39
100
AcDbDictionary
280
     1
281
     1
  3
ADSK_XREC_LAYER_RECONCILED
360
1CA
  0
DICTIONARY
  5
1CB
330
3A
100
AcDbDictionary
280
     1
281
     1
  3
ADSK_XREC_LAYER_RECONCILED
360
1CC
  0
DICTIONARY
  5
1CD
330
3B
100
AcDbDictionary
280
     1
281
     1
  3
ADSK_XREC_LAYER_RECONCILED
360
1CE
  0
DICTIONARY
  5
1CF
330
3C
100
AcDbDictionary
280
     1
281
     1
  3
ADSK_XREC_LAYER_RECONCILED
360
1D0
  0
DICTIONARY
  5
1D1
330
3D
100
AcDbDictionary
280
     1
281
     1
  3
ADSK_XREC_LAYER_RECONCILED
360
1D2
  0
DICTIONARY
  5
1D3
330
3E
100
AcDbDictionary
280
     1
281
     1
  3
ADSK_XREC_LAYER_RECONCILED
360
1D4
  0
DICTIONARY
  5
1D5
330
3F
100
AcDbDictionary
280
     1
281
     1
  3
ADSK_XREC_LAYER_RECONCILED
360
1D6
  0
DICTIONARY
  5
1D7
330
40
100
AcDbDictionary
280
     1
281
     1
  3
ADSK_XREC_LAYER_RECONCILED
360
1D8
  0
DICTIONARY
  5
1D9
330
41
100
AcDbDictionary
280
     1
281
     1
  3
ADSK_XREC_LAYER_RECONCILED
360
1DA
  0
DICTIONARY
  5
1DB
330
42
100
AcDbDictionary
280
     1
281
     1
  3
ADSK_XREC_LAYER_RECONCILED
360
1DC
  0
DICTIONARY
  5
1DD
330
43
100
AcDbDictionary
280
     1
281
     1
  3
ADSK_XREC_LAYER_RECONCILED
360
1DE
  0
DICTIONARY
  5
1DF
330
44
100
AcDbDictionary
280
     1
281
     1
  3
ADSK_XREC_LAYER_RECONCILED
360
1E0
  0
DICTIONARY
  5
1E1
330
45
100
AcDbDictionary
280
     1
281
     1
  3
ADSK_XREC_LAYER_RECONCILED
360
1E2
  0
DICTIONARY
  5
1E3
330
46
100
AcDbDictionary
280
     1
281
     1
  3
ADSK_XREC_LAYER_RECONCILED
360
1E4
  0
DICTIONARY
  5
1E5
330
47
100
AcDbDictionary
280
     1
281
     1
  3
ADSK_XREC_LAYER_RECONCILED
360
1E6
  0
DICTIONARY
  5
1E7
330
48
100
AcDbDictionary
280
     1
281
     1
  3
ADSK_XREC_LAYER_RECONCILED
360
1E8
  0
DICTIONARY
  5
1E9
330
49
100
AcDbDictionary
280
     1
281
     1
  3
ADSK_XREC_LAYER_RECONCILED
360
1EA
  0
DICTIONARY
  5
1EB
330
4A
100
AcDbDictionary
280
     1
281
     1
  3
ADSK_XREC_LAYER_RECONCILED
360
1EC
  0
DICTIONARY
  5
1ED
330
4B
100
AcDbDictionary
280
     1
281
     1
  3
ADSK_XREC_LAYER_RECONCILED
360
1EE
  0
DICTIONARY
  5
1EF
330
4D
100
AcDbDictionary
280
     1
281
     1
  3
ADSK_XREC_LAYER_RECONCILED
360
1F0
  0
DICTIONARY
  5
1F1
330
4E
100
AcDbDictionary
280
     1
281
     1
  3
ADSK_XREC_LAYER_RECONCILED
360
1F2
  0
DICTIONARY
  5
1F3
330
50
100
AcDbDictionary
280
     1
281
     1
  3
ADSK_XREC_LAYER_RECONCILED
360
1F4
  0
DICTIONARY
  5
1F5
330
51
100
AcDbDictionary
280
     1
281
     1
  3
ADSK_XREC_LAYER_RECONCILED
360
1F6
  0
DICTIONARY
  5
1F7
330
52
100
AcDbDictionary
280
     1
281
     1
  3
ADSK_XREC_LAYER_RECONCILED
360
1F8
  0
DICTIONARY
  5
1F9
330
53
100
AcDbDictionary
280
     1
281
     1
  3
ADSK_XREC_LAYER_RECONCILED
360
1FA
  0
DICTIONARY
  5
1FB
330
54
100
AcDbDictionary
280
     1
281
     1
  3
ADSK_XREC_LAYER_RECONCILED
360
1FC
  0
DICTIONARY
  5
1FD
330
55
100
AcDbDictionary
280
     1
281
     1
  3
ADSK_XREC_LAYER_RECONCILED
360
1FE
  0
DICTIONARY
  5
1FF
330
56
100
AcDbDictionary
280
     1
281
     1
  3
ADSK_XREC_LAYER_RECONCILED
360
200
  0
DICTIONARY
  5
1AD
330
5D
100
AcDbDictionary
280
     1
281
     1
  3
ACAD_SORTENTS
360
1AE
  0
DICTIONARY
  5
17A
102
{ACAD_REACTORS
330
1
102
}
330
1
100
AcDbDictionary
281
     1
  0
DICTIONARY
  5
2
330
1
100
AcDbDictionary
281
     1
  0
DICTIONARY
  5
192
102
{ACAD_REACTORS
330
1
102
}
330
1
100
AcDbDictionary
281
     1
  3
Model
350
194
  3
Présentation1
350
195
  0
DICTIONARY
  5
148
102
{ACAD_REACTORS
330
1
102
}
330
1
100
AcDbDictionary
281
     1
  3
ByBlock
350
151
  3
ByLayer
350
149
  3
Global
350
159
  0
DICTIONARY
  5
18F
102
{ACAD_REACTORS
330
1
102
}
330
1
100
AcDbDictionary
281
     1
  3
Standard
350
190
  0
DICTIONARY
  5
3
330
1
100
AcDbDictionary
281
     1
  3
STANDARD
350
4
  0
DICTIONARY
  5
193
102
{ACAD_REACTORS
330
1
102
}
330
1
100
AcDbDictionary
281
     1
  0
ACDBDICTIONARYWDFLT
  5
146
102
{ACAD_REACTORS
330
1
102
}
330
1
100
AcDbDictionary
281
     1
  3
Normal
350
147
100
AcDbDictionaryWithDefault
340
147
  0
DICTIONARY
  5
17D
102
{ACAD_REACTORS
330
1
102
}
330
1
100
AcDbDictionary
281
     1
  3
A0
350
17E
  3
A1
350
17F
  3
A2
350
180
  3
A3
350
181
  3
A4
350
182
  3
A5
350
183
  3
A6
350
184
  3
A7
350
185
  3
A8
350
186
  3
A9
350
187
  3
B0
350
188
  3
B1
350
189
  3
B2
350
18A
  3
B3
350
18B
  3
B4
350
18C
  3
B5
350
18D
  3
B6
350
18E
  0
DICTIONARY
  5
17B
102
{ACAD_REACTORS
330
1
102
}
330
1
100
AcDbDictionary
281
     1
  3
Standard
350
17C
  0
DICTIONARY
  5
161
102
{ACAD_REACTORS
330
1
102
}
330
1
100
AcDbDictionary
281
     1
  3
2dWireframe
350
167
  3
Basic
350
166
  3
Brighten
350
16D
  3
ColorChange
350
171
  3
Conceptual
350
16A
  3
Dim
350
16C
  3
EdgeColorOff
350
179
  3
Facepattern
350
170
  3
Flat
350
162
  3
FlatWithEdges
350
163
  3
Gouraud
350
164
  3
GouraudWithEdges
350
165
  3
Hidden
350
169
  3
JitterOff
350
177
  3
Linepattern
350
16F
  3
OverhangOff
350
178
  3
Realistic
350
16B
  3
Shaded
350
176
  3
Shaded with edges
350
175
  3
Shades of Gray
350
172
  3
Sketchy
350
173
  3
Thicken
350
16E
  3
Wireframe
350
168
  3
X-Ray
350
174
  0
XRECORD
  5
20B
102
{ACAD_REACTORS
330
1
102
}
330
1
100
AcDbXrecord
280
     1
 90
        1
330
17C
  0
DICTIONARY
  5
201
102
{ACAD_REACTORS
330
1
102
}
330
1
100
AcDbDictionary
281
     1
  3
CANNOSCALE
350
204
  3
CMLEADERSTYLE
350
203
  3
CTABLESTYLE
350
202
  3
DIMASSOC
350
207
  3
INDEXCTL
350
206
  3
SORTENTS
350
205
  3
XCLIPFRAME
350
208
  0
XRECORD
  5
20C
102
{ACAD_REACTORS
330
1
102
}
330
1
100
AcDbXrecord
280
     1
  1
DWGPROPS COOKIE
  2

  3

  4

  6

  7

  8
cazeaux
  9

300
=
301
=
302
=
303
=
304
=
305
=
306
=
307
=
308
=
309
=
 40
0.0079878703703704
 41
2456443.0
 42
2456458.468600903
  1

 90
        0
  0
XRECORD
  5
1C6
102
{ACAD_REACTORS
330
1C5
102
}
330
1C5
100
AcDbXrecord
280
     1
290
     1
  0
XRECORD
  5
1C8
102
{ACAD_REACTORS
330
1C7
102
}
330
1C7
100
AcDbXrecord
280
     1
290
     1
  0
XRECORD
  5
1CA
102
{ACAD_REACTORS
330
1C9
102
}
330
1C9
100
AcDbXrecord
280
     1
290
     1
  0
XRECORD
  5
1CC
102
{ACAD_REACTORS
330
1CB
102
}
330
1CB
100
AcDbXrecord
280
     1
290
     1
  0
XRECORD
  5
1CE
102
{ACAD_REACTORS
330
1CD
102
}
330
1CD
100
AcDbXrecord
280
     1
290
     1
  0
XRECORD
  5
1D0
102
{ACAD_REACTORS
330
1CF
102
}
330
1CF
100
AcDbXrecord
280
     1
290
     1
  0
XRECORD
  5
1D2
102
{ACAD_REACTORS
330
1D1
102
}
330
1D1
100
AcDbXrecord
280
     1
290
     1
  0
XRECORD
  5
1D4
102
{ACAD_REACTORS
330
1D3
102
}
330
1D3
100
AcDbXrecord
280
     1
290
     1
  0
XRECORD
  5
1D6
102
{ACAD_REACTORS
330
1D5
102
}
330
1D5
100
AcDbXrecord
280
     1
290
     1
  0
XRECORD
  5
1D8
102
{ACAD_REACTORS
330
1D7
102
}
330
1D7
100
AcDbXrecord
280
     1
290
     1
  0
XRECORD
  5
1DA
102
{ACAD_REACTORS
330
1D9
102
}
330
1D9
100
AcDbXrecord
280
     1
290
     1
  0
XRECORD
  5
1DC
102
{ACAD_REACTORS
330
1DB
102
}
330
1DB
100
AcDbXrecord
280
     1
290
     1
  0
XRECORD
  5
1DE
102
{ACAD_REACTORS
330
1DD
102
}
330
1DD
100
AcDbXrecord
280
     1
290
     1
  0
XRECORD
  5
1E0
102
{ACAD_REACTORS
330
1DF
102
}
330
1DF
100
AcDbXrecord
280
     1
290
     1
  0
XRECORD
  5
1E2
102
{ACAD_REACTORS
330
1E1
102
}
330
1E1
100
AcDbXrecord
280
     1
290
     1
  0
XRECORD
  5
1E4
102
{ACAD_REACTORS
330
1E3
102
}
330
1E3
100
AcDbXrecord
280
     1
290
     1
  0
XRECORD
  5
1E6
102
{ACAD_REACTORS
330
1E5
102
}
330
1E5
100
AcDbXrecord
280
     1
290
     1
  0
XRECORD
  5
1E8
102
{ACAD_REACTORS
330
1E7
102
}
330
1E7
100
AcDbXrecord
280
     1
290
     1
  0
XRECORD
  5
1EA
102
{ACAD_REACTORS
330
1E9
102
}
330
1E9
100
AcDbXrecord
280
     1
290
     1
  0
XRECORD
  5
1EC
102
{ACAD_REACTORS
330
1EB
102
}
330
1EB
100
AcDbXrecord
280
     1
290
     1
  0
XRECORD
  5
1EE
102
{ACAD_REACTORS
330
1ED
102
}
330
1ED
100
AcDbXrecord
280
     1
290
     1
  0
XRECORD
  5
1F0
102
{ACAD_REACTORS
330
1EF
102
}
330
1EF
100
AcDbXrecord
280
     1
290
     1
  0
XRECORD
  5
1F2
102
{ACAD_REACTORS
330
1F1
102
}
330
1F1
100
AcDbXrecord
280
     1
290
     1
  0
XRECORD
  5
1F4
102
{ACAD_REACTORS
330
1F3
102
}
330
1F3
100
AcDbXrecord
280
     1
290
     1
  0
XRECORD
  5
1F6
102
{ACAD_REACTORS
330
1F5
102
}
330
1F5
100
AcDbXrecord
280
     1
290
     1
  0
XRECORD
  5
1F8
102
{ACAD_REACTORS
330
1F7
102
}
330
1F7
100
AcDbXrecord
280
     1
290
     1
  0
XRECORD
  5
1FA
102
{ACAD_REACTORS
330
1F9
102
}
330
1F9
100
AcDbXrecord
280
     1
290
     1
  0
XRECORD
  5
1FC
102
{ACAD_REACTORS
330
1FB
102
}
330
1FB
100
AcDbXrecord
280
     1
290
     1
  0
XRECORD
  5
1FE
102
{ACAD_REACTORS
330
1FD
102
}
330
1FD
100
AcDbXrecord
280
     1
290
     1
  0
XRECORD
  5
200
102
{ACAD_REACTORS
330
1FF
102
}
330
1FF
100
AcDbXrecord
280
     1
290
     1
  0
SORTENTSTABLE
  5
1AE
102
{ACAD_REACTORS
330
1AD
102
}
330
1AD
100
AcDbSortentsTable
330
5D
331
13D
  5
1BC
331
11B
  5
12F
331
12C
  5
140
331
10A
  5
11E
331
F9
  5
F9
331
D7
  5
D7
331
141
  5
1C0
331
13B
  5
1BA
331
119
  5
12D
331
108
  5
112
331
12A
  5
13E
331
1B7
  5
109
331
F7
  5
F7
331
E6
  5
E6
331
139
  5
1B8
331
117
  5
12B
331
106
  5
110
331
128
  5
13C
331
1B5
  5
10C
331
F5
  5
F5
331
E4
  5
E4
331
137
  5
1B6
331
115
  5
129
331
104
  5
10E
331
126
  5
13A
331
1B3
  5
10A
331
1C0
  5
104
331
F3
  5
F3
331
E2
  5
E2
331
135
  5
1B4
331
113
  5
127
331
124
  5
138
331
1B1
  5
119
331
1BE
  5
106
331
102
  5
102
331
E0
  5
E0
331
133
  5
1B2
331
111
  5
125
331
122
  5
136
331
1AF
  5
11A
331
1BC
  5
116
331
100
  5
100
331
DE
  5
DE
331
131
  5
1B0
331
120
  5
134
331
10F
  5
123
331
1BA
  5
114
331
FE
  5
FE
331
DC
  5
DC
331
11E
  5
132
331
12F
  5
1AA
331
10D
  5
121
331
1B8
  5
117
331
FC
  5
FC
331
DA
  5
DA
331
13E
  5
1BD
331
11C
  5
130
331
12D
  5
141
331
10B
  5
11F
331
FA
  5
FA
331
D8
  5
D8
331
142
  5
1C1
331
13C
  5
1BB
331
11A
  5
12E
331
12B
  5
13F
331
109
  5
11D
331
F8
  5
F8
331
140
  5
1BF
331
13A
  5
1B9
331
118
  5
12C
331
107
  5
111
331
129
  5
13D
331
1B6
  5
10D
331
F6
  5
F6
331
E5
  5
E5
331
138
  5
1B7
331
116
  5
12A
331
105
  5
10F
331
127
  5
13B
331
1B4
  5
10B
331
1C1
  5
107
331
F4
  5
F4
331
E3
  5
E3
331
136
  5
1B5
331
114
  5
128
331
125
  5
139
331
1B2
  5
118
331
1BF
  5
105
331
103
  5
103
331
E1
  5
E1
331
134
  5
1B3
331
112
  5
126
331
123
  5
137
331
1B0
  5
11B
331
1BD
  5
108
331
101
  5
101
331
DF
  5
DF
331
132
  5
1B1
331
110
  5
124
331
121
  5
135
331
1BB
  5
113
331
FF
  5
FF
331
DD
  5
DD
331
130
  5
1AF
331
11F
  5
133
331
10E
  5
122
331
1B9
  5
115
331
FD
  5
FD
331
DB
  5
DB
331
13F
  5
1BE
331
11D
  5
131
331
1AA
  5
11C
331
12E
  5
142
331
10C
  5
120
331
FB
  5
FB
331
D9
  5
D9
  0
LAYOUT
  5
194
102
{ACAD_XDICTIONARY
360
242
102
}
102
{ACAD_REACTORS
330
192
102
}
330
192
100
AcDbPlotSettings
  1

  2
Aucun(e)
  4

  6

 40
0.0
 41
0.0
 42
0.0
 43
0.0
 44
0.0
 45
0.0
 46
0.0
 47
0.0
 48
0.0
 49
0.0
140
0.0
141
0.0
142
1.0
143
1.0
 70
  1712
 72
     0
 73
     0
 74
     0
  7
acad.ctb
 75
     0
147
1.0
148
0.0
149
0.0
100
AcDbLayout
  1
Model
 70
     1
 71
     0
 10
0.0
 20
0.0
 11
12.0
 21
9.0
 12
0.0
 22
0.0
 32
0.0
 14
0.0
 24
0.0
 34
0.0
 15
0.0
 25
0.0
 35
0.0
146
0.0
 13
0.0
 23
0.0
 33
0.0
 16
1.0
 26
0.0
 36
0.0
 17
0.0
 27
1.0
 37
0.0
 76
     0
330
5D
331
198
  0
LAYOUT
  5
195
102
{ACAD_XDICTIONARY
360
244
102
}
102
{ACAD_REACTORS
330
192
102
}
330
192
100
AcDbPlotSettings
  1

  2
Aucun(e)
  4

  6

 40
0.0
 41
0.0
 42
0.0
 43
0.0
 44
0.0
 45
0.0
 46
0.0
 47
0.0
 48
0.0
 49
0.0
140
0.0
141
0.0
142
1.0
143
1.0
 70
   688
 72
     0
 73
     0
 74
     5
  7
acad.ctb
 75
    16
147
1.0
148
0.0
149
0.0
100
AcDbLayout
  1
Présentation1
 70
     1
 71
     1
 10
0.0
 20
0.0
 11
12.0
 21
9.0
 12
0.0
 22
0.0
 32
0.0
 14
1.000000000000000E+20
 24
1.000000000000000E+20
 34
1.000000000000000E+20
 15
-1.000000000000000E+20
 25
-1.000000000000000E+20
 35
-1.000000000000000E+20
146
0.0
 13
0.0
 23
0.0
 33
0.0
 16
1.0
 26
0.0
 36
0.0
 17
0.0
 27
1.0
 37
0.0
 76
     0
330
5E
  0
MATERIAL
  5
151
102
{ACAD_XDICTIONARY
360
152
102
}
102
{ACAD_REACTORS
330
148
102
}
330
148
100
AcDbMaterial
  1
ByBlock
 72
     0
 43
0.0208333333333333
 43
0.0
 43
0.0
 43
0.0
 43
0.0
 43
0.0208333333333333
 43
0.0
 43
0.0
 43
0.0
 43
0.0
 43
1.0
 43
0.0
 43
0.0
 43
0.0
 43
0.0
 43
1.0
 77
     0
 47
0.0208333333333333
 47
0.0
 47
0.0
 47
0.0
 47
0.0
 47
0.0208333333333333
 47
0.0
 47
0.0
 47
0.0
 47
0.0
 47
1.0
 47
0.0
 47
0.0
 47
0.0
 47
0.0
 47
1.0
171
     0
 49
0.0208333333333333
 49
0.0
 49
0.0
 49
0.0
 49
0.0
 49
0.0208333333333333
 49
0.0
 49
0.0
 49
0.0
 49
0.0
 49
1.0
 49
0.0
 49
0.0
 49
0.0
 49
0.0
 49
1.0
175
     0
142
0.0208333333333333
142
0.0
142
0.0
142
0.0
142
0.0
142
0.0208333333333333
142
0.0
142
0.0
142
0.0
142
0.0
142
1.0
142
0.0
142
0.0
142
0.0
142
0.0
142
1.0
179
     0
144
0.0208333333333333
144
0.0
144
0.0
144
0.0
144
0.0
144
0.0208333333333333
144
0.0
144
0.0
144
0.0
144
0.0
144
1.0
144
0.0
144
0.0
144
0.0
144
0.0
144
1.0
147
0.0208333333333333
147
0.0
147
0.0
147
0.0
147
0.0
147
0.0208333333333333
147
0.0
147
0.0
147
0.0
147
0.0
147
1.0
147
0.0
147
0.0
147
0.0
147
0.0
147
1.0
  0
MATERIAL
  5
149
102
{ACAD_XDICTIONARY
360
14A
102
}
102
{ACAD_REACTORS
330
148
102
}
330
148
100
AcDbMaterial
  1
ByLayer
 72
     0
 43
0.0208333333333333
 43
0.0
 43
0.0
 43
0.0
 43
0.0
 43
0.0208333333333333
 43
0.0
 43
0.0
 43
0.0
 43
0.0
 43
1.0
 43
0.0
 43
0.0
 43
0.0
 43
0.0
 43
1.0
 77
     0
 47
0.0208333333333333
 47
0.0
 47
0.0
 47
0.0
 47
0.0
 47
0.0208333333333333
 47
0.0
 47
0.0
 47
0.0
 47
0.0
 47
1.0
 47
0.0
 47
0.0
 47
0.0
 47
0.0
 47
1.0
171
     0
 49
0.0208333333333333
 49
0.0
 49
0.0
 49
0.0
 49
0.0
 49
0.0208333333333333
 49
0.0
 49
0.0
 49
0.0
 49
0.0
 49
1.0
 49
0.0
 49
0.0
 49
0.0
 49
0.0
 49
1.0
175
     0
142
0.0208333333333333
142
0.0
142
0.0
142
0.0
142
0.0
142
0.0208333333333333
142
0.0
142
0.0
142
0.0
142
0.0
142
1.0
142
0.0
142
0.0
142
0.0
142
0.0
142
1.0
179
     0
144
0.0208333333333333
144
0.0
144
0.0
144
0.0
144
0.0
144
0.0208333333333333
144
0.0
144
0.0
144
0.0
144
0.0
144
1.0
144
0.0
144
0.0
144
0.0
144
0.0
144
1.0
147
0.0208333333333333
147
0.0
147
0.0
147
0.0
147
0.0
147
0.0208333333333333
147
0.0
147
0.0
147
0.0
147
0.0
147
1.0
147
0.0
147
0.0
147
0.0
147
0.0
147
1.0
  0
MATERIAL
  5
159
102
{ACAD_XDICTIONARY
360
15A
102
}
102
{ACAD_REACTORS
330
148
102
}
330
148
100
AcDbMaterial
  1
Global
 72
     0
 43
0.0208333333333333
 43
0.0
 43
0.0
 43
0.0
 43
0.0
 43
0.0208333333333333
 43
0.0
 43
0.0
 43
0.0
 43
0.0
 43
1.0
 43
0.0
 43
0.0
 43
0.0
 43
0.0
 43
1.0
 77
     0
 47
0.0208333333333333
 47
0.0
 47
0.0
 47
0.0
 47
0.0
 47
0.0208333333333333
 47
0.0
 47
0.0
 47
0.0
 47
0.0
 47
1.0
 47
0.0
 47
0.0
 47
0.0
 47
0.0
 47
1.0
171
     0
 49
0.0208333333333333
 49
0.0
 49
0.0
 49
0.0
 49
0.0
 49
0.0208333333333333
 49
0.0
 49
0.0
 49
0.0
 49
0.0
 49
1.0
 49
0.0
 49
0.0
 49
0.0
 49
0.0
 49
1.0
175
     0
142
0.0208333333333333
142
0.0
142
0.0
142
0.0
142
0.0
142
0.0208333333333333
142
0.0
142
0.0
142
0.0
142
0.0
142
1.0
142
0.0
142
0.0
142
0.0
142
0.0
142
1.0
179
     0
144
0.0208333333333333
144
0.0
144
0.0
144
0.0
144
0.0
144
0.0208333333333333
144
0.0
144
0.0
144
0.0
144
0.0
144
1.0
144
0.0
144
0.0
144
0.0
144
0.0
144
1.0
147
0.0208333333333333
147
0.0
147
0.0
147
0.0
147
0.0
147
0.0208333333333333
147
0.0
147
0.0
147
0.0
147
0.0
147
1.0
147
0.0
147
0.0
147
0.0
147
0.0
147
1.0
  0
MLEADERSTYLE
  5
190
102
{ACAD_REACTORS
330
18F
102
}
330
18F
100
AcDbMLeaderStyle
170
     2
171
     1
172
     0
 90
        2
 40
0.0
 41
0.0
173
     1
 91
-1056964608
340
29
 92
       -2
290
     1
 42
2.0
291
     1
 43
0.36
  3
Standard
 44
4.0
300

342
24
174
     1
178
     6
175
     1
176
     0
 93
-1056964608
 45
4.0
292
     0
297
     0
 46
4.0
 94
-1056964608
 47
1.0
 49
1.0
140
1.0
293
     1
141
0.0
294
     1
177
     0
142
1.0
295
     0
296
     0
143
0.125
1001
ACAD_MLEADERVER
1070
     2
  0
MLINESTYLE
  5
4
330
3
100
AcDbMlineStyle
  2
STANDARD
 70
     0
  3

 62
     0
 51
90.0
 52
90.0
 71
     2
 49
0.5
 62
   256
  6
BYLAYER
 49
-0.5
 62
   256
  6
BYLAYER
  0
ACDBPLACEHOLDER
  5
147
102
{ACAD_REACTORS
330
146
102
}
330
146
  0
SCALE
  5
17E
102
{ACAD_REACTORS
330
17D
102
}
330
17D
100
AcDbScale
 70
     0
300
1:1
140
1.0
141
1.0
290
     1
  0
SCALE
  5
17F
102
{ACAD_REACTORS
330
17D
102
}
330
17D
100
AcDbScale
 70
     0
300
1:2
140
1.0
141
2.0
290
     0
  0
SCALE
  5
180
102
{ACAD_REACTORS
330
17D
102
}
330
17D
100
AcDbScale
 70
     0
300
1:4
140
1.0
141
4.0
290
     0
  0
SCALE
  5
181
102
{ACAD_REACTORS
330
17D
102
}
330
17D
100
AcDbScale
 70
     0
300
1:5
140
1.0
141
5.0
290
     0
  0
SCALE
  5
182
102
{ACAD_REACTORS
330
17D
102
}
330
17D
100
AcDbScale
 70
     0
300
1:8
140
1.0
141
8.0
290
     0
  0
SCALE
  5
183
102
{ACAD_REACTORS
330
17D
102
}
330
17D
100
AcDbScale
 70
     0
300
1:10
140
1.0
141
10.0
290
     0
  0
SCALE
  5
184
102
{ACAD_REACTORS
330
17D
102
}
330
17D
100
AcDbScale
 70
     0
300
1:16
140
1.0
141
16.0
290
     0
  0
SCALE
  5
185
102
{ACAD_REACTORS
330
17D
102
}
330
17D
100
AcDbScale
 70
     0
300
1:20
140
1.0
141
20.0
290
     0
  0
SCALE
  5
186
102
{ACAD_REACTORS
330
17D
102
}
330
17D
100
AcDbScale
 70
     0
300
1:30
140
1.0
141
30.0
290
     0
  0
SCALE
  5
187
102
{ACAD_REACTORS
330
17D
102
}
330
17D
100
AcDbScale
 70
     0
300
1:40
140
1.0
141
40.0
290
     0
  0
SCALE
  5
188
102
{ACAD_REACTORS
330
17D
102
}
330
17D
100
AcDbScale
 70
     0
300
1:50
140
1.0
141
50.0
290
     0
  0
SCALE
  5
189
102
{ACAD_REACTORS
330
17D
102
}
330
17D
100
AcDbScale
 70
     0
300
1:100
140
1.0
141
100.0
290
     0
  0
SCALE
  5
18A
102
{ACAD_REACTORS
330
17D
102
}
330
17D
100
AcDbScale
 70
     0
300
2:1
140
2.0
141
1.0
290
     0
  0
SCALE
  5
18B
102
{ACAD_REACTORS
330
17D
102
}
330
17D
100
AcDbScale
 70
     0
300
4:1
140
4.0
141
1.0
290
     0
  0
SCALE
  5
18C
102
{ACAD_REACTORS
330
17D
102
}
330
17D
100
AcDbScale
 70
     0
300
8:1
140
8.0
141
1.0
290
     0
  0
SCALE
  5
18D
102
{ACAD_REACTORS
330
17D
102
}
330
17D
100
AcDbScale
 70
     0
300
10:1
140
10.0
141
1.0
290
     0
  0
SCALE
  5
18E
102
{ACAD_REACTORS
330
17D
102
}
330
17D
100
AcDbScale
 70
     0
300
100:1
140
100.0
141
1.0
290
     0
  0
TABLESTYLE
  5
17C
102
{ACAD_XDICTIONARY
360
209
102
}
102
{ACAD_REACTORS
330
17B
102
}
330
17B
100
AcDbTableStyle
  3
Standard
 70
     0
 71
     0
 40
1.5
 41
1.5
280
     0
281
     0
  7
STANDARD
140
4.5
170
     2
 62
     0
 63
     7
283
     0
274
    -2
284
     1
 64
     0
275
    -2
285
     1
 65
     0
276
    -2
286
     1
 66
     0
277
    -2
287
     1
 67
     0
278
    -2
288
     1
 68
     0
279
    -2
289
     1
 69
     0
  7
STANDARD
140
6.0
170
     5
 62
     0
 63
     7
283
     0
274
    -2
284
     1
 64
     0
275
    -2
285
     1
 65
     0
276
    -2
286
     1
 66
     0
277
    -2
287
     1
 67
     0
278
    -2
288
     1
 68
     0
279
    -2
289
     1
 69
     0
  7
STANDARD
140
4.5
170
     5
 62
     0
 63
     7
283
     0
274
    -2
284
     1
 64
     0
275
    -2
285
     1
 65
     0
276
    -2
286
     1
 66
     0
277
    -2
287
     1
 67
     0
278
    -2
288
     1
 68
     0
279
    -2
289
     1
 69
     0
  0
VISUALSTYLE
  5
167
102
{ACAD_XDICTIONARY
360
21A
102
}
102
{ACAD_REACTORS
330
161
102
}
330
161
100
AcDbVisualStyle
  2
2dWireframe
 70
     4
 71
     0
 72
     2
 73
     0
 90
        0
 40
-0.6
 41
-30.0
 62
     5
 63
     7
 74
     1
 91
        4
 64
     7
 65
   257
 75
     1
175
     1
 42
1.0
 92
        0
 66
   257
 43
1.0
 76
     1
 77
     6
 78
     2
 67
     7
 79
     5
170
     0
171
     0
290
     0
174
     0
 93
        1
 44
0.0
173
     0
291
     0
 45
0.0
1001
ACAD
1000
AcDbSavedByObjectVersion
1070
     0
  0
VISUALSTYLE
  5
166
102
{ACAD_XDICTIONARY
360
218
102
}
102
{ACAD_REACTORS
330
161
102
}
330
161
100
AcDbVisualStyle
  2
Basic
 70
     7
 71
     1
 72
     0
 73
     1
 90
        0
 40
-0.6
 41
-30.0
 62
     5
 63
     7
 74
     0
 91
        4
 64
     7
 65
   257
 75
     1
175
     1
 42
1.0
 92
        8
 66
     7
 43
1.0
 76
     1
 77
     6
 78
     2
 67
     7
 79
     5
170
     0
171
     0
290
     0
174
     0
 93
        1
 44
0.0
173
     0
291
     1
 45
0.0
1001
ACAD
1000
AcDbSavedByObjectVersion
1070
     0
  0
VISUALSTYLE
  5
16D
102
{ACAD_XDICTIONARY
360
226
102
}
102
{ACAD_REACTORS
330
161
102
}
330
161
100
AcDbVisualStyle
  2
Brighten
 70
    12
 71
     2
 72
     2
 73
     0
 90
        0
 40
-0.6
 41
-30.0
 62
     5
 63
     7
 74
     1
 91
        4
 64
     7
 65
   257
 75
     1
175
     1
 42
1.0
 92
        8
 66
     7
 43
1.0
 76
     1
 77
     6
 78
     2
 67
     7
 79
     5
170
     0
171
     0
290
     0
174
     0
 93
        1
 44
50.0
173
     0
291
     1
 45
0.0
1001
ACAD
1000
AcDbSavedByObjectVersion
1070
     0
  0
VISUALSTYLE
  5
171
102
{ACAD_XDICTIONARY
360
22E
102
}
102
{ACAD_REACTORS
330
161
102
}
330
161
100
AcDbVisualStyle
  2
ColorChange
 70
    16
 71
     2
 72
     2
 73
     3
 90
        0
 40
-0.6
 41
-30.0
 62
     5
 63
     8
 74
     1
 91
        4
 64
     7
 65
   257
 75
     1
175
     1
 42
1.0
 92
        8
 66
     8
 43
1.0
 76
     1
 77
     6
 78
     2
 67
     7
 79
     5
170
     0
171
     0
290
     0
174
     0
 93
        1
 44
0.0
173
     0
291
     1
 45
0.0
1001
ACAD
1000
AcDbSavedByObjectVersion
1070
     0
  0
VISUALSTYLE
  5
16A
102
{ACAD_XDICTIONARY
360
220
102
}
102
{ACAD_REACTORS
330
161
102
}
330
161
100
AcDbVisualStyle
  2
Conceptual
 70
     9
 71
     3
 72
     2
 73
     0
 90
        0
 40
-0.6
 41
-30.0
 62
     5
 63
     7
 74
     2
 91
        2
 64
     7
 65
   257
 75
     1
175
     1
 42
179.0
 92
        8
 66
     7
 43
1.0
 76
     1
 77
     6
 78
     2
 67
     7
 79
     3
170
     0
171
     0
290
     0
174
     0
 93
        1
 44
0.0
173
     0
291
     0
 45
0.0
1001
ACAD
1000
AcDbSavedByObjectVersion
1070
     0
  0
VISUALSTYLE
  5
16C
102
{ACAD_XDICTIONARY
360
224
102
}
102
{ACAD_REACTORS
330
161
102
}
330
161
100
AcDbVisualStyle
  2
Dim
 70
    11
 71
     2
 72
     2
 73
     0
 90
        0
 40
-0.6
 41
-30.0
 62
     5
 63
     7
 74
     1
 91
        4
 64
     7
 65
   257
 75
     1
175
     1
 42
1.0
 92
        8
 66
     7
 43
1.0
 76
     1
 77
     6
 78
     2
 67
     7
 79
     5
170
     0
171
     0
290
     0
174
     0
 93
        1
 44
-50.0
173
     0
291
     1
 45
0.0
1001
ACAD
1000
AcDbSavedByObjectVersion
1070
     0
  0
VISUALSTYLE
  5
179
102
{ACAD_XDICTIONARY
360
23E
102
}
102
{ACAD_REACTORS
330
161
102
}
330
161
100
AcDbVisualStyle
  2
EdgeColorOff
 70
    22
 71
     2
 72
     2
 73
     0
 90
        0
 40
-0.6
 41
-30.0
 62
     5
 63
     7
 74
     1
 91
        4
 64
     7
 65
   257
 75
     1
175
     1
 42
1.0
 92
        8
 66
     7
 43
1.0
 76
     1
 77
     6
 78
     2
 67
     7
 79
     5
170
     0
171
     0
290
     0
174
     0
 93
        1
 44
0.0
173
     0
291
     1
 45
0.0
1001
ACAD
1000
AcDbSavedByObjectVersion
1070
     0
  0
VISUALSTYLE
  5
170
102
{ACAD_XDICTIONARY
360
22C
102
}
102
{ACAD_REACTORS
330
161
102
}
330
161
100
AcDbVisualStyle
  2
Facepattern
 70
    15
 71
     2
 72
     2
 73
     0
 90
        0
 40
-0.6
 41
-30.0
 62
     5
 63
     7
 74
     1
 91
        4
 64
     7
 65
   257
 75
     1
175
     1
 42
1.0
 92
        8
 66
     7
 43
1.0
 76
     1
 77
     6
 78
     2
 67
     7
 79
     5
170
     0
171
     0
290
     0
174
     0
 93
        1
 44
0.0
173
     0
291
     1
 45
0.0
1001
ACAD
1000
AcDbSavedByObjectVersion
1070
     0
  0
VISUALSTYLE
  5
162
102
{ACAD_XDICTIONARY
360
210
102
}
102
{ACAD_REACTORS
330
161
102
}
330
161
100
AcDbVisualStyle
  2
Flat
 70
     0
 71
     2
 72
     1
 73
     1
 90
        2
 40
-0.6
 41
30.0
 62
     5
 63
     7
 74
     0
 91
        0
 64
     7
 65
   257
 75
     1
175
     1
 42
1.0
 92
        8
 66
     7
 43
1.0
 76
     1
 77
     6
 78
     2
 67
     7
 79
     5
170
     0
171
     0
290
     0
174
     0
 93
       13
 44
0.0
173
     0
291
     1
 45
0.0
1001
ACAD
1000
AcDbSavedByObjectVersion
1070
     0
  0
VISUALSTYLE
  5
163
102
{ACAD_XDICTIONARY
360
212
102
}
102
{ACAD_REACTORS
330
161
102
}
330
161
100
AcDbVisualStyle
  2
FlatWithEdges
 70
     1
 71
     2
 72
     1
 73
     1
 90
        2
 40
-0.6
 41
30.0
 62
     5
 63
     7
 74
     1
 91
        0
 64
     7
 65
   257
 75
     1
175
     1
 42
1.0
 92
        0
 66
   257
 43
1.0
 76
     1
 77
     6
 78
     2
 67
     7
 79
     5
170
     0
171
     0
290
     0
174
     0
 93
       13
 44
0.0
173
     0
291
     1
 45
0.0
1001
ACAD
1000
AcDbSavedByObjectVersion
1070
     0
  0
VISUALSTYLE
  5
164
102
{ACAD_XDICTIONARY
360
214
102
}
102
{ACAD_REACTORS
330
161
102
}
330
161
100
AcDbVisualStyle
  2
Gouraud
 70
     2
 71
     2
 72
     2
 73
     1
 90
        2
 40
-0.6
 41
30.0
 62
     5
 63
     7
 74
     0
 91
        0
 64
     7
 65
   257
 75
     1
175
     1
 42
1.0
 92
        0
 66
     7
 43
1.0
 76
     1
 77
     6
 78
     2
 67
     7
 79
     5
170
     0
171
     0
290
     0
174
     0
 93
       13
 44
0.0
173
     0
291
     1
 45
0.0
1001
ACAD
1000
AcDbSavedByObjectVersion
1070
     0
  0
VISUALSTYLE
  5
165
102
{ACAD_XDICTIONARY
360
216
102
}
102
{ACAD_REACTORS
330
161
102
}
330
161
100
AcDbVisualStyle
  2
GouraudWithEdges
 70
     3
 71
     2
 72
     2
 73
     1
 90
        2
 40
-0.6
 41
30.0
 62
     5
 63
     7
 74
     1
 91
        0
 64
     7
 65
   257
 75
     1
175
     1
 42
1.0
 92
        0
 66
   257
 43
1.0
 76
     1
 77
     6
 78
     2
 67
     7
 79
     5
170
     0
171
     0
290
     0
174
     0
 93
       13
 44
0.0
173
     0
291
     1
 45
0.0
1001
ACAD
1000
AcDbSavedByObjectVersion
1070
     0
  0
VISUALSTYLE
  5
169
102
{ACAD_XDICTIONARY
360
21E
102
}
102
{ACAD_REACTORS
330
161
102
}
330
161
100
AcDbVisualStyle
  2
Hidden
 70
     6
 71
     1
 72
     2
 73
     2
 90
        0
 40
-0.6
 41
-30.0
 62
     5
 63
     7
 74
     2
 91
        2
 64
     7
 65
   257
 75
     2
175
     1
 42
40.0
 92
        0
 66
   257
 43
1.0
 76
     1
 77
     6
 78
     2
 67
     7
 79
     3
170
     0
171
     0
290
     0
174
     0
 93
        1
 44
0.0
173
     0
291
     0
 45
0.0
1001
ACAD
1000
AcDbSavedByObjectVersion
1070
     0
  0
VISUALSTYLE
  5
177
102
{ACAD_XDICTIONARY
360
23A
102
}
102
{ACAD_REACTORS
330
161
102
}
330
161
100
AcDbVisualStyle
  2
JitterOff
 70
    20
 71
     2
 72
     2
 73
     0
 90
        0
 40
-0.6
 41
-30.0
 62
     5
 63
     7
 74
     1
 91
        4
 64
     7
 65
   257
 75
     1
175
     1
 42
1.0
 92
       10
 66
     7
 43
1.0
 76
     1
 77
     6
 78
     2
 67
     7
 79
     5
170
     0
171
     0
290
     0
174
     0
 93
        1
 44
0.0
173
     0
291
     1
 45
0.0
1001
ACAD
1000
AcDbSavedByObjectVersion
1070
     0
  0
VISUALSTYLE
  5
16F
102
{ACAD_XDICTIONARY
360
22A
102
}
102
{ACAD_REACTORS
330
161
102
}
330
161
100
AcDbVisualStyle
  2
Linepattern
 70
    14
 71
     2
 72
     2
 73
     0
 90
        0
 40
-0.6
 41
-30.0
 62
     5
 63
     7
 74
     1
 91
        4
 64
     7
 65
   257
 75
     7
175
     7
 42
1.0
 92
        8
 66
     7
 43
1.0
 76
     1
 77
     6
 78
     2
 67
     7
 79
     5
170
     0
171
     0
290
     0
174
     0
 93
        1
 44
0.0
173
     0
291
     1
 45
0.0
1001
ACAD
1000
AcDbSavedByObjectVersion
1070
     0
  0
VISUALSTYLE
  5
178
102
{ACAD_XDICTIONARY
360
23C
102
}
102
{ACAD_REACTORS
330
161
102
}
330
161
100
AcDbVisualStyle
  2
OverhangOff
 70
    21
 71
     2
 72
     2
 73
     0
 90
        0
 40
-0.6
 41
-30.0
 62
     5
 63
     7
 74
     1
 91
        4
 64
     7
 65
   257
 75
     1
175
     1
 42
1.0
 92
        9
 66
     7
 43
1.0
 76
     1
 77
     6
 78
     2
 67
     7
 79
     5
170
     0
171
     0
290
     0
174
     0
 93
        1
 44
0.0
173
     0
291
     1
 45
0.0
1001
ACAD
1000
AcDbSavedByObjectVersion
1070
     0
  0
VISUALSTYLE
  5
16B
102
{ACAD_XDICTIONARY
360
222
102
}
102
{ACAD_REACTORS
330
161
102
}
330
161
100
AcDbVisualStyle
  2
Realistic
 70
     8
 71
     2
 72
     3
 73
     0
 90
        2
 40
-0.6
 41
30.0
 62
     5
 63
     7
 74
     0
 91
        0
 64
     7
 65
   257
 75
     1
175
     1
 42
1.0
 92
        8
 66
   257
 43
1.0
 76
     1
 77
     6
 78
     2
 67
     7
 79
     3
170
     0
171
     0
290
     0
174
     0
 93
       13
 44
0.0
173
     0
291
     0
 45
0.0
1001
ACAD
1000
AcDbSavedByObjectVersion
1070
     0
  0
VISUALSTYLE
  5
176
102
{ACAD_XDICTIONARY
360
238
102
}
102
{ACAD_REACTORS
330
161
102
}
330
161
100
AcDbVisualStyle
  2
Shaded
 70
    27
 71
     2
 72
     2
 73
     1
 90
        2
 40
-0.6
 41
30.0
 62
     5
 63
     7
 74
     0
 91
        4
 64
     7
 65
   257
 75
     1
175
     1
 42
1.0
 92
        8
 66
   257
 43
1.0
 76
     1
 77
     6
 78
     2
 67
     8
 79
     3
170
     0
171
     0
290
     0
174
     0
 93
        5
 44
0.0
173
     0
291
     0
 45
0.0
1001
ACAD
1000
AcDbSavedByObjectVersion
1070
     0
  0
VISUALSTYLE
  5
175
102
{ACAD_XDICTIONARY
360
236
102
}
102
{ACAD_REACTORS
330
161
102
}
330
161
100
AcDbVisualStyle
  2
Shaded with edges
 70
    26
 71
     2
 72
     2
 73
     1
 90
        2
 40
-0.6
 41
30.0
 62
     5
 63
     7
 74
     1
 91
       10
 64
     7
 65
   257
 75
     2
175
     1
 42
1.0
 92
        8
 66
   257
 43
1.0
 76
     1
 77
     6
 78
     2
 67
     7
 79
     3
170
     0
171
     0
290
     0
174
     0
 93
        5
 44
0.0
173
     0
291
     0
 45
0.0
1001
ACAD
1000
AcDbSavedByObjectVersion
1070
     0
  0
VISUALSTYLE
  5
172
102
{ACAD_XDICTIONARY
360
230
102
}
102
{ACAD_REACTORS
330
161
102
}
330
161
100
AcDbVisualStyle
  2
Shades of Gray
 70
    23
 71
     2
 72
     2
 73
     3
 90
        0
 40
-0.6
 41
-30.0
 62
     5
 63
     7
 74
     2
 91
        2
 64
     7
 65
     7
 75
     1
175
     1
 42
40.0
 92
        8
 66
     7
 43
1.0
 76
     1
 77
     6
 78
     2
 67
     7
 79
     3
170
     0
171
     0
290
     0
174
     0
 93
        1
 44
0.0
173
     0
291
     0
 45
0.0
1001
ACAD
1000
AcDbSavedByObjectVersion
1070
     0
  0
VISUALSTYLE
  5
173
102
{ACAD_XDICTIONARY
360
232
102
}
102
{ACAD_REACTORS
330
161
102
}
330
161
100
AcDbVisualStyle
  2
Sketchy
 70
    24
 71
     1
 72
     2
 73
     2
 90
        0
 40
-0.6
 41
-30.0
 62
     5
 63
     7
 74
     2
 91
        2
 64
     7
 65
     7
 75
     1
175
     1
 42
40.0
 92
       11
 66
     7
 43
1.0
 76
     1
 77
     6
 78
     2
 67
     7
 79
     6
170
     0
171
     0
290
     0
174
     0
 93
        1
 44
0.0
173
     0
291
     0
 45
0.0
1001
ACAD
1000
AcDbSavedByObjectVersion
1070
     0
  0
VISUALSTYLE
  5
16E
102
{ACAD_XDICTIONARY
360
228
102
}
102
{ACAD_REACTORS
330
161
102
}
330
161
100
AcDbVisualStyle
  2
Thicken
 70
    13
 71
     2
 72
     2
 73
     0
 90
        0
 40
-0.6
 41
-30.0
 62
     5
 63
     7
 74
     1
 91
        4
 64
     7
 65
   257
 75
     1
175
     1
 42
1.0
 92
       12
 66
     7
 43
1.0
 76
     1
 77
     6
 78
     2
 67
     7
 79
     5
170
     0
171
     0
290
     0
174
     0
 93
        1
 44
0.0
173
     0
291
     1
 45
0.0
1001
ACAD
1000
AcDbSavedByObjectVersion
1070
     0
  0
VISUALSTYLE
  5
168
102
{ACAD_XDICTIONARY
360
21C
102
}
102
{ACAD_REACTORS
330
161
102
}
330
161
100
AcDbVisualStyle
  2
Wireframe
 70
     5
 71
     0
 72
     2
 73
     0
 90
        0
 40
-0.6
 41
-30.0
 62
     5
 63
     7
 74
     1
 91
        4
 64
     7
 65
   257
 75
     1
175
     1
 42
1.0
 92
        0
 66
   257
 43
1.0
 76
     1
 77
     6
 78
     2
 67
     7
 79
     3
170
     0
171
     0
290
     0
174
     0
 93
        1
 44
0.0
173
     0
291
     0
 45
0.0
1001
ACAD
1000
AcDbSavedByObjectVersion
1070
     0
  0
VISUALSTYLE
  5
174
102
{ACAD_XDICTIONARY
360
234
102
}
102
{ACAD_REACTORS
330
161
102
}
330
161
100
AcDbVisualStyle
  2
X-Ray
 70
    25
 71
     2
 72
     2
 73
     1
 90
        1
 40
0.5
 41
-30.0
 62
     5
 63
     7
 74
     1
 91
        0
 64
     7
 65
   257
 75
     1
175
     1
 42
1.0
 92
        8
 66
     7
 43
1.0
 76
     1
 77
     6
 78
     2
 67
     7
 79
     3
170
     0
171
     0
290
     0
174
     0
 93
       13
 44
0.0
173
     0
291
     0
 45
0.0
1001
ACAD
1000
AcDbSavedByObjectVersion
1070
     0
  0
DICTIONARYVAR
  5
204
102
{ACAD_REACTORS
330
201
102
}
330
201
100
DictionaryVariables
280
     0
  1
1:1
  0
DICTIONARYVAR
  5
203
102
{ACAD_REACTORS
330
201
102
}
330
201
100
DictionaryVariables
280
     0
  1
STANDARD
  0
DICTIONARYVAR
  5
202
102
{ACAD_REACTORS
330
201
102
}
330
201
100
DictionaryVariables
280
     0
  1
STANDARD
  0
DICTIONARYVAR
  5
207
102
{ACAD_REACTORS
330
201
102
}
330
201
100
DictionaryVariables
280
     0
  1
1
  0
DICTIONARYVAR
  5
206
102
{ACAD_REACTORS
330
201
102
}
330
201
100
DictionaryVariables
280
     0
  1
0
  0
DICTIONARYVAR
  5
205
102
{ACAD_REACTORS
330
201
102
}
330
201
100
DictionaryVariables
280
     0
  1
127
  0
DICTIONARYVAR
  5
208
102
{ACAD_REACTORS
330
201
102
}
330
201
100
DictionaryVariables
280
     0
  1
2
  0
DICTIONARY
  5
242
330
194
100
AcDbDictionary
280
     1
281
     1
  3
ACAD_XREC_ROUNDTRIP
360
243
  0
DICTIONARY
  5
244
330
195
100
AcDbDictionary
280
     1
281
     1
  3
ACAD_XREC_ROUNDTRIP
360
245
  0
DICTIONARY
  5
152
330
151
100
AcDbDictionary
280
     1
281
     1
  3
ACAD_XREC_ROUNDTRIP
360
20E
  3
BUMPTILE
360
154
  3
DIFFUSETILE
360
153
  3
OPACITYTILE
360
157
  3
REFLECTIONTILE
360
156
  3
REFRACTIONTILE
360
158
  3
SPECULARTILE
360
155
  0
DICTIONARY
  5
14A
330
149
100
AcDbDictionary
280
     1
281
     1
  3
ACAD_XREC_ROUNDTRIP
360
20D
  3
BUMPTILE
360
14C
  3
DIFFUSETILE
360
14B
  3
OPACITYTILE
360
14F
  3
REFLECTIONTILE
360
14E
  3
REFRACTIONTILE
360
150
  3
SPECULARTILE
360
14D
  0
DICTIONARY
  5
15A
330
159
100
AcDbDictionary
280
     1
281
     1
  3
ACAD_XREC_ROUNDTRIP
360
20F
  3
BUMPTILE
360
15C
  3
DIFFUSETILE
360
15B
  3
OPACITYTILE
360
15F
  3
REFLECTIONTILE
360
15E
  3
REFRACTIONTILE
360
160
  3
SPECULARTILE
360
15D
  0
DICTIONARY
  5
209
330
17C
100
AcDbDictionary
280
     1
281
     1
  3
ACAD_ROUNDTRIP_2008_TABLESTYLE_CELLSTYLEMAP
360
20A
  3
ACAD_XREC_ROUNDTRIP
360
240
  0
DICTIONARY
  5
21A
330
167
100
AcDbDictionary
280
     1
281
     1
  3
ACAD_XREC_ROUNDTRIP
360
21B
  0
DICTIONARY
  5
218
330
166
100
AcDbDictionary
280
     1
281
     1
  3
ACAD_XREC_ROUNDTRIP
360
219
  0
DICTIONARY
  5
226
330
16D
100
AcDbDictionary
280
     1
281
     1
  3
ACAD_XREC_ROUNDTRIP
360
227
  0
DICTIONARY
  5
22E
330
171
100
AcDbDictionary
280
     1
281
     1
  3
ACAD_XREC_ROUNDTRIP
360
22F
  0
DICTIONARY
  5
220
330
16A
100
AcDbDictionary
280
     1
281
     1
  3
ACAD_XREC_ROUNDTRIP
360
221
  0
DICTIONARY
  5
224
330
16C
100
AcDbDictionary
280
     1
281
     1
  3
ACAD_XREC_ROUNDTRIP
360
225
  0
DICTIONARY
  5
23E
330
179
100
AcDbDictionary
280
     1
281
     1
  3
ACAD_XREC_ROUNDTRIP
360
23F
  0
DICTIONARY
  5
22C
330
170
100
AcDbDictionary
280
     1
281
     1
  3
ACAD_XREC_ROUNDTRIP
360
22D
  0
DICTIONARY
  5
210
330
162
100
AcDbDictionary
280
     1
281
     1
  3
ACAD_XREC_ROUNDTRIP
360
211
  0
DICTIONARY
  5
212
330
163
100
AcDbDictionary
280
     1
281
     1
  3
ACAD_XREC_ROUNDTRIP
360
213
  0
DICTIONARY
  5
214
330
164
100
AcDbDictionary
280
     1
281
     1
  3
ACAD_XREC_ROUNDTRIP
360
215
  0
DICTIONARY
  5
216
330
165
100
AcDbDictionary
280
     1
281
     1
  3
ACAD_XREC_ROUNDTRIP
360
217
  0
DICTIONARY
  5
21E
330
169
100
AcDbDictionary
280
     1
281
     1
  3
ACAD_XREC_ROUNDTRIP
360
21F
  0
DICTIONARY
  5
23A
330
177
100
AcDbDictionary
280
     1
281
     1
  3
ACAD_XREC_ROUNDTRIP
360
23B
  0
DICTIONARY
  5
22A
330
16F
100
AcDbDictionary
280
     1
281
     1
  3
ACAD_XREC_ROUNDTRIP
360
22B
  0
DICTIONARY
  5
23C
330
178
100
AcDbDictionary
280
     1
281
     1
  3
ACAD_XREC_ROUNDTRIP
360
23D
  0
DICTIONARY
  5
222
330
16B
100
AcDbDictionary
280
     1
281
     1
  3
ACAD_XREC_ROUNDTRIP
360
223
  0
DICTIONARY
  5
238
330
176
100
AcDbDictionary
280
     1
281
     1
  3
ACAD_XREC_ROUNDTRIP
360
239
  0
DICTIONARY
  5
236
330
175
100
AcDbDictionary
280
     1
281
     1
  3
ACAD_XREC_ROUNDTRIP
360
237
  0
DICTIONARY
  5
230
330
172
100
AcDbDictionary
280
     1
281
     1
  3
ACAD_XREC_ROUNDTRIP
360
231
  0
DICTIONARY
  5
232
330
173
100
AcDbDictionary
280
     1
281
     1
  3
ACAD_XREC_ROUNDTRIP
360
233
  0
DICTIONARY
  5
228
330
16E
100
AcDbDictionary
280
     1
281
     1
  3
ACAD_XREC_ROUNDTRIP
360
229
  0
DICTIONARY
  5
21C
330
168
100
AcDbDictionary
280
     1
281
     1
  3
ACAD_XREC_ROUNDTRIP
360
21D
  0
DICTIONARY
  5
234
330
174
100
AcDbDictionary
280
     1
281
     1
  3
ACAD_XREC_ROUNDTRIP
360
235
  0
XRECORD
  5
243
102
{ACAD_REACTORS
330
242
102
}
330
242
100
AcDbXrecord
280
     1
102
SHADEPLOT
 70
     0
102
SHADEPLOTRESLEVEL
 70
     2
102
SHADEPLOTCUSTOMDPI
 70
   300
  0
XRECORD
  5
245
102
{ACAD_REACTORS
330
244
102
}
330
244
100
AcDbXrecord
280
     1
102
SHADEPLOT
 70
     0
102
SHADEPLOTRESLEVEL
 70
     2
102
SHADEPLOTCUSTOMDPI
 70
   300
  0
XRECORD
  5
20E
102
{ACAD_REACTORS
330
152
102
}
330
152
100
AcDbXrecord
280
     1
102
MATERIAL
148
0.0
149
0.0
149
0.0
 93
        0
 94
      127
282
     0
 72
     0
 77
     0
171
     0
175
     0
179
     0
273
     0
  0
XRECORD
  5
154
102
{ACAD_REACTORS
330
152
102
}
330
152
100
AcDbXrecord
280
     1
270
     1
271
     1
  0
XRECORD
  5
153
102
{ACAD_REACTORS
330
152
102
}
330
152
100
AcDbXrecord
280
     1
270
     1
271
     1
  0
XRECORD
  5
157
102
{ACAD_REACTORS
330
152
102
}
330
152
100
AcDbXrecord
280
     1
270
     1
271
     1
  0
XRECORD
  5
156
102
{ACAD_REACTORS
330
152
102
}
330
152
100
AcDbXrecord
280
     1
270
     1
271
     1
  0
XRECORD
  5
158
102
{ACAD_REACTORS
330
152
102
}
330
152
100
AcDbXrecord
280
     1
270
     1
271
     1
  0
XRECORD
  5
155
102
{ACAD_REACTORS
330
152
102
}
330
152
100
AcDbXrecord
280
     1
270
     1
271
     1
  0
XRECORD
  5
20D
102
{ACAD_REACTORS
330
14A
102
}
330
14A
100
AcDbXrecord
280
     1
102
MATERIAL
148
0.0
149
0.0
149
0.0
 93
        0
 94
      127
282
     0
 72
     0
 77
     0
171
     0
175
     0
179
     0
273
     0
  0
XRECORD
  5
14C
102
{ACAD_REACTORS
330
14A
102
}
330
14A
100
AcDbXrecord
280
     1
270
     1
271
     1
  0
XRECORD
  5
14B
102
{ACAD_REACTORS
330
14A
102
}
330
14A
100
AcDbXrecord
280
     1
270
     1
271
     1
  0
XRECORD
  5
14F
102
{ACAD_REACTORS
330
14A
102
}
330
14A
100
AcDbXrecord
280
     1
270
     1
271
     1
  0
XRECORD
  5
14E
102
{ACAD_REACTORS
330
14A
102
}
330
14A
100
AcDbXrecord
280
     1
270
     1
271
     1
  0
XRECORD
  5
150
102
{ACAD_REACTORS
330
14A
102
}
330
14A
100
AcDbXrecord
280
     1
270
     1
271
     1
  0
XRECORD
  5
14D
102
{ACAD_REACTORS
330
14A
102
}
330
14A
100
AcDbXrecord
280
     1
270
     1
271
     1
  0
XRECORD
  5
20F
102
{ACAD_REACTORS
330
15A
102
}
330
15A
100
AcDbXrecord
280
     1
102
MATERIAL
148
0.0
149
0.0
149
0.0
 93
        0
 94
      127
282
     0
 72
     0
 77
     0
171
     0
175
     0
179
     0
273
     0
  0
XRECORD
  5
15C
102
{ACAD_REACTORS
330
15A
102
}
330
15A
100
AcDbXrecord
280
     1
270
     1
271
     1
  0
XRECORD
  5
15B
102
{ACAD_REACTORS
330
15A
102
}
330
15A
100
AcDbXrecord
280
     1
270
     1
271
     1
  0
XRECORD
  5
15F
102
{ACAD_REACTORS
330
15A
102
}
330
15A
100
AcDbXrecord
280
     1
270
     1
271
     1
  0
XRECORD
  5
15E
102
{ACAD_REACTORS
330
15A
102
}
330
15A
100
AcDbXrecord
280
     1
270
     1
271
     1
  0
XRECORD
  5
160
102
{ACAD_REACTORS
330
15A
102
}
330
15A
100
AcDbXrecord
280
     1
270
     1
271
     1
  0
XRECORD
  5
15D
102
{ACAD_REACTORS
330
15A
102
}
330
15A
100
AcDbXrecord
280
     1
270
     1
271
     1
  0
CELLSTYLEMAP
  5
20A
102
{ACAD_REACTORS
330
209
102
}
330
209
100
AcDbCellStyleMap
 90
        3
300
CELLSTYLE
  1
TABLEFORMAT_BEGIN
 90
        5
170
     1
 91
        0
 92
    32768
 62
   257
 93
        1
300
CONTENTFORMAT
  1
CONTENTFORMAT_BEGIN
 90
        0
 91
        0
 92
      512
 93
        0
300

 40
0.0
140
1.0
 94
        5
 62
     0
340
24
144
6.0
309
CONTENTFORMAT_END
171
     1
301
MARGIN
  1
CELLMARGIN_BEGIN
 40
1.5
 40
1.5
 40
1.5
 40
1.5
 40
4.5
 40
4.5
309
CELLMARGIN_END
 94
        6
 95
        1
302
GRIDFORMAT
  1
GRIDFORMAT_BEGIN
 90
        0
 91
        1
 62
     0
 92
       -2
340
0
 93
        0
 40
1.125
309
GRIDFORMAT_END
 95
        2
302
GRIDFORMAT
  1
GRIDFORMAT_BEGIN
 90
        0
 91
        1
 62
     0
 92
       -2
340
0
 93
        0
 40
1.125
309
GRIDFORMAT_END
 95
        4
302
GRIDFORMAT
  1
GRIDFORMAT_BEGIN
 90
        0
 91
        1
 62
     0
 92
       -2
340
0
 93
        0
 40
1.125
309
GRIDFORMAT_END
 95
        8
302
GRIDFORMAT
  1
GRIDFORMAT_BEGIN
 90
        0
 91
        1
 62
     0
 92
       -2
340
0
 93
        0
 40
1.125
309
GRIDFORMAT_END
 95
       16
302
GRIDFORMAT
  1
GRIDFORMAT_BEGIN
 90
        0
 91
        1
 62
     0
 92
       -2
340
0
 93
        0
 40
1.125
309
GRIDFORMAT_END
 95
       32
302
GRIDFORMAT
  1
GRIDFORMAT_BEGIN
 90
        0
 91
        1
 62
     0
 92
       -2
340
0
 93
        0
 40
1.125
309
GRIDFORMAT_END
309
TABLEFORMAT_END
  1
CELLSTYLE_BEGIN
 90
        1
 91
        1
300
_TITLE
309
CELLSTYLE_END
300
CELLSTYLE
  1
TABLEFORMAT_BEGIN
 90
        5
170
     1
 91
        0
 92
        0
 62
   257
 93
        1
300
CONTENTFORMAT
  1
CONTENTFORMAT_BEGIN
 90
        0
 91
        0
 92
      512
 93
        0
300

 40
0.0
140
1.0
 94
        5
 62
     0
340
24
144
4.5
309
CONTENTFORMAT_END
171
     1
301
MARGIN
  1
CELLMARGIN_BEGIN
 40
1.5
 40
1.5
 40
1.5
 40
1.5
 40
4.5
 40
4.5
309
CELLMARGIN_END
 94
        6
 95
        1
302
GRIDFORMAT
  1
GRIDFORMAT_BEGIN
 90
        0
 91
        1
 62
     0
 92
       -2
340
0
 93
        0
 40
1.125
309
GRIDFORMAT_END
 95
        2
302
GRIDFORMAT
  1
GRIDFORMAT_BEGIN
 90
        0
 91
        1
 62
     0
 92
       -2
340
0
 93
        0
 40
1.125
309
GRIDFORMAT_END
 95
        4
302
GRIDFORMAT
  1
GRIDFORMAT_BEGIN
 90
        0
 91
        1
 62
     0
 92
       -2
340
0
 93
        0
 40
1.125
309
GRIDFORMAT_END
 95
        8
302
GRIDFORMAT
  1
GRIDFORMAT_BEGIN
 90
        0
 91
        1
 62
     0
 92
       -2
340
0
 93
        0
 40
1.125
309
GRIDFORMAT_END
 95
       16
302
GRIDFORMAT
  1
GRIDFORMAT_BEGIN
 90
        0
 91
        1
 62
     0
 92
       -2
340
0
 93
        0
 40
1.125
309
GRIDFORMAT_END
 95
       32
302
GRIDFORMAT
  1
GRIDFORMAT_BEGIN
 90
        0
 91
        1
 62
     0
 92
       -2
340
0
 93
        0
 40
1.125
309
GRIDFORMAT_END
309
TABLEFORMAT_END
  1
CELLSTYLE_BEGIN
 90
        2
 91
        1
300
_HEADER
309
CELLSTYLE_END
300
CELLSTYLE
  1
TABLEFORMAT_BEGIN
 90
        5
170
     1
 91
        0
 92
        0
 62
   257
 93
        1
300
CONTENTFORMAT
  1
CONTENTFORMAT_BEGIN
 90
        0
 91
        0
 92
      512
 93
        0
300

 40
0.0
140
1.0
 94
        2
 62
     0
340
24
144
4.5
309
CONTENTFORMAT_END
171
     1
301
MARGIN
  1
CELLMARGIN_BEGIN
 40
1.5
 40
1.5
 40
1.5
 40
1.5
 40
4.5
 40
4.5
309
CELLMARGIN_END
 94
        6
 95
        1
302
GRIDFORMAT
  1
GRIDFORMAT_BEGIN
 90
        0
 91
        1
 62
     0
 92
       -2
340
0
 93
        0
 40
1.125
309
GRIDFORMAT_END
 95
        2
302
GRIDFORMAT
  1
GRIDFORMAT_BEGIN
 90
        0
 91
        1
 62
     0
 92
       -2
340
0
 93
        0
 40
1.125
309
GRIDFORMAT_END
 95
        4
302
GRIDFORMAT
  1
GRIDFORMAT_BEGIN
 90
        0
 91
        1
 62
     0
 92
       -2
340
0
 93
        0
 40
1.125
309
GRIDFORMAT_END
 95
        8
302
GRIDFORMAT
  1
GRIDFORMAT_BEGIN
 90
        0
 91
        1
 62
     0
 92
       -2
340
0
 93
        0
 40
1.125
309
GRIDFORMAT_END
 95
       16
302
GRIDFORMAT
  1
GRIDFORMAT_BEGIN
 90
        0
 91
        1
 62
     0
 92
       -2
340
0
 93
        0
 40
1.125
309
GRIDFORMAT_END
 95
       32
302
GRIDFORMAT
  1
GRIDFORMAT_BEGIN
 90
        0
 91
        1
 62
     0
 92
       -2
340
0
 93
        0
 40
1.125
309
GRIDFORMAT_END
309
TABLEFORMAT_END
  1
CELLSTYLE_BEGIN
 90
        3
 91
        2
300
_DATA
309
CELLSTYLE_END
  0
XRECORD
  5
240
102
{ACAD_REACTORS
330
209
102
}
330
209
100
AcDbXrecord
280
     1
102
ACAD_ROUNDTRIP_PRE2007_TABLESTYLE
 90
      512
 91
        0
  1

 92
      512
 93
        0
  2

 94
      512
 95
        0
  3

  0
XRECORD
  5
21B
102
{ACAD_REACTORS
330
21A
102
}
330
21A
100
AcDbXrecord
280
     1
102
RTVSPropertyOp0
 70
     1
102
RTVSPropertyOp1
 70
     1
102
RTVSPropertyOp2
 70
     1
102
RTVSPropertyOp3
 70
     1
102
RTVSPropertyOp4
 70
     1
102
RTVSPropertyOp5
 70
     1
102
RTVSPropertyOp6
 70
     1
102
RTVSPropertyOp7
 70
     1
102
RTVSPropertyOp8
 70
     1
102
RTVSPropertyOp9
 70
     1
102
RTVSPropertyOp10
 70
     1
102
RTVSPropertyOp11
 70
     1
102
RTVSPropertyOp12
 70
     1
102
RTVSPropertyOp13
 70
     1
102
RTVSPropertyOp14
 70
     1
102
RTVSPropertyOp15
 70
     1
102
RTVSPropertyOp16
 70
     1
102
RTVSPropertyOp17
 70
     1
102
RTVSPropertyOp18
 70
     1
102
RTVSPropertyOp19
 70
     1
102
RTVSPropertyOp20
 70
     1
102
RTVSPropertyOp21
 70
     1
102
RTVSPropertyOp22
 70
     1
102
RTVSPropertyOp23
 70
     1
102
RTVSPropertyOp24
 70
     1
102
RTVSPropertyOp25
 70
     1
102
RTVSPropertyOp26
 70
     1
102
RTVSPropertyOp27
 70
     1
102
RTVSPropertyOp28
 70
     1
102
RTVSPropertyOp29
 70
     1
102
RTVSPropertyOp30
 70
     1
102
RTVSPropertyOp31
 70
     1
102
RTVSPropertyOp32
 70
     1
  0
XRECORD
  5
219
102
{ACAD_REACTORS
330
218
102
}
330
218
100
AcDbXrecord
280
     1
102
RTVSPropertyOp0
 70
     1
102
RTVSPropertyOp1
 70
     1
102
RTVSPropertyOp2
 70
     1
102
RTVSPropertyOp3
 70
     1
102
RTVSPropertyOp4
 70
     1
102
RTVSPropertyOp5
 70
     1
102
RTVSPropertyOp6
 70
     1
102
RTVSPropertyOp7
 70
     1
102
RTVSPropertyOp8
 70
     1
102
RTVSPropertyOp9
 70
     1
102
RTVSPropertyOp10
 70
     1
102
RTVSPropertyOp11
 70
     1
102
RTVSPropertyOp12
 70
     1
102
RTVSPropertyOp13
 70
     1
102
RTVSPropertyOp14
 70
     1
102
RTVSPropertyOp15
 70
     1
102
RTVSPropertyOp16
 70
     1
102
RTVSPropertyOp17
 70
     1
102
RTVSPropertyOp18
 70
     1
102
RTVSPropertyOp19
 70
     1
102
RTVSPropertyOp20
 70
     1
102
RTVSPropertyOp21
 70
     1
102
RTVSPropertyOp22
 70
     1
102
RTVSPropertyOp23
 70
     1
102
RTVSPropertyOp24
 70
     1
102
RTVSPropertyOp25
 70
     1
102
RTVSPropertyOp26
 70
     1
102
RTVSPropertyOp27
 70
     1
102
RTVSPropertyOp28
 70
     1
102
RTVSPropertyOp29
 70
     1
102
RTVSPropertyOp30
 70
     1
102
RTVSPropertyOp31
 70
     1
102
RTVSPropertyOp32
 70
     1
  0
XRECORD
  5
227
102
{ACAD_REACTORS
330
226
102
}
330
226
100
AcDbXrecord
280
     1
102
RTVSPropertyOp0
 70
     1
102
RTVSPropertyOp1
 70
     1
102
RTVSPropertyOp2
 70
     1
102
RTVSPropertyOp3
 70
     1
102
RTVSPropertyOp4
 70
     1
102
RTVSPropertyOp5
 70
     1
102
RTVSPropertyOp6
 70
     1
102
RTVSPropertyOp7
 70
     1
102
RTVSPropertyOp8
 70
     1
102
RTVSPropertyOp9
 70
     1
102
RTVSPropertyOp10
 70
     1
102
RTVSPropertyOp11
 70
     1
102
RTVSPropertyOp12
 70
     1
102
RTVSPropertyOp13
 70
     1
102
RTVSPropertyOp14
 70
     1
102
RTVSPropertyOp15
 70
     1
102
RTVSPropertyOp16
 70
     1
102
RTVSPropertyOp17
 70
     1
102
RTVSPropertyOp18
 70
     1
102
RTVSPropertyOp19
 70
     1
102
RTVSPropertyOp20
 70
     1
102
RTVSPropertyOp21
 70
     1
102
RTVSPropertyOp22
 70
     1
102
RTVSPropertyOp23
 70
     1
102
RTVSPropertyOp24
 70
     1
102
RTVSPropertyOp25
 70
     1
102
RTVSPropertyOp26
 70
     1
102
RTVSPropertyOp27
 70
     1
102
RTVSPropertyOp28
 70
     1
102
RTVSPropertyOp29
 70
     1
102
RTVSPropertyOp30
 70
     1
102
RTVSPropertyOp31
 70
     1
102
RTVSPropertyOp32
 70
     1
  0
XRECORD
  5
22F
102
{ACAD_REACTORS
330
22E
102
}
330
22E
100
AcDbXrecord
280
     1
102
RTVSPropertyOp0
 70
     1
102
RTVSPropertyOp1
 70
     1
102
RTVSPropertyOp2
 70
     1
102
RTVSPropertyOp3
 70
     1
102
RTVSPropertyOp4
 70
     1
102
RTVSPropertyOp5
 70
     1
102
RTVSPropertyOp6
 70
     1
102
RTVSPropertyOp7
 70
     1
102
RTVSPropertyOp8
 70
     1
102
RTVSPropertyOp9
 70
     1
102
RTVSPropertyOp10
 70
     1
102
RTVSPropertyOp11
 70
     1
102
RTVSPropertyOp12
 70
     1
102
RTVSPropertyOp13
 70
     1
102
RTVSPropertyOp14
 70
     1
102
RTVSPropertyOp15
 70
     1
102
RTVSPropertyOp16
 70
     1
102
RTVSPropertyOp17
 70
     1
102
RTVSPropertyOp18
 70
     1
102
RTVSPropertyOp19
 70
     1
102
RTVSPropertyOp20
 70
     1
102
RTVSPropertyOp21
 70
     1
102
RTVSPropertyOp22
 70
     1
102
RTVSPropertyOp23
 70
     1
102
RTVSPropertyOp24
 70
     1
102
RTVSPropertyOp25
 70
     1
102
RTVSPropertyOp26
 70
     1
102
RTVSPropertyOp27
 70
     1
102
RTVSPropertyOp28
 70
     1
102
RTVSPropertyOp29
 70
     1
102
RTVSPropertyOp30
 70
     1
102
RTVSPropertyOp31
 70
     1
102
RTVSPropertyOp32
 70
     1
  0
XRECORD
  5
221
102
{ACAD_REACTORS
330
220
102
}
330
220
100
AcDbXrecord
280
     1
102
RTVSPropertyOp0
 70
     1
102
RTVSPropertyOp1
 70
     1
102
RTVSPropertyOp2
 70
     1
102
RTVSPropertyOp3
 70
     1
102
RTVSPropertyOp4
 70
     1
102
RTVSPropertyOp5
 70
     1
102
RTVSPropertyOp6
 70
     1
102
RTVSPropertyOp7
 70
     1
102
RTVSPropertyOp8
 70
     1
102
RTVSPropertyOp9
 70
     1
102
RTVSPropertyOp10
 70
     1
102
RTVSPropertyOp11
 70
     1
102
RTVSPropertyOp12
 70
     1
102
RTVSPropertyOp13
 70
     1
102
RTVSPropertyOp14
 70
     1
102
RTVSPropertyOp15
 70
     1
102
RTVSPropertyOp16
 70
     1
102
RTVSPropertyOp17
 70
     1
102
RTVSPropertyOp18
 70
     1
102
RTVSPropertyOp19
 70
     1
102
RTVSPropertyOp20
 70
     1
102
RTVSPropertyOp21
 70
     1
102
RTVSPropertyOp22
 70
     1
102
RTVSPropertyOp23
 70
     1
102
RTVSPropertyOp24
 70
     1
102
RTVSPropertyOp25
 70
     1
102
RTVSPropertyOp26
 70
     1
102
RTVSPropertyOp27
 70
     1
102
RTVSPropertyOp28
 70
     1
102
RTVSPropertyOp29
 70
     1
102
RTVSPropertyOp30
 70
     1
102
RTVSPropertyOp31
 70
     1
102
RTVSPropertyOp32
 70
     1
  0
XRECORD
  5
225
102
{ACAD_REACTORS
330
224
102
}
330
224
100
AcDbXrecord
280
     1
102
RTVSPropertyOp0
 70
     1
102
RTVSPropertyOp1
 70
     1
102
RTVSPropertyOp2
 70
     1
102
RTVSPropertyOp3
 70
     1
102
RTVSPropertyOp4
 70
     1
102
RTVSPropertyOp5
 70
     1
102
RTVSPropertyOp6
 70
     1
102
RTVSPropertyOp7
 70
     1
102
RTVSPropertyOp8
 70
     1
102
RTVSPropertyOp9
 70
     1
102
RTVSPropertyOp10
 70
     1
102
RTVSPropertyOp11
 70
     1
102
RTVSPropertyOp12
 70
     1
102
RTVSPropertyOp13
 70
     1
102
RTVSPropertyOp14
 70
     1
102
RTVSPropertyOp15
 70
     1
102
RTVSPropertyOp16
 70
     1
102
RTVSPropertyOp17
 70
     1
102
RTVSPropertyOp18
 70
     1
102
RTVSPropertyOp19
 70
     1
102
RTVSPropertyOp20
 70
     1
102
RTVSPropertyOp21
 70
     1
102
RTVSPropertyOp22
 70
     1
102
RTVSPropertyOp23
 70
     1
102
RTVSPropertyOp24
 70
     1
102
RTVSPropertyOp25
 70
     1
102
RTVSPropertyOp26
 70
     1
102
RTVSPropertyOp27
 70
     1
102
RTVSPropertyOp28
 70
     1
102
RTVSPropertyOp29
 70
     1
102
RTVSPropertyOp30
 70
     1
102
RTVSPropertyOp31
 70
     1
102
RTVSPropertyOp32
 70
     1
  0
XRECORD
  5
23F
102
{ACAD_REACTORS
330
23E
102
}
330
23E
100
AcDbXrecord
280
     1
102
RTVSPropertyOp0
 70
     0
102
RTVSPropertyOp1
 70
     0
102
RTVSPropertyOp2
 70
     0
102
RTVSPropertyOp3
 70
     0
102
RTVSPropertyOp4
 70
     0
102
RTVSPropertyOp5
 70
     0
102
RTVSPropertyOp6
 70
     0
102
RTVSPropertyOp7
 70
     0
102
RTVSPropertyOp8
 70
     0
102
RTVSPropertyOp9
 70
     0
102
RTVSPropertyOp10
 70
     0
102
RTVSPropertyOp11
 70
     0
102
RTVSPropertyOp12
 70
     0
102
RTVSPropertyOp13
 70
     0
102
RTVSPropertyOp14
 70
     2
102
RTVSPropertyOp15
 70
     0
102
RTVSPropertyOp16
 70
     0
102
RTVSPropertyOp17
 70
     0
102
RTVSPropertyOp18
 70
     0
102
RTVSPropertyOp19
 70
     0
102
RTVSPropertyOp20
 70
     0
102
RTVSPropertyOp21
 70
     0
102
RTVSPropertyOp22
 70
     0
102
RTVSPropertyOp23
 70
     0
102
RTVSPropertyOp24
 70
     0
102
RTVSPropertyOp25
 70
     0
102
RTVSPropertyOp26
 70
     0
102
RTVSPropertyOp27
 70
     0
102
RTVSPropertyOp28
 70
     0
102
RTVSPropertyOp29
 70
     0
102
RTVSPropertyOp30
 70
     0
102
RTVSPropertyOp31
 70
     0
102
RTVSPropertyOp32
 70
     0
  0
XRECORD
  5
22D
102
{ACAD_REACTORS
330
22C
102
}
330
22C
100
AcDbXrecord
280
     1
102
RTVSPropertyOp0
 70
     1
102
RTVSPropertyOp1
 70
     1
102
RTVSPropertyOp2
 70
     1
102
RTVSPropertyOp3
 70
     1
102
RTVSPropertyOp4
 70
     1
102
RTVSPropertyOp5
 70
     1
102
RTVSPropertyOp6
 70
     1
102
RTVSPropertyOp7
 70
     1
102
RTVSPropertyOp8
 70
     1
102
RTVSPropertyOp9
 70
     1
102
RTVSPropertyOp10
 70
     1
102
RTVSPropertyOp11
 70
     1
102
RTVSPropertyOp12
 70
     1
102
RTVSPropertyOp13
 70
     1
102
RTVSPropertyOp14
 70
     1
102
RTVSPropertyOp15
 70
     1
102
RTVSPropertyOp16
 70
     1
102
RTVSPropertyOp17
 70
     1
102
RTVSPropertyOp18
 70
     1
102
RTVSPropertyOp19
 70
     1
102
RTVSPropertyOp20
 70
     1
102
RTVSPropertyOp21
 70
     1
102
RTVSPropertyOp22
 70
     1
102
RTVSPropertyOp23
 70
     1
102
RTVSPropertyOp24
 70
     1
102
RTVSPropertyOp25
 70
     1
102
RTVSPropertyOp26
 70
     1
102
RTVSPropertyOp27
 70
     1
102
RTVSPropertyOp28
 70
     1
102
RTVSPropertyOp29
 70
     1
102
RTVSPropertyOp30
 70
     1
102
RTVSPropertyOp31
 70
     1
102
RTVSPropertyOp32
 70
     1
  0
XRECORD
  5
211
102
{ACAD_REACTORS
330
210
102
}
330
210
100
AcDbXrecord
280
     1
102
RTVSPropertyOp0
 70
     1
102
RTVSPropertyOp1
 70
     1
102
RTVSPropertyOp2
 70
     1
102
RTVSPropertyOp3
 70
     1
102
RTVSPropertyOp4
 70
     1
102
RTVSPropertyOp5
 70
     1
102
RTVSPropertyOp6
 70
     1
102
RTVSPropertyOp7
 70
     1
102
RTVSPropertyOp8
 70
     1
102
RTVSPropertyOp9
 70
     1
102
RTVSPropertyOp10
 70
     1
102
RTVSPropertyOp11
 70
     1
102
RTVSPropertyOp12
 70
     1
102
RTVSPropertyOp13
 70
     1
102
RTVSPropertyOp14
 70
     1
102
RTVSPropertyOp15
 70
     1
102
RTVSPropertyOp16
 70
     1
102
RTVSPropertyOp17
 70
     1
102
RTVSPropertyOp18
 70
     1
102
RTVSPropertyOp19
 70
     1
102
RTVSPropertyOp20
 70
     1
102
RTVSPropertyOp21
 70
     1
102
RTVSPropertyOp22
 70
     1
102
RTVSPropertyOp23
 70
     1
102
RTVSPropertyOp24
 70
     1
102
RTVSPropertyOp25
 70
     1
102
RTVSPropertyOp26
 70
     1
102
RTVSPropertyOp27
 70
     1
102
RTVSPropertyOp28
 70
     1
102
RTVSPropertyOp29
 70
     1
102
RTVSPropertyOp30
 70
     1
102
RTVSPropertyOp31
 70
     1
102
RTVSPropertyOp32
 70
     1
  0
XRECORD
  5
213
102
{ACAD_REACTORS
330
212
102
}
330
212
100
AcDbXrecord
280
     1
102
RTVSPropertyOp0
 70
     1
102
RTVSPropertyOp1
 70
     1
102
RTVSPropertyOp2
 70
     1
102
RTVSPropertyOp3
 70
     1
102
RTVSPropertyOp4
 70
     1
102
RTVSPropertyOp5
 70
     1
102
RTVSPropertyOp6
 70
     1
102
RTVSPropertyOp7
 70
     1
102
RTVSPropertyOp8
 70
     1
102
RTVSPropertyOp9
 70
     1
102
RTVSPropertyOp10
 70
     1
102
RTVSPropertyOp11
 70
     1
102
RTVSPropertyOp12
 70
     1
102
RTVSPropertyOp13
 70
     1
102
RTVSPropertyOp14
 70
     1
102
RTVSPropertyOp15
 70
     1
102
RTVSPropertyOp16
 70
     1
102
RTVSPropertyOp17
 70
     1
102
RTVSPropertyOp18
 70
     1
102
RTVSPropertyOp19
 70
     1
102
RTVSPropertyOp20
 70
     1
102
RTVSPropertyOp21
 70
     1
102
RTVSPropertyOp22
 70
     1
102
RTVSPropertyOp23
 70
     1
102
RTVSPropertyOp24
 70
     1
102
RTVSPropertyOp25
 70
     1
102
RTVSPropertyOp26
 70
     1
102
RTVSPropertyOp27
 70
     1
102
RTVSPropertyOp28
 70
     1
102
RTVSPropertyOp29
 70
     1
102
RTVSPropertyOp30
 70
     1
102
RTVSPropertyOp31
 70
     1
102
RTVSPropertyOp32
 70
     1
  0
XRECORD
  5
215
102
{ACAD_REACTORS
330
214
102
}
330
214
100
AcDbXrecord
280
     1
102
RTVSPropertyOp0
 70
     1
102
RTVSPropertyOp1
 70
     1
102
RTVSPropertyOp2
 70
     1
102
RTVSPropertyOp3
 70
     1
102
RTVSPropertyOp4
 70
     1
102
RTVSPropertyOp5
 70
     1
102
RTVSPropertyOp6
 70
     1
102
RTVSPropertyOp7
 70
     1
102
RTVSPropertyOp8
 70
     1
102
RTVSPropertyOp9
 70
     1
102
RTVSPropertyOp10
 70
     1
102
RTVSPropertyOp11
 70
     1
102
RTVSPropertyOp12
 70
     1
102
RTVSPropertyOp13
 70
     1
102
RTVSPropertyOp14
 70
     1
102
RTVSPropertyOp15
 70
     1
102
RTVSPropertyOp16
 70
     1
102
RTVSPropertyOp17
 70
     1
102
RTVSPropertyOp18
 70
     1
102
RTVSPropertyOp19
 70
     1
102
RTVSPropertyOp20
 70
     1
102
RTVSPropertyOp21
 70
     1
102
RTVSPropertyOp22
 70
     1
102
RTVSPropertyOp23
 70
     1
102
RTVSPropertyOp24
 70
     1
102
RTVSPropertyOp25
 70
     1
102
RTVSPropertyOp26
 70
     1
102
RTVSPropertyOp27
 70
     1
102
RTVSPropertyOp28
 70
     1
102
RTVSPropertyOp29
 70
     1
102
RTVSPropertyOp30
 70
     1
102
RTVSPropertyOp31
 70
     1
102
RTVSPropertyOp32
 70
     1
  0
XRECORD
  5
217
102
{ACAD_REACTORS
330
216
102
}
330
216
100
AcDbXrecord
280
     1
102
RTVSPropertyOp0
 70
     1
102
RTVSPropertyOp1
 70
     1
102
RTVSPropertyOp2
 70
     1
102
RTVSPropertyOp3
 70
     1
102
RTVSPropertyOp4
 70
     1
102
RTVSPropertyOp5
 70
     1
102
RTVSPropertyOp6
 70
     1
102
RTVSPropertyOp7
 70
     1
102
RTVSPropertyOp8
 70
     1
102
RTVSPropertyOp9
 70
     1
102
RTVSPropertyOp10
 70
     1
102
RTVSPropertyOp11
 70
     1
102
RTVSPropertyOp12
 70
     1
102
RTVSPropertyOp13
 70
     1
102
RTVSPropertyOp14
 70
     1
102
RTVSPropertyOp15
 70
     1
102
RTVSPropertyOp16
 70
     1
102
RTVSPropertyOp17
 70
     1
102
RTVSPropertyOp18
 70
     1
102
RTVSPropertyOp19
 70
     1
102
RTVSPropertyOp20
 70
     1
102
RTVSPropertyOp21
 70
     1
102
RTVSPropertyOp22
 70
     1
102
RTVSPropertyOp23
 70
     1
102
RTVSPropertyOp24
 70
     1
102
RTVSPropertyOp25
 70
     1
102
RTVSPropertyOp26
 70
     1
102
RTVSPropertyOp27
 70
     1
102
RTVSPropertyOp28
 70
     1
102
RTVSPropertyOp29
 70
     1
102
RTVSPropertyOp30
 70
     1
102
RTVSPropertyOp31
 70
     1
102
RTVSPropertyOp32
 70
     1
  0
XRECORD
  5
21F
102
{ACAD_REACTORS
330
21E
102
}
330
21E
100
AcDbXrecord
280
     1
102
RTVSPropertyOp0
 70
     1
102
RTVSPropertyOp1
 70
     1
102
RTVSPropertyOp2
 70
     1
102
RTVSPropertyOp3
 70
     1
102
RTVSPropertyOp4
 70
     1
102
RTVSPropertyOp5
 70
     1
102
RTVSPropertyOp6
 70
     1
102
RTVSPropertyOp7
 70
     1
102
RTVSPropertyOp8
 70
     1
102
RTVSPropertyOp9
 70
     1
102
RTVSPropertyOp10
 70
     1
102
RTVSPropertyOp11
 70
     1
102
RTVSPropertyOp12
 70
     1
102
RTVSPropertyOp13
 70
     1
102
RTVSPropertyOp14
 70
     1
102
RTVSPropertyOp15
 70
     1
102
RTVSPropertyOp16
 70
     1
102
RTVSPropertyOp17
 70
     1
102
RTVSPropertyOp18
 70
     1
102
RTVSPropertyOp19
 70
     1
102
RTVSPropertyOp20
 70
     1
102
RTVSPropertyOp21
 70
     1
102
RTVSPropertyOp22
 70
     1
102
RTVSPropertyOp23
 70
     1
102
RTVSPropertyOp24
 70
     1
102
RTVSPropertyOp25
 70
     1
102
RTVSPropertyOp26
 70
     1
102
RTVSPropertyOp27
 70
     1
102
RTVSPropertyOp28
 70
     1
102
RTVSPropertyOp29
 70
     1
102
RTVSPropertyOp30
 70
     1
102
RTVSPropertyOp31
 70
     1
102
RTVSPropertyOp32
 70
     1
  0
XRECORD
  5
23B
102
{ACAD_REACTORS
330
23A
102
}
330
23A
100
AcDbXrecord
280
     1
102
RTVSPropertyOp0
 70
     0
102
RTVSPropertyOp1
 70
     0
102
RTVSPropertyOp2
 70
     0
102
RTVSPropertyOp3
 70
     0
102
RTVSPropertyOp4
 70
     0
102
RTVSPropertyOp5
 70
     0
102
RTVSPropertyOp6
 70
     0
102
RTVSPropertyOp7
 70
     0
102
RTVSPropertyOp8
 70
     0
102
RTVSPropertyOp9
 70
     0
102
RTVSPropertyOp10
 70
     0
102
RTVSPropertyOp11
 70
     0
102
RTVSPropertyOp12
 70
     0
102
RTVSPropertyOp13
 70
     0
102
RTVSPropertyOp14
 70
     2
102
RTVSPropertyOp15
 70
     0
102
RTVSPropertyOp16
 70
     0
102
RTVSPropertyOp17
 70
     0
102
RTVSPropertyOp18
 70
     0
102
RTVSPropertyOp19
 70
     0
102
RTVSPropertyOp20
 70
     0
102
RTVSPropertyOp21
 70
     0
102
RTVSPropertyOp22
 70
     0
102
RTVSPropertyOp23
 70
     0
102
RTVSPropertyOp24
 70
     0
102
RTVSPropertyOp25
 70
     0
102
RTVSPropertyOp26
 70
     0
102
RTVSPropertyOp27
 70
     0
102
RTVSPropertyOp28
 70
     0
102
RTVSPropertyOp29
 70
     0
102
RTVSPropertyOp30
 70
     0
102
RTVSPropertyOp31
 70
     0
102
RTVSPropertyOp32
 70
     0
  0
XRECORD
  5
22B
102
{ACAD_REACTORS
330
22A
102
}
330
22A
100
AcDbXrecord
280
     1
102
RTVSPropertyOp0
 70
     1
102
RTVSPropertyOp1
 70
     1
102
RTVSPropertyOp2
 70
     1
102
RTVSPropertyOp3
 70
     1
102
RTVSPropertyOp4
 70
     1
102
RTVSPropertyOp5
 70
     1
102
RTVSPropertyOp6
 70
     1
102
RTVSPropertyOp7
 70
     1
102
RTVSPropertyOp8
 70
     1
102
RTVSPropertyOp9
 70
     1
102
RTVSPropertyOp10
 70
     1
102
RTVSPropertyOp11
 70
     1
102
RTVSPropertyOp12
 70
     1
102
RTVSPropertyOp13
 70
     1
102
RTVSPropertyOp14
 70
     1
102
RTVSPropertyOp15
 70
     1
102
RTVSPropertyOp16
 70
     1
102
RTVSPropertyOp17
 70
     1
102
RTVSPropertyOp18
 70
     1
102
RTVSPropertyOp19
 70
     1
102
RTVSPropertyOp20
 70
     1
102
RTVSPropertyOp21
 70
     1
102
RTVSPropertyOp22
 70
     1
102
RTVSPropertyOp23
 70
     1
102
RTVSPropertyOp24
 70
     1
102
RTVSPropertyOp25
 70
     1
102
RTVSPropertyOp26
 70
     1
102
RTVSPropertyOp27
 70
     1
102
RTVSPropertyOp28
 70
     1
102
RTVSPropertyOp29
 70
     1
102
RTVSPropertyOp30
 70
     1
102
RTVSPropertyOp31
 70
     1
102
RTVSPropertyOp32
 70
     1
  0
XRECORD
  5
23D
102
{ACAD_REACTORS
330
23C
102
}
330
23C
100
AcDbXrecord
280
     1
102
RTVSPropertyOp0
 70
     0
102
RTVSPropertyOp1
 70
     0
102
RTVSPropertyOp2
 70
     0
102
RTVSPropertyOp3
 70
     0
102
RTVSPropertyOp4
 70
     0
102
RTVSPropertyOp5
 70
     0
102
RTVSPropertyOp6
 70
     0
102
RTVSPropertyOp7
 70
     0
102
RTVSPropertyOp8
 70
     0
102
RTVSPropertyOp9
 70
     0
102
RTVSPropertyOp10
 70
     0
102
RTVSPropertyOp11
 70
     0
102
RTVSPropertyOp12
 70
     0
102
RTVSPropertyOp13
 70
     0
102
RTVSPropertyOp14
 70
     2
102
RTVSPropertyOp15
 70
     0
102
RTVSPropertyOp16
 70
     0
102
RTVSPropertyOp17
 70
     0
102
RTVSPropertyOp18
 70
     0
102
RTVSPropertyOp19
 70
     0
102
RTVSPropertyOp20
 70
     0
102
RTVSPropertyOp21
 70
     0
102
RTVSPropertyOp22
 70
     0
102
RTVSPropertyOp23
 70
     0
102
RTVSPropertyOp24
 70
     0
102
RTVSPropertyOp25
 70
     0
102
RTVSPropertyOp26
 70
     0
102
RTVSPropertyOp27
 70
     0
102
RTVSPropertyOp28
 70
     0
102
RTVSPropertyOp29
 70
     0
102
RTVSPropertyOp30
 70
     0
102
RTVSPropertyOp31
 70
     0
102
RTVSPropertyOp32
 70
     0
  0
XRECORD
  5
223
102
{ACAD_REACTORS
330
222
102
}
330
222
100
AcDbXrecord
280
     1
102
RTVSPropertyOp0
 70
     1
102
RTVSPropertyOp1
 70
     1
102
RTVSPropertyOp2
 70
     1
102
RTVSPropertyOp3
 70
     1
102
RTVSPropertyOp4
 70
     1
102
RTVSPropertyOp5
 70
     1
102
RTVSPropertyOp6
 70
     1
102
RTVSPropertyOp7
 70
     1
102
RTVSPropertyOp8
 70
     1
102
RTVSPropertyOp9
 70
     1
102
RTVSPropertyOp10
 70
     1
102
RTVSPropertyOp11
 70
     1
102
RTVSPropertyOp12
 70
     1
102
RTVSPropertyOp13
 70
     1
102
RTVSPropertyOp14
 70
     1
102
RTVSPropertyOp15
 70
     1
102
RTVSPropertyOp16
 70
     1
102
RTVSPropertyOp17
 70
     1
102
RTVSPropertyOp18
 70
     1
102
RTVSPropertyOp19
 70
     1
102
RTVSPropertyOp20
 70
     1
102
RTVSPropertyOp21
 70
     1
102
RTVSPropertyOp22
 70
     1
102
RTVSPropertyOp23
 70
     1
102
RTVSPropertyOp24
 70
     1
102
RTVSPropertyOp25
 70
     1
102
RTVSPropertyOp26
 70
     1
102
RTVSPropertyOp27
 70
     1
102
RTVSPropertyOp28
 70
     1
102
RTVSPropertyOp29
 70
     1
102
RTVSPropertyOp30
 70
     1
102
RTVSPropertyOp31
 70
     1
102
RTVSPropertyOp32
 70
     1
  0
XRECORD
  5
239
102
{ACAD_REACTORS
330
238
102
}
330
238
100
AcDbXrecord
280
     1
102
RTVSPropertyOp0
 70
     1
102
RTVSPropertyOp1
 70
     1
102
RTVSPropertyOp2
 70
     1
102
RTVSPropertyOp3
 70
     1
102
RTVSPropertyOp4
 70
     1
102
RTVSPropertyOp5
 70
     1
102
RTVSPropertyOp6
 70
     1
102
RTVSPropertyOp7
 70
     1
102
RTVSPropertyOp8
 70
     1
102
RTVSPropertyOp9
 70
     1
102
RTVSPropertyOp10
 70
     1
102
RTVSPropertyOp11
 70
     1
102
RTVSPropertyOp12
 70
     1
102
RTVSPropertyOp13
 70
     1
102
RTVSPropertyOp14
 70
     1
102
RTVSPropertyOp15
 70
     1
102
RTVSPropertyOp16
 70
     1
102
RTVSPropertyOp17
 70
     1
102
RTVSPropertyOp18
 70
     1
102
RTVSPropertyOp19
 70
     1
102
RTVSPropertyOp20
 70
     1
102
RTVSPropertyOp21
 70
     1
102
RTVSPropertyOp22
 70
     1
102
RTVSPropertyOp23
 70
     1
102
RTVSPropertyOp24
 70
     1
102
RTVSPropertyOp25
 70
     1
102
RTVSPropertyOp26
 70
     1
102
RTVSPropertyOp27
 70
     1
102
RTVSPropertyOp28
 70
     1
102
RTVSPropertyOp29
 70
     1
102
RTVSPropertyOp30
 70
     1
102
RTVSPropertyOp31
 70
     1
102
RTVSPropertyOp32
 70
     1
  0
XRECORD
  5
237
102
{ACAD_REACTORS
330
236
102
}
330
236
100
AcDbXrecord
280
     1
102
RTVSPropertyOp0
 70
     1
102
RTVSPropertyOp1
 70
     1
102
RTVSPropertyOp2
 70
     1
102
RTVSPropertyOp3
 70
     1
102
RTVSPropertyOp4
 70
     1
102
RTVSPropertyOp5
 70
     1
102
RTVSPropertyOp6
 70
     1
102
RTVSPropertyOp7
 70
     1
102
RTVSPropertyOp8
 70
     1
102
RTVSPropertyOp9
 70
     1
102
RTVSPropertyOp10
 70
     1
102
RTVSPropertyOp11
 70
     1
102
RTVSPropertyOp12
 70
     1
102
RTVSPropertyOp13
 70
     1
102
RTVSPropertyOp14
 70
     1
102
RTVSPropertyOp15
 70
     1
102
RTVSPropertyOp16
 70
     1
102
RTVSPropertyOp17
 70
     1
102
RTVSPropertyOp18
 70
     1
102
RTVSPropertyOp19
 70
     1
102
RTVSPropertyOp20
 70
     1
102
RTVSPropertyOp21
 70
     1
102
RTVSPropertyOp22
 70
     1
102
RTVSPropertyOp23
 70
     1
102
RTVSPropertyOp24
 70
     1
102
RTVSPropertyOp25
 70
     1
102
RTVSPropertyOp26
 70
     1
102
RTVSPropertyOp27
 70
     1
102
RTVSPropertyOp28
 70
     1
102
RTVSPropertyOp29
 70
     1
102
RTVSPropertyOp30
 70
     1
102
RTVSPropertyOp31
 70
     1
102
RTVSPropertyOp32
 70
     1
  0
XRECORD
  5
231
102
{ACAD_REACTORS
330
230
102
}
330
230
100
AcDbXrecord
280
     1
102
RTVSPropertyOp0
 70
     1
102
RTVSPropertyOp1
 70
     1
102
RTVSPropertyOp2
 70
     1
102
RTVSPropertyOp3
 70
     1
102
RTVSPropertyOp4
 70
     1
102
RTVSPropertyOp5
 70
     1
102
RTVSPropertyOp6
 70
     1
102
RTVSPropertyOp7
 70
     1
102
RTVSPropertyOp8
 70
     1
102
RTVSPropertyOp9
 70
     1
102
RTVSPropertyOp10
 70
     1
102
RTVSPropertyOp11
 70
     1
102
RTVSPropertyOp12
 70
     1
102
RTVSPropertyOp13
 70
     1
102
RTVSPropertyOp14
 70
     1
102
RTVSPropertyOp15
 70
     1
102
RTVSPropertyOp16
 70
     1
102
RTVSPropertyOp17
 70
     1
102
RTVSPropertyOp18
 70
     1
102
RTVSPropertyOp19
 70
     1
102
RTVSPropertyOp20
 70
     1
102
RTVSPropertyOp21
 70
     1
102
RTVSPropertyOp22
 70
     1
102
RTVSPropertyOp23
 70
     1
102
RTVSPropertyOp24
 70
     1
102
RTVSPropertyOp25
 70
     1
102
RTVSPropertyOp26
 70
     1
102
RTVSPropertyOp27
 70
     1
102
RTVSPropertyOp28
 70
     1
102
RTVSPropertyOp29
 70
     1
102
RTVSPropertyOp30
 70
     1
102
RTVSPropertyOp31
 70
     1
102
RTVSPropertyOp32
 70
     1
  0
XRECORD
  5
233
102
{ACAD_REACTORS
330
232
102
}
330
232
100
AcDbXrecord
280
     1
102
RTVSPropertyOp0
 70
     1
102
RTVSPropertyOp1
 70
     1
102
RTVSPropertyOp2
 70
     1
102
RTVSPropertyOp3
 70
     1
102
RTVSPropertyOp4
 70
     1
102
RTVSPropertyOp5
 70
     1
102
RTVSPropertyOp6
 70
     1
102
RTVSPropertyOp7
 70
     1
102
RTVSPropertyOp8
 70
     1
102
RTVSPropertyOp9
 70
     1
102
RTVSPropertyOp10
 70
     1
102
RTVSPropertyOp11
 70
     1
102
RTVSPropertyOp12
 70
     1
102
RTVSPropertyOp13
 70
     1
102
RTVSPropertyOp14
 70
     1
102
RTVSPropertyOp15
 70
     1
102
RTVSPropertyOp16
 70
     1
102
RTVSPropertyOp17
 70
     1
102
RTVSPropertyOp18
 70
     1
102
RTVSPropertyOp19
 70
     1
102
RTVSPropertyOp20
 70
     1
102
RTVSPropertyOp21
 70
     1
102
RTVSPropertyOp22
 70
     1
102
RTVSPropertyOp23
 70
     1
102
RTVSPropertyOp24
 70
     1
102
RTVSPropertyOp25
 70
     1
102
RTVSPropertyOp26
 70
     1
102
RTVSPropertyOp27
 70
     1
102
RTVSPropertyOp28
 70
     1
102
RTVSPropertyOp29
 70
     1
102
RTVSPropertyOp30
 70
     1
102
RTVSPropertyOp31
 70
     1
102
RTVSPropertyOp32
 70
     1
  0
XRECORD
  5
229
102
{ACAD_REACTORS
330
228
102
}
330
228
100
AcDbXrecord
280
     1
102
RTVSPropertyOp0
 70
     1
102
RTVSPropertyOp1
 70
     1
102
RTVSPropertyOp2
 70
     1
102
RTVSPropertyOp3
 70
     1
102
RTVSPropertyOp4
 70
     1
102
RTVSPropertyOp5
 70
     1
102
RTVSPropertyOp6
 70
     1
102
RTVSPropertyOp7
 70
     1
102
RTVSPropertyOp8
 70
     1
102
RTVSPropertyOp9
 70
     1
102
RTVSPropertyOp10
 70
     1
102
RTVSPropertyOp11
 70
     1
102
RTVSPropertyOp12
 70
     1
102
RTVSPropertyOp13
 70
     1
102
RTVSPropertyOp14
 70
     1
102
RTVSPropertyOp15
 70
     1
102
RTVSPropertyOp16
 70
     1
102
RTVSPropertyOp17
 70
     1
102
RTVSPropertyOp18
 70
     1
102
RTVSPropertyOp19
 70
     1
102
RTVSPropertyOp20
 70
     1
102
RTVSPropertyOp21
 70
     1
102
RTVSPropertyOp22
 70
     1
102
RTVSPropertyOp23
 70
     1
102
RTVSPropertyOp24
 70
     1
102
RTVSPropertyOp25
 70
     1
102
RTVSPropertyOp26
 70
     1
102
RTVSPropertyOp27
 70
     1
102
RTVSPropertyOp28
 70
     1
102
RTVSPropertyOp29
 70
     1
102
RTVSPropertyOp30
 70
     1
102
RTVSPropertyOp31
 70
     1
102
RTVSPropertyOp32
 70
     1
  0
XRECORD
  5
21D
102
{ACAD_REACTORS
330
21C
102
}
330
21C
100
AcDbXrecord
280
     1
102
RTVSPropertyOp0
 70
     1
102
RTVSPropertyOp1
 70
     1
102
RTVSPropertyOp2
 70
     1
102
RTVSPropertyOp3
 70
     1
102
RTVSPropertyOp4
 70
     1
102
RTVSPropertyOp5
 70
     1
102
RTVSPropertyOp6
 70
     1
102
RTVSPropertyOp7
 70
     1
102
RTVSPropertyOp8
 70
     1
102
RTVSPropertyOp9
 70
     1
102
RTVSPropertyOp10
 70
     1
102
RTVSPropertyOp11
 70
     1
102
RTVSPropertyOp12
 70
     1
102
RTVSPropertyOp13
 70
     1
102
RTVSPropertyOp14
 70
     1
102
RTVSPropertyOp15
 70
     1
102
RTVSPropertyOp16
 70
     1
102
RTVSPropertyOp17
 70
     1
102
RTVSPropertyOp18
 70
     1
102
RTVSPropertyOp19
 70
     1
102
RTVSPropertyOp20
 70
     1
102
RTVSPropertyOp21
 70
     1
102
RTVSPropertyOp22
 70
     1
102
RTVSPropertyOp23
 70
     1
102
RTVSPropertyOp24
 70
     1
102
RTVSPropertyOp25
 70
     1
102
RTVSPropertyOp26
 70
     1
102
RTVSPropertyOp27
 70
     1
102
RTVSPropertyOp28
 70
     1
102
RTVSPropertyOp29
 70
     1
102
RTVSPropertyOp30
 70
     1
102
RTVSPropertyOp31
 70
     1
102
RTVSPropertyOp32
 70
     1
  0
XRECORD
  5
235
102
{ACAD_REACTORS
330
234
102
}
330
234
100
AcDbXrecord
280
     1
102
RTVSPropertyOp0
 70
     1
102
RTVSPropertyOp1
 70
     1
102
RTVSPropertyOp2
 70
     1
102
RTVSPropertyOp3
 70
     1
102
RTVSPropertyOp4
 70
     1
102
RTVSPropertyOp5
 70
     1
102
RTVSPropertyOp6
 70
     1
102
RTVSPropertyOp7
 70
     1
102
RTVSPropertyOp8
 70
     1
102
RTVSPropertyOp9
 70
     1
102
RTVSPropertyOp10
 70
     1
102
RTVSPropertyOp11
 70
     1
102
RTVSPropertyOp12
 70
     1
102
RTVSPropertyOp13
 70
     1
102
RTVSPropertyOp14
 70
     1
102
RTVSPropertyOp15
 70
     1
102
RTVSPropertyOp16
 70
     1
102
RTVSPropertyOp17
 70
     1
102
RTVSPropertyOp18
 70
     1
102
RTVSPropertyOp19
 70
     1
102
RTVSPropertyOp20
 70
     1
102
RTVSPropertyOp21
 70
     1
102
RTVSPropertyOp22
 70
     1
102
RTVSPropertyOp23
 70
     1
102
RTVSPropertyOp24
 70
     1
102
RTVSPropertyOp25
 70
     1
102
RTVSPropertyOp26
 70
     1
102
RTVSPropertyOp27
 70
     1
102
RTVSPropertyOp28
 70
     1
102
RTVSPropertyOp29
 70
     1
102
RTVSPropertyOp30
 70
     1
102
RTVSPropertyOp31
 70
     1
102
RTVSPropertyOp32
 70
     1
  0
ENDSEC
  0
EOF
