  0
SECTION
  2
HEADER
  9
$ACADVER
  1
AC1015
  9
$ACADMAINTVER
 70
    20
  9
$DWGCODEPAGE
  3
ANSI_1252
  9
$INSBASE
 10
0.0
 20
0.0
 30
0.0
  9
$EXTMIN
 10
35997.76524245143
 20
10145.66954375769
 30
-0.0762881246355391
  9
$EXTMAX
 10
36985.35046658739
 20
11501.10286477862
 30
2500.076299766167
  9
$LIMMIN
 10
0.0
 20
0.0
  9
$LIMMAX
 10
36984.2217116
 20
11749.95752903
  9
$ORTHOMODE
 70
     0
  9
$REGENMODE
 70
     1
  9
$FILLMODE
 70
     1
  9
$QTEXTMODE
 70
     0
  9
$MIRRTEXT
 70
     1
  9
$LTSCALE
 40
5.0
  9
$ATTMODE
 70
     1
  9
$TEXTSIZE
 40
3.5
  9
$TRACEWID
 40
1.0
  9
$TEXTSTYLE
  7
STANDARD
  9
$CLAYER
  8
0
  9
$CELTYPE
  6
BYLAYER
  9
$CECOLOR
 62
   256
  9
$CELTSCALE
 40
1.0
  9
$DISPSILH
 70
     0
  9
$DIMSCALE
 40
1.0
  9
$DIMASZ
 40
4.0
  9
$DIMEXO
 40
5.0
  9
$DIMDLI
 40
10.0
  9
$DIMRND
 40
0.0
  9
$DIMDLE
 40
2.0
  9
$DIMEXE
 40
2.0
  9
$DIMTP
 40
0.0
  9
$DIMTM
 40
0.0
  9
$DIMTXT
 40
2.0
  9
$DIMCEN
 40
1.5
  9
$DIMTSZ
 40
0.0
  9
$DIMTOL
 70
     0
  9
$DIMLIM
 70
     0
  9
$DIMTIH
 70
     1
  9
$DIMTOH
 70
     0
  9
$DIMSE1
 70
     0
  9
$DIMSE2
 70
     0
  9
$DIMTAD
 70
     1
  9
$DIMZIN
 70
     8
  9
$DIMBLK
  1

  9
$DIMASO
 70
     1
  9
$DIMSHO
 70
     1
  9
$DIMPOST
  1

  9
$DIMAPOST
  1

  9
$DIMALT
 70
     0
  9
$DIMALTD
 70
     2
  9
$DIMALTF
 40
25.4
  9
$DIMLFAC
 40
1.0
  9
$DIMTOFL
 70
     0
  9
$DIMTVP
 40
0.0
  9
$DIMTIX
 70
     0
  9
$DIMSOXD
 70
     0
  9
$DIMSAH
 70
     0
  9
$DIMBLK1
  1

  9
$DIMBLK2
  1

  9
$DIMSTYLE
  2
Standard
  9
$DIMCLRD
 70
     9
  9
$DIMCLRE
 70
     9
  9
$DIMCLRT
 70
     7
  9
$DIMTFAC
 40
1.0
  9
$DIMGAP
 40
0.09
  9
$DIMJUST
 70
     0
  9
$DIMSD1
 70
     0
  9
$DIMSD2
 70
     0
  9
$DIMTOLJ
 70
     1
  9
$DIMTZIN
 70
     0
  9
$DIMALTZ
 70
     0
  9
$DIMALTTZ
 70
     0
  9
$DIMUPT
 70
     0
  9
$DIMDEC
 70
     4
  9
$DIMTDEC
 70
     4
  9
$DIMALTU
 70
     2
  9
$DIMALTTD
 70
     2
  9
$DIMTXSTY
  7
STANDARD
  9
$DIMAUNIT
 70
     0
  9
$DIMADEC
 70
     0
  9
$DIMALTRND
 40
0.0
  9
$DIMAZIN
 70
     0
  9
$DIMDSEP
 70
    46
  9
$DIMATFIT
 70
     3
  9
$DIMFRAC
 70
     0
  9
$DIMLDRBLK
  1

  9
$DIMLUNIT
 70
     2
  9
$DIMLWD
 70
    -2
  9
$DIMLWE
 70
    -2
  9
$DIMTMOVE
 70
     0
  9
$LUNITS
 70
     2
  9
$LUPREC
 70
     6
  9
$SKETCHINC
 40
0.1
  9
$FILLETRAD
 40
0.0
  9
$AUNITS
 70
     0
  9
$AUPREC
 70
     0
  9
$MENU
  1
ACAD
  9
$ELEVATION
 40
0.0
  9
$PELEVATION
 40
0.0
  9
$THICKNESS
 40
0.0
  9
$LIMCHECK
 70
     0
  9
$CHAMFERA
 40
0.0
  9
$CHAMFERB
 40
0.0
  9
$CHAMFERC
 40
0.0
  9
$CHAMFERD
 40
0.0
  9
$SKPOLY
 70
     1
  9
$TDCREATE
 40
2456443.000000000
  9
$TDUCREATE
 40
2456442.916666667
  9
$TDUPDATE
 40
2456458.454718623
  9
$TDUUPDATE
 40
2456458.371385290
  9
$TDINDWG
 40
0.0003116667
  9
$TDUSRTIMER
 40
0.0003114815
  9
$USRTIMER
 70
     1
  9
$ANGBASE
 50
0.0
  9
$ANGDIR
 70
     0
  9
$PDMODE
 70
     0
  9
$PDSIZE
 40
0.0
  9
$PLINEWID
 40
0.0
  9
$SPLFRAME
 70
     0
  9
$SPLINETYPE
 70
     6
  9
$SPLINESEGS
 70
     8
  9
$HANDSEED
  5
1E3
  9
$SURFTAB1
 70
     6
  9
$SURFTAB2
 70
     6
  9
$SURFTYPE
 70
     6
  9
$SURFU
 70
     6
  9
$SURFV
 70
     6
  9
$UCSBASE
  2

  9
$UCSNAME
  2

  9
$UCSORG
 10
0.0
 20
0.0
 30
0.0
  9
$UCSXDIR
 10
1.0
 20
0.0
 30
0.0
  9
$UCSYDIR
 10
0.0
 20
1.0
 30
0.0
  9
$UCSORTHOREF
  2

  9
$UCSORTHOVIEW
 70
     0
  9
$UCSORGTOP
 10
0.0
 20
0.0
 30
0.0
  9
$UCSORGBOTTOM
 10
0.0
 20
0.0
 30
0.0
  9
$UCSORGLEFT
 10
0.0
 20
0.0
 30
0.0
  9
$UCSORGRIGHT
 10
0.0
 20
0.0
 30
0.0
  9
$UCSORGFRONT
 10
0.0
 20
0.0
 30
0.0
  9
$UCSORGBACK
 10
0.0
 20
0.0
 30
0.0
  9
$PUCSBASE
  2

  9
$PUCSNAME
  2

  9
$PUCSORG
 10
0.0
 20
0.0
 30
0.0
  9
$PUCSXDIR
 10
1.0
 20
0.0
 30
0.0
  9
$PUCSYDIR
 10
0.0
 20
1.0
 30
0.0
  9
$PUCSORTHOREF
  2

  9
$PUCSORTHOVIEW
 70
     0
  9
$PUCSORGTOP
 10
0.0
 20
0.0
 30
0.0
  9
$PUCSORGBOTTOM
 10
0.0
 20
0.0
 30
0.0
  9
$PUCSORGLEFT
 10
0.0
 20
0.0
 30
0.0
  9
$PUCSORGRIGHT
 10
0.0
 20
0.0
 30
0.0
  9
$PUCSORGFRONT
 10
0.0
 20
0.0
 30
0.0
  9
$PUCSORGBACK
 10
0.0
 20
0.0
 30
0.0
  9
$USERI1
 70
     0
  9
$USERI2
 70
     0
  9
$USERI3
 70
     0
  9
$USERI4
 70
     0
  9
$USERI5
 70
     0
  9
$USERR1
 40
0.0
  9
$USERR2
 40
0.0
  9
$USERR3
 40
0.0
  9
$USERR4
 40
0.0
  9
$USERR5
 40
0.0
  9
$WORLDVIEW
 70
     1
  9
$SHADEDGE
 70
     3
  9
$SHADEDIF
 70
    70
  9
$TILEMODE
 70
     1
  9
$MAXACTVP
 70
    16
  9
$PINSBASE
 10
0.0
 20
0.0
 30
0.0
  9
$PLIMCHECK
 70
     0
  9
$PEXTMIN
 10
1.000000000000000E+20
 20
1.000000000000000E+20
 30
1.000000000000000E+20
  9
$PEXTMAX
 10
-1.000000000000000E+20
 20
-1.000000000000000E+20
 30
-1.000000000000000E+20
  9
$PLIMMIN
 10
0.0
 20
0.0
  9
$PLIMMAX
 10
12.0
 20
9.0
  9
$UNITMODE
 70
     0
  9
$VISRETAIN
 70
     0
  9
$PLINEGEN
 70
     0
  9
$PSLTSCALE
 70
     1
  9
$TREEDEPTH
 70
  3020
  9
$CMLSTYLE
  2
STANDARD
  9
$CMLJUST
 70
     0
  9
$CMLSCALE
 40
1.0
  9
$PROXYGRAPHICS
 70
     1
  9
$MEASUREMENT
 70
     1
  9
$CELWEIGHT
370
    -1
  9
$ENDCAPS
280
     0
  9
$JOINSTYLE
280
     0
  9
$LWDISPLAY
290
     0
  9
$INSUNITS
 70
     0
  9
$HYPERLINKBASE
  1

  9
$STYLESHEET
  1

  9
$XEDIT
290
     1
  9
$CEPSNTYPE
380
     0
  9
$PSTYLEMODE
290
     1
  9
$FINGERPRINTGUID
  2
{6B22A42A-1538-4BA0-A945-263CCCB3778D}
  9
$VERSIONGUID
  2
{9677BD30-C29B-4BAF-9BF0-A62E2B1816C1}
  9
$EXTNAMES
290
     1
  9
$PSVPSCALE
 40
0.0
  9
$OLESTARTUP
290
     0
  0
ENDSEC
  0
SECTION
  2
CLASSES
  0
CLASS
  1
ACDBDICTIONARYWDFLT
  2
AcDbDictionaryWithDefault
  3
ObjectDBX Classes
 90
        0
280
     0
281
     0
  0
CLASS
  1
MATERIAL
  2
AcDbMaterial
  3
ObjectDBX Classes
 90
     1153
280
     0
281
     0
  0
CLASS
  1
VISUALSTYLE
  2
AcDbVisualStyle
  3
ObjectDBX Classes
 90
     4095
280
     0
281
     0
  0
CLASS
  1
TABLESTYLE
  2
AcDbTableStyle
  3
ObjectDBX Classes
 90
     4095
280
     0
281
     0
  0
CLASS
  1
SCALE
  2
AcDbScale
  3
ObjectDBX Classes
 90
     1153
280
     0
281
     0
  0
CLASS
  1
MLEADERSTYLE
  2
AcDbMLeaderStyle
  3
ACDB_MLEADERSTYLE_CLASS
 90
     4095
280
     0
281
     0
  0
CLASS
  1
DICTIONARYVAR
  2
AcDbDictionaryVar
  3
ObjectDBX Classes
 90
        0
280
     0
281
     0
  0
CLASS
  1
CELLSTYLEMAP
  2
AcDbCellStyleMap
  3
ObjectDBX Classes
 90
     1152
280
     0
281
     0
  0
CLASS
  1
ACDBPLACEHOLDER
  2
AcDbPlaceHolder
  3
ObjectDBX Classes
 90
        0
280
     0
281
     0
  0
CLASS
  1
LAYOUT
  2
AcDbLayout
  3
ObjectDBX Classes
 90
        0
280
     0
281
     0
  0
ENDSEC
  0
SECTION
  2
TABLES
  0
TABLE
  2
VPORT
  5
22
330
0
100
AcDbSymbolTable
 70
     1
  0
VPORT
  5
158
330
22
100
AcDbSymbolTableRecord
100
AcDbViewportTableRecord
  2
*Active
 70
     0
 10
0.0
 20
0.0
 11
1.0
 21
1.0
 12
36491.55785451941
 22
10823.38620426815
 13
0.0
 23
0.0
 14
1.0
 24
1.0
 15
0.0
 25
0.0
 16
0.0
 26
0.0
 36
1.0
 17
0.0
 27
0.0
 37
0.0
 40
1365.819783250976
 41
2.015345268542199
 42
50.0
 43
0.0
 44
0.0
 50
0.0
 51
0.0
 71
     0
 72
  1000
 73
     1
 74
     3
 75
     0
 76
     0
 77
     0
 78
     0
281
     0
 65
     1
110
0.0
120
0.0
130
0.0
111
1.0
121
0.0
131
0.0
112
0.0
122
1.0
132
0.0
 79
     0
146
0.0
  0
ENDTAB
  0
TABLE
  2
LTYPE
  5
28
330
0
100
AcDbSymbolTable
 70
    11
  0
LTYPE
  5
29
330
28
100
AcDbSymbolTableRecord
100
AcDbLinetypeTableRecord
  2
BYBLOCK
 70
     0
  3

 72
    65
 73
     0
 40
0.0
  0
LTYPE
  5
2A
330
28
100
AcDbSymbolTableRecord
100
AcDbLinetypeTableRecord
  2
BYLAYER
 70
     0
  3

 72
    65
 73
     0
 40
0.0
  0
LTYPE
  5
2B
330
28
100
AcDbSymbolTableRecord
100
AcDbLinetypeTableRecord
  2
CONTINUOUS
 70
     0
  3
Solid line
 72
    65
 73
     0
 40
0.0
  0
LTYPE
  5
2C
330
28
100
AcDbSymbolTableRecord
100
AcDbLinetypeTableRecord
  2
DOT
 70
     0
  3
. . . . . . . . . . . . . . . . . . . . . . . .
 72
    65
 73
     2
 40
2.5
 49
0.0
 74
     0
 49
-2.5
 74
     0
  0
LTYPE
  5
2D
330
28
100
AcDbSymbolTableRecord
100
AcDbLinetypeTableRecord
  2
HIDDEN
 70
     0
  3
__ __ __ __ __ __ __ __ __ __ __ __ __ __ __ __
 72
    65
 73
     2
 40
1.875
 49
1.25
 74
     0
 49
-0.625
 74
     0
  0
LTYPE
  5
2E
330
28
100
AcDbSymbolTableRecord
100
AcDbLinetypeTableRecord
  2
CENTER
 70
     0
  3
 ____ _ ____ _ ____ _ ____ _ ____ _ ____ _ ____
 72
    65
 73
     4
 40
20.0
 49
12.5
 74
     0
 49
-2.5
 74
     0
 49
2.5
 74
     0
 49
-2.5
 74
     0
  0
LTYPE
  5
2F
330
28
100
AcDbSymbolTableRecord
100
AcDbLinetypeTableRecord
  2
CADWORK_22
 70
     0
  3
22 =======================================
 72
    65
 73
     0
 40
0.0
  0
LTYPE
  5
30
330
28
100
AcDbSymbolTableRecord
100
AcDbLinetypeTableRecord
  2
DAL
 70
     0
  3
Solid line (for MAPS)
 72
    65
 73
     0
 40
0.0
  0
LTYPE
  5
31
330
28
100
AcDbSymbolTableRecord
100
AcDbLinetypeTableRecord
  2
MUR
 70
     0
  3
Solid line (for MAPS)
 72
    65
 73
     0
 40
0.0
  0
LTYPE
  5
32
330
28
100
AcDbSymbolTableRecord
100
AcDbLinetypeTableRecord
  2
SOM
 70
     0
  3
Solid line (for MAPS)
 72
    65
 73
     0
 40
0.0
  0
LTYPE
  5
33
330
28
100
AcDbSymbolTableRecord
100
AcDbLinetypeTableRecord
  2
COL
 70
     0
  3
Solid line (for MAPS)
 72
    65
 73
     0
 40
0.0
  0
LTYPE
  5
34
330
28
100
AcDbSymbolTableRecord
100
AcDbLinetypeTableRecord
  2
LGN
 70
     0
  3
Solid line (for MAPS)
 72
    65
 73
     0
 40
0.0
  0
LTYPE
  5
35
330
28
100
AcDbSymbolTableRecord
100
AcDbLinetypeTableRecord
  2
PNT
 70
     0
  3
Solid line (for MAPS)
 72
    65
 73
     0
 40
0.0
  0
ENDTAB
  0
TABLE
  2
LAYER
  5
36
330
0
100
AcDbSymbolTable
 70
    32
  0
LAYER
  5
37
102
{ACAD_XDICTIONARY
360
162
102
}
330
36
100
AcDbSymbolTableRecord
100
AcDbLayerTableRecord
  2
STANDARD
 70
     0
 62
     7
  6
CONTINUOUS
370
    -3
390
107
  0
LAYER
  5
38
102
{ACAD_XDICTIONARY
360
164
102
}
330
36
100
AcDbSymbolTableRecord
100
AcDbLayerTableRecord
  2
Ech.1_1
 70
     0
 62
     7
  6
CONTINUOUS
370
    -3
390
107
  0
LAYER
  5
39
102
{ACAD_XDICTIONARY
360
166
102
}
330
36
100
AcDbSymbolTableRecord
100
AcDbLayerTableRecord
  2
Ech.1_2
 70
     0
 62
     7
  6
CONTINUOUS
370
    -3
390
107
  0
LAYER
  5
3A
102
{ACAD_XDICTIONARY
360
168
102
}
330
36
100
AcDbSymbolTableRecord
100
AcDbLayerTableRecord
  2
Ech.1_5
 70
     0
 62
     7
  6
CONTINUOUS
370
    -3
390
107
  0
LAYER
  5
3B
102
{ACAD_XDICTIONARY
360
16A
102
}
330
36
100
AcDbSymbolTableRecord
100
AcDbLayerTableRecord
  2
Ech.1_10
 70
     0
 62
     7
  6
CONTINUOUS
370
    -3
390
107
  0
LAYER
  5
3C
102
{ACAD_XDICTIONARY
360
16C
102
}
330
36
100
AcDbSymbolTableRecord
100
AcDbLayerTableRecord
  2
Ech.1_20
 70
     0
 62
     7
  6
CONTINUOUS
370
    -3
390
107
  0
LAYER
  5
3D
102
{ACAD_XDICTIONARY
360
16E
102
}
330
36
100
AcDbSymbolTableRecord
100
AcDbLayerTableRecord
  2
Ech.1_25
 70
     0
 62
     7
  6
CONTINUOUS
370
    -3
390
107
  0
LAYER
  5
3E
102
{ACAD_XDICTIONARY
360
170
102
}
330
36
100
AcDbSymbolTableRecord
100
AcDbLayerTableRecord
  2
Ech.1_33
 70
     0
 62
     7
  6
CONTINUOUS
370
    -3
390
107
  0
LAYER
  5
3F
102
{ACAD_XDICTIONARY
360
172
102
}
330
36
100
AcDbSymbolTableRecord
100
AcDbLayerTableRecord
  2
Ech.1_50
 70
     0
 62
     7
  6
CONTINUOUS
370
    -3
390
107
  0
LAYER
  5
40
102
{ACAD_XDICTIONARY
360
174
102
}
330
36
100
AcDbSymbolTableRecord
100
AcDbLayerTableRecord
  2
Ech.1_75
 70
     0
 62
     7
  6
CONTINUOUS
370
    -3
390
107
  0
LAYER
  5
41
102
{ACAD_XDICTIONARY
360
176
102
}
330
36
100
AcDbSymbolTableRecord
100
AcDbLayerTableRecord
  2
Ech.1_100
 70
     0
 62
     7
  6
CONTINUOUS
370
    -3
390
107
  0
LAYER
  5
42
102
{ACAD_XDICTIONARY
360
178
102
}
330
36
100
AcDbSymbolTableRecord
100
AcDbLayerTableRecord
  2
Ech.1_200
 70
     0
 62
     7
  6
CONTINUOUS
370
    -3
390
107
  0
LAYER
  5
43
102
{ACAD_XDICTIONARY
360
17A
102
}
330
36
100
AcDbSymbolTableRecord
100
AcDbLayerTableRecord
  2
Ech.1_500
 70
     0
 62
     7
  6
CONTINUOUS
370
    -3
390
107
  0
LAYER
  5
44
102
{ACAD_XDICTIONARY
360
17C
102
}
330
36
100
AcDbSymbolTableRecord
100
AcDbLayerTableRecord
  2
Ech.1_1000
 70
     0
 62
     7
  6
CONTINUOUS
370
    -3
390
107
  0
LAYER
  5
45
102
{ACAD_XDICTIONARY
360
17E
102
}
330
36
100
AcDbSymbolTableRecord
100
AcDbLayerTableRecord
  2
Cadres traceur
 70
     0
 62
     7
  6
CONTINUOUS
370
    -3
390
107
  0
LAYER
  5
46
102
{ACAD_XDICTIONARY
360
180
102
}
330
36
100
AcDbSymbolTableRecord
100
AcDbLayerTableRecord
  2
Cadres laser
 70
     0
 62
     7
  6
CONTINUOUS
370
    -3
390
107
  0
LAYER
  5
47
102
{ACAD_XDICTIONARY
360
182
102
}
330
36
100
AcDbSymbolTableRecord
100
AcDbLayerTableRecord
  2
Légende d_aide
 70
     0
 62
     7
  6
CONTINUOUS
370
    -3
390
107
  0
LAYER
  5
48
102
{ACAD_XDICTIONARY
360
184
102
}
330
36
100
AcDbSymbolTableRecord
100
AcDbLayerTableRecord
  2
hachures ok
 70
     0
 62
     7
  6
CONTINUOUS
370
    -3
390
107
  0
LAYER
  5
49
102
{ACAD_XDICTIONARY
360
186
102
}
330
36
100
AcDbSymbolTableRecord
100
AcDbLayerTableRecord
  2
ossature bois
 70
     0
 62
     7
  6
CONTINUOUS
370
    -3
390
107
  0
LAYER
  5
4A
102
{ACAD_XDICTIONARY
360
188
102
}
330
36
100
AcDbSymbolTableRecord
100
AcDbLayerTableRecord
  2
VR
 70
     0
 62
     7
  6
CONTINUOUS
370
    -3
390
107
  0
LAYER
  5
4B
102
{ACAD_XDICTIONARY
360
18A
102
}
330
36
100
AcDbSymbolTableRecord
100
AcDbLayerTableRecord
  2
CALQUE1
 70
     0
 62
     7
  6
CONTINUOUS
370
    -3
390
107
  0
LAYER
  5
4C
330
36
100
AcDbSymbolTableRecord
100
AcDbLayerTableRecord
  2
0
 70
     0
 62
     7
  6
CONTINUOUS
370
    -3
390
107
  0
LAYER
  5
4D
102
{ACAD_XDICTIONARY
360
18C
102
}
330
36
100
AcDbSymbolTableRecord
100
AcDbLayerTableRecord
  2
MENUISERIE
 70
     0
 62
     7
  6
CONTINUOUS
370
    -3
390
107
  0
LAYER
  5
4E
102
{ACAD_XDICTIONARY
360
18E
102
}
330
36
100
AcDbSymbolTableRecord
100
AcDbLayerTableRecord
  2
COTATION
 70
     0
 62
   250
  6
CONTINUOUS
370
    -3
390
107
  0
LAYER
  5
4F
330
36
100
AcDbSymbolTableRecord
100
AcDbLayerTableRecord
  2
DEFPOINTS
 70
     0
 62
    10
  6
CONTINUOUS
290
     0
370
    -3
390
107
  0
LAYER
  5
50
102
{ACAD_XDICTIONARY
360
190
102
}
330
36
100
AcDbSymbolTableRecord
100
AcDbLayerTableRecord
  2
HACHURE
 70
     0
 62
   254
  6
CONTINUOUS
370
    -3
390
107
  0
LAYER
  5
51
102
{ACAD_XDICTIONARY
360
192
102
}
330
36
100
AcDbSymbolTableRecord
100
AcDbLayerTableRecord
  2
MAT1
 70
     0
 62
     7
  6
CONTINUOUS
370
    -3
390
107
  0
LAYER
  5
52
102
{ACAD_XDICTIONARY
360
194
102
}
330
36
100
AcDbSymbolTableRecord
100
AcDbLayerTableRecord
  2
MAT2
 70
     0
 62
     7
  6
CONTINUOUS
370
    -3
390
107
  0
LAYER
  5
53
102
{ACAD_XDICTIONARY
360
196
102
}
330
36
100
AcDbSymbolTableRecord
100
AcDbLayerTableRecord
  2
HACH
 70
     0
 62
     8
  6
CONTINUOUS
370
    -3
390
107
  0
LAYER
  5
54
102
{ACAD_XDICTIONARY
360
198
102
}
330
36
100
AcDbSymbolTableRecord
100
AcDbLayerTableRecord
  2
MENUISERIES
 70
     0
 62
     7
  6
CONTINUOUS
370
    -3
390
107
  0
LAYER
  5
55
102
{ACAD_XDICTIONARY
360
19A
102
}
330
36
100
AcDbSymbolTableRecord
100
AcDbLayerTableRecord
  2
BÉTONMÉTAL
 70
     0
 62
     7
  6
CONTINUOUS
370
    -3
390
107
  0
LAYER
  5
56
102
{ACAD_XDICTIONARY
360
19C
102
}
330
36
100
AcDbSymbolTableRecord
100
AcDbLayerTableRecord
  2
BOIS
 70
     0
 62
     7
  6
CONTINUOUS
370
    -3
390
107
  0
ENDTAB
  0
TABLE
  2
STYLE
  5
23
330
0
100
AcDbSymbolTable
 70
     4
  0
STYLE
  5
24
330
23
100
AcDbSymbolTableRecord
100
AcDbTextStyleTableRecord
  2
STANDARD
 70
     0
 40
0.0
 41
1.0
 50
0.0
 71
     0
 42
3.5
  3
MONOTXT
  4

  0
STYLE
  5
25
330
23
100
AcDbSymbolTableRecord
100
AcDbTextStyleTableRecord
  2
CADWORK1
 70
     0
 40
0.0
 41
1.0
 50
0.0
 71
     0
 42
3.5
  3
MONOTXT
  4

  0
STYLE
  5
26
330
23
100
AcDbSymbolTableRecord
100
AcDbTextStyleTableRecord
  2
MONOTXT
 70
     0
 40
0.0
 41
1.0
 50
0.0
 71
     0
 42
3.5
  3
MONOTXT
  4

  0
STYLE
  5
27
330
23
100
AcDbSymbolTableRecord
100
AcDbTextStyleTableRecord
  2
ARIAL
 70
     0
 40
0.0
 41
1.0
 50
0.0
 71
     0
 42
3.5
  3

  4

1001
ACAD
1000
Arial
1071
        0
  0
ENDTAB
  0
TABLE
  2
VIEW
  5
57
330
0
100
AcDbSymbolTable
 70
     3
  0
ENDTAB
  0
TABLE
  2
UCS
  5
58
330
0
100
AcDbSymbolTable
 70
     0
  0
ENDTAB
  0
TABLE
  2
APPID
  5
59
330
0
100
AcDbSymbolTable
 70
     2
  0
APPID
  5
5A
330
59
100
AcDbSymbolTableRecord
100
AcDbRegAppTableRecord
  2
ACAD
 70
     0
  0
APPID
  5
1DE
330
59
100
AcDbSymbolTableRecord
100
AcDbRegAppTableRecord
  2
ACAD_MLEADERVER
 70
     0
  0
ENDTAB
  0
TABLE
  2
DIMSTYLE
  5
5B
330
0
100
AcDbSymbolTable
 70
     1
100
AcDbDimStyleTable
 71
     0
  0
DIMSTYLE
105
151
330
5B
100
AcDbSymbolTableRecord
100
AcDbDimStyleTableRecord
  2
Standard
 70
     0
340
24
  0
ENDTAB
  0
TABLE
  2
BLOCK_RECORD
  5
5C
330
0
100
AcDbSymbolTable
 70
    15
  0
BLOCK_RECORD
  5
5D
330
5C
100
AcDbSymbolTableRecord
100
AcDbBlockTableRecord
  2
*MODEL_SPACE
340
154
  0
BLOCK_RECORD
  5
5E
330
5C
100
AcDbSymbolTableRecord
100
AcDbBlockTableRecord
  2
*PAPER_SPACE
340
155
  0
BLOCK_RECORD
  5
5F
330
5C
100
AcDbSymbolTableRecord
100
AcDbBlockTableRecord
  2
CDWK_EXTR_0
340
0
  0
BLOCK_RECORD
  5
60
330
5C
100
AcDbSymbolTableRecord
100
AcDbBlockTableRecord
  2
CDWK_EXTR_1D
340
0
  0
BLOCK_RECORD
  5
61
330
5C
100
AcDbSymbolTableRecord
100
AcDbBlockTableRecord
  2
CDWK_EXTR_1G
340
0
  0
BLOCK_RECORD
  5
62
330
5C
100
AcDbSymbolTableRecord
100
AcDbBlockTableRecord
  2
CDWK_EXTR_2
340
0
  0
BLOCK_RECORD
  5
63
330
5C
100
AcDbSymbolTableRecord
100
AcDbBlockTableRecord
  2
CDWK_EXTR_3
340
0
  0
BLOCK_RECORD
  5
64
330
5C
100
AcDbSymbolTableRecord
100
AcDbBlockTableRecord
  2
CDWK_EXTR_4
340
0
  0
BLOCK_RECORD
  5
65
330
5C
100
AcDbSymbolTableRecord
100
AcDbBlockTableRecord
  2
CDWK_PTTYP0
340
0
  0
BLOCK_RECORD
  5
66
330
5C
100
AcDbSymbolTableRecord
100
AcDbBlockTableRecord
  2
*X7
340
0
102
{BLKREFS
331
AE
102
}
  0
BLOCK_RECORD
  5
67
330
5C
100
AcDbSymbolTableRecord
100
AcDbBlockTableRecord
  2
*X8
340
0
102
{BLKREFS
331
AF
102
}
  0
BLOCK_RECORD
  5
68
330
5C
100
AcDbSymbolTableRecord
100
AcDbBlockTableRecord
  2
*X9
340
0
102
{BLKREFS
331
B0
102
}
  0
BLOCK_RECORD
  5
69
330
5C
100
AcDbSymbolTableRecord
100
AcDbBlockTableRecord
  2
*X10
340
0
102
{BLKREFS
331
B1
102
}
  0
BLOCK_RECORD
  5
6A
330
5C
100
AcDbSymbolTableRecord
100
AcDbBlockTableRecord
  2
*X11
340
0
102
{BLKREFS
331
B2
102
}
  0
BLOCK_RECORD
  5
6B
330
5C
100
AcDbSymbolTableRecord
100
AcDbBlockTableRecord
  2
*X12
340
0
102
{BLKREFS
331
B3
102
}
  0
BLOCK_RECORD
  5
6C
330
5C
100
AcDbSymbolTableRecord
100
AcDbBlockTableRecord
  2
*D13
340
0
102
{BLKREFS
331
101
102
}
  0
BLOCK_RECORD
  5
6D
330
5C
100
AcDbSymbolTableRecord
100
AcDbBlockTableRecord
  2
*D14
340
0
102
{BLKREFS
331
102
102
}
  0
ENDTAB
  0
ENDSEC
  0
SECTION
  2
BLOCKS
  0
BLOCK
  5
6E
330
5D
100
AcDbEntity
  8
0
100
AcDbBlockBegin
  2
*MODEL_SPACE
 70
     0
 10
0.0
 20
0.0
 30
0.0
  3
*MODEL_SPACE
  1

  0
ENDBLK
  5
6F
330
5D
100
AcDbEntity
  8
0
100
AcDbBlockEnd
  0
BLOCK
  5
70
330
5E
100
AcDbEntity
 67
     1
  8
0
100
AcDbBlockBegin
  2
*PAPER_SPACE
 70
     0
 10
0.0
 20
0.0
 30
0.0
  3
*PAPER_SPACE
  1

  0
ENDBLK
  5
71
330
5E
100
AcDbEntity
 67
     1
  8
0
100
AcDbBlockEnd
  0
BLOCK
  5
72
330
5F
100
AcDbEntity
  8
0
100
AcDbBlockBegin
  2
CDWK_EXTR_0
 70
     0
 10
0.0
 20
0.0
 30
0.0
  3
CDWK_EXTR_0
  1

  0
LINE
  5
73
330
5F
100
AcDbEntity
  8
0
 62
     0
370
    -2
100
AcDbLine
 10
0.0
 20
0.0
 30
0.0
 11
2.0
 21
0.5
 31
0.0
  0
LINE
  5
74
330
5F
100
AcDbEntity
  8
0
 62
     0
370
    -2
100
AcDbLine
 10
0.0
 20
0.0
 30
0.0
 11
2.0
 21
-0.5
 31
0.0
  0
LINE
  5
75
330
5F
100
AcDbEntity
  8
0
 62
     0
370
    -2
100
AcDbLine
 10
2.0
 20
0.5
 30
0.0
 11
2.0
 21
-0.5
 31
0.0
  0
ENDBLK
  5
76
330
5F
100
AcDbEntity
  8
0
100
AcDbBlockEnd
  0
BLOCK
  5
77
330
60
100
AcDbEntity
  8
0
100
AcDbBlockBegin
  2
CDWK_EXTR_1D
 70
     0
 10
0.0
 20
0.0
 30
0.0
  3
CDWK_EXTR_1D
  1

  0
LINE
  5
78
330
60
100
AcDbEntity
  8
0
 62
     0
370
    -2
100
AcDbLine
 10
0.0
 20
0.0
 30
0.0
 11
0.0
 21
1.0
 31
0.0
  0
LINE
  5
79
330
60
100
AcDbEntity
  8
0
 62
     0
370
    -2
100
AcDbLine
 10
0.0
 20
1.0
 30
0.0
 11
0.5
 21
1.5
 31
0.0
  0
LINE
  5
7A
330
60
100
AcDbEntity
  8
0
 62
     0
370
    -2
100
AcDbLine
 10
0.5
 20
1.5
 30
0.0
 11
1.5
 21
1.5
 31
0.0
  0
ENDBLK
  5
7B
330
60
100
AcDbEntity
  8
0
100
AcDbBlockEnd
  0
BLOCK
  5
7C
330
61
100
AcDbEntity
  8
0
100
AcDbBlockBegin
  2
CDWK_EXTR_1G
 70
     0
 10
0.0
 20
0.0
 30
0.0
  3
CDWK_EXTR_1G
  1

  0
LINE
  5
7D
330
61
100
AcDbEntity
  8
0
 62
     0
370
    -2
100
AcDbLine
 10
0.0
 20
0.0
 30
0.0
 11
0.0
 21
-1.0
 31
0.0
  0
LINE
  5
7E
330
61
100
AcDbEntity
  8
0
 62
     0
370
    -2
100
AcDbLine
 10
0.0
 20
-1.0
 30
0.0
 11
0.5
 21
-1.5
 31
0.0
  0
LINE
  5
7F
330
61
100
AcDbEntity
  8
0
 62
     0
370
    -2
100
AcDbLine
 10
0.5
 20
-1.5
 30
0.0
 11
1.5
 21
-1.5
 31
0.0
  0
ENDBLK
  5
80
330
61
100
AcDbEntity
  8
0
100
AcDbBlockEnd
  0
BLOCK
  5
81
330
62
100
AcDbEntity
  8
0
100
AcDbBlockBegin
  2
CDWK_EXTR_2
 70
     0
 10
0.0
 20
0.0
 30
0.0
  3
CDWK_EXTR_2
  1

  0
SOLID
  5
82
330
62
100
AcDbEntity
  8
0
 62
     0
100
AcDbTrace
 10
0.0
 20
0.0
 30
0.0
 11
2.0
 21
0.5
 31
0.0
 12
2.0
 22
-0.5
 32
0.0
 13
2.0
 23
-0.5
 33
0.0
  0
ENDBLK
  5
83
330
62
100
AcDbEntity
  8
0
100
AcDbBlockEnd
  0
BLOCK
  5
84
330
63
100
AcDbEntity
  8
0
100
AcDbBlockBegin
  2
CDWK_EXTR_3
 70
     0
 10
0.0
 20
0.0
 30
0.0
  3
CDWK_EXTR_3
  1

  0
SOLID
  5
85
330
63
100
AcDbEntity
  8
0
 62
     0
100
AcDbTrace
 10
0.0
 20
0.0
 30
0.0
 11
2.0
 21
0.5
 31
0.0
 12
2.0
 22
-0.5
 32
0.0
 13
2.0
 23
-0.5
 33
0.0
  0
LINE
  5
86
330
63
100
AcDbEntity
  8
0
 62
     0
370
    -2
100
AcDbLine
 10
0.0
 20
1.0
 30
0.0
 11
0.0
 21
-1.0
 31
0.0
  0
ENDBLK
  5
87
330
63
100
AcDbEntity
  8
0
100
AcDbBlockEnd
  0
BLOCK
  5
88
330
64
100
AcDbEntity
  8
0
100
AcDbBlockBegin
  2
CDWK_EXTR_4
 70
     0
 10
0.0
 20
0.0
 30
0.0
  3
CDWK_EXTR_4
  1

  0
HATCH
  5
89
330
64
100
AcDbEntity
  8
0
 62
     0
370
    20
100
AcDbHatch
 10
0.0
 20
0.0
 30
0.0
210
0.0
220
0.0
230
1.0
  2
SOLID
 70
     1
 71
     0
 91
        1
 92
        1
 93
        1
 72
     2
 10
0.0
 20
0.0
 40
0.5
 50
0.0
 51
360.0
 73
     1
 97
        0
 75
     0
 76
     1
 98
        1
 10
0.0
 20
0.0
  0
ENDBLK
  5
8A
330
64
100
AcDbEntity
  8
0
100
AcDbBlockEnd
  0
BLOCK
  5
8B
330
65
100
AcDbEntity
  8
0
100
AcDbBlockBegin
  2
CDWK_PTTYP0
 70
     0
 10
0.0
 20
0.0
 30
0.0
  3
CDWK_PTTYP0
  1

  0
POINT
  5
8C
330
65
100
AcDbEntity
  8
0
 62
     0
100
AcDbPoint
 10
0.0
 20
0.0
 30
0.0
  0
ENDBLK
  5
8D
330
65
100
AcDbEntity
  8
0
100
AcDbBlockEnd
  0
BLOCK
  5
8E
330
66
100
AcDbEntity
  8
Ech.1_5
100
AcDbBlockBegin
  2
*X7
 70
     1
 10
0.0
 20
0.0
 30
0.0
  3
*X7
  1

  0
ENDBLK
  5
8F
330
66
100
AcDbEntity
  8
0
100
AcDbBlockEnd
  0
BLOCK
  5
90
330
67
100
AcDbEntity
  8
Ech.1_5
100
AcDbBlockBegin
  2
*X8
 70
     1
 10
0.0
 20
0.0
 30
0.0
  3
*X8
  1

  0
ENDBLK
  5
91
330
67
100
AcDbEntity
  8
0
100
AcDbBlockEnd
  0
BLOCK
  5
92
330
68
100
AcDbEntity
  8
Ech.1_5
100
AcDbBlockBegin
  2
*X9
 70
     1
 10
0.0
 20
0.0
 30
0.0
  3
*X9
  1

  0
ENDBLK
  5
93
330
68
100
AcDbEntity
  8
0
100
AcDbBlockEnd
  0
BLOCK
  5
94
330
69
100
AcDbEntity
  8
Ech.1_5
100
AcDbBlockBegin
  2
*X10
 70
     1
 10
0.0
 20
0.0
 30
0.0
  3
*X10
  1

  0
ENDBLK
  5
95
330
69
100
AcDbEntity
  8
0
100
AcDbBlockEnd
  0
BLOCK
  5
96
330
6A
100
AcDbEntity
  8
Ech.1_5
100
AcDbBlockBegin
  2
*X11
 70
     1
 10
0.0
 20
0.0
 30
0.0
  3
*X11
  1

  0
LINE
  5
97
330
6A
100
AcDbEntity
  8
Ech.1_5
  6
Continuous
 62
     7
370
    -2
100
AcDbLine
 10
36539.99465628
 20
10871.61991449
 30
0.0
 11
36564.99597788
 21
10826.61855455
 31
0.0
  0
LINE
  5
98
330
6A
100
AcDbEntity
  8
Ech.1_5
  6
Continuous
 62
     7
370
    -2
100
AcDbLine
 10
36564.99597788
 20
10871.61991449
 30
0.0
 11
36539.99465628
 21
10826.61855455
 31
0.0
  0
ENDBLK
  5
99
330
6A
100
AcDbEntity
  8
0
100
AcDbBlockEnd
  0
BLOCK
  5
9A
330
6B
100
AcDbEntity
  8
Ech.1_5
100
AcDbBlockBegin
  2
*X12
 70
     1
 10
0.0
 20
0.0
 30
0.0
  3
*X12
  1

  0
LINE
  5
9B
330
6B
100
AcDbEntity
  8
Ech.1_5
  6
Continuous
 62
     7
370
    -2
100
AcDbLine
 10
36395.99505948
 20
10871.61991449
 30
0.0
 11
36435.99853263
 21
10826.61855455
 31
0.0
  0
LINE
  5
9C
330
6B
100
AcDbEntity
  8
Ech.1_5
  6
Continuous
 62
     7
370
    -2
100
AcDbLine
 10
36435.99853263
 20
10871.61991449
 30
0.0
 11
36395.99505948
 21
10826.61855455
 31
0.0
  0
ENDBLK
  5
9D
330
6B
100
AcDbEntity
  8
0
100
AcDbBlockEnd
  0
BLOCK
  5
9E
330
6C
100
AcDbEntity
  8
Ech.1_5
100
AcDbBlockBegin
  2
*D13
 70
     1
 10
0.0
 20
0.0
 30
0.0
  3
*D13
  1

  0
TEXT
  5
9F
330
6C
100
AcDbEntity
  8
Ech.1_5
 62
     7
370
    18
100
AcDbText
 10
36637.14084701
 20
10823.75817853
 30
0.0
 40
12.5
  1
10
 50
89.99999749999998
  7
ARIAL
100
AcDbText
  0
LINE
  5
A0
330
6C
100
AcDbEntity
  8
Ech.1_5
 62
     7
370
    -2
100
AcDbLine
 10
36647.14084701
 20
10806.66993497
 30
0.0
 11
36617.99580787
 21
10806.66993497
 31
0.0
  0
LINE
  5
A1
330
6C
100
AcDbEntity
  8
Ech.1_5
 62
     7
370
    -2
100
AcDbLine
 10
36647.14084701
 20
10816.7203685
 30
0.0
 11
36607.99577507
 21
10816.7203685
 31
0.0
  0
LINE
  5
A2
330
6C
100
AcDbEntity
  8
Ech.1_5
 62
     7
370
    -2
100
AcDbLine
 10
36642.14084701
 20
10801.66993497
 30
0.0
 11
36642.14084701
 21
10821.7203685
 31
0.0
  0
LINE
  5
A3
330
6C
100
AcDbEntity
  8
Ech.1_5
 62
     7
370
    -2
100
AcDbLine
 10
36644.64084701
 20
10804.16993497
 30
0.0
 11
36639.64084701
 21
10809.16993497
 31
0.0
  0
LINE
  5
A4
330
6C
100
AcDbEntity
  8
Ech.1_5
 62
     7
370
    -2
100
AcDbLine
 10
36644.64084701
 20
10814.2203685
 30
0.0
 11
36639.64084701
 21
10819.2203685
 31
0.0
  0
ENDBLK
  5
A5
330
6C
100
AcDbEntity
  8
0
100
AcDbBlockEnd
  0
BLOCK
  5
A6
330
6D
100
AcDbEntity
  8
Ech.1_5
100
AcDbBlockBegin
  2
*D14
 70
     1
 10
0.0
 20
0.0
 30
0.0
  3
*D14
  1

  0
TEXT
  5
A7
330
6D
100
AcDbEntity
  8
Ech.1_5
 62
     7
370
    18
100
AcDbText
 10
36525.40449903
 20
10817.21749683
 30
0.0
 40
12.5
  1
max 20mm
 50
89.99999749999998
  7
ARIAL
100
AcDbText
  0
LINE
  5
A8
330
6D
100
AcDbEntity
  8
Ech.1_5
 62
     7
370
    -2
100
AcDbLine
 10
36525.40449903
 20
10816.7203685
 30
0.0
 11
36564.99577507
 21
10816.7203685
 31
0.0
  0
LINE
  5
A9
330
6D
100
AcDbEntity
  8
Ech.1_5
 62
     7
370
    -2
100
AcDbLine
 10
36525.40449903
 20
10836.72147447
 30
0.0
 11
36524.99577507
 21
10836.72147447
 31
0.0
  0
LINE
  5
AA
330
6D
100
AcDbEntity
  8
Ech.1_5
 62
     7
370
    -2
100
AcDbLine
 10
36530.40449903
 20
10811.7203685
 30
0.0
 11
36530.40449903
 21
10841.72147447
 31
0.0
  0
LINE
  5
AB
330
6D
100
AcDbEntity
  8
Ech.1_5
 62
     7
370
    -2
100
AcDbLine
 10
36532.90449903
 20
10814.2203685
 30
0.0
 11
36527.90449903001
 21
10819.2203685
 31
0.0
  0
LINE
  5
AC
330
6D
100
AcDbEntity
  8
Ech.1_5
 62
     7
370
    -2
100
AcDbLine
 10
36532.90449903
 20
10834.22147447
 30
0.0
 11
36527.90449903001
 21
10839.22147447
 31
0.0
  0
ENDBLK
  5
AD
330
6D
100
AcDbEntity
  8
0
100
AcDbBlockEnd
  0
ENDSEC
  0
SECTION
  2
ENTITIES
  0
INSERT
  5
AE
330
5D
100
AcDbEntity
  8
Ech.1_5
 62
     0
370
    -3
100
AcDbBlockReference
  2
*X7
 10
0.0
 20
0.0
 30
0.0
  0
INSERT
  5
AF
330
5D
100
AcDbEntity
  8
Ech.1_5
 62
     0
370
    -3
100
AcDbBlockReference
  2
*X8
 10
0.0
 20
0.0
 30
0.0
  0
INSERT
  5
B0
330
5D
100
AcDbEntity
  8
Ech.1_5
 62
     0
370
    -3
100
AcDbBlockReference
  2
*X9
 10
0.0
 20
0.0
 30
0.0
  0
INSERT
  5
B1
330
5D
100
AcDbEntity
  8
Ech.1_5
 62
     0
370
    -3
100
AcDbBlockReference
  2
*X10
 10
0.0
 20
0.0
 30
0.0
  0
INSERT
  5
B2
330
5D
100
AcDbEntity
  8
Ech.1_5
 62
     0
370
    -3
100
AcDbBlockReference
  2
*X11
 10
0.0
 20
0.0
 30
0.0
  0
INSERT
  5
B3
330
5D
100
AcDbEntity
  8
Ech.1_5
 62
     0
370
    -3
100
AcDbBlockReference
  2
*X12
 10
0.0
 20
0.0
 30
0.0
  0
LWPOLYLINE
  5
B4
102
{ACAD_REACTORS
330
B5
102
}
330
5D
100
AcDbEntity
  8
Ech.1_5
  6
Continuous
 62
     9
370
    -3
100
AcDbPolyline
 90
        4
 70
     1
 43
0.0
 10
36907.77431389
 20
10376.63266947
 10
36067.97559865
 20
10376.63266947
 10
36067.97559865
 20
10249.85085312
 10
36907.77431389
 20
10249.85085312
  0
HATCH
  5
B5
330
5D
100
AcDbEntity
  8
Ech.1_5
  6
Continuous
 62
     9
100
AcDbHatch
 10
0.0
 20
0.0
 30
0.0
210
0.0
220
0.0
230
1.0
  2
SSTNWSB
 70
     0
 71
     1
 91
        1
 92
        7
 72
     0
 73
     1
 93
        4
 10
36067.97559865
 20
10249.85085312
 10
36907.77431389
 20
10249.85085312
 10
36907.77431389
 20
10376.63266947
 10
36067.97559865
 20
10376.63266947
 97
        1
330
B4
 75
     0
 76
     2
 52
0.0
 41
1.0
 77
     0
 78
  1001
 53
90.0
 43
29.60000038
 44
213.40000153
 45
-296.47199631
 46
0.0000000000000182
 79
     2
 49
2.96400011
 49
-293.50799561
 53
45.0
 43
26.60000086
 44
210.40000916
 45
0.0000000000000355
 46
296.47290887
 79
     2
 49
4.192000029999999
 49
-415.08201599
 53
26.56509972
 43
20.79999924
 44
207.60000229
 45
296.47285424
 46
296.47246092
 79
     2
 49
6.629999879999999
 49
-656.3040161099999
 53
0.0
 43
14.80000019
 44
207.60000229
 45
0.0
 46
296.47199631
 79
     2
 49
5.92999995
 49
-290.5439949
 53
296.56509399
 43
11.79999948
 44
213.40000153
 45
296.47243131
 46
-296.47288385
 79
     2
 49
6.629999879999999
 49
-656.3040161099999
 53
243.43499756
 43
14.80000019
 44
219.40000534
 45
-0.00064346
 46
-296.4731053999999
 79
     2
 49
6.629999879999999
 49
-656.3040161099999
 53
206.56500244
 43
20.79999924
 44
222.39999771
 45
-296.47335758
 46
-296.47195758
 79
     2
 49
6.629999879999999
 49
-656.3040161099999
 53
180.0
 43
26.60000086
 44
222.39999771
 45
-0.0000000000000363
 46
-296.47199631
 79
     2
 49
5.92999995
 49
-290.5439949
 53
135.0
 43
29.60000038
 44
219.40000534
 45
-296.47290887
 46
0.0000000000000355
 79
     2
 49
4.192000029999999
 49
-415.08201599
 53
0.0
 43
255.0
 44
207.60000229
 45
0.0
 46
296.47199631
 79
     2
 49
8.89400005
 49
-287.57799149
 53
315.0
 43
252.00000763
 44
210.40000916
 45
296.47290887
 46
-0.0000000000000711
 79
     2
 49
4.192000029999999
 49
-415.08201599
 53
270.0
 43
252.00000763
 44
213.40000153
 45
296.47199631
 46
-0.0000000000000545
 79
     2
 49
2.96400011
 49
-293.50799561
 53
225.0
 43
255.0
 44
216.3999939
 45
-0.0000000000000533
 46
-296.47290887
 79
     2
 49
4.192000029999999
 49
-415.08201599
 53
225.0
 43
257.99999237
 44
219.40000534
 45
-0.0000000000000533
 46
-296.47290887
 79
     2
 49
4.192000029999999
 49
-415.08201599
 53
153.43499756
 43
263.79999161
 44
216.3999939
 45
-296.4731053999999
 46
0.00064346
 79
     2
 49
6.629999879999999
 49
-656.3040161099999
 53
135.0
 43
266.80000305
 44
213.40000153
 45
-296.47290887
 46
0.0000000000000355
 79
     2
 49
4.192000029999999
 49
-415.08201599
 53
63.43489838
 43
263.79999161
 44
207.60000229
 45
0.00115667
 46
296.4731053999999
 79
     2
 49
6.629999879999999
 49
-656.3040161099999
 53
135.0
 43
160.0
 44
228.19999695
 45
-296.47290887
 46
0.0000000000000355
 79
     2
 49
4.192000029999999
 49
-415.08201599
 53
180.0
 43
162.99999237
 44
228.19999695
 45
-0.0000000000000363
 46
-296.47199631
 79
     2
 49
2.96400011
 49
-293.50799561
 53
161.56500244
 43
172.00000763
 44
225.40000916
 45
-296.47174563
 46
0.00087946
 79
     2
 49
9.376000169999999
 49
-928.1539917000001
 53
225.0
 43
175.0
 44
228.19999695
 45
-0.0000000000000533
 46
-296.47290887
 79
     2
 49
4.192000029999999
 49
-415.08201599
 53
270.0
 43
175.0
 44
234.20000076
 45
296.47199631
 46
-0.0000000000000545
 79
     2
 49
5.92999995
 49
-290.5439949
 53
333.43490601
 43
168.99999619
 44
237.19999313
 45
296.4731053999999
 46
-0.0011172
 79
     2
 49
6.629999879999999
 49
-656.3040161099999
 53
0.0
 43
160.0
 44
237.19999313
 45
0.0
 46
296.47199631
 79
     2
 49
8.89400005
 49
-287.57799149
 53
45.0
 43
157.20000267
 44
234.20000076
 45
0.0000000000000355
 46
296.47290887
 79
     2
 49
4.192000029999999
 49
-415.08201599
 53
0.0
 43
281.59999847
 44
175.0
 45
0.0
 46
296.47199631
 79
     2
 49
11.85799956
 49
-284.61399078
 53
180.0
 43
278.6000061
 44
157.20000267
 45
-0.0000000000000363
 46
-296.47199631
 79
     2
 49
5.92999995
 49
-290.5439949
 53
180.0
 43
290.59999466
 44
118.59999657
 45
-0.0000000000000363
 46
-296.47199631
 79
     2
 49
2.96400011
 49
-293.50799561
 53
26.56509972
 43
290.59999466
 44
118.59999657
 45
296.47285424
 46
296.47246092
 79
     2
 49
6.629999879999999
 49
-656.3040161099999
 53
296.56509399
 43
11.79999948
 44
237.19999313
 45
296.47243131
 46
-296.47288385
 79
     2
 49
6.629999879999999
 49
-656.3040161099999
 53
270.0
 43
11.79999948
 44
243.19999695
 45
296.47199631
 46
-0.0000000000000545
 79
     2
 49
5.92999995
 49
-290.5439949
 53
63.43489838
 43
8.79999995
 44
237.19999313
 45
0.00115667
 46
296.4731053999999
 79
     2
 49
6.629999879999999
 49
-656.3040161099999
 53
26.56509972
 43
189.79999542
 44
284.5999908399999
 45
296.47285424
 46
296.47246092
 79
     2
 49
6.629999879999999
 49
-656.3040161099999
 53
168.69009399
 43
175.0
 44
281.59999847
 45
-296.47346827
 46
-0.00092342
 79
     2
 49
15.11800051
 49
-1496.60202026
 53
26.56509972
 43
243.19999695
 44
260.79999924
 45
296.47285424
 46
296.47246092
 79
     2
 49
6.629999879999999
 49
-656.3040161099999
 53
26.56509972
 43
248.99999619
 44
263.79999161
 45
296.47285424
 46
296.47246092
 79
     2
 49
6.629999879999999
 49
-656.3040161099999
 53
26.56509972
 43
255.0
 44
266.80000305
 45
296.47285424
 46
296.47246092
 79
     2
 49
6.629999879999999
 49
-656.3040161099999
 53
0.0
 43
260.79999924
 44
269.79999542
 45
0.0
 46
296.47199631
 79
     2
 49
5.92999995
 49
-290.5439949
 53
315.0
 43
266.80000305
 44
269.79999542
 45
296.47290887
 46
-0.0000000000000711
 79
     2
 49
4.192000029999999
 49
-415.08201599
 53
270.0
 43
269.79999542
 44
266.80000305
 45
296.47199631
 46
-0.0000000000000545
 79
     2
 49
5.92999995
 49
-290.5439949
 53
243.43499756
 43
269.79999542
 44
260.79999924
 45
-0.00064346
 46
-296.4731053999999
 79
     2
 49
6.629999879999999
 49
-656.3040161099999
 53
225.0
 43
266.80000305
 44
255.0
 45
-0.0000000000000533
 46
-296.47290887
 79
     2
 49
4.192000029999999
 49
-415.08201599
 53
194.03619385
 43
263.79999161
 44
252.00000763
 45
-889.4167208699998
 46
-296.4723532
 79
     2
 49
12.2239995
 49
-1210.16403198
 53
161.56500244
 43
252.00000763
 44
248.99999619
 45
-296.47174563
 46
0.00087946
 79
     2
 49
9.376000169999999
 49
-928.1539917000001
 53
135.0
 43
243.19999695
 44
252.00000763
 45
-296.47290887
 46
0.0000000000000355
 79
     2
 49
4.192000029999999
 49
-415.08201599
 53
90.0
 43
240.20000458
 44
255.0
 45
-296.47199631
 46
0.0000000000000182
 79
     2
 49
2.96400011
 49
-293.50799561
 53
45.0
 43
240.20000458
 44
257.99999237
 45
0.0000000000000355
 46
296.47290887
 79
     2
 49
4.192000029999999
 49
-415.08201599
 53
165.96380615
 43
168.99999619
 44
162.99999237
 45
-296.47214391
 46
-0.00122822
 79
     2
 49
12.2239995
 49
-1210.16403198
 53
18.43490028
 43
216.3999939
 44
97.79999733
 45
592.9456423699999
 46
296.47124934
 79
     2
 49
9.376000169999999
 49
-928.1539917000001
 53
0.0
 43
225.40000916
 44
100.79999924
 45
0.0
 46
296.47199631
 79
     2
 49
8.89400005
 49
-287.57799149
 53
341.56509399
 43
234.20000076
 44
100.79999924
 45
296.47174563
 46
-0.00040573
 79
     2
 49
9.376000169999999
 49
-928.1539917000001
 53
341.56509399
 43
243.19999695
 44
97.79999733
 45
296.47174563
 46
-0.00040573
 79
     2
 49
9.376000169999999
 49
-928.1539917000001
 53
296.56509399
 43
252.00000763
 44
94.79999541999999
 45
296.47243131
 46
-296.47288385
 79
     2
 49
6.629999879999999
 49
-656.3040161099999
 53
270.0
 43
255.0
 44
88.99999619
 45
296.47199631
 46
-0.0000000000000545
 79
     2
 49
11.85799956
 49
-284.61399078
 53
225.0
 43
255.0
 44
76.99999809000001
 45
-0.0000000000000533
 46
-296.47290887
 79
     2
 49
4.192000029999999
 49
-415.08201599
 53
206.56500244
 43
252.00000763
 44
74.20000075999999
 45
-296.47335758
 46
-296.47195758
 79
     2
 49
6.629999879999999
 49
-656.3040161099999
 53
180.0
 43
246.00000381
 44
71.19999885999999
 45
-0.0000000000000363
 46
-296.47199631
 79
     2
 49
23.71799946
 49
-272.75400162
 53
153.43499756
 43
222.39999771
 44
71.19999885999999
 45
-296.4731053999999
 46
0.00064346
 79
     2
 49
6.629999879999999
 49
-656.3040161099999
 53
135.0
 43
216.3999939
 44
74.20000075999999
 45
-296.47290887
 46
0.0000000000000355
 79
     2
 49
8.385999799999998
 49
-410.8900070199999
 53
116.56500244
 43
210.40000916
 44
80.0
 45
-296.47195758
 46
296.47335758
 79
     2
 49
6.629999879999999
 49
-656.3040161099999
 53
90.0
 43
207.60000229
 44
86.00000380999999
 45
-296.47199631
 46
0.0000000000000182
 79
     2
 49
2.96400011
 49
-293.50799561
 53
63.43489838
 43
207.60000229
 44
88.99999619
 45
0.00115667
 46
296.4731053999999
 79
     2
 49
6.629999879999999
 49
-656.3040161099999
 53
26.56509972
 43
210.40000916
 44
94.79999541999999
 45
296.47285424
 46
296.47246092
 79
     2
 49
6.629999879999999
 49
-656.3040161099999
 53
45.0
 43
6.00000024
 44
139.3999958
 45
0.0000000000000355
 46
296.47290887
 79
     2
 49
8.385999799999998
 49
-410.8900070199999
 53
0.0
 43
11.79999948
 44
145.20000458
 45
0.0
 46
296.47199631
 79
     2
 49
5.92999995
 49
-290.5439949
 53
0.0
 43
17.79999971
 44
145.20000458
 45
0.0
 46
296.47199631
 79
     2
 49
8.89400005
 49
-287.57799149
 53
315.0
 43
26.60000086
 44
145.20000458
 45
296.47290887
 46
-0.0000000000000711
 79
     2
 49
8.385999799999998
 49
-410.8900070199999
 53
270.0
 43
32.5999999
 44
139.3999958
 45
296.47199631
 46
-0.0000000000000545
 79
     2
 49
5.92999995
 49
-290.5439949
 53
225.0
 43
32.5999999
 44
133.40000153
 45
-0.0000000000000533
 46
-296.47290887
 79
     2
 49
8.385999799999998
 49
-410.8900070199999
 53
206.56500244
 43
26.60000086
 44
127.39999771
 45
-296.47335758
 46
-296.47195758
 79
     2
 49
6.629999879999999
 49
-656.3040161099999
 53
180.0
 43
20.79999924
 44
124.60000038
 45
-0.0000000000000363
 46
-296.47199631
 79
     2
 49
11.85799956
 49
-284.61399078
 53
153.43499756
 43
8.79999995
 44
124.60000038
 45
-296.4731053999999
 46
0.00064346
 79
     2
 49
6.629999879999999
 49
-656.3040161099999
 53
206.56500244
 43
275.79999924
 44
142.39999771
 45
-296.47335758
 46
-296.47195758
 79
     2
 49
6.629999879999999
 49
-656.3040161099999
 53
270.0
 43
269.79999542
 44
139.3999958
 45
296.47199631
 46
-0.0000000000000545
 79
     2
 49
5.92999995
 49
-290.5439949
 53
315.0
 43
269.79999542
 44
133.40000153
 45
296.47290887
 46
-0.0000000000000711
 79
     2
 49
4.192000029999999
 49
-415.08201599
 53
333.43490601
 43
272.80000687
 44
130.39999962
 45
296.4731053999999
 46
-0.0011172
 79
     2
 49
6.629999879999999
 49
-656.3040161099999
 53
315.0
 43
278.6000061
 44
127.39999771
 45
296.47290887
 46
-0.0000000000000711
 79
     2
 49
4.192000029999999
 49
-415.08201599
 53
315.0
 43
281.59999847
 44
124.60000038
 45
296.47290887
 46
-0.0000000000000711
 79
     2
 49
8.385999799999998
 49
-410.8900070199999
 53
45.0
 43
0.0
 44
121.59999847
 45
0.0000000000000355
 46
296.47290887
 79
     2
 49
4.192000029999999
 49
-415.08201599
 53
90.0
 43
3.00000012
 44
124.60000038
 45
-296.47199631
 46
0.0000000000000182
 79
     2
 49
5.92999995
 49
-290.5439949
 53
63.43489838
 43
3.00000012
 44
130.39999962
 45
0.00115667
 46
296.4731053999999
 79
     2
 49
6.629999879999999
 49
-656.3040161099999
 53
90.0
 43
6.00000024
 44
136.40000343
 45
-296.47199631
 46
0.0000000000000182
 79
     2
 49
2.96400011
 49
-293.50799561
 53
135.0
 43
6.00000024
 44
139.3999958
 45
-296.47290887
 46
0.0000000000000355
 79
     2
 49
4.192000029999999
 49
-415.08201599
 53
180.0
 43
3.00000012
 44
142.39999771
 45
-0.0000000000000363
 46
-296.47199631
 79
     2
 49
2.96400011
 49
-293.50799561
 53
180.0
 43
296.3999939
 44
142.39999771
 45
-0.0000000000000363
 46
-296.47199631
 79
     2
 49
11.85799956
 49
-284.61399078
 53
0.0
 43
293.6000061000001
 44
160.0
 45
0.0
 46
296.47199631
 79
     2
 49
2.96400011
 49
-293.50799561
 53
0.0
 43
0.0
 44
160.0
 45
0.0
 46
296.47199631
 79
     2
 49
14.8239994
 49
-281.64800644
 53
26.56509972
 43
14.80000019
 44
160.0
 45
296.47285424
 46
296.47246092
 79
     2
 49
6.629999879999999
 49
-656.3040161099999
 53
90.0
 43
20.79999924
 44
162.99999237
 45
-296.47199631
 46
0.0000000000000182
 79
     2
 49
2.96400011
 49
-293.50799561
 53
90.0
 43
20.79999924
 44
166.00000381
 45
-296.47199631
 46
0.0000000000000182
 79
     2
 49
2.96400011
 49
-293.50799561
 53
135.0
 43
20.79999924
 44
168.99999619
 45
-296.47290887
 46
0.0000000000000355
 79
     2
 49
4.192000029999999
 49
-415.08201599
 53
153.43499756
 43
17.79999971
 44
172.00000763
 45
-296.4731053999999
 46
0.00064346
 79
     2
 49
6.629999879999999
 49
-656.3040161099999
 53
180.0
 43
11.79999948
 44
175.0
 45
-0.0000000000000363
 46
-296.47199631
 79
     2
 49
11.85799956
 49
-284.61399078
 53
180.0
 43
296.3999939
 44
175.0
 45
-0.0000000000000363
 46
-296.47199631
 79
     2
 49
2.96400011
 49
-293.50799561
 53
194.03619385
 43
293.6000061000001
 44
175.0
 45
-889.4167208699998
 46
-296.4723532
 79
     2
 49
12.2239995
 49
-1210.16403198
 53
206.56500244
 43
281.59999847
 44
172.00000763
 45
-296.47335758
 46
-296.47195758
 79
     2
 49
6.629999879999999
 49
-656.3040161099999
 53
270.0
 43
275.79999924
 44
168.99999619
 45
296.47199631
 46
-0.0000000000000545
 79
     2
 49
2.96400011
 49
-293.50799561
 53
270.0
 43
275.79999924
 44
166.00000381
 45
296.47199631
 46
-0.0000000000000545
 79
     2
 49
2.96400011
 49
-293.50799561
 53
315.0
 43
275.79999924
 44
162.99999237
 45
296.47290887
 46
-0.0000000000000711
 79
     2
 49
4.192000029999999
 49
-415.08201599
 53
0.0
 43
278.6000061
 44
160.0
 45
0.0
 46
296.47199631
 79
     2
 49
5.92999995
 49
-290.5439949
 53
0.0
 43
284.5999908399999
 44
160.0
 45
0.0
 46
296.47199631
 79
     2
 49
8.89400005
 49
-287.57799149
 53
194.03619385
 43
26.60000086
 44
148.19999695
 45
-889.4167208699998
 46
-296.4723532
 79
     2
 49
12.2239995
 49
-1210.16403198
 53
180.0
 43
14.80000019
 44
145.20000458
 45
-0.0000000000000363
 46
-296.47199631
 79
     2
 49
14.8239994
 49
-281.64800644
 53
194.03619385
 43
296.3999939
 44
145.20000458
 45
-889.4167208699998
 46
-296.4723532
 79
     2
 49
12.2239995
 49
-1210.16403198
 53
180.0
 43
284.5999908399999
 44
142.39999771
 45
-0.0000000000000363
 46
-296.47199631
 79
     2
 49
8.89400005
 49
-287.57799149
 53
153.43499756
 43
275.79999924
 44
142.39999771
 45
-296.4731053999999
 46
0.00064346
 79
     2
 49
6.629999879999999
 49
-656.3040161099999
 53
135.0
 43
269.79999542
 44
145.20000458
 45
-296.47290887
 46
0.0000000000000355
 79
     2
 49
4.192000029999999
 49
-415.08201599
 53
90.0
 43
266.80000305
 44
148.19999695
 45
-296.47199631
 46
0.0000000000000182
 79
     2
 49
2.96400011
 49
-293.50799561
 53
90.0
 43
266.80000305
 44
151.19999886
 45
-296.47199631
 46
0.0000000000000182
 79
     2
 49
2.96400011
 49
-293.50799561
 53
11.30990028
 43
278.6000061
 44
157.20000267
 45
1185.89014473
 46
296.47280949
 79
     2
 49
15.11800051
 49
-1496.60202026
 53
0.0
 43
293.6000061000001
 44
160.0
 45
0.0
 46
296.47199631
 79
     2
 49
2.96400011
 49
-293.50799561
 53
0.0
 43
0.0
 44
160.0
 45
0.0
 46
296.47199631
 79
     2
 49
8.89400005
 49
-287.57799149
 53
0.0
 43
8.79999995
 44
160.0
 45
0.0
 46
296.47199631
 79
     2
 49
11.85799956
 49
-284.61399078
 53
333.43490601
 43
20.79999924
 44
160.0
 45
296.4731053999999
 46
-0.0011172
 79
     2
 49
6.629999879999999
 49
-656.3040161099999
 53
315.0
 43
26.60000086
 44
157.20000267
 45
296.47290887
 46
-0.0000000000000711
 79
     2
 49
4.192000029999999
 49
-415.08201599
 53
270.0
 43
29.60000038
 44
154.20000076
 45
296.47199631
 46
-0.0000000000000545
 79
     2
 49
2.96400011
 49
-293.50799561
 53
225.0
 43
29.60000038
 44
151.19999886
 45
-0.0000000000000533
 46
-296.47290887
 79
     2
 49
4.192000029999999
 49
-415.08201599
 53
333.43490601
 43
23.80000114
 44
189.79999542
 45
296.4731053999999
 46
-0.0011172
 79
     2
 49
6.629999879999999
 49
-656.3040161099999
 53
315.0
 43
29.60000038
 44
186.80000305
 45
296.47290887
 46
-0.0000000000000711
 79
     2
 49
4.192000029999999
 49
-415.08201599
 53
296.56509399
 43
32.5999999
 44
183.79999161
 45
296.47243131
 46
-296.47288385
 79
     2
 49
6.629999879999999
 49
-656.3040161099999
 53
270.0
 43
35.59999943
 44
177.80000687
 45
296.47199631
 46
-0.0000000000000545
 79
     2
 49
5.92999995
 49
-290.5439949
 53
225.0
 43
35.59999943
 44
172.00000763
 45
-0.0000000000000533
 46
-296.47290887
 79
     2
 49
4.192000029999999
 49
-415.08201599
 53
180.0
 43
32.5999999
 44
168.99999619
 45
-0.0000000000000363
 46
-296.47199631
 79
     2
 49
5.92999995
 49
-290.5439949
 53
161.56500244
 43
26.60000086
 44
168.99999619
 45
-296.47174563
 46
0.00087946
 79
     2
 49
9.376000169999999
 49
-928.1539917000001
 53
146.30990601
 43
17.79999971
 44
172.00000763
 45
-592.9449951399999
 46
296.47367579
 79
     2
 49
10.69000006
 49
-1058.25798035
 53
90.0
 43
8.79999995
 44
177.80000687
 45
-296.47199631
 46
0.0000000000000182
 79
     2
 49
2.96400011
 49
-293.50799561
 53
90.0
 43
8.79999995
 44
180.79999924
 45
-296.47199631
 46
0.0000000000000182
 79
     2
 49
5.92999995
 49
-290.5439949
 53
45.0
 43
8.79999995
 44
186.80000305
 45
0.0000000000000355
 46
296.47290887
 79
     2
 49
8.385999799999998
 49
-410.8900070199999
 53
0.0
 43
20.79999924
 44
207.60000229
 45
0.0
 46
296.47199631
 79
     2
 49
11.85799956
 49
-284.61399078
 53
345.9637146
 43
32.5999999
 44
207.60000229
 45
296.47214391
 46
0.00075448
 79
     2
 49
12.2239995
 49
-1210.16403198
 53
326.30990601
 43
44.40000057
 44
204.59999084
 45
592.9449951399999
 46
-296.47367579
 79
     2
 49
10.69000006
 49
-1058.25798035
 53
270.0
 43
53.40000153
 44
198.6000061
 45
296.47199631
 46
-0.0000000000000545
 79
     2
 49
5.92999995
 49
-290.5439949
 53
225.0
 43
53.40000153
 44
192.80000687
 45
-0.0000000000000533
 46
-296.47290887
 79
     2
 49
4.192000029999999
 49
-415.08201599
 53
198.43499756
 43
50.39999962
 44
189.79999542
 45
-592.9451390299999
 46
-296.47225602
 79
     2
 49
9.376000169999999
 49
-928.1539917000001
 53
180.0
 43
41.59999847
 44
186.80000305
 45
-0.0000000000000363
 46
-296.47199631
 79
     2
 49
8.89400005
 49
-287.57799149
 53
161.56500244
 43
32.5999999
 44
186.80000305
 45
-296.47174563
 46
0.00087946
 79
     2
 49
9.376000169999999
 49
-928.1539917000001
 53
161.56500244
 43
23.80000114
 44
189.79999542
 45
-296.47174563
 46
0.00087946
 79
     2
 49
9.376000169999999
 49
-928.1539917000001
 53
135.0
 43
14.80000019
 44
192.80000687
 45
-296.47290887
 46
0.0000000000000355
 79
     2
 49
4.192000029999999
 49
-415.08201599
 53
71.56500244
 43
11.79999948
 44
195.59999466
 45
0.00087946
 46
296.47174563
 79
     2
 49
9.376000169999999
 49
-928.1539917000001
 53
26.56509972
 43
14.80000019
 44
204.59999084
 45
296.47285424
 46
296.47246092
 79
     2
 49
6.629999879999999
 49
-656.3040161099999
 53
26.56509972
 43
172.00000763
 44
6.00000024
 45
296.47285424
 46
296.47246092
 79
     2
 49
6.629999879999999
 49
-656.3040161099999
 53
18.43490028
 43
177.80000687
 44
8.79999995
 45
592.9456423699999
 46
296.47124934
 79
     2
 49
9.376000169999999
 49
-928.1539917000001
 53
0.0
 43
186.80000305
 44
11.79999948
 45
0.0
 46
296.47199631
 79
     2
 49
8.89400005
 49
-287.57799149
 53
345.9637146
 43
195.59999466
 44
11.79999948
 45
296.47214391
 46
0.00075448
 79
     2
 49
12.2239995
 49
-1210.16403198
 53
315.0
 43
207.60000229
 44
8.79999995
 45
296.47290887
 46
-0.0000000000000711
 79
     2
 49
4.192000029999999
 49
-415.08201599
 53
270.0
 43
210.40000916
 44
6.00000024
 45
296.47199631
 46
-0.0000000000000545
 79
     2
 49
2.96400011
 49
-293.50799561
 53
225.0
 43
210.40000916
 44
3.00000012
 45
-0.0000000000000533
 46
-296.47290887
 79
     2
 49
4.192000029999999
 49
-415.08201599
 53
198.43499756
 43
207.60000229
 44
296.3999939
 45
-592.9451390299999
 46
-296.47225602
 79
     2
 49
9.376000169999999
 49
-928.1539917000001
 53
180.0
 43
198.6000061
 44
293.6000061000001
 45
-0.0000000000000363
 46
-296.47199631
 79
     2
 49
8.89400005
 49
-287.57799149
 53
165.96380615
 43
189.79999542
 44
293.6000061000001
 45
-296.47214391
 46
-0.00122822
 79
     2
 49
12.2239995
 49
-1210.16403198
 53
153.43499756
 43
177.80000687
 44
0.0
 45
-296.4731053999999
 46
0.00064346
 79
     2
 49
6.629999879999999
 49
-656.3040161099999
 53
90.0
 43
172.00000763
 44
3.00000012
 45
-296.47199631
 46
0.0000000000000182
 79
     2
 49
2.96400011
 49
-293.50799561
 53
270.0
 43
145.20000458
 44
11.79999948
 45
296.47199631
 46
-0.0000000000000545
 79
     2
 49
2.96400011
 49
-293.50799561
 53
315.0
 43
145.20000458
 44
8.79999995
 45
296.47290887
 46
-0.0000000000000711
 79
     2
 49
8.385999799999998
 49
-410.8900070199999
 53
333.43490601
 43
151.19999886
 44
3.00000012
 45
296.4731053999999
 46
-0.0011172
 79
     2
 49
6.629999879999999
 49
-656.3040161099999
 53
26.56509972
 43
162.99999237
 44
0.0
 45
296.47285424
 46
296.47246092
 79
     2
 49
6.629999879999999
 49
-656.3040161099999
 53
45.0
 43
168.99999619
 44
3.00000012
 45
0.0000000000000355
 46
296.47290887
 79
     2
 49
4.192000029999999
 49
-415.08201599
 53
90.0
 43
172.00000763
 44
6.00000024
 45
-296.47199631
 46
0.0000000000000182
 79
     2
 49
2.96400011
 49
-293.50799561
 53
135.0
 43
172.00000763
 44
8.79999995
 45
-296.47290887
 46
0.0000000000000355
 79
     2
 49
4.192000029999999
 49
-415.08201599
 53
153.43499756
 43
168.99999619
 44
11.79999948
 45
-296.4731053999999
 46
0.00064346
 79
     2
 49
6.629999879999999
 49
-656.3040161099999
 53
180.0
 43
166.00000381
 44
14.80000019
 45
-0.0000000000000363
 46
-296.47199631
 79
     2
 49
11.85799956
 49
-284.61399078
 53
198.43499756
 43
154.20000076
 44
14.80000019
 45
-592.9451390299999
 46
-296.47225602
 79
     2
 49
9.376000169999999
 49
-928.1539917000001
 53
180.0
 43
145.20000458
 44
11.79999948
 45
-0.0000000000000363
 46
-296.47199631
 79
     2
 49
5.92999995
 49
-290.5439949
 53
153.43499756
 43
139.3999958
 44
11.79999948
 45
-296.4731053999999
 46
0.00064346
 79
     2
 49
6.629999879999999
 49
-656.3040161099999
 53
161.56500244
 43
133.40000153
 44
14.80000019
 45
-296.47174563
 46
0.00087946
 79
     2
 49
9.376000169999999
 49
-928.1539917000001
 53
116.56500244
 43
124.60000038
 44
17.79999971
 45
-296.47195758
 46
296.47335758
 79
     2
 49
6.629999879999999
 49
-656.3040161099999
 53
90.0
 43
121.59999847
 44
23.80000114
 45
-296.47199631
 46
0.0000000000000182
 79
     2
 49
5.92999995
 49
-290.5439949
 53
45.0
 43
121.59999847
 44
29.60000038
 45
0.0000000000000355
 46
296.47290887
 79
     2
 49
8.385999799999998
 49
-410.8900070199999
 53
0.0
 43
127.39999771
 44
35.59999943
 45
0.0
 46
296.47199631
 79
     2
 49
5.92999995
 49
-290.5439949
 53
9.4623003
 43
133.40000153
 44
35.59999943
 45
1482.36341412
 46
296.47229169
 79
     2
 49
18.0340004
 49
-1785.33798218
 53
0.0
 43
151.19999886
 44
38.59999895
 45
0.0
 46
296.47199631
 79
     2
 49
8.89400005
 49
-287.57799149
 53
341.56509399
 43
160.0
 44
38.59999895
 45
296.47174563
 46
-0.00040573
 79
     2
 49
9.376000169999999
 49
-928.1539917000001
 53
333.43490601
 43
168.99999619
 44
35.59999943
 45
296.4731053999999
 46
-0.0011172
 79
     2
 49
6.629999879999999
 49
-656.3040161099999
 53
296.56509399
 43
175.0
 44
32.5999999
 45
296.47243131
 46
-296.47288385
 79
     2
 49
6.629999879999999
 49
-656.3040161099999
 53
270.0
 43
177.80000687
 44
26.60000086
 45
296.47199631
 46
-0.0000000000000545
 79
     2
 49
2.96400011
 49
-293.50799561
 53
243.43499756
 43
177.80000687
 44
23.80000114
 45
-0.00064346
 46
-296.4731053999999
 79
     2
 49
6.629999879999999
 49
-656.3040161099999
 53
198.43499756
 43
175.0
 44
17.79999971
 45
-592.9451390299999
 46
-296.47225602
 79
     2
 49
9.376000169999999
 49
-928.1539917000001
 53
180.0
 43
91.99999809000001
 44
41.59999847
 45
-0.0000000000000363
 46
-296.47199631
 79
     2
 49
8.89400005
 49
-287.57799149
 53
165.96380615
 43
83.00000191
 44
41.59999847
 45
-296.47214391
 46
-0.00122822
 79
     2
 49
12.2239995
 49
-1210.16403198
 53
135.0
 43
71.19999885999999
 44
44.40000057
 45
-296.47290887
 46
0.0000000000000355
 79
     2
 49
4.192000029999999
 49
-415.08201599
 53
90.0
 43
68.20000172
 44
47.39999770999999
 45
-296.47199631
 46
0.0000000000000182
 79
     2
 49
2.96400011
 49
-293.50799561
 53
63.43489838
 43
68.20000172
 44
50.39999962
 45
0.00115667
 46
296.4731053999999
 79
     2
 49
6.629999879999999
 49
-656.3040161099999
 53
45.0
 43
71.19999885999999
 44
56.39999866
 45
0.0000000000000355
 46
296.47290887
 79
     2
 49
8.385999799999998
 49
-410.8900070199999
 53
26.56509972
 43
76.99999809000001
 44
62.19999789999999
 45
296.47285424
 46
296.47246092
 79
     2
 49
6.629999879999999
 49
-656.3040161099999
 53
0.0
 43
83.00000191
 44
65.19999980999999
 45
0.0
 46
296.47199631
 79
     2
 49
5.92999995
 49
-290.5439949
 53
315.0
 43
88.99999619
 44
65.19999980999999
 45
296.47290887
 46
-0.0000000000000711
 79
     2
 49
8.385999799999998
 49
-410.8900070199999
 53
288.43490601
 43
94.79999541999999
 44
59.20000076
 45
296.47130856
 46
-592.9456127599999
 79
     2
 49
9.376000169999999
 49
-928.1539917000001
 53
270.0
 43
97.79999733
 44
50.39999962
 45
296.47199631
 46
-0.0000000000000545
 79
     2
 49
5.92999995
 49
-290.5439949
 53
206.56500244
 43
97.79999733
 44
44.40000057
 45
-296.47335758
 46
-296.47195758
 79
     2
 49
6.629999879999999
 49
-656.3040161099999
 53
135.0
 43
97.79999733
 44
115.6000042
 45
-296.47290887
 46
0.0000000000000355
 79
     2
 49
4.192000029999999
 49
-415.08201599
 53
90.0
 43
94.79999541999999
 44
118.59999657
 45
-296.47199631
 46
0.0000000000000182
 79
     2
 49
2.96400011
 49
-293.50799561
 53
63.43489838
 43
94.79999541999999
 44
121.59999847
 45
0.00115667
 46
296.4731053999999
 79
     2
 49
6.629999879999999
 49
-656.3040161099999
 53
63.43489838
 43
97.79999733
 44
127.39999771
 45
0.00115667
 46
296.4731053999999
 79
     2
 49
6.629999879999999
 49
-656.3040161099999
 53
26.56509972
 43
100.79999924
 44
133.40000153
 45
296.47285424
 46
296.47246092
 79
     2
 49
6.629999879999999
 49
-656.3040161099999
 53
341.56509399
 43
106.80000305
 44
136.40000343
 45
296.47174563
 46
-0.00040573
 79
     2
 49
9.376000169999999
 49
-928.1539917000001
 53
315.0
 43
115.6000042
 44
133.40000153
 45
296.47290887
 46
-0.0000000000000711
 79
     2
 49
8.385999799999998
 49
-410.8900070199999
 53
270.0
 43
121.59999847
 44
127.39999771
 45
296.47199631
 46
-0.0000000000000545
 79
     2
 49
5.92999995
 49
-290.5439949
 53
213.69009399
 43
121.59999847
 44
121.59999847
 45
-296.4732464
 46
-296.47241205
 79
     2
 49
10.69000006
 49
-1058.25798035
 53
206.56500244
 43
112.60000229
 44
115.6000042
 45
-296.47335758
 46
-296.47195758
 79
     2
 49
6.629999879999999
 49
-656.3040161099999
 53
116.56500244
 43
56.39999866
 44
106.80000305
 45
-296.47195758
 46
296.47335758
 79
     2
 49
6.629999879999999
 49
-656.3040161099999
 53
135.0
 43
53.40000153
 44
112.60000229
 45
-296.47290887
 46
0.0000000000000355
 79
     2
 49
4.192000029999999
 49
-415.08201599
 53
180.0
 43
50.39999962
 44
115.6000042
 45
-0.0000000000000363
 46
-296.47199631
 79
     2
 49
5.92999995
 49
-290.5439949
 53
206.56500244
 43
44.40000057
 44
115.6000042
 45
-296.47335758
 46
-296.47195758
 79
     2
 49
6.629999879999999
 49
-656.3040161099999
 53
243.43499756
 43
38.59999895
 44
112.60000229
 45
-0.00064346
 46
-296.4731053999999
 79
     2
 49
6.629999879999999
 49
-656.3040161099999
 53
270.0
 43
35.59999943
 44
106.80000305
 45
296.47199631
 46
-0.0000000000000545
 79
     2
 49
5.92999995
 49
-290.5439949
 53
315.0
 43
35.59999943
 44
100.79999924
 45
296.47290887
 46
-0.0000000000000711
 79
     2
 49
4.192000029999999
 49
-415.08201599
 53
333.43490601
 43
38.59999895
 44
97.79999733
 45
296.4731053999999
 46
-0.0011172
 79
     2
 49
6.629999879999999
 49
-656.3040161099999
 53
0.0
 43
44.40000057
 44
94.79999541999999
 45
0.0
 46
296.47199631
 79
     2
 49
5.92999995
 49
-290.5439949
 53
45.0
 43
50.39999962
 44
94.79999541999999
 45
0.0000000000000355
 46
296.47290887
 79
     2
 49
4.192000029999999
 49
-415.08201599
 53
153.43499756
 43
62.19999789999999
 44
88.99999619
 45
-296.4731053999999
 46
0.00064346
 79
     2
 49
6.629999879999999
 49
-656.3040161099999
 53
116.56500244
 43
56.39999866
 44
91.99999809000001
 45
-296.47195758
 46
296.47335758
 79
     2
 49
6.629999879999999
 49
-656.3040161099999
 53
71.56500244
 43
53.40000153
 44
97.79999733
 45
0.00087946
 46
296.47174563
 79
     2
 49
9.376000169999999
 49
-928.1539917000001
 53
45.0
 43
56.39999866
 44
106.80000305
 45
0.0000000000000355
 46
296.47290887
 79
     2
 49
8.385999799999998
 49
-410.8900070199999
 53
0.0
 43
62.19999789999999
 44
112.60000229
 45
0.0
 46
296.47199631
 79
     2
 49
11.85799956
 49
-284.61399078
 53
315.0
 43
74.20000075999999
 44
112.60000229
 45
296.47290887
 46
-0.0000000000000711
 79
     2
 49
8.385999799999998
 49
-410.8900070199999
 53
243.43499756
 43
80.0
 44
106.80000305
 45
-0.00064346
 46
-296.4731053999999
 79
     2
 49
6.629999879999999
 49
-656.3040161099999
 53
225.0
 43
76.99999809000001
 44
100.79999924
 45
-0.0000000000000533
 46
-296.47290887
 79
     2
 49
8.385999799999998
 49
-410.8900070199999
 53
213.69009399
 43
71.19999885999999
 44
94.79999541999999
 45
-296.4732464
 46
-296.47241205
 79
     2
 49
10.69000006
 49
-1058.25798035
 53
146.30990601
 43
80.0
 44
68.20000172
 45
-592.9449951399999
 46
296.47367579
 79
     2
 49
10.69000006
 49
-1058.25798035
 53
108.43499756
 43
71.19999885999999
 44
74.20000075999999
 45
-296.47225602
 46
592.9451390299999
 79
     2
 49
9.376000169999999
 49
-928.1539917000001
 53
71.56500244
 43
68.20000172
 44
83.00000191
 45
0.00087946
 46
296.47174563
 79
     2
 49
9.376000169999999
 49
-928.1539917000001
 53
56.30989838
 43
71.19999885999999
 44
91.99999809000001
 45
296.47375474
 46
592.9449556599999
 79
     2
 49
10.69000006
 49
-1058.25798035
 53
56.30989838
 43
76.99999809000001
 44
100.79999924
 45
296.47375474
 46
592.9449556599999
 79
     2
 49
10.69000006
 49
-1058.25798035
 53
26.56509972
 43
83.00000191
 44
109.60000038
 45
296.47285424
 46
296.47246092
 79
     2
 49
6.629999879999999
 49
-656.3040161099999
 53
18.43490028
 43
88.99999619
 44
112.60000229
 45
592.9456423699999
 46
296.47124934
 79
     2
 49
9.376000169999999
 49
-928.1539917000001
 53
341.56509399
 43
97.79999733
 44
115.6000042
 45
296.47174563
 46
-0.00040573
 79
     2
 49
9.376000169999999
 49
-928.1539917000001
 53
303.69009399
 43
106.80000305
 44
112.60000229
 45
296.47241205
 46
-296.4732464
 79
     2
 49
10.69000006
 49
-1058.25798035
 53
270.0
 43
112.60000229
 44
103.80000114
 45
296.47199631
 46
-0.0000000000000545
 79
     2
 49
8.89400005
 49
-287.57799149
 53
243.43499756
 43
112.60000229
 44
94.79999541999999
 45
-0.00064346
 46
-296.4731053999999
 79
     2
 49
6.629999879999999
 49
-656.3040161099999
 53
231.3401947
 43
109.60000038
 44
88.99999619
 45
-889.4173313199999
 46
-1185.89114968
 79
     2
 49
18.98399949
 49
-1879.36599731
 53
213.69009399
 43
97.79999733
 44
74.20000075999999
 45
-296.4732464
 46
-296.47241205
 79
     2
 49
10.69000006
 49
-1058.25798035
 53
180.0
 43
88.99999619
 44
68.20000172
 45
-0.0000000000000363
 46
-296.47199631
 79
     2
 49
5.92999995
 49
-290.5439949
 53
180.0
 43
83.00000191
 44
68.20000172
 45
-0.0000000000000363
 46
-296.47199631
 79
     2
 49
2.96400011
 49
-293.50799561
 53
0.0
 43
86.00000380999999
 44
142.39999771
 45
0.0
 46
296.47199631
 79
     2
 49
5.92999995
 49
-290.5439949
 53
333.43490601
 43
91.99999809000001
 44
142.39999771
 45
296.4731053999999
 46
-0.0011172
 79
     2
 49
6.629999879999999
 49
-656.3040161099999
 53
296.56509399
 43
97.79999733
 44
139.3999958
 45
296.47243131
 46
-296.47288385
 79
     2
 49
6.629999879999999
 49
-656.3040161099999
 53
243.43499756
 43
100.79999924
 44
133.40000153
 45
-0.00064346
 46
-296.4731053999999
 79
     2
 49
6.629999879999999
 49
-656.3040161099999
 53
236.30990601
 43
97.79999733
 44
127.39999771
 45
-296.47367579
 46
-592.9449951399999
 79
     2
 49
10.69000006
 49
-1058.25798035
 53
213.69009399
 43
91.99999809000001
 44
118.59999657
 45
-296.4732464
 46
-296.47241205
 79
     2
 49
10.69000006
 49
-1058.25798035
 53
180.0
 43
83.00000191
 44
112.60000229
 45
-0.0000000000000363
 46
-296.47199631
 79
     2
 49
11.85799956
 49
-284.61399078
 53
180.0
 43
71.19999885999999
 44
112.60000229
 45
-0.0000000000000363
 46
-296.47199631
 79
     2
 49
8.89400005
 49
-287.57799149
 53
161.56500244
 43
62.19999789999999
 44
112.60000229
 45
-296.47174563
 46
0.00087946
 79
     2
 49
9.376000169999999
 49
-928.1539917000001
 53
180.0
 43
53.40000153
 44
115.6000042
 45
-0.0000000000000363
 46
-296.47199631
 79
     2
 49
11.85799956
 49
-284.61399078
 53
161.56500244
 43
41.59999847
 44
115.6000042
 45
-296.47174563
 46
0.00087946
 79
     2
 49
9.376000169999999
 49
-928.1539917000001
 53
135.0
 43
32.5999999
 44
118.59999657
 45
-296.47290887
 46
0.0000000000000355
 79
     2
 49
4.192000029999999
 49
-415.08201599
 53
90.0
 43
29.60000038
 44
121.59999847
 45
-296.47199631
 46
0.0000000000000182
 79
     2
 49
5.92999995
 49
-290.5439949
 53
63.43489838
 43
29.60000038
 44
127.39999771
 45
0.00115667
 46
296.4731053999999
 79
     2
 49
6.629999879999999
 49
-656.3040161099999
 53
26.56509972
 43
32.5999999
 44
133.40000153
 45
296.47285424
 46
296.47246092
 79
     2
 49
6.629999879999999
 49
-656.3040161099999
 53
8.130100249999999
 43
38.59999895
 44
136.40000343
 45
1778.83466221
 46
296.47284693
 79
     2
 49
20.96400023
 49
-2075.41397095
 53
0.0
 43
59.20000076
 44
139.3999958
 45
0.0
 46
296.47199631
 79
     2
 49
8.89400005
 49
-287.57799149
 53
9.4623003
 43
68.20000172
 44
139.3999958
 45
1482.36341412
 46
296.47229169
 79
     2
 49
18.0340004
 49
-1785.33798218
 53
338.1986084
 43
162.99999237
 44
127.39999771
 45
889.41728701
 46
-296.47162555
 79
     2
 49
15.96600056
 49
-1580.58807373
 53
315.0
 43
177.80000687
 44
121.59999847
 45
296.47290887
 46
-0.0000000000000711
 79
     2
 49
4.192000029999999
 49
-415.08201599
 53
270.0
 43
180.79999924
 44
118.59999657
 45
296.47199631
 46
-0.0000000000000545
 79
     2
 49
2.96400011
 49
-293.50799561
 53
206.56500244
 43
180.79999924
 44
115.6000042
 45
-296.47335758
 46
-296.47195758
 79
     2
 49
6.629999879999999
 49
-656.3040161099999
 53
206.56500244
 43
175.0
 44
112.60000229
 45
-296.47335758
 46
-296.47195758
 79
     2
 49
6.629999879999999
 49
-656.3040161099999
 53
191.30990601
 43
168.99999619
 44
109.60000038
 45
-1185.89011512
 46
-296.47292792
 79
     2
 49
15.11800051
 49
-1496.60202026
 53
194.03619385
 43
154.20000076
 44
106.80000305
 45
-889.4167208699998
 46
-296.4723532
 79
     2
 49
12.2239995
 49
-1210.16403198
 53
191.30990601
 43
142.39999771
 44
103.80000114
 45
-1185.89011512
 46
-296.47292792
 79
     2
 49
15.11800051
 49
-1496.60202026
 53
180.0
 43
127.39999771
 44
100.79999924
 45
-0.0000000000000363
 46
-296.47199631
 79
     2
 49
8.89400005
 49
-287.57799149
 53
153.43499756
 43
118.59999657
 44
100.79999924
 45
-296.4731053999999
 46
0.00064346
 79
     2
 49
6.629999879999999
 49
-656.3040161099999
 53
116.56500244
 43
112.60000229
 44
103.80000114
 45
-296.47195758
 46
296.47335758
 79
     2
 49
6.629999879999999
 49
-656.3040161099999
 53
90.0
 43
109.60000038
 44
109.60000038
 45
-296.47199631
 46
0.0000000000000182
 79
     2
 49
2.96400011
 49
-293.50799561
 53
33.69010162
 43
109.60000038
 44
112.60000229
 45
296.47320692
 46
296.47245153
 79
     2
 49
10.69000006
 49
-1058.25798035
 53
33.69010162
 43
118.59999657
 44
118.59999657
 45
296.47320692
 46
296.47245153
 79
     2
 49
10.69000006
 49
-1058.25798035
 53
26.56509972
 43
127.39999771
 44
124.60000038
 45
296.47285424
 46
296.47246092
 79
     2
 49
6.629999879999999
 49
-656.3040161099999
 53
9.4623003
 43
133.40000153
 44
127.39999771
 45
1482.36341412
 46
296.47229169
 79
     2
 49
18.0340004
 49
-1785.33798218
 53
345.9637146
 43
151.19999886
 44
130.39999962
 45
296.47214391
 46
0.00075448
 79
     2
 49
12.2239995
 49
-1210.16403198
 53
180.0
 43
207.60000229
 44
91.99999809000001
 45
-0.0000000000000363
 46
-296.47199631
 79
     2
 49
2.96400011
 49
-293.50799561
 53
153.43499756
 43
204.59999084
 44
91.99999809000001
 45
-296.4731053999999
 46
0.00064346
 79
     2
 49
6.629999879999999
 49
-656.3040161099999
 53
161.56500244
 43
198.6000061
 44
94.79999541999999
 45
-296.47174563
 46
0.00087946
 79
     2
 49
9.376000169999999
 49
-928.1539917000001
 53
180.0
 43
189.79999542
 44
97.79999733
 45
-0.0000000000000363
 46
-296.47199631
 79
     2
 49
5.92999995
 49
-290.5439949
 53
180.0
 43
183.79999161
 44
97.79999733
 45
-0.0000000000000363
 46
-296.47199631
 79
     2
 49
5.92999995
 49
-290.5439949
 53
153.43499756
 43
177.80000687
 44
97.79999733
 45
-296.4731053999999
 46
0.00064346
 79
     2
 49
6.629999879999999
 49
-656.3040161099999
 53
90.0
 43
172.00000763
 44
100.79999924
 45
-296.47199631
 46
0.0000000000000182
 79
     2
 49
8.89400005
 49
-287.57799149
 53
45.0
 43
172.00000763
 44
109.60000038
 45
0.0000000000000355
 46
296.47290887
 79
     2
 49
4.192000029999999
 49
-415.08201599
 53
0.0
 43
175.0
 44
112.60000229
 45
0.0
 46
296.47199631
 79
     2
 49
8.89400005
 49
-287.57799149
 53
345.9637146
 43
183.79999161
 44
112.60000229
 45
296.47214391
 46
0.00075448
 79
     2
 49
12.2239995
 49
-1210.16403198
 53
333.43490601
 43
195.59999466
 44
109.60000038
 45
296.4731053999999
 46
-0.0011172
 79
     2
 49
13.25799942
 49
-649.67399597
 53
315.0
 43
207.60000229
 44
103.80000114
 45
296.47290887
 46
-0.0000000000000711
 79
     2
 49
4.192000029999999
 49
-415.08201599
 53
270.0
 43
210.40000916
 44
100.79999924
 45
296.47199631
 46
-0.0000000000000545
 79
     2
 49
5.92999995
 49
-290.5439949
 53
225.0
 43
210.40000916
 44
94.79999541999999
 45
-0.0000000000000533
 46
-296.47290887
 79
     2
 49
4.192000029999999
 49
-415.08201599
 53
165.96380615
 43
204.59999084
 44
53.40000153
 45
-296.47214391
 46
-0.00122822
 79
     2
 49
12.2239995
 49
-1210.16403198
 53
180.0
 43
192.80000687
 44
56.39999866
 45
-0.0000000000000363
 46
-296.47199631
 79
     2
 49
5.92999995
 49
-290.5439949
 53
116.56500244
 43
186.80000305
 44
56.39999866
 45
-296.47195758
 46
296.47335758
 79
     2
 49
6.629999879999999
 49
-656.3040161099999
 53
90.0
 43
183.79999161
 44
62.19999789999999
 45
-296.47199631
 46
0.0000000000000182
 79
     2
 49
20.75400114
 49
-275.72000504
 53
108.43499756
 43
183.79999161
 44
83.00000191
 45
-296.47225602
 46
592.9451390299999
 79
     2
 49
9.376000169999999
 49
-928.1539917000001
 53
63.43489838
 43
180.79999924
 44
91.99999809000001
 45
0.00115667
 46
296.4731053999999
 79
     2
 49
6.629999879999999
 49
-656.3040161099999
 53
0.0
 43
183.79999161
 44
97.79999733
 45
0.0
 46
296.47199631
 79
     2
 49
5.92999995
 49
-290.5439949
 53
341.56509399
 43
189.79999542
 44
97.79999733
 45
296.47174563
 46
-0.00040573
 79
     2
 49
9.376000169999999
 49
-928.1539917000001
 53
315.0
 43
198.6000061
 44
94.79999541999999
 45
296.47290887
 46
-0.0000000000000711
 79
     2
 49
12.57799983
 49
-406.69799805
 53
284.0362854
 43
207.60000229
 44
86.00000380999999
 45
296.47377439
 46
-889.4162471299999
 79
     2
 49
12.2239995
 49
-1210.16403198
 53
296.56509399
 43
210.40000916
 44
74.20000075999999
 45
296.47243131
 46
-296.47288385
 79
     2
 49
6.629999879999999
 49
-656.3040161099999
 53
270.0
 43
213.40000153
 44
68.20000172
 45
296.47199631
 46
-0.0000000000000545
 79
     2
 49
5.92999995
 49
-290.5439949
 53
243.43499756
 43
213.40000153
 44
62.19999789999999
 45
-0.00064346
 46
-296.4731053999999
 79
     2
 49
6.629999879999999
 49
-656.3040161099999
 53
206.56500244
 43
210.40000916
 44
56.39999866
 45
-296.47335758
 46
-296.47195758
 79
     2
 49
6.629999879999999
 49
-656.3040161099999
 53
270.0
 43
278.6000061
 44
88.99999619
 45
296.47199631
 46
-0.0000000000000545
 79
     2
 49
8.89400005
 49
-287.57799149
 53
243.43499756
 43
278.6000061
 44
80.0
 45
-0.00064346
 46
-296.4731053999999
 79
     2
 49
6.629999879999999
 49
-656.3040161099999
 53
206.56500244
 43
275.79999924
 44
74.20000075999999
 45
-296.47335758
 46
-296.47195758
 79
     2
 49
6.629999879999999
 49
-656.3040161099999
 53
180.0
 43
269.79999542
 44
71.19999885999999
 45
-0.0000000000000363
 46
-296.47199631
 79
     2
 49
5.92999995
 49
-290.5439949
 53
153.43499756
 43
263.79999161
 44
71.19999885999999
 45
-296.4731053999999
 46
0.00064346
 79
     2
 49
6.629999879999999
 49
-656.3040161099999
 53
135.0
 43
257.99999237
 44
74.20000075999999
 45
-296.47290887
 46
0.0000000000000355
 79
     2
 49
4.192000029999999
 49
-415.08201599
 53
90.0
 43
255.0
 44
76.99999809000001
 45
-296.47199631
 46
0.0000000000000182
 79
     2
 49
5.92999995
 49
-290.5439949
 53
71.56500244
 43
255.0
 44
83.00000191
 45
0.00087946
 46
296.47174563
 79
     2
 49
9.376000169999999
 49
-928.1539917000001
 53
45.0
 43
257.99999237
 44
91.99999809000001
 45
0.0000000000000355
 46
296.47290887
 79
     2
 49
4.192000029999999
 49
-415.08201599
 53
18.43490028
 43
260.79999924
 44
94.79999541999999
 45
592.9456423699999
 46
296.47124934
 79
     2
 49
9.376000169999999
 49
-928.1539917000001
 53
333.43490601
 43
269.79999542
 44
97.79999733
 45
296.4731053999999
 46
-0.0011172
 79
     2
 49
6.629999879999999
 49
-656.3040161099999
 53
296.56509399
 43
275.79999924
 44
94.79999541999999
 45
296.47243131
 46
-296.47288385
 79
     2
 49
6.629999879999999
 49
-656.3040161099999
 53
63.43489838
 43
237.19999313
 44
109.60000038
 45
0.00115667
 46
296.4731053999999
 79
     2
 49
6.629999879999999
 49
-656.3040161099999
 53
45.0
 43
240.20000458
 44
115.6000042
 45
0.0000000000000355
 46
296.47290887
 79
     2
 49
4.192000029999999
 49
-415.08201599
 53
21.80139923
 43
243.19999695
 44
118.59999657
 45
592.9442207000001
 46
296.47253553
 79
     2
 49
15.96600056
 49
-1580.58807373
 53
18.43490028
 43
257.99999237
 44
124.60000038
 45
592.9456423699999
 46
296.47124934
 79
     2
 49
9.376000169999999
 49
-928.1539917000001
 53
0.0
 43
266.80000305
 44
127.39999771
 45
0.0
 46
296.47199631
 79
     2
 49
8.89400005
 49
-287.57799149
 53
333.43490601
 43
275.79999924
 44
127.39999771
 45
296.4731053999999
 46
-0.0011172
 79
     2
 49
6.629999879999999
 49
-656.3040161099999
 53
296.56509399
 43
281.59999847
 44
124.60000038
 45
296.47243131
 46
-296.47288385
 79
     2
 49
6.629999879999999
 49
-656.3040161099999
 53
270.0
 43
284.5999908399999
 44
118.59999657
 45
296.47199631
 46
-0.0000000000000545
 79
     2
 49
5.92999995
 49
-290.5439949
 53
243.43499756
 43
284.5999908399999
 44
112.60000229
 45
-0.00064346
 46
-296.4731053999999
 79
     2
 49
6.629999879999999
 49
-656.3040161099999
 53
225.0
 43
281.59999847
 44
106.80000305
 45
-0.0000000000000533
 46
-296.47290887
 79
     2
 49
4.192000029999999
 49
-415.08201599
 53
213.69009399
 43
278.6000061
 44
103.80000114
 45
-296.4732464
 46
-296.47241205
 79
     2
 49
10.69000006
 49
-1058.25798035
 53
194.03619385
 43
269.79999542
 44
97.79999733
 45
-889.4167208699998
 46
-296.4723532
 79
     2
 49
12.2239995
 49
-1210.16403198
 53
180.0
 43
257.99999237
 44
94.79999541999999
 45
-0.0000000000000363
 46
-296.47199631
 79
     2
 49
5.92999995
 49
-290.5439949
 53
153.43499756
 43
252.00000763
 44
94.79999541999999
 45
-296.4731053999999
 46
0.00064346
 79
     2
 49
13.25799942
 49
-649.67399597
 53
116.56500244
 43
240.20000458
 44
100.79999924
 45
-296.47195758
 46
296.47335758
 79
     2
 49
6.629999879999999
 49
-656.3040161099999
 53
90.0
 43
237.19999313
 44
106.80000305
 45
-296.47199631
 46
0.0000000000000182
 79
     2
 49
2.96400011
 49
-293.50799561
 53
180.0
 43
293.6000061000001
 44
38.59999895
 45
-0.0000000000000363
 46
-296.47199631
 79
     2
 49
8.89400005
 49
-287.57799149
 53
135.0
 43
284.5999908399999
 44
38.59999895
 45
-296.47290887
 46
0.0000000000000355
 79
     2
 49
8.385999799999998
 49
-410.8900070199999
 53
90.0
 43
278.6000061
 44
44.40000057
 45
-296.47199631
 46
0.0000000000000182
 79
     2
 49
8.89400005
 49
-287.57799149
 53
45.0
 43
278.6000061
 44
53.40000153
 45
0.0000000000000355
 46
296.47290887
 79
     2
 49
8.385999799999998
 49
-410.8900070199999
 53
18.43490028
 43
284.5999908399999
 44
59.20000076
 45
592.9456423699999
 46
296.47124934
 79
     2
 49
9.376000169999999
 49
-928.1539917000001
 53
0.0
 43
293.6000061000001
 44
62.19999789999999
 45
0.0
 46
296.47199631
 79
     2
 49
2.96400011
 49
-293.50799561
 53
0.0
 43
0.0
 44
62.19999789999999
 45
0.0
 46
296.47199631
 79
     2
 49
5.92999995
 49
-290.5439949
 53
341.56509399
 43
6.00000024
 44
62.19999789999999
 45
296.47174563
 46
-0.00040573
 79
     2
 49
9.376000169999999
 49
-928.1539917000001
 53
315.0
 43
14.80000019
 44
59.20000076
 45
296.47290887
 46
-0.0000000000000711
 79
     2
 49
8.385999799999998
 49
-410.8900070199999
 53
296.56509399
 43
20.79999924
 44
53.40000153
 45
296.47243131
 46
-296.47288385
 79
     2
 49
6.629999879999999
 49
-656.3040161099999
 53
225.0
 43
23.80000114
 44
47.39999770999999
 45
-0.0000000000000533
 46
-296.47290887
 79
     2
 49
8.385999799999998
 49
-410.8900070199999
 53
194.03619385
 43
17.79999971
 44
41.59999847
 45
-889.4167208699998
 46
-296.4723532
 79
     2
 49
12.2239995
 49
-1210.16403198
 53
180.0
 43
6.00000024
 44
38.59999895
 45
-0.0000000000000363
 46
-296.47199631
 79
     2
 49
5.92999995
 49
-290.5439949
 53
180.0
 43
296.3999939
 44
38.59999895
 45
-0.0000000000000363
 46
-296.47199631
 79
     2
 49
2.96400011
 49
-293.50799561
 53
135.0
 43
272.80000687
 44
17.79999971
 45
-296.47290887
 46
0.0000000000000355
 79
     2
 49
4.192000029999999
 49
-415.08201599
 53
135.0
 43
269.79999542
 44
20.79999924
 45
-296.47290887
 46
0.0000000000000355
 79
     2
 49
4.192000029999999
 49
-415.08201599
 53
135.0
 43
266.80000305
 44
23.80000114
 45
-296.47290887
 46
0.0000000000000355
 79
     2
 49
4.192000029999999
 49
-415.08201599
 53
116.56500244
 43
263.79999161
 44
26.60000086
 45
-296.47195758
 46
296.47335758
 79
     2
 49
6.629999879999999
 49
-656.3040161099999
 53
90.0
 43
260.79999924
 44
32.5999999
 45
-296.47199631
 46
0.0000000000000182
 79
     2
 49
5.92999995
 49
-290.5439949
 53
45.0
 43
260.79999924
 44
38.59999895
 45
0.0000000000000355
 46
296.47290887
 79
     2
 49
8.385999799999998
 49
-410.8900070199999
 53
0.0
 43
266.80000305
 44
44.40000057
 45
0.0
 46
296.47199631
 79
     2
 49
11.85799956
 49
-284.61399078
 53
315.0
 43
278.6000061
 44
44.40000057
 45
296.47290887
 46
-0.0000000000000711
 79
     2
 49
8.385999799999998
 49
-410.8900070199999
 53
0.0
 43
284.5999908399999
 44
38.59999895
 45
0.0
 46
296.47199631
 79
     2
 49
8.89400005
 49
-287.57799149
 53
333.43490601
 43
0.0
 44
38.59999895
 45
296.4731053999999
 46
-0.0011172
 79
     2
 49
6.629999879999999
 49
-656.3040161099999
 53
0.0
 43
293.6000061000001
 44
38.59999895
 45
0.0
 46
296.47199631
 79
     2
 49
2.96400011
 49
-293.50799561
 53
270.0
 43
6.00000024
 44
35.59999943
 45
296.47199631
 46
-0.0000000000000545
 79
     2
 49
5.92999995
 49
-290.5439949
 53
243.43499756
 43
6.00000024
 44
29.60000038
 45
-0.00064346
 46
-296.4731053999999
 79
     2
 49
6.629999879999999
 49
-656.3040161099999
 53
180.0
 43
3.00000012
 44
23.80000114
 45
-0.0000000000000363
 46
-296.47199631
 79
     2
 49
2.96400011
 49
-293.50799561
 53
180.0
 43
296.3999939
 44
23.80000114
 45
-0.0000000000000363
 46
-296.47199631
 79
     2
 49
2.96400011
 49
-293.50799561
 53
198.43499756
 43
293.6000061000001
 44
23.80000114
 45
-592.9451390299999
 46
-296.47225602
 79
     2
 49
9.376000169999999
 49
-928.1539917000001
 53
206.56500244
 43
284.5999908399999
 44
20.79999924
 45
-296.47335758
 46
-296.47195758
 79
     2
 49
6.629999879999999
 49
-656.3040161099999
 53
180.0
 43
278.6000061
 44
17.79999971
 45
-0.0000000000000363
 46
-296.47199631
 79
     2
 49
5.92999995
 49
-290.5439949
 53
33.69010162
 43
222.39999771
 44
26.60000086
 45
296.47320692
 46
296.47245153
 79
     2
 49
10.69000006
 49
-1058.25798035
 53
0.0
 43
231.20000839
 44
32.5999999
 45
0.0
 46
296.47199631
 79
     2
 49
5.92999995
 49
-290.5439949
 53
341.56509399
 43
237.19999313
 44
32.5999999
 45
296.47174563
 46
-0.00040573
 79
     2
 49
9.376000169999999
 49
-928.1539917000001
 53
0.0
 43
246.00000381
 44
29.60000038
 45
0.0
 46
296.47199631
 79
     2
 49
8.89400005
 49
-287.57799149
 53
333.43490601
 43
255.0
 44
29.60000038
 45
296.4731053999999
 46
-0.0011172
 79
     2
 49
6.629999879999999
 49
-656.3040161099999
 53
326.30990601
 43
260.79999924
 44
26.60000086
 45
592.9449951399999
 46
-296.47367579
 79
     2
 49
10.69000006
 49
-1058.25798035
 53
315.0
 43
269.79999542
 44
20.79999924
 45
296.47290887
 46
-0.0000000000000711
 79
     2
 49
4.192000029999999
 49
-415.08201599
 53
270.0
 43
272.80000687
 44
17.79999971
 45
296.47199631
 46
-0.0000000000000545
 79
     2
 49
5.92999995
 49
-290.5439949
 53
243.43499756
 43
272.80000687
 44
11.79999948
 45
-0.00064346
 46
-296.4731053999999
 79
     2
 49
6.629999879999999
 49
-656.3040161099999
 53
206.56500244
 43
269.79999542
 44
6.00000024
 45
-296.47335758
 46
-296.47195758
 79
     2
 49
6.629999879999999
 49
-656.3040161099999
 53
161.56500244
 43
263.79999161
 44
3.00000012
 45
-296.47174563
 46
0.00087946
 79
     2
 49
9.376000169999999
 49
-928.1539917000001
 53
153.43499756
 43
255.0
 44
6.00000024
 45
-296.4731053999999
 46
0.00064346
 79
     2
 49
6.629999879999999
 49
-656.3040161099999
 53
161.56500244
 43
248.99999619
 44
8.79999995
 45
-296.47174563
 46
0.00087946
 79
     2
 49
9.376000169999999
 49
-928.1539917000001
 53
180.0
 43
240.20000458
 44
11.79999948
 45
-0.0000000000000363
 46
-296.47199631
 79
     2
 49
8.89400005
 49
-287.57799149
 53
146.30990601
 43
231.20000839
 44
11.79999948
 45
-592.9449951399999
 46
296.47367579
 79
     2
 49
10.69000006
 49
-1058.25798035
 53
90.0
 43
222.39999771
 44
17.79999971
 45
-296.47199631
 46
0.0000000000000182
 79
     2
 49
8.89400005
 49
-287.57799149
 53
18.43490028
 43
198.6000061
 44
11.79999948
 45
592.9456423699999
 46
296.47124934
 79
     2
 49
9.376000169999999
 49
-928.1539917000001
 53
0.0
 43
207.60000229
 44
14.80000019
 45
0.0
 46
296.47199631
 79
     2
 49
5.92999995
 49
-290.5439949
 53
45.0
 43
213.40000153
 44
14.80000019
 45
0.0000000000000355
 46
296.47290887
 79
     2
 49
8.385999799999998
 49
-410.8900070199999
 53
63.43489838
 43
219.40000534
 44
20.79999924
 45
0.00115667
 46
296.4731053999999
 79
     2
 49
6.629999879999999
 49
-656.3040161099999
 53
90.0
 43
222.39999771
 44
26.60000086
 45
-296.47199631
 46
0.0000000000000182
 79
     2
 49
2.96400011
 49
-293.50799561
 53
108.43499756
 43
222.39999771
 44
29.60000038
 45
-296.47225602
 46
592.9451390299999
 79
     2
 49
9.376000169999999
 49
-928.1539917000001
 53
135.0
 43
219.40000534
 44
38.59999895
 45
-296.47290887
 46
0.0000000000000355
 79
     2
 49
12.57799983
 49
-406.69799805
 53
135.0
 43
210.40000916
 44
47.39999770999999
 45
-296.47290887
 46
0.0000000000000355
 79
     2
 49
8.385999799999998
 49
-410.8900070199999
 53
165.96380615
 43
204.59999084
 44
53.40000153
 45
-296.47214391
 46
-0.00122822
 79
     2
 49
12.2239995
 49
-1210.16403198
 53
180.0
 43
192.80000687
 44
56.39999866
 45
-0.0000000000000363
 46
-296.47199631
 79
     2
 49
5.92999995
 49
-290.5439949
 53
225.0
 43
186.80000305
 44
56.39999866
 45
-0.0000000000000533
 46
-296.47290887
 79
     2
 49
8.385999799999998
 49
-410.8900070199999
 53
243.43499756
 43
180.79999924
 44
50.39999962
 45
-0.00064346
 46
-296.4731053999999
 79
     2
 49
6.629999879999999
 49
-656.3040161099999
 53
270.0
 43
177.80000687
 44
44.40000057
 45
296.47199631
 46
-0.0000000000000545
 79
     2
 49
8.89400005
 49
-287.57799149
 53
270.0
 43
177.80000687
 44
35.59999943
 45
296.47199631
 46
-0.0000000000000545
 79
     2
 49
11.85799956
 49
-284.61399078
 53
288.43490601
 43
177.80000687
 44
23.80000114
 45
296.47130856
 46
-592.9456127599999
 79
     2
 49
9.376000169999999
 49
-928.1539917000001
 53
333.43490601
 43
180.79999924
 44
14.80000019
 45
296.4731053999999
 46
-0.0011172
 79
     2
 49
6.629999879999999
 49
-656.3040161099999
 53
0.0
 43
186.80000305
 44
11.79999948
 45
0.0
 46
296.47199631
 79
     2
 49
11.85799956
 49
-284.61399078
 53
251.56500244
 43
35.59999943
 44
26.60000086
 45
-0.00087946
 46
-296.47174563
 79
     2
 49
9.376000169999999
 49
-928.1539917000001
 53
180.0
 43
32.5999999
 44
17.79999971
 45
-0.0000000000000363
 46
-296.47199631
 79
     2
 49
5.92999995
 49
-290.5439949
 53
161.56500244
 43
26.60000086
 44
17.79999971
 45
-296.47174563
 46
0.00087946
 79
     2
 49
9.376000169999999
 49
-928.1539917000001
 53
153.43499756
 43
17.79999971
 44
20.79999924
 45
-296.4731053999999
 46
0.00064346
 79
     2
 49
6.629999879999999
 49
-656.3040161099999
 53
135.0
 43
11.79999948
 44
23.80000114
 45
-296.47290887
 46
0.0000000000000355
 79
     2
 49
4.192000029999999
 49
-415.08201599
 53
116.56500244
 43
8.79999995
 44
26.60000086
 45
-296.47195758
 46
296.47335758
 79
     2
 49
6.629999879999999
 49
-656.3040161099999
 53
63.43489838
 43
6.00000024
 44
32.5999999
 45
0.00115667
 46
296.4731053999999
 79
     2
 49
6.629999879999999
 49
-656.3040161099999
 53
26.56509972
 43
8.79999995
 44
38.59999895
 45
296.47285424
 46
296.47246092
 79
     2
 49
6.629999879999999
 49
-656.3040161099999
 53
0.0
 43
14.80000019
 44
41.59999847
 45
0.0
 46
296.47199631
 79
     2
 49
5.92999995
 49
-290.5439949
 53
333.43490601
 43
20.79999924
 44
41.59999847
 45
296.4731053999999
 46
-0.0011172
 79
     2
 49
13.25799942
 49
-649.67399597
 53
288.43490601
 43
32.5999999
 44
35.59999943
 45
296.47130856
 46
-592.9456127599999
 79
     2
 49
9.376000169999999
 49
-928.1539917000001
 53
75.96379852
 43
35.59999943
 44
23.80000114
 45
-0.00118874
 46
296.47214391
 79
     2
 49
12.2239995
 49
-1210.16403198
 53
63.43489838
 43
38.59999895
 44
35.59999943
 45
0.00115667
 46
296.4731053999999
 79
     2
 49
6.629999879999999
 49
-656.3040161099999
 53
14.03619957
 43
41.59999847
 44
41.59999847
 45
889.4166912599999
 46
296.47244202
 79
     2
 49
12.2239995
 49
-1210.16403198
 53
341.56509399
 43
53.40000153
 44
44.40000057
 45
296.47174563
 46
-0.00040573
 79
     2
 49
9.376000169999999
 49
-928.1539917000001
 53
296.56509399
 43
62.19999789999999
 44
41.59999847
 45
296.47243131
 46
-296.47288385
 79
     2
 49
6.629999879999999
 49
-656.3040161099999
 53
281.30990601
 43
65.19999980999999
 44
35.59999943
 45
296.47292792
 46
-1185.89011512
 79
     2
 49
15.11800051
 49
-1496.60202026
 53
281.30990601
 43
68.20000172
 44
20.79999924
 45
296.47292792
 46
-1185.89011512
 79
     2
 49
15.11800051
 49
-1496.60202026
 53
270.0
 43
71.19999885999999
 44
6.00000024
 45
296.47199631
 46
-0.0000000000000545
 79
     2
 49
5.92999995
 49
-290.5439949
 53
270.0
 43
71.19999885999999
 44
296.3999939
 45
296.47199631
 46
-0.0000000000000545
 79
     2
 49
5.92999995
 49
-290.5439949
 53
243.43499756
 43
71.19999885999999
 44
290.59999466
 45
-0.00064346
 46
-296.4731053999999
 79
     2
 49
6.629999879999999
 49
-656.3040161099999
 53
198.43499756
 43
68.20000172
 44
284.5999908399999
 45
-592.9451390299999
 46
-296.47225602
 79
     2
 49
9.376000169999999
 49
-928.1539917000001
 53
180.0
 43
59.20000076
 44
281.59999847
 45
-0.0000000000000363
 46
-296.47199631
 79
     2
 49
17.78800011
 49
-278.68400574
 53
161.56500244
 43
41.59999847
 44
281.59999847
 45
-296.47174563
 46
0.00087946
 79
     2
 49
9.376000169999999
 49
-928.1539917000001
 53
116.56500244
 43
32.5999999
 44
284.5999908399999
 45
-296.47195758
 46
296.47335758
 79
     2
 49
6.629999879999999
 49
-656.3040161099999
 53
90.0
 43
29.60000038
 44
290.59999466
 45
-296.47199631
 46
0.0000000000000182
 79
     2
 49
5.92999995
 49
-290.5439949
 53
75.96379852
 43
29.60000038
 44
0.0
 45
-0.00118874
 46
296.47214391
 79
     2
 49
12.2239995
 49
-1210.16403198
 53
75.96379852
 43
32.5999999
 44
11.79999948
 45
-0.00118874
 46
296.47214391
 79
     2
 49
12.2239995
 49
-1210.16403198
 53
26.56509972
 43
284.5999908399999
 44
17.79999971
 45
296.47285424
 46
296.47246092
 79
     2
 49
13.25799942
 49
-649.67399597
 53
0.0
 43
0.0
 44
23.80000114
 45
0.0
 46
296.47199631
 79
     2
 49
5.92999995
 49
-290.5439949
 53
341.56509399
 43
6.00000024
 44
23.80000114
 45
296.47174563
 46
-0.00040573
 79
     2
 49
9.376000169999999
 49
-928.1539917000001
 53
341.56509399
 43
14.80000019
 44
20.79999924
 45
296.47174563
 46
-0.00040573
 79
     2
 49
9.376000169999999
 49
-928.1539917000001
 53
315.0
 43
23.80000114
 44
17.79999971
 45
296.47290887
 46
-0.0000000000000711
 79
     2
 49
8.385999799999998
 49
-410.8900070199999
 53
270.0
 43
29.60000038
 44
11.79999948
 45
296.47199631
 46
-0.0000000000000545
 79
     2
 49
8.89400005
 49
-287.57799149
 53
270.0
 43
29.60000038
 44
3.00000012
 45
296.47199631
 46
-0.0000000000000545
 79
     2
 49
2.96400011
 49
-293.50799561
 53
270.0
 43
29.60000038
 44
296.3999939
 45
296.47199631
 46
-0.0000000000000545
 79
     2
 49
8.89400005
 49
-287.57799149
 53
258.69009399
 43
29.60000038
 44
287.60000229
 45
0.00092342
 46
-296.47346827
 79
     2
 49
15.11800051
 49
-1496.60202026
 53
198.43499756
 43
26.60000086
 44
272.80000687
 45
-592.9451390299999
 46
-296.47225602
 79
     2
 49
9.376000169999999
 49
-928.1539917000001
 53
180.0
 43
17.79999971
 44
269.79999542
 45
-0.0000000000000363
 46
-296.47199631
 79
     2
 49
14.8239994
 49
-281.64800644
 53
180.0
 43
3.00000012
 44
269.79999542
 45
-0.0000000000000363
 46
-296.47199631
 79
     2
 49
2.96400011
 49
-293.50799561
 53
206.56500244
 43
296.3999939
 44
269.79999542
 45
-296.47335758
 46
-296.47195758
 79
     2
 49
6.629999879999999
 49
-656.3040161099999
 53
180.0
 43
290.59999466
 44
266.80000305
 45
-0.0000000000000363
 46
-296.47199631
 79
     2
 49
5.92999995
 49
-290.5439949
 53
146.30990601
 43
284.5999908399999
 44
266.80000305
 45
-592.9449951399999
 46
296.47367579
 79
     2
 49
10.69000006
 49
-1058.25798035
 53
116.56500244
 43
275.79999924
 44
272.80000687
 45
-296.47195758
 46
296.47335758
 79
     2
 49
6.629999879999999
 49
-656.3040161099999
 53
108.43499756
 43
272.80000687
 44
278.6000061
 45
-296.47225602
 46
592.9451390299999
 79
     2
 49
9.376000169999999
 49
-928.1539917000001
 53
90.0
 43
269.79999542
 44
287.60000229
 45
-296.47199631
 46
0.0000000000000182
 79
     2
 49
5.92999995
 49
-290.5439949
 53
71.56500244
 43
272.80000687
 44
0.0
 45
0.00087946
 46
296.47174563
 79
     2
 49
9.376000169999999
 49
-928.1539917000001
 53
45.0
 43
269.79999542
 44
293.6000061000001
 45
0.0000000000000355
 46
296.47290887
 79
     2
 49
4.192000029999999
 49
-415.08201599
 53
45.0
 43
275.79999924
 44
8.79999995
 45
0.0000000000000355
 46
296.47290887
 79
     2
 49
12.57799983
 49
-406.69799805
 53
165.96380615
 43
175.0
 44
124.60000038
 45
-296.47214391
 46
-0.00122822
 79
     2
 49
12.2239995
 49
-1210.16403198
 53
161.56500244
 43
162.99999237
 44
127.39999771
 45
-296.47174563
 46
0.00087946
 79
     2
 49
9.376000169999999
 49
-928.1539917000001
 53
116.56500244
 43
154.20000076
 44
130.39999962
 45
-296.47195758
 46
296.47335758
 79
     2
 49
6.629999879999999
 49
-656.3040161099999
 53
45.0
 43
151.19999886
 44
136.40000343
 45
0.0000000000000355
 46
296.47290887
 79
     2
 49
8.385999799999998
 49
-410.8900070199999
 53
345.9637146
 43
157.20000267
 44
142.39999771
 45
296.47214391
 46
0.00075448
 79
     2
 49
12.2239995
 49
-1210.16403198
 53
333.43490601
 43
168.99999619
 44
139.3999958
 45
296.4731053999999
 46
-0.0011172
 79
     2
 49
13.25799942
 49
-649.67399597
 53
270.0
 43
180.79999924
 44
133.40000153
 45
296.47199631
 46
-0.0000000000000545
 79
     2
 49
5.92999995
 49
-290.5439949
 53
206.56500244
 43
180.79999924
 44
127.39999771
 45
-296.47335758
 46
-296.47195758
 79
     2
 49
6.629999879999999
 49
-656.3040161099999
 53
165.96380615
 43
168.99999619
 44
139.3999958
 45
-296.47214391
 46
-0.00122822
 79
     2
 49
12.2239995
 49
-1210.16403198
 53
90.0
 43
157.20000267
 44
142.39999771
 45
-296.47199631
 46
0.0000000000000182
 79
     2
 49
5.92999995
 49
-290.5439949
 53
45.0
 43
157.20000267
 44
148.19999695
 45
0.0000000000000355
 46
296.47290887
 79
     2
 49
4.192000029999999
 49
-415.08201599
 53
18.43490028
 43
160.0
 44
151.19999886
 45
592.9456423699999
 46
296.47124934
 79
     2
 49
9.376000169999999
 49
-928.1539917000001
 53
345.9637146
 43
168.99999619
 44
154.20000076
 45
296.47214391
 46
0.00075448
 79
     2
 49
12.2239995
 49
-1210.16403198
 53
345.9637146
 43
180.79999924
 44
151.19999886
 45
296.47214391
 46
0.00075448
 79
     2
 49
12.2239995
 49
-1210.16403198
 53
270.0
 43
192.80000687
 44
148.19999695
 45
296.47199631
 46
-0.0000000000000545
 79
     2
 49
5.92999995
 49
-290.5439949
 53
213.69009399
 43
192.80000687
 44
142.39999771
 45
-296.4732464
 46
-296.47241205
 79
     2
 49
10.69000006
 49
-1058.25798035
 53
168.69009399
 43
183.79999161
 44
136.40000343
 45
-296.47346827
 46
-0.00092342
 79
     2
 49
15.11800051
 49
-1496.60202026
 53
11.30990028
 43
172.00000763
 44
160.0
 45
1185.89014473
 46
296.47280949
 79
     2
 49
15.11800051
 49
-1496.60202026
 53
0.0
 43
186.80000305
 44
162.99999237
 45
0.0
 46
296.47199631
 79
     2
 49
14.8239994
 49
-281.64800644
 53
341.56509399
 43
201.59999847
 44
162.99999237
 45
296.47174563
 46
-0.00040573
 79
     2
 49
9.376000169999999
 49
-928.1539917000001
 53
270.0
 43
210.40000916
 44
160.0
 45
296.47199631
 46
-0.0000000000000545
 79
     2
 49
5.92999995
 49
-290.5439949
 53
206.56500244
 43
210.40000916
 44
154.20000076
 45
-296.47335758
 46
-296.47195758
 79
     2
 49
13.25799942
 49
-649.67399597
 53
180.0
 43
198.6000061
 44
148.19999695
 45
-0.0000000000000363
 46
-296.47199631
 79
     2
 49
5.92999995
 49
-290.5439949
 53
165.96380615
 43
192.80000687
 44
148.19999695
 45
-296.47214391
 46
-0.00122822
 79
     2
 49
12.2239995
 49
-1210.16403198
 53
161.56500244
 43
180.79999924
 44
151.19999886
 45
-296.47174563
 46
0.00087946
 79
     2
 49
9.376000169999999
 49
-928.1539917000001
 53
90.0
 43
172.00000763
 44
154.20000076
 45
-296.47199631
 46
0.0000000000000182
 79
     2
 49
2.96400011
 49
-293.50799561
 53
90.0
 43
172.00000763
 44
157.20000267
 45
-296.47199631
 46
0.0000000000000182
 79
     2
 49
2.96400011
 49
-293.50799561
 53
243.43499756
 43
148.19999695
 44
166.00000381
 45
-0.00064346
 46
-296.4731053999999
 79
     2
 49
6.629999879999999
 49
-656.3040161099999
 53
315.0
 43
145.20000458
 44
160.0
 45
296.47290887
 46
-0.0000000000000711
 79
     2
 49
8.385999799999998
 49
-410.8900070199999
 53
341.56509399
 43
151.19999886
 44
154.20000076
 45
296.47174563
 46
-0.00040573
 79
     2
 49
9.376000169999999
 49
-928.1539917000001
 53
18.43490028
 43
160.0
 44
151.19999886
 45
592.9456423699999
 46
296.47124934
 79
     2
 49
9.376000169999999
 49
-928.1539917000001
 53
45.0
 43
168.99999619
 44
154.20000076
 45
0.0000000000000355
 46
296.47290887
 79
     2
 49
4.192000029999999
 49
-415.08201599
 53
116.56500244
 43
172.00000763
 44
157.20000267
 45
-296.47195758
 46
296.47335758
 79
     2
 49
6.629999879999999
 49
-656.3040161099999
 53
45.0
 43
121.59999847
 44
180.79999924
 45
0.0000000000000355
 46
296.47290887
 79
     2
 49
8.385999799999998
 49
-410.8900070199999
 53
18.43490028
 43
127.39999771
 44
186.80000305
 45
592.9456423699999
 46
296.47124934
 79
     2
 49
9.376000169999999
 49
-928.1539917000001
 53
354.80560303
 43
136.40000343
 44
189.79999542
 45
296.47161493
 46
0.00088987
 79
     2
 49
32.74600029
 49
-3241.90002441
 53
350.53768921
 43
168.99999619
 44
186.80000305
 45
296.47186526
 46
0.00038989
 79
     2
 49
18.0340004
 49
-1785.33798218
 53
341.56509399
 43
186.80000305
 44
183.79999161
 45
296.47174563
 46
-0.00040573
 79
     2
 49
9.376000169999999
 49
-928.1539917000001
 53
315.0
 43
195.59999466
 44
180.79999924
 45
296.47290887
 46
-0.0000000000000711
 79
     2
 49
4.192000029999999
 49
-415.08201599
 53
270.0
 43
198.6000061
 44
177.80000687
 45
296.47199631
 46
-0.0000000000000545
 79
     2
 49
8.89400005
 49
-287.57799149
 53
225.0
 43
198.6000061
 44
168.99999619
 45
-0.0000000000000533
 46
-296.47290887
 79
     2
 49
4.192000029999999
 49
-415.08201599
 53
198.43499756
 43
195.59999466
 44
166.00000381
 45
-592.9451390299999
 46
-296.47225602
 79
     2
 49
9.376000169999999
 49
-928.1539917000001
 53
180.0
 43
186.80000305
 44
162.99999237
 45
-0.0000000000000363
 46
-296.47199631
 79
     2
 49
14.8239994
 49
-281.64800644
 53
168.69009399
 43
172.00000763
 44
162.99999237
 45
-296.47346827
 46
-0.00092342
 79
     2
 49
15.11800051
 49
-1496.60202026
 53
180.0
 43
157.20000267
 44
166.00000381
 45
-0.0000000000000363
 46
-296.47199631
 79
     2
 49
17.78800011
 49
-278.68400574
 53
165.96380615
 43
139.3999958
 44
166.00000381
 45
-296.47214391
 46
-0.00122822
 79
     2
 49
12.2239995
 49
-1210.16403198
 53
135.0
 43
127.39999771
 44
168.99999619
 45
-296.47290887
 46
0.0000000000000355
 79
     2
 49
8.385999799999998
 49
-410.8900070199999
 53
153.43499756
 43
216.3999939
 44
183.79999161
 45
-296.4731053999999
 46
0.00064346
 79
     2
 49
6.629999879999999
 49
-656.3040161099999
 53
198.43499756
 43
210.40000916
 44
186.80000305
 45
-592.9451390299999
 46
-296.47225602
 79
     2
 49
9.376000169999999
 49
-928.1539917000001
 53
243.43499756
 43
201.59999847
 44
183.79999161
 45
-0.00064346
 46
-296.4731053999999
 79
     2
 49
6.629999879999999
 49
-656.3040161099999
 53
270.0
 43
198.6000061
 44
177.80000687
 45
296.47199631
 46
-0.0000000000000545
 79
     2
 49
5.92999995
 49
-290.5439949
 53
288.43490601
 43
198.6000061
 44
172.00000763
 45
296.47130856
 46
-592.9456127599999
 79
     2
 49
9.376000169999999
 49
-928.1539917000001
 53
341.56509399
 43
201.59999847
 44
162.99999237
 45
296.47174563
 46
-0.00040573
 79
     2
 49
9.376000169999999
 49
-928.1539917000001
 53
26.56509972
 43
210.40000916
 44
160.0
 45
296.47285424
 46
296.47246092
 79
     2
 49
6.629999879999999
 49
-656.3040161099999
 53
45.0
 43
216.3999939
 44
162.99999237
 45
0.0000000000000355
 46
296.47290887
 79
     2
 49
8.385999799999998
 49
-410.8900070199999
 53
90.0
 43
222.39999771
 44
168.99999619
 45
-296.47199631
 46
0.0000000000000182
 79
     2
 49
5.92999995
 49
-290.5439949
 53
123.69010162
 43
222.39999771
 44
175.0
 45
-296.47245153
 46
296.47320692
 79
     2
 49
10.69000006
 49
-1058.25798035
 53
180.0
 43
80.0
 44
160.0
 45
-0.0000000000000363
 46
-296.47199631
 79
     2
 49
2.96400011
 49
-293.50799561
 53
135.0
 43
76.99999809000001
 44
160.0
 45
-296.47290887
 46
0.0000000000000355
 79
     2
 49
8.385999799999998
 49
-410.8900070199999
 53
116.56500244
 43
71.19999885999999
 44
166.00000381
 45
-296.47195758
 46
296.47335758
 79
     2
 49
6.629999879999999
 49
-656.3040161099999
 53
71.56500244
 43
68.20000172
 44
172.00000763
 45
0.00087946
 46
296.47174563
 79
     2
 49
9.376000169999999
 49
-928.1539917000001
 53
56.30989838
 43
71.19999885999999
 44
180.79999924
 45
296.47375474
 46
592.9449556599999
 79
     2
 49
10.69000006
 49
-1058.25798035
 53
11.30990028
 43
76.99999809000001
 44
189.79999542
 45
1185.89014473
 46
296.47280949
 79
     2
 49
15.11800051
 49
-1496.60202026
 53
333.43490601
 43
91.99999809000001
 44
192.80000687
 45
296.4731053999999
 46
-0.0011172
 79
     2
 49
13.25799942
 49
-649.67399597
 53
0.0
 43
103.80000114
 44
186.80000305
 45
0.0
 46
296.47199631
 79
     2
 49
8.89400005
 49
-287.57799149
 53
326.30990601
 43
112.60000229
 44
186.80000305
 45
592.9449951399999
 46
-296.47367579
 79
     2
 49
10.69000006
 49
-1058.25798035
 53
270.0
 43
121.59999847
 44
180.79999924
 45
296.47199631
 46
-0.0000000000000545
 79
     2
 49
5.92999995
 49
-290.5439949
 53
225.0
 43
121.59999847
 44
175.0
 45
-0.0000000000000533
 46
-296.47290887
 79
     2
 49
8.385999799999998
 49
-410.8900070199999
 53
18.43490028
 43
62.19999789999999
 44
177.80000687
 45
592.9456423699999
 46
296.47124934
 79
     2
 49
9.376000169999999
 49
-928.1539917000001
 53
90.0
 43
71.19999885999999
 44
180.79999924
 45
-296.47199631
 46
0.0000000000000182
 79
     2
 49
2.96400011
 49
-293.50799561
 53
116.56500244
 43
71.19999885999999
 44
183.79999161
 45
-296.47195758
 46
296.47335758
 79
     2
 49
6.629999879999999
 49
-656.3040161099999
 53
180.0
 43
68.20000172
 44
189.79999542
 45
-0.0000000000000363
 46
-296.47199631
 79
     2
 49
11.85799956
 49
-284.61399078
 53
191.30990601
 43
56.39999866
 44
189.79999542
 45
-1185.89011512
 46
-296.47292792
 79
     2
 49
15.11800051
 49
-1496.60202026
 53
225.0
 43
41.59999847
 44
186.80000305
 45
-0.0000000000000533
 46
-296.47290887
 79
     2
 49
4.192000029999999
 49
-415.08201599
 53
270.0
 43
38.59999895
 44
183.79999161
 45
296.47199631
 46
-0.0000000000000545
 79
     2
 49
2.96400011
 49
-293.50799561
 53
315.0
 43
38.59999895
 44
180.79999924
 45
296.47290887
 46
-0.0000000000000711
 79
     2
 49
4.192000029999999
 49
-415.08201599
 53
281.30990601
 43
68.20000172
 44
172.00000763
 45
296.47292792
 46
-1185.89011512
 79
     2
 49
15.11800051
 49
-1496.60202026
 53
270.0
 43
71.19999885999999
 44
157.20000267
 45
296.47199631
 46
-0.0000000000000545
 79
     2
 49
8.89400005
 49
-287.57799149
 53
236.30990601
 43
71.19999885999999
 44
148.19999695
 45
-296.47367579
 46
-592.9449951399999
 79
     2
 49
10.69000006
 49
-1058.25798035
 53
180.0
 43
65.19999980999999
 44
139.3999958
 45
-0.0000000000000363
 46
-296.47199631
 79
     2
 49
11.85799956
 49
-284.61399078
 53
180.0
 43
53.40000153
 44
139.3999958
 45
-0.0000000000000363
 46
-296.47199631
 79
     2
 49
14.8239994
 49
-281.64800644
 53
153.43499756
 43
38.59999895
 44
139.3999958
 45
-296.4731053999999
 46
0.00064346
 79
     2
 49
6.629999879999999
 49
-656.3040161099999
 53
108.43499756
 43
32.5999999
 44
142.39999771
 45
-296.47225602
 46
592.9451390299999
 79
     2
 49
9.376000169999999
 49
-928.1539917000001
 53
90.0
 43
29.60000038
 44
151.19999886
 45
-296.47199631
 46
0.0000000000000182
 79
     2
 49
8.89400005
 49
-287.57799149
 53
71.56500244
 43
29.60000038
 44
160.0
 45
0.00087946
 46
296.47174563
 79
     2
 49
9.376000169999999
 49
-928.1539917000001
 53
45.0
 43
32.5999999
 44
168.99999619
 45
0.0000000000000355
 46
296.47290887
 79
     2
 49
12.57799983
 49
-406.69799805
 53
0.0
 43
41.59999847
 44
177.80000687
 45
0.0
 46
296.47199631
 79
     2
 49
20.75400114
 49
-275.72000504
 53
315.0
 43
62.19999789999999
 44
177.80000687
 45
296.47290887
 46
-0.0000000000000711
 79
     2
 49
8.385999799999998
 49
-410.8900070199999
 53
26.56509972
 43
112.60000229
 44
17.79999971
 45
296.47285424
 46
296.47246092
 79
     2
 49
6.629999879999999
 49
-656.3040161099999
 53
45.0
 43
118.59999657
 44
20.79999924
 45
0.0000000000000355
 46
296.47290887
 79
     2
 49
4.192000029999999
 49
-415.08201599
 53
90.0
 43
121.59999847
 44
23.80000114
 45
-296.47199631
 46
0.0000000000000182
 79
     2
 49
5.92999995
 49
-290.5439949
 53
116.56500244
 43
121.59999847
 44
29.60000038
 45
-296.47195758
 46
296.47335758
 79
     2
 49
6.629999879999999
 49
-656.3040161099999
 53
161.56500244
 43
118.59999657
 44
35.59999943
 45
-296.47174563
 46
0.00087946
 79
     2
 49
9.376000169999999
 49
-928.1539917000001
 53
161.56500244
 43
109.60000038
 44
38.59999895
 45
-296.47174563
 46
0.00087946
 79
     2
 49
9.376000169999999
 49
-928.1539917000001
 53
180.0
 43
100.79999924
 44
41.59999847
 45
-0.0000000000000363
 46
-296.47199631
 79
     2
 49
11.85799956
 49
-284.61399078
 53
194.03619385
 43
88.99999619
 44
41.59999847
 45
-889.4167208699998
 46
-296.4723532
 79
     2
 49
12.2239995
 49
-1210.16403198
 53
236.30990601
 43
76.99999809000001
 44
38.59999895
 45
-296.47367579
 46
-592.9449951399999
 79
     2
 49
10.69000006
 49
-1058.25798035
 53
251.56500244
 43
71.19999885999999
 44
29.60000038
 45
-0.00087946
 46
-296.47174563
 79
     2
 49
9.376000169999999
 49
-928.1539917000001
 53
288.43490601
 43
68.20000172
 44
20.79999924
 45
296.47130856
 46
-592.9456127599999
 79
     2
 49
9.376000169999999
 49
-928.1539917000001
 53
333.43490601
 43
71.19999885999999
 44
11.79999948
 45
296.4731053999999
 46
-0.0011172
 79
     2
 49
6.629999879999999
 49
-656.3040161099999
 53
11.30990028
 43
76.99999809000001
 44
8.79999995
 45
1185.89014473
 46
296.47280949
 79
     2
 49
15.11800051
 49
-1496.60202026
 53
191.30990601
 43
145.20000458
 44
275.79999924
 45
-1185.89011512
 46
-296.47292792
 79
     2
 49
15.11800051
 49
-1496.60202026
 53
161.56500244
 43
130.39999962
 44
272.80000687
 45
-296.47174563
 46
0.00087946
 79
     2
 49
9.376000169999999
 49
-928.1539917000001
 53
146.30990601
 43
121.59999847
 44
275.79999924
 45
-592.9449951399999
 46
296.47367579
 79
     2
 49
10.69000006
 49
-1058.25798035
 53
161.56500244
 43
112.60000229
 44
281.59999847
 45
-296.47174563
 46
0.00087946
 79
     2
 49
9.376000169999999
 49
-928.1539917000001
 53
171.86990356
 43
103.80000114
 44
284.5999908399999
 45
-296.4717645
 46
-0.00059775
 79
     2
 49
20.96400023
 49
-2075.41397095
 53
161.56500244
 43
83.00000191
 44
287.60000229
 45
-296.47174563
 46
0.00087946
 79
     2
 49
9.376000169999999
 49
-928.1539917000001
 53
116.56500244
 43
74.20000075999999
 44
290.59999466
 45
-296.47195758
 46
296.47335758
 79
     2
 49
6.629999879999999
 49
-656.3040161099999
 53
63.43489838
 43
71.19999885999999
 44
0.0
 45
0.00115667
 46
296.4731053999999
 79
     2
 49
6.629999879999999
 49
-656.3040161099999
 53
26.56509972
 43
74.20000075999999
 44
6.00000024
 45
296.47285424
 46
296.47246092
 79
     2
 49
6.629999879999999
 49
-656.3040161099999
 53
14.03619957
 43
80.0
 44
8.79999995
 45
889.4166912599999
 46
296.47244202
 79
     2
 49
12.2239995
 49
-1210.16403198
 53
18.43490028
 43
91.99999809000001
 44
11.79999948
 45
592.9456423699999
 46
296.47124934
 79
     2
 49
9.376000169999999
 49
-928.1539917000001
 53
14.03619957
 43
100.79999924
 44
14.80000019
 45
889.4166912599999
 46
296.47244202
 79
     2
 49
12.2239995
 49
-1210.16403198
 53
0.0
 43
112.60000229
 44
17.79999971
 45
0.0
 46
296.47199631
 79
     2
 49
8.89400005
 49
-287.57799149
 53
345.9637146
 43
121.59999847
 44
17.79999971
 45
296.47214391
 46
0.00075448
 79
     2
 49
12.2239995
 49
-1210.16403198
 53
333.43490601
 43
133.40000153
 44
14.80000019
 45
296.4731053999999
 46
-0.0011172
 79
     2
 49
13.25799942
 49
-649.67399597
 53
315.0
 43
145.20000458
 44
8.79999995
 45
296.47290887
 46
-0.0000000000000711
 79
     2
 49
12.57799983
 49
-406.69799805
 53
270.0
 43
154.20000076
 44
296.3999939
 45
296.47199631
 46
-0.0000000000000545
 79
     2
 49
5.92999995
 49
-290.5439949
 53
255.96380615
 43
154.20000076
 44
290.59999466
 45
0.00122822
 46
-296.47214391
 79
     2
 49
12.2239995
 49
-1210.16403198
 53
206.56500244
 43
151.19999886
 44
278.6000061
 45
-296.47335758
 46
-296.47195758
 79
     2
 49
6.629999879999999
 49
-656.3040161099999
 53
0.0
 43
8.79999995
 44
124.60000038
 45
0.0
 46
296.47199631
 79
     2
 49
11.85799956
 49
-284.61399078
 53
341.56509399
 43
20.79999924
 44
124.60000038
 45
296.47174563
 46
-0.00040573
 79
     2
 49
9.376000169999999
 49
-928.1539917000001
 53
315.0
 43
29.60000038
 44
121.59999847
 45
296.47290887
 46
-0.0000000000000711
 79
     2
 49
8.385999799999998
 49
-410.8900070199999
 53
270.0
 43
35.59999943
 44
115.6000042
 45
296.47199631
 46
-0.0000000000000545
 79
     2
 49
5.92999995
 49
-290.5439949
 53
258.69009399
 43
35.59999943
 44
109.60000038
 45
0.00092342
 46
-296.47346827
 79
     2
 49
15.11800051
 49
-1496.60202026
 53
236.30990601
 43
32.5999999
 44
94.79999541999999
 45
-296.47367579
 46
-592.9449951399999
 79
     2
 49
10.69000006
 49
-1058.25798035
 53
225.0
 43
26.60000086
 44
86.00000380999999
 45
-0.0000000000000533
 46
-296.47290887
 79
     2
 49
12.57799983
 49
-406.69799805
 53
225.0
 43
17.79999971
 44
76.99999809000001
 45
-0.0000000000000533
 46
-296.47290887
 79
     2
 49
12.57799983
 49
-406.69799805
 53
180.0
 43
296.3999939
 44
62.19999789999999
 45
-0.0000000000000363
 46
-296.47199631
 79
     2
 49
2.96400011
 49
-293.50799561
 53
213.69009399
 43
8.79999995
 44
68.20000172
 45
-296.4732464
 46
-296.47241205
 79
     2
 49
10.69000006
 49
-1058.25798035
 53
180.0
 43
293.6000061000001
 44
62.19999789999999
 45
-0.0000000000000363
 46
-296.47199631
 79
     2
 49
5.92999995
 49
-290.5439949
 53
153.43499756
 43
287.60000229
 44
62.19999789999999
 45
-296.4731053999999
 46
0.00064346
 79
     2
 49
6.629999879999999
 49
-656.3040161099999
 53
101.30989838
 43
281.59999847
 44
65.19999980999999
 45
-296.47277001
 46
1185.8901546
 79
     2
 49
15.11800051
 49
-1496.60202026
 53
90.0
 43
278.6000061
 44
80.0
 45
-296.47199631
 46
0.0000000000000182
 79
     2
 49
11.85799956
 49
-284.61399078
 53
75.96379852
 43
278.6000061
 44
91.99999809000001
 45
-0.00118874
 46
296.47214391
 79
     2
 49
12.2239995
 49
-1210.16403198
 53
71.56500244
 43
281.59999847
 44
103.80000114
 45
0.00087946
 46
296.47174563
 79
     2
 49
9.376000169999999
 49
-928.1539917000001
 53
36.86989975
 43
284.5999908399999
 44
112.60000229
 45
296.47318037
 46
296.47240392
 79
     2
 49
14.8239994
 49
-1467.53997803
 53
18.43490028
 43
0.0
 44
121.59999847
 45
592.9456423699999
 46
296.47124934
 79
     2
 49
9.376000169999999
 49
-928.1539917000001
 53
213.69009399
 43
275.79999924
 44
50.39999962
 45
-296.4732464
 46
-296.47241205
 79
     2
 49
10.69000006
 49
-1058.25798035
 53
206.56500244
 43
266.80000305
 44
44.40000057
 45
-296.47335758
 46
-296.47195758
 79
     2
 49
6.629999879999999
 49
-656.3040161099999
 53
225.0
 43
260.79999924
 44
41.59999847
 45
-0.0000000000000533
 46
-296.47290887
 79
     2
 49
8.385999799999998
 49
-410.8900070199999
 53
206.56500244
 43
255.0
 44
35.59999943
 45
-296.47335758
 46
-296.47195758
 79
     2
 49
6.629999879999999
 49
-656.3040161099999
 53
180.0
 43
248.99999619
 44
32.5999999
 45
-0.0000000000000363
 46
-296.47199631
 79
     2
 49
5.92999995
 49
-290.5439949
 53
180.0
 43
243.19999695
 44
32.5999999
 45
-0.0000000000000363
 46
-296.47199631
 79
     2
 49
14.8239994
 49
-281.64800644
 53
146.30990601
 43
228.19999695
 44
32.5999999
 45
-592.9449951399999
 46
296.47367579
 79
     2
 49
10.69000006
 49
-1058.25798035
 53
116.56500244
 43
219.40000534
 44
38.59999895
 45
-296.47195758
 46
296.47335758
 79
     2
 49
6.629999879999999
 49
-656.3040161099999
 53
108.43499756
 43
216.3999939
 44
44.40000057
 45
-296.47225602
 46
592.9451390299999
 79
     2
 49
9.376000169999999
 49
-928.1539917000001
 53
90.0
 43
213.40000153
 44
53.40000153
 45
-296.47199631
 46
0.0000000000000182
 79
     2
 49
8.89400005
 49
-287.57799149
 53
63.43489838
 43
213.40000153
 44
62.19999789999999
 45
0.00115667
 46
296.4731053999999
 79
     2
 49
6.629999879999999
 49
-656.3040161099999
 53
26.56509972
 43
216.3999939
 44
68.20000172
 45
296.47285424
 46
296.47246092
 79
     2
 49
6.629999879999999
 49
-656.3040161099999
 53
0.0
 43
222.39999771
 44
71.19999885999999
 45
0.0
 46
296.47199631
 79
     2
 49
26.68200016
 49
-269.79000092
 53
352.875
 43
248.99999619
 44
71.19999885999999
 45
296.47327836
 46
-0.00090666
 79
     2
 49
23.901999
 49
-2366.33605957
 53
341.56509399
 43
272.80000687
 44
68.20000172
 45
296.47174563
 46
-0.00040573
 79
     2
 49
9.376000169999999
 49
-928.1539917000001
 53
270.0
 43
281.59999847
 44
65.19999980999999
 45
296.47199631
 46
-0.0000000000000545
 79
     2
 49
5.92999995
 49
-290.5439949
 53
243.43499756
 43
281.59999847
 44
59.20000076
 45
-0.00064346
 46
-296.4731053999999
 79
     2
 49
6.629999879999999
 49
-656.3040161099999
 53
225.0
 43
278.6000061
 44
53.40000153
 45
-0.0000000000000533
 46
-296.47290887
 79
     2
 49
4.192000029999999
 49
-415.08201599
 53
194.03619385
 43
142.39999771
 44
130.39999962
 45
-889.4167208699998
 46
-296.4723532
 79
     2
 49
12.2239995
 49
-1210.16403198
 53
180.0
 43
130.39999962
 44
127.39999771
 45
-0.0000000000000363
 46
-296.47199631
 79
     2
 49
5.92999995
 49
-290.5439949
 53
146.30990601
 43
124.60000038
 44
127.39999771
 45
-592.9449951399999
 46
296.47367579
 79
     2
 49
10.69000006
 49
-1058.25798035
 53
146.30990601
 43
115.6000042
 44
133.40000153
 45
-592.9449951399999
 46
296.47367579
 79
     2
 49
10.69000006
 49
-1058.25798035
 53
161.56500244
 43
106.80000305
 44
139.3999958
 45
-296.47174563
 46
0.00087946
 79
     2
 49
9.376000169999999
 49
-928.1539917000001
 53
180.0
 43
97.79999733
 44
142.39999771
 45
-0.0000000000000363
 46
-296.47199631
 79
     2
 49
11.85799956
 49
-284.61399078
 53
161.56500244
 43
86.00000380999999
 44
142.39999771
 45
-296.47174563
 46
0.00087946
 79
     2
 49
9.376000169999999
 49
-928.1539917000001
 53
135.0
 43
76.99999809000001
 44
145.20000458
 45
-296.47290887
 46
0.0000000000000355
 79
     2
 49
4.192000029999999
 49
-415.08201599
 53
90.0
 43
74.20000075999999
 44
148.19999695
 45
-296.47199631
 46
0.0000000000000182
 79
     2
 49
5.92999995
 49
-290.5439949
 53
45.0
 43
74.20000075999999
 44
154.20000076
 45
0.0000000000000355
 46
296.47290887
 79
     2
 49
8.385999799999998
 49
-410.8900070199999
 53
18.43490028
 43
80.0
 44
160.0
 45
592.9456423699999
 46
296.47124934
 79
     2
 49
9.376000169999999
 49
-928.1539917000001
 53
21.80139923
 43
88.99999619
 44
162.99999237
 45
592.9442207000001
 46
296.47253553
 79
     2
 49
15.96600056
 49
-1580.58807373
 53
0.0
 43
103.80000114
 44
168.99999619
 45
0.0
 46
296.47199631
 79
     2
 49
14.8239994
 49
-281.64800644
 53
348.69009399
 43
118.59999657
 44
168.99999619
 45
296.47346827
 46
0.00092342
 79
     2
 49
15.11800051
 49
-1496.60202026
 53
333.43490601
 43
133.40000153
 44
166.00000381
 45
296.4731053999999
 46
-0.0011172
 79
     2
 49
13.25799942
 49
-649.67399597
 53
315.0
 43
145.20000458
 44
160.0
 45
296.47290887
 46
-0.0000000000000711
 79
     2
 49
8.385999799999998
 49
-410.8900070199999
 53
296.56509399
 43
151.19999886
 44
154.20000076
 45
296.47243131
 46
-296.47288385
 79
     2
 49
6.629999879999999
 49
-656.3040161099999
 53
270.0
 43
154.20000076
 44
148.19999695
 45
296.47199631
 46
-0.0000000000000545
 79
     2
 49
8.89400005
 49
-287.57799149
 53
225.0
 43
154.20000076
 44
139.3999958
 45
-0.0000000000000533
 46
-296.47290887
 79
     2
 49
8.385999799999998
 49
-410.8900070199999
 53
206.56500244
 43
148.19999695
 44
133.40000153
 45
-296.47335758
 46
-296.47195758
 79
     2
 49
6.629999879999999
 49
-656.3040161099999
 53
194.03619385
 43
53.40000153
 44
44.40000057
 45
-889.4167208699998
 46
-296.4723532
 79
     2
 49
12.2239995
 49
-1210.16403198
 53
180.0
 43
41.59999847
 44
41.59999847
 45
-0.0000000000000363
 46
-296.47199631
 79
     2
 49
5.92999995
 49
-290.5439949
 53
153.43499756
 43
35.59999943
 44
41.59999847
 45
-296.4731053999999
 46
0.00064346
 79
     2
 49
6.629999879999999
 49
-656.3040161099999
 53
135.0
 43
29.60000038
 44
44.40000057
 45
-296.47290887
 46
0.0000000000000355
 79
     2
 49
8.385999799999998
 49
-410.8900070199999
 53
135.0
 43
23.80000114
 44
50.39999962
 45
-296.47290887
 46
0.0000000000000355
 79
     2
 49
8.385999799999998
 49
-410.8900070199999
 53
116.56500244
 43
17.79999971
 44
56.39999866
 45
-296.47195758
 46
296.47335758
 79
     2
 49
6.629999879999999
 49
-656.3040161099999
 53
90.0
 43
14.80000019
 44
62.19999789999999
 45
-296.47199631
 46
0.0000000000000182
 79
     2
 49
5.92999995
 49
-290.5439949
 53
71.56500244
 43
14.80000019
 44
68.20000172
 45
0.00087946
 46
296.47174563
 79
     2
 49
9.376000169999999
 49
-928.1539917000001
 53
45.0
 43
17.79999971
 44
76.99999809000001
 45
0.0000000000000355
 46
296.47290887
 79
     2
 49
12.57799983
 49
-406.69799805
 53
33.69010162
 43
26.60000086
 44
86.00000380999999
 45
296.47320692
 46
296.47245153
 79
     2
 49
10.69000006
 49
-1058.25798035
 53
14.03619957
 43
35.59999943
 44
91.99999809000001
 45
889.4166912599999
 46
296.47244202
 79
     2
 49
12.2239995
 49
-1210.16403198
 53
341.56509399
 43
47.39999770999999
 44
94.79999541999999
 45
296.47174563
 46
-0.00040573
 79
     2
 49
9.376000169999999
 49
-928.1539917000001
 53
333.43490601
 43
56.39999866
 44
91.99999809000001
 45
296.4731053999999
 46
-0.0011172
 79
     2
 49
6.629999879999999
 49
-656.3040161099999
 53
315.0
 43
62.19999789999999
 44
88.99999619
 45
296.47290887
 46
-0.0000000000000711
 79
     2
 49
8.385999799999998
 49
-410.8900070199999
 53
288.43490601
 43
68.20000172
 44
83.00000191
 45
296.47130856
 46
-592.9456127599999
 79
     2
 49
9.376000169999999
 49
-928.1539917000001
 53
288.43490601
 43
71.19999885999999
 44
74.20000075999999
 45
296.47130856
 46
-592.9456127599999
 79
     2
 49
9.376000169999999
 49
-928.1539917000001
 53
71.56500244
 43
71.19999885999999
 44
56.39999866
 45
0.00087946
 46
296.47174563
 79
     2
 49
9.376000169999999
 49
-928.1539917000001
 53
225.0
 43
76.99999809000001
 44
62.19999789999999
 45
-0.0000000000000533
 46
-296.47290887
 79
     2
 49
8.385999799999998
 49
-410.8900070199999
 53
213.69009399
 43
71.19999885999999
 44
56.39999866
 45
-296.4732464
 46
-296.47241205
 79
     2
 49
10.69000006
 49
-1058.25798035
 53
213.69009399
 43
62.19999789999999
 44
50.39999962
 45
-296.4732464
 46
-296.47241205
 79
     2
 49
10.69000006
 49
-1058.25798035
 53
206.56500244
 43
263.79999161
 44
127.39999771
 45
-296.47335758
 46
-296.47195758
 79
     2
 49
6.629999879999999
 49
-656.3040161099999
 53
201.80140686
 43
257.99999237
 44
124.60000038
 45
-592.94418122
 46
-296.47261448
 79
     2
 49
15.96600056
 49
-1580.58807373
 53
225.0
 43
243.19999695
 44
118.59999657
 45
-0.0000000000000533
 46
-296.47290887
 79
     2
 49
4.192000029999999
 49
-415.08201599
 53
243.43499756
 43
240.20000458
 44
115.6000042
 45
-0.00064346
 46
-296.4731053999999
 79
     2
 49
6.629999879999999
 49
-656.3040161099999
 53
225.0
 43
237.19999313
 44
109.60000038
 45
-0.0000000000000533
 46
-296.47290887
 79
     2
 49
4.192000029999999
 49
-415.08201599
 53
206.56500244
 43
234.20000076
 44
106.80000305
 45
-296.47335758
 46
-296.47195758
 79
     2
 49
6.629999879999999
 49
-656.3040161099999
 53
198.43499756
 43
228.19999695
 44
103.80000114
 45
-592.9451390299999
 46
-296.47225602
 79
     2
 49
9.376000169999999
 49
-928.1539917000001
 53
180.0
 43
219.40000534
 44
100.79999924
 45
-0.0000000000000363
 46
-296.47199631
 79
     2
 49
5.92999995
 49
-290.5439949
 53
153.43499756
 43
213.40000153
 44
100.79999924
 45
-296.4731053999999
 46
0.00064346
 79
     2
 49
13.25799942
 49
-649.67399597
 53
153.43499756
 43
201.59999847
 44
106.80000305
 45
-296.4731053999999
 46
0.00064346
 79
     2
 49
13.25799942
 49
-649.67399597
 53
135.0
 43
189.79999542
 44
112.60000229
 45
-296.47290887
 46
0.0000000000000355
 79
     2
 49
8.385999799999998
 49
-410.8900070199999
 53
116.56500244
 43
183.79999161
 44
118.59999657
 45
-296.47195758
 46
296.47335758
 79
     2
 49
6.629999879999999
 49
-656.3040161099999
 53
90.0
 43
180.79999924
 44
124.60000038
 45
-296.47199631
 46
0.0000000000000182
 79
     2
 49
5.92999995
 49
-290.5439949
 53
63.43489838
 43
180.79999924
 44
130.39999962
 45
0.00115667
 46
296.4731053999999
 79
     2
 49
6.629999879999999
 49
-656.3040161099999
 53
26.56509972
 43
183.79999161
 44
136.40000343
 45
296.47285424
 46
296.47246092
 79
     2
 49
13.25799942
 49
-649.67399597
 53
33.69010162
 43
195.59999466
 44
142.39999771
 45
296.47320692
 46
296.47245153
 79
     2
 49
10.69000006
 49
-1058.25798035
 53
45.0
 43
204.59999084
 44
148.19999695
 45
0.0000000000000355
 46
296.47290887
 79
     2
 49
8.385999799999998
 49
-410.8900070199999
 53
56.30989838
 43
210.40000916
 44
154.20000076
 45
296.47375474
 46
592.9449556599999
 79
     2
 49
10.69000006
 49
-1058.25798035
 53
18.43490028
 43
216.3999939
 44
162.99999237
 45
592.9456423699999
 46
296.47124934
 79
     2
 49
9.376000169999999
 49
-928.1539917000001
 53
0.0
 43
225.40000916
 44
166.00000381
 45
0.0
 46
296.47199631
 79
     2
 49
11.85799956
 49
-284.61399078
 53
338.1986084
 43
237.19999313
 44
166.00000381
 45
889.41728701
 46
-296.47162555
 79
     2
 49
15.96600056
 49
-1580.58807373
 53
315.0
 43
252.00000763
 44
160.0
 45
296.47290887
 46
-0.0000000000000711
 79
     2
 49
8.385999799999998
 49
-410.8900070199999
 53
315.0
 43
257.99999237
 44
154.20000076
 45
296.47290887
 46
-0.0000000000000711
 79
     2
 49
8.385999799999998
 49
-410.8900070199999
 53
296.56509399
 43
263.79999161
 44
148.19999695
 45
296.47243131
 46
-296.47288385
 79
     2
 49
6.629999879999999
 49
-656.3040161099999
 53
270.0
 43
266.80000305
 44
142.39999771
 45
296.47199631
 46
-0.0000000000000545
 79
     2
 49
8.89400005
 49
-287.57799149
 53
243.43499756
 43
266.80000305
 44
133.40000153
 45
-0.00064346
 46
-296.4731053999999
 79
     2
 49
6.629999879999999
 49
-656.3040161099999
 53
180.0
 43
133.40000153
 44
35.59999943
 45
-0.0000000000000363
 46
-296.47199631
 79
     2
 49
8.89400005
 49
-287.57799149
 53
168.69009399
 43
124.60000038
 44
35.59999943
 45
-296.47346827
 46
-0.00092342
 79
     2
 49
15.11800051
 49
-1496.60202026
 53
146.30990601
 43
109.60000038
 44
38.59999895
 45
-592.9449951399999
 46
296.47367579
 79
     2
 49
10.69000006
 49
-1058.25798035
 53
108.43499756
 43
100.79999924
 44
44.40000057
 45
-296.47225602
 46
592.9451390299999
 79
     2
 49
9.376000169999999
 49
-928.1539917000001
 53
108.43499756
 43
97.79999733
 44
53.40000153
 45
-296.47225602
 46
592.9451390299999
 79
     2
 49
9.376000169999999
 49
-928.1539917000001
 53
75.96379852
 43
94.79999541999999
 44
62.19999789999999
 45
-0.00118874
 46
296.47214391
 79
     2
 49
12.2239995
 49
-1210.16403198
 53
51.34019852
 43
97.79999733
 44
74.20000075999999
 45
889.4172523599999
 46
1185.89120889
 79
     2
 49
18.98399949
 49
-1879.36599731
 53
29.74489975
 43
109.60000038
 44
88.99999619
 45
1482.36285273
 46
889.4173209799999
 79
     2
 49
23.901999
 49
-2366.33605957
 53
6.340199949999999
 43
130.39999962
 44
100.79999924
 45
2371.78050757
 46
296.47298984
 79
     2
 49
26.84600115
 49
-2657.82592773
 53
348.69009399
 43
157.20000267
 44
103.80000114
 45
296.47346827
 46
0.00092342
 79
     2
 49
15.11800051
 49
-1496.60202026
 53
315.0
 43
172.00000763
 44
100.79999924
 45
296.47290887
 46
-0.0000000000000711
 79
     2
 49
12.57799983
 49
-406.69799805
 53
288.43490601
 43
180.79999924
 44
91.99999809000001
 45
296.47130856
 46
-592.9456127599999
 79
     2
 49
9.376000169999999
 49
-928.1539917000001
 53
270.0
 43
183.79999161
 44
83.00000191
 45
296.47199631
 46
-0.0000000000000545
 79
     2
 49
17.78800011
 49
-278.68400574
 53
251.56500244
 43
183.79999161
 44
65.19999980999999
 45
-0.00087946
 46
-296.47174563
 79
     2
 49
18.75
 49
-918.7779998799999
 53
206.56500244
 43
177.80000687
 44
47.39999770999999
 45
-296.47335758
 46
-296.47195758
 79
     2
 49
13.25799942
 49
-649.67399597
 53
191.30990601
 43
166.00000381
 44
41.59999847
 45
-1185.89011512
 46
-296.47292792
 79
     2
 49
15.11800051
 49
-1496.60202026
 53
189.46229553
 43
151.19999886
 44
38.59999895
 45
-1482.36343879
 46
-296.47216832
 79
     2
 49
18.0340004
 49
-1785.33798218
 53
341.56509399
 43
17.79999971
 44
252.00000763
 45
296.47174563
 46
-0.00040573
 79
     2
 49
9.376000169999999
 49
-928.1539917000001
 53
315.0
 43
26.60000086
 44
248.99999619
 45
296.47290887
 46
-0.0000000000000711
 79
     2
 49
8.385999799999998
 49
-410.8900070199999
 53
270.0
 43
32.5999999
 44
243.19999695
 45
296.47199631
 46
-0.0000000000000545
 79
     2
 49
5.92999995
 49
-290.5439949
 53
251.56500244
 43
32.5999999
 44
237.19999313
 45
-0.00087946
 46
-296.47174563
 79
     2
 49
9.376000169999999
 49
-928.1539917000001
 53
225.0
 43
29.60000038
 44
228.19999695
 45
-0.0000000000000533
 46
-296.47290887
 79
     2
 49
4.192000029999999
 49
-415.08201599
 53
180.0
 43
26.60000086
 44
225.40000916
 45
-0.0000000000000363
 46
-296.47199631
 79
     2
 49
5.92999995
 49
-290.5439949
 53
135.0
 43
20.79999924
 44
225.40000916
 45
-296.47290887
 46
0.0000000000000355
 79
     2
 49
8.385999799999998
 49
-410.8900070199999
 53
56.30989838
 43
11.79999948
 44
243.19999695
 45
296.47375474
 46
592.9449556599999
 79
     2
 49
10.69000006
 49
-1058.25798035
 53
0.0
 43
56.39999866
 44
252.00000763
 45
0.0
 46
296.47199631
 79
     2
 49
11.85799956
 49
-284.61399078
 53
9.4623003
 43
68.20000172
 44
252.00000763
 45
1482.36341412
 46
296.47229169
 79
     2
 49
18.0340004
 49
-1785.33798218
 53
0.0
 43
86.00000380999999
 44
255.0
 45
0.0
 46
296.47199631
 79
     2
 49
11.85799956
 49
-284.61399078
 53
326.30990601
 43
97.79999733
 44
255.0
 45
592.9449951399999
 46
-296.47367579
 79
     2
 49
10.69000006
 49
-1058.25798035
 53
300.9637146
 43
106.80000305
 44
248.99999619
 45
592.9444088999999
 46
-889.41922419
 79
     2
 49
17.28800058
 49
-1711.43005371
 53
270.0
 43
115.6000042
 44
234.20000076
 45
296.47199631
 46
-0.0000000000000545
 79
     2
 49
11.85799956
 49
-284.61399078
 53
236.30990601
 43
115.6000042
 44
222.39999771
 45
-296.47367579
 46
-592.9449951399999
 79
     2
 49
10.69000006
 49
-1058.25798035
 53
251.56500244
 43
109.60000038
 44
213.40000153
 45
-0.00087946
 46
-296.47174563
 79
     2
 49
9.376000169999999
 49
-928.1539917000001
 53
213.69009399
 43
106.80000305
 44
204.59999084
 45
-296.4732464
 46
-296.47241205
 79
     2
 49
10.69000006
 49
-1058.25798035
 53
198.43499756
 43
97.79999733
 44
198.6000061
 45
-592.9451390299999
 46
-296.47225602
 79
     2
 49
9.376000169999999
 49
-928.1539917000001
 53
191.30990601
 43
88.99999619
 44
195.59999466
 45
-1185.89011512
 46
-296.47292792
 79
     2
 49
15.11800051
 49
-1496.60202026
 53
180.0
 43
74.20000075999999
 44
192.80000687
 45
-0.0000000000000363
 46
-296.47199631
 79
     2
 49
14.8239994
 49
-281.64800644
 53
135.0
 43
59.20000076
 44
192.80000687
 45
-296.47290887
 46
0.0000000000000355
 79
     2
 49
8.385999799999998
 49
-410.8900070199999
 53
146.30990601
 43
53.40000153
 44
198.6000061
 45
-592.9449951399999
 46
296.47367579
 79
     2
 49
10.69000006
 49
-1058.25798035
 53
161.56500244
 43
44.40000057
 44
204.59999084
 45
-296.47174563
 46
0.00087946
 79
     2
 49
9.376000169999999
 49
-928.1539917000001
 53
123.69010162
 43
35.59999943
 44
207.60000229
 45
-296.47245153
 46
296.47320692
 79
     2
 49
10.69000006
 49
-1058.25798035
 53
90.0
 43
29.60000038
 44
216.3999939
 45
-296.47199631
 46
0.0000000000000182
 79
     2
 49
5.92999995
 49
-290.5439949
 53
78.69010161999999
 43
29.60000038
 44
222.39999771
 45
-0.0009629
 46
296.47346827
 79
     2
 49
15.11800051
 49
-1496.60202026
 53
56.30989838
 43
32.5999999
 44
237.19999313
 45
296.47375474
 46
592.9449556599999
 79
     2
 49
10.69000006
 49
-1058.25798035
 53
45.0
 43
38.59999895
 44
246.00000381
 45
0.0000000000000355
 46
296.47290887
 79
     2
 49
4.192000029999999
 49
-415.08201599
 53
26.56509972
 43
41.59999847
 44
248.99999619
 45
296.47285424
 46
296.47246092
 79
     2
 49
6.629999879999999
 49
-656.3040161099999
 53
0.0
 43
47.39999770999999
 44
252.00000763
 45
0.0
 46
296.47199631
 79
     2
 49
8.89400005
 49
-287.57799149
 53
326.30990601
 43
32.5999999
 44
263.79999161
 45
592.9449951399999
 46
-296.47367579
 79
     2
 49
10.69000006
 49
-1058.25798035
 53
333.43490601
 43
41.59999847
 44
257.99999237
 45
296.4731053999999
 46
-0.0011172
 79
     2
 49
6.629999879999999
 49
-656.3040161099999
 53
270.0
 43
47.39999770999999
 44
255.0
 45
296.47199631
 46
-0.0000000000000545
 79
     2
 49
2.96400011
 49
-293.50799561
 53
206.56500244
 43
47.39999770999999
 44
252.00000763
 45
-296.47335758
 46
-296.47195758
 79
     2
 49
6.629999879999999
 49
-656.3040161099999
 53
180.0
 43
41.59999847
 44
248.99999619
 45
-0.0000000000000363
 46
-296.47199631
 79
     2
 49
11.85799956
 49
-284.61399078
 53
165.96380615
 43
29.60000038
 44
248.99999619
 45
-296.47214391
 46
-0.00122822
 79
     2
 49
12.2239995
 49
-1210.16403198
 53
135.0
 43
17.79999971
 44
252.00000763
 45
-296.47290887
 46
0.0000000000000355
 79
     2
 49
4.192000029999999
 49
-415.08201599
 53
116.56500244
 43
14.80000019
 44
255.0
 45
-296.47195758
 46
296.47335758
 79
     2
 49
6.629999879999999
 49
-656.3040161099999
 53
63.43489838
 43
11.79999948
 44
260.79999924
 45
0.00115667
 46
296.4731053999999
 79
     2
 49
6.629999879999999
 49
-656.3040161099999
 53
26.56509972
 43
14.80000019
 44
266.80000305
 45
296.47285424
 46
296.47246092
 79
     2
 49
6.629999879999999
 49
-656.3040161099999
 53
0.0
 43
20.79999924
 44
269.79999542
 45
0.0
 46
296.47199631
 79
     2
 49
5.92999995
 49
-290.5439949
 53
315.0
 43
26.60000086
 44
269.79999542
 45
296.47290887
 46
-0.0000000000000711
 79
     2
 49
8.385999799999998
 49
-410.8900070199999
 53
236.30990601
 43
97.79999733
 44
272.80000687
 45
-296.47367579
 46
-592.9449951399999
 79
     2
 49
10.69000006
 49
-1058.25798035
 53
225.0
 43
91.99999809000001
 44
263.79999161
 45
-0.0000000000000533
 46
-296.47290887
 79
     2
 49
12.57799983
 49
-406.69799805
 53
191.30990601
 43
83.00000191
 44
255.0
 45
-1185.89011512
 46
-296.47292792
 79
     2
 49
15.11800051
 49
-1496.60202026
 53
180.0
 43
68.20000172
 44
252.00000763
 45
-0.0000000000000363
 46
-296.47199631
 79
     2
 49
11.85799956
 49
-284.61399078
 53
158.19859314
 43
56.39999866
 44
252.00000763
 45
-889.41720806
 46
296.47186242
 79
     2
 49
15.96600056
 49
-1580.58807373
 53
146.30990601
 43
41.59999847
 44
257.99999237
 45
-592.9449951399999
 46
296.47367579
 79
     2
 49
10.69000006
 49
-1058.25798035
 53
116.56500244
 43
32.5999999
 44
263.79999161
 45
-296.47195758
 46
296.47335758
 79
     2
 49
6.629999879999999
 49
-656.3040161099999
 53
90.0
 43
29.60000038
 44
269.79999542
 45
-296.47199631
 46
0.0000000000000182
 79
     2
 49
5.92999995
 49
-290.5439949
 53
45.0
 43
29.60000038
 44
275.79999924
 45
0.0000000000000355
 46
296.47290887
 79
     2
 49
8.385999799999998
 49
-410.8900070199999
 53
0.0
 43
35.59999943
 44
281.59999847
 45
0.0
 46
296.47199631
 79
     2
 49
23.71799946
 49
-272.75400162
 53
15.94540024
 43
59.20000076
 44
281.59999847
 45
889.4178531299999
 46
296.47306062
 79
     2
 49
21.58400059
 49
-2136.77001953
 53
0.0
 43
80.0
 44
287.60000229
 45
0.0
 46
296.47199631
 79
     2
 49
11.85799956
 49
-284.61399078
 53
326.30990601
 43
91.99999809000001
 44
287.60000229
 45
592.9449951399999
 46
-296.47367579
 79
     2
 49
10.69000006
 49
-1058.25798035
 53
251.56500244
 43
100.79999924
 44
281.59999847
 45
-0.00087946
 46
-296.47174563
 79
     2
 49
9.376000169999999
 49
-928.1539917000001
 53
243.43499756
 43
139.3999958
 44
195.59999466
 45
-0.00064346
 46
-296.4731053999999
 79
     2
 49
6.629999879999999
 49
-656.3040161099999
 53
180.0
 43
136.40000343
 44
189.79999542
 45
-0.0000000000000363
 46
-296.47199631
 79
     2
 49
11.85799956
 49
-284.61399078
 53
194.03619385
 43
124.60000038
 44
189.79999542
 45
-889.4167208699998
 46
-296.4723532
 79
     2
 49
12.2239995
 49
-1210.16403198
 53
180.0
 43
112.60000229
 44
186.80000305
 45
-0.0000000000000363
 46
-296.47199631
 79
     2
 49
8.89400005
 49
-287.57799149
 53
135.0
 43
103.80000114
 44
186.80000305
 45
-296.47290887
 46
0.0000000000000355
 79
     2
 49
8.385999799999998
 49
-410.8900070199999
 53
90.0
 43
97.79999733
 44
192.80000687
 45
-296.47199631
 46
0.0000000000000182
 79
     2
 49
5.92999995
 49
-290.5439949
 53
18.43490028
 43
97.79999733
 44
198.6000061
 45
592.9456423699999
 46
296.47124934
 79
     2
 49
9.376000169999999
 49
-928.1539917000001
 53
14.03619957
 43
106.80000305
 44
201.59999847
 45
889.4166912599999
 46
296.47244202
 79
     2
 49
12.2239995
 49
-1210.16403198
 53
0.0
 43
118.59999657
 44
204.59999084
 45
0.0
 46
296.47199631
 79
     2
 49
11.85799956
 49
-284.61399078
 53
326.30990601
 43
130.39999962
 44
204.59999084
 45
592.9449951399999
 46
-296.47367579
 79
     2
 49
10.69000006
 49
-1058.25798035
 53
270.0
 43
162.99999237
 44
198.6000061
 45
296.47199631
 46
-0.0000000000000545
 79
     2
 49
5.92999995
 49
-290.5439949
 53
206.56500244
 43
162.99999237
 44
192.80000687
 45
-296.47335758
 46
-296.47195758
 79
     2
 49
6.629999879999999
 49
-656.3040161099999
 53
180.0
 43
157.20000267
 44
189.79999542
 45
-0.0000000000000363
 46
-296.47199631
 79
     2
 49
8.89400005
 49
-287.57799149
 53
153.43499756
 43
148.19999695
 44
189.79999542
 45
-296.4731053999999
 46
0.00064346
 79
     2
 49
6.629999879999999
 49
-656.3040161099999
 53
135.0
 43
142.39999771
 44
192.80000687
 45
-296.47290887
 46
0.0000000000000355
 79
     2
 49
4.192000029999999
 49
-415.08201599
 53
90.0
 43
139.3999958
 44
195.59999466
 45
-296.47199631
 46
0.0000000000000182
 79
     2
 49
5.92999995
 49
-290.5439949
 53
26.56509972
 43
139.3999958
 44
201.59999847
 45
296.47285424
 46
296.47246092
 79
     2
 49
6.629999879999999
 49
-656.3040161099999
 53
0.0
 43
145.20000458
 44
204.59999084
 45
0.0
 46
296.47199631
 79
     2
 49
11.85799956
 49
-284.61399078
 53
333.43490601
 43
157.20000267
 44
204.59999084
 45
296.4731053999999
 46
-0.0011172
 79
     2
 49
6.629999879999999
 49
-656.3040161099999
 53
180.0
 43
195.59999466
 44
183.79999161
 45
-0.0000000000000363
 46
-296.47199631
 79
     2
 49
8.89400005
 49
-287.57799149
 53
165.96380615
 43
186.80000305
 44
183.79999161
 45
-296.47214391
 46
-0.00122822
 79
     2
 49
12.2239995
 49
-1210.16403198
 53
146.30990601
 43
175.0
 44
186.80000305
 45
-592.9449951399999
 46
296.47367579
 79
     2
 49
10.69000006
 49
-1058.25798035
 53
116.56500244
 43
166.00000381
 44
192.80000687
 45
-296.47195758
 46
296.47335758
 79
     2
 49
6.629999879999999
 49
-656.3040161099999
 53
90.0
 43
162.99999237
 44
198.6000061
 45
-296.47199631
 46
0.0000000000000182
 79
     2
 49
5.92999995
 49
-290.5439949
 53
33.69010162
 43
162.99999237
 44
204.59999084
 45
296.47320692
 46
296.47245153
 79
     2
 49
10.69000006
 49
-1058.25798035
 53
18.43490028
 43
172.00000763
 44
210.40000916
 45
592.9456423699999
 46
296.47124934
 79
     2
 49
9.376000169999999
 49
-928.1539917000001
 53
0.0
 43
180.79999924
 44
213.40000153
 45
0.0
 46
296.47199631
 79
     2
 49
11.85799956
 49
-284.61399078
 53
350.53768921
 43
192.80000687
 44
213.40000153
 45
296.47186526
 46
0.00038989
 79
     2
 49
18.0340004
 49
-1785.33798218
 53
296.56509399
 43
210.40000916
 44
210.40000916
 45
296.47243131
 46
-296.47288385
 79
     2
 49
6.629999879999999
 49
-656.3040161099999
 53
270.0
 43
213.40000153
 44
204.59999084
 45
296.47199631
 46
-0.0000000000000545
 79
     2
 49
11.85799956
 49
-284.61399078
 53
243.43499756
 43
213.40000153
 44
192.80000687
 45
-0.00064346
 46
-296.4731053999999
 79
     2
 49
6.629999879999999
 49
-656.3040161099999
 53
198.43499756
 43
210.40000916
 44
186.80000305
 45
-592.9451390299999
 46
-296.47225602
 79
     2
 49
9.376000169999999
 49
-928.1539917000001
 53
180.0
 43
201.59999847
 44
183.79999161
 45
-0.0000000000000363
 46
-296.47199631
 79
     2
 49
5.92999995
 49
-290.5439949
 53
180.0
 43
154.20000076
 44
204.59999084
 45
-0.0000000000000363
 46
-296.47199631
 79
     2
 49
26.68200016
 49
-269.79000092
 53
165.96380615
 43
127.39999771
 44
204.59999084
 45
-296.47214391
 46
-0.00122822
 79
     2
 49
12.2239995
 49
-1210.16403198
 53
135.0
 43
115.6000042
 44
207.60000229
 45
-296.47290887
 46
0.0000000000000355
 79
     2
 49
4.192000029999999
 49
-415.08201599
 53
90.0
 43
112.60000229
 44
210.40000916
 45
-296.47199631
 46
0.0000000000000182
 79
     2
 49
5.92999995
 49
-290.5439949
 53
63.43489838
 43
112.60000229
 44
216.3999939
 45
0.00115667
 46
296.4731053999999
 79
     2
 49
6.629999879999999
 49
-656.3040161099999
 53
18.43490028
 43
115.6000042
 44
222.39999771
 45
592.9456423699999
 46
296.47124934
 79
     2
 49
9.376000169999999
 49
-928.1539917000001
 53
11.30990028
 43
124.60000038
 44
225.40000916
 45
1185.89014473
 46
296.47280949
 79
     2
 49
15.11800051
 49
-1496.60202026
 53
0.0
 43
139.3999958
 44
228.19999695
 45
0.0
 46
296.47199631
 79
     2
 49
11.85799956
 49
-284.61399078
 53
0.0
 43
151.19999886
 44
228.19999695
 45
0.0
 46
296.47199631
 79
     2
 49
11.85799956
 49
-284.61399078
 53
333.43490601
 43
162.99999237
 44
228.19999695
 45
296.4731053999999
 46
-0.0011172
 79
     2
 49
13.25799942
 49
-649.67399597
 53
296.56509399
 43
175.0
 44
222.39999771
 45
296.47243131
 46
-296.47288385
 79
     2
 49
6.629999879999999
 49
-656.3040161099999
 53
270.0
 43
177.80000687
 44
216.3999939
 45
296.47199631
 46
-0.0000000000000545
 79
     2
 49
2.96400011
 49
-293.50799561
 53
206.56500244
 43
177.80000687
 44
213.40000153
 45
-296.47335758
 46
-296.47195758
 79
     2
 49
6.629999879999999
 49
-656.3040161099999
 53
206.56500244
 43
172.00000763
 44
210.40000916
 45
-296.47335758
 46
-296.47195758
 79
     2
 49
6.629999879999999
 49
-656.3040161099999
 53
206.56500244
 43
166.00000381
 44
207.60000229
 45
-296.47335758
 46
-296.47195758
 79
     2
 49
6.629999879999999
 49
-656.3040161099999
 53
180.0
 43
160.0
 44
204.59999084
 45
-0.0000000000000363
 46
-296.47199631
 79
     2
 49
5.92999995
 49
-290.5439949
 53
63.43489838
 43
94.79999541999999
 44
266.80000305
 45
0.00115667
 46
296.4731053999999
 79
     2
 49
6.629999879999999
 49
-656.3040161099999
 53
45.0
 43
97.79999733
 44
272.80000687
 45
0.0000000000000355
 46
296.47290887
 79
     2
 49
8.385999799999998
 49
-410.8900070199999
 53
0.0
 43
103.80000114
 44
278.6000061
 45
0.0
 46
296.47199631
 79
     2
 49
8.89400005
 49
-287.57799149
 53
341.56509399
 43
112.60000229
 44
278.6000061
 45
296.47174563
 46
-0.00040573
 79
     2
 49
9.376000169999999
 49
-928.1539917000001
 53
270.0
 43
121.59999847
 44
275.79999924
 45
296.47199631
 46
-0.0000000000000545
 79
     2
 49
5.92999995
 49
-290.5439949
 53
243.43499756
 43
121.59999847
 44
269.79999542
 45
-0.00064346
 46
-296.4731053999999
 79
     2
 49
6.629999879999999
 49
-656.3040161099999
 53
213.69009399
 43
118.59999657
 44
263.79999161
 45
-296.4732464
 46
-296.47241205
 79
     2
 49
10.69000006
 49
-1058.25798035
 53
180.0
 43
109.60000038
 44
257.99999237
 45
-0.0000000000000363
 46
-296.47199631
 79
     2
 49
5.92999995
 49
-290.5439949
 53
161.56500244
 43
103.80000114
 44
257.99999237
 45
-296.47174563
 46
0.00087946
 79
     2
 49
9.376000169999999
 49
-928.1539917000001
 53
90.0
 43
94.79999541999999
 44
260.79999924
 45
-296.47199631
 46
0.0000000000000182
 79
     2
 49
5.92999995
 49
-290.5439949
 53
90.0
 43
154.20000076
 44
243.19999695
 45
-296.47199631
 46
0.0000000000000182
 79
     2
 49
5.92999995
 49
-290.5439949
 53
26.56509972
 43
154.20000076
 44
248.99999619
 45
296.47285424
 46
296.47246092
 79
     2
 49
6.629999879999999
 49
-656.3040161099999
 53
11.30990028
 43
160.0
 44
252.00000763
 45
1185.89014473
 46
296.47280949
 79
     2
 49
15.11800051
 49
-1496.60202026
 53
315.0
 43
175.0
 44
255.0
 45
296.47290887
 46
-0.0000000000000711
 79
     2
 49
8.385999799999998
 49
-410.8900070199999
 53
251.56500244
 43
180.79999924
 44
248.99999619
 45
-0.00087946
 46
-296.47174563
 79
     2
 49
9.376000169999999
 49
-928.1539917000001
 53
206.56500244
 43
177.80000687
 44
240.20000458
 45
-296.47335758
 46
-296.47195758
 79
     2
 49
6.629999879999999
 49
-656.3040161099999
 53
180.0
 43
172.00000763
 44
237.19999313
 45
-0.0000000000000363
 46
-296.47199631
 79
     2
 49
8.89400005
 49
-287.57799149
 53
146.30990601
 43
162.99999237
 44
237.19999313
 45
-592.9449951399999
 46
296.47367579
 79
     2
 49
10.69000006
 49
-1058.25798035
 53
26.56509972
 43
124.60000038
 44
246.00000381
 45
296.47285424
 46
296.47246092
 79
     2
 49
6.629999879999999
 49
-656.3040161099999
 53
0.0
 43
130.39999962
 44
248.99999619
 45
0.0
 46
296.47199631
 79
     2
 49
11.85799956
 49
-284.61399078
 53
333.43490601
 43
142.39999771
 44
248.99999619
 45
296.4731053999999
 46
-0.0011172
 79
     2
 49
13.25799942
 49
-649.67399597
 53
296.56509399
 43
154.20000076
 44
243.19999695
 45
296.47243131
 46
-296.47288385
 79
     2
 49
6.629999879999999
 49
-656.3040161099999
 53
270.0
 43
157.20000267
 44
237.19999313
 45
296.47199631
 46
-0.0000000000000545
 79
     2
 49
5.92999995
 49
-290.5439949
 53
206.56500244
 43
157.20000267
 44
231.20000839
 45
-296.47335758
 46
-296.47195758
 79
     2
 49
6.629999879999999
 49
-656.3040161099999
 53
180.0
 43
151.19999886
 44
228.19999695
 45
-0.0000000000000363
 46
-296.47199631
 79
     2
 49
11.85799956
 49
-284.61399078
 53
191.30990601
 43
139.3999958
 44
228.19999695
 45
-1185.89011512
 46
-296.47292792
 79
     2
 49
15.11800051
 49
-1496.60202026
 53
153.43499756
 43
124.60000038
 44
225.40000916
 45
-296.4731053999999
 46
0.00064346
 79
     2
 49
6.629999879999999
 49
-656.3040161099999
 53
90.0
 43
118.59999657
 44
228.19999695
 45
-296.47199631
 46
0.0000000000000182
 79
     2
 49
5.92999995
 49
-290.5439949
 53
63.43489838
 43
118.59999657
 44
234.20000076
 45
0.00115667
 46
296.4731053999999
 79
     2
 49
6.629999879999999
 49
-656.3040161099999
 53
63.43489838
 43
121.59999847
 44
240.20000458
 45
0.00115667
 46
296.4731053999999
 79
     2
 49
6.629999879999999
 49
-656.3040161099999
 53
21.80139923
 43
124.60000038
 44
266.80000305
 45
592.9442207000001
 46
296.47253553
 79
     2
 49
15.96600056
 49
-1580.58807373
 53
0.0
 43
139.3999958
 44
272.80000687
 45
0.0
 46
296.47199631
 79
     2
 49
14.8239994
 49
-281.64800644
 53
348.69009399
 43
154.20000076
 44
272.80000687
 45
296.47346827
 46
0.00092342
 79
     2
 49
15.11800051
 49
-1496.60202026
 53
341.56509399
 43
168.99999619
 44
269.79999542
 45
296.47174563
 46
-0.00040573
 79
     2
 49
9.376000169999999
 49
-928.1539917000001
 53
296.56509399
 43
177.80000687
 44
266.80000305
 45
296.47243131
 46
-296.47288385
 79
     2
 49
6.629999879999999
 49
-656.3040161099999
 53
270.0
 43
180.79999924
 44
260.79999924
 45
296.47199631
 46
-0.0000000000000545
 79
     2
 49
2.96400011
 49
-293.50799561
 53
198.43499756
 43
180.79999924
 44
257.99999237
 45
-592.9451390299999
 46
-296.47225602
 79
     2
 49
9.376000169999999
 49
-928.1539917000001
 53
191.30990601
 43
172.00000763
 44
255.0
 45
-1185.89011512
 46
-296.47292792
 79
     2
 49
15.11800051
 49
-1496.60202026
 53
191.30990601
 43
157.20000267
 44
252.00000763
 45
-1185.89011512
 46
-296.47292792
 79
     2
 49
15.11800051
 49
-1496.60202026
 53
180.0
 43
142.39999771
 44
248.99999619
 45
-0.0000000000000363
 46
-296.47199631
 79
     2
 49
11.85799956
 49
-284.61399078
 53
206.56500244
 43
130.39999962
 44
248.99999619
 45
-296.47335758
 46
-296.47195758
 79
     2
 49
6.629999879999999
 49
-656.3040161099999
 53
180.0
 43
124.60000038
 44
246.00000381
 45
-0.0000000000000363
 46
-296.47199631
 79
     2
 49
8.89400005
 49
-287.57799149
 53
153.43499756
 43
115.6000042
 44
246.00000381
 45
-296.4731053999999
 46
0.00064346
 79
     2
 49
6.629999879999999
 49
-656.3040161099999
 53
90.0
 43
109.60000038
 44
248.99999619
 45
-296.47199631
 46
0.0000000000000182
 79
     2
 49
5.92999995
 49
-290.5439949
 53
45.0
 43
109.60000038
 44
255.0
 45
0.0000000000000355
 46
296.47290887
 79
     2
 49
12.57799983
 49
-406.69799805
 53
26.56509972
 43
118.59999657
 44
263.79999161
 45
296.47285424
 46
296.47246092
 79
     2
 49
6.629999879999999
 49
-656.3040161099999
 53
18.43490028
 43
189.79999542
 44
257.99999237
 45
592.9456423699999
 46
296.47124934
 79
     2
 49
9.376000169999999
 49
-928.1539917000001
 53
341.56509399
 43
198.6000061
 44
260.79999924
 45
296.47174563
 46
-0.00040573
 79
     2
 49
18.75
 49
-918.7779998799999
 53
315.0
 43
216.3999939
 44
255.0
 45
296.47290887
 46
-0.0000000000000711
 79
     2
 49
12.57799983
 49
-406.69799805
 53
303.69009399
 43
225.40000916
 44
246.00000381
 45
296.47241205
 46
-296.4732464
 79
     2
 49
10.69000006
 49
-1058.25798035
 53
270.0
 43
231.20000839
 44
237.19999313
 45
296.47199631
 46
-0.0000000000000545
 79
     2
 49
11.85799956
 49
-284.61399078
 53
270.0
 43
231.20000839
 44
225.40000916
 45
296.47199631
 46
-0.0000000000000545
 79
     2
 49
5.92999995
 49
-290.5439949
 53
225.0
 43
231.20000839
 44
219.40000534
 45
-0.0000000000000533
 46
-296.47290887
 79
     2
 49
4.192000029999999
 49
-415.08201599
 53
225.0
 43
228.19999695
 44
216.3999939
 45
-0.0000000000000533
 46
-296.47290887
 79
     2
 49
8.385999799999998
 49
-410.8900070199999
 53
180.0
 43
222.39999771
 44
210.40000916
 45
-0.0000000000000363
 46
-296.47199631
 79
     2
 49
5.92999995
 49
-290.5439949
 53
170.53770447
 43
216.3999939
 44
210.40000916
 45
-296.47186526
 46
-0.00046884
 79
     2
 49
18.0340004
 49
-1785.33798218
 53
170.53770447
 43
198.6000061
 44
213.40000153
 45
-296.47186526
 46
-0.00046884
 79
     2
 49
18.0340004
 49
-1785.33798218
 53
135.0
 43
180.79999924
 44
216.3999939
 45
-296.47290887
 46
0.0000000000000355
 79
     2
 49
8.385999799999998
 49
-410.8900070199999
 53
90.0
 43
175.0
 44
222.39999771
 45
-296.47199631
 46
0.0000000000000182
 79
     2
 49
8.89400005
 49
-287.57799149
 53
68.19860077
 43
175.0
 44
231.20000839
 45
296.47174398
 46
889.4172475300001
 79
     2
 49
15.96600056
 49
-1580.58807373
 53
53.13010025
 43
180.79999924
 44
246.00000381
 45
592.9460432499999
 46
889.4179918
 79
     2
 49
14.8239994
 49
-1467.53997803
 53
104.03620148
 43
216.3999939
 44
183.79999161
 45
-296.47247163
 46
889.41668139
 79
     2
 49
12.2239995
 49
-1210.16403198
 53
71.56500244
 43
213.40000153
 44
195.59999466
 45
0.00087946
 46
296.47174563
 79
     2
 49
9.376000169999999
 49
-928.1539917000001
 53
45.0
 43
216.3999939
 44
204.59999084
 45
0.0000000000000355
 46
296.47290887
 79
     2
 49
8.385999799999998
 49
-410.8900070199999
 53
33.69010162
 43
222.39999771
 44
210.40000916
 45
296.47320692
 46
296.47245153
 79
     2
 49
10.69000006
 49
-1058.25798035
 53
0.0
 43
231.20000839
 44
216.3999939
 45
0.0
 46
296.47199631
 79
     2
 49
11.85799956
 49
-284.61399078
 53
326.30990601
 43
243.19999695
 44
216.3999939
 45
592.9449951399999
 46
-296.47367579
 79
     2
 49
10.69000006
 49
-1058.25798035
 53
315.0
 43
252.00000763
 44
210.40000916
 45
296.47290887
 46
-0.0000000000000711
 79
     2
 49
16.7719996
 49
-402.5040054299999
 53
300.9637146
 43
263.79999161
 44
198.6000061
 45
592.9444088999999
 46
-889.41922419
 79
     2
 49
17.28800058
 49
-1711.43005371
 53
284.0362854
 43
272.80000687
 44
183.79999161
 45
296.47377439
 46
-889.4162471299999
 79
     2
 49
12.2239995
 49
-1210.16403198
 53
270.0
 43
275.79999924
 44
172.00000763
 45
296.47199631
 46
-0.0000000000000545
 79
     2
 49
8.89400005
 49
-287.57799149
 53
243.43499756
 43
275.79999924
 44
162.99999237
 45
-0.00064346
 46
-296.4731053999999
 79
     2
 49
6.629999879999999
 49
-656.3040161099999
 53
206.56500244
 43
272.80000687
 44
157.20000267
 45
-296.47335758
 46
-296.47195758
 79
     2
 49
6.629999879999999
 49
-656.3040161099999
 53
180.0
 43
266.80000305
 44
154.20000076
 45
-0.0000000000000363
 46
-296.47199631
 79
     2
 49
8.89400005
 49
-287.57799149
 53
135.0
 43
257.99999237
 44
154.20000076
 45
-296.47290887
 46
0.0000000000000355
 79
     2
 49
8.385999799999998
 49
-410.8900070199999
 53
146.30990601
 43
252.00000763
 44
160.0
 45
-592.9449951399999
 46
296.47367579
 79
     2
 49
10.69000006
 49
-1058.25798035
 53
165.96380615
 43
243.19999695
 44
166.00000381
 45
-296.47214391
 46
-0.00122822
 79
     2
 49
12.2239995
 49
-1210.16403198
 53
153.43499756
 43
231.20000839
 44
168.99999619
 45
-296.4731053999999
 46
0.00064346
 79
     2
 49
6.629999879999999
 49
-656.3040161099999
 53
126.86990356
 43
225.40000916
 44
172.00000763
 45
-296.47242366
 46
296.47316064
 79
     2
 49
14.8239994
 49
-1467.53997803
 53
71.56500244
 43
263.79999161
 44
204.59999084
 45
0.00087946
 46
296.47174563
 79
     2
 49
9.376000169999999
 49
-928.1539917000001
 53
26.56509972
 43
266.80000305
 44
213.40000153
 45
296.47285424
 46
296.47246092
 79
     2
 49
6.629999879999999
 49
-656.3040161099999
 53
18.43490028
 43
272.80000687
 44
216.3999939
 45
592.9456423699999
 46
296.47124934
 79
     2
 49
9.376000169999999
 49
-928.1539917000001
 53
0.0
 43
281.59999847
 44
219.40000534
 45
0.0
 46
296.47199631
 79
     2
 49
5.92999995
 49
-290.5439949
 53
333.43490601
 43
287.60000229
 44
219.40000534
 45
296.4731053999999
 46
-0.0011172
 79
     2
 49
6.629999879999999
 49
-656.3040161099999
 53
0.0
 43
293.6000061000001
 44
216.3999939
 45
0.0
 46
296.47199631
 79
     2
 49
2.96400011
 49
-293.50799561
 53
333.43490601
 43
0.0
 44
216.3999939
 45
296.4731053999999
 46
-0.0011172
 79
     2
 49
13.25799942
 49
-649.67399597
 53
296.56509399
 43
11.79999948
 44
210.40000916
 45
296.47243131
 46
-296.47288385
 79
     2
 49
6.629999879999999
 49
-656.3040161099999
 53
251.56500244
 43
14.80000019
 44
204.59999084
 45
-0.00087946
 46
-296.47174563
 79
     2
 49
9.376000169999999
 49
-928.1539917000001
 53
251.56500244
 43
11.79999948
 44
195.59999466
 45
-0.00087946
 46
-296.47174563
 79
     2
 49
9.376000169999999
 49
-928.1539917000001
 53
243.43499756
 43
8.79999995
 44
186.80000305
 45
-0.00064346
 46
-296.4731053999999
 79
     2
 49
6.629999879999999
 49
-656.3040161099999
 53
206.56500244
 43
6.00000024
 44
180.79999924
 45
-296.47335758
 46
-296.47195758
 79
     2
 49
6.629999879999999
 49
-656.3040161099999
 53
225.0
 43
296.3999939
 44
177.80000687
 45
-0.0000000000000533
 46
-296.47290887
 79
     2
 49
4.192000029999999
 49
-415.08201599
 53
135.0
 43
281.59999847
 44
175.0
 45
-296.47290887
 46
0.0000000000000355
 79
     2
 49
8.385999799999998
 49
-410.8900070199999
 53
123.69010162
 43
275.79999924
 44
180.79999924
 45
-296.47245153
 46
296.47320692
 79
     2
 49
10.69000006
 49
-1058.25798035
 53
116.56500244
 43
269.79999542
 44
189.79999542
 45
-296.47195758
 46
296.47335758
 79
     2
 49
6.629999879999999
 49
-656.3040161099999
 53
108.43499756
 43
266.80000305
 44
195.59999466
 45
-296.47225602
 46
592.9451390299999
 79
     2
 49
9.376000169999999
 49
-928.1539917000001
 53
153.43499756
 43
243.19999695
 44
216.3999939
 45
-296.4731053999999
 46
0.00064346
 79
     2
 49
6.629999879999999
 49
-656.3040161099999
 53
123.69010162
 43
237.19999313
 44
219.40000534
 45
-296.47245153
 46
296.47320692
 79
     2
 49
10.69000006
 49
-1058.25798035
 53
90.0
 43
231.20000839
 44
228.19999695
 45
-296.47199631
 46
0.0000000000000182
 79
     2
 49
5.92999995
 49
-290.5439949
 53
45.0
 43
231.20000839
 44
234.20000076
 45
0.0000000000000355
 46
296.47290887
 79
     2
 49
4.192000029999999
 49
-415.08201599
 53
26.56509972
 43
234.20000076
 44
237.19999313
 45
296.47285424
 46
296.47246092
 79
     2
 49
6.629999879999999
 49
-656.3040161099999
 53
345.9637146
 43
240.20000458
 44
240.20000458
 45
296.47214391
 46
0.00075448
 79
     2
 49
12.2239995
 49
-1210.16403198
 53
315.0
 43
252.00000763
 44
237.19999313
 45
296.47290887
 46
-0.0000000000000711
 79
     2
 49
8.385999799999998
 49
-410.8900070199999
 53
270.0
 43
257.99999237
 44
231.20000839
 45
296.47199631
 46
-0.0000000000000545
 79
     2
 49
8.89400005
 49
-287.57799149
 53
243.43499756
 43
257.99999237
 44
222.39999771
 45
-0.00064346
 46
-296.4731053999999
 79
     2
 49
6.629999879999999
 49
-656.3040161099999
 53
206.56500244
 43
255.0
 44
216.3999939
 45
-296.47335758
 46
-296.47195758
 79
     2
 49
6.629999879999999
 49
-656.3040161099999
 53
153.43499756
 43
248.99999619
 44
213.40000153
 45
-296.4731053999999
 46
0.00064346
 79
     2
 49
6.629999879999999
 49
-656.3040161099999
 53
198.43499756
 43
14.80000019
 44
219.40000534
 45
-592.9451390299999
 46
-296.47225602
 79
     2
 49
9.376000169999999
 49
-928.1539917000001
 53
180.0
 43
6.00000024
 44
216.3999939
 45
-0.0000000000000363
 46
-296.47199631
 79
     2
 49
5.92999995
 49
-290.5439949
 53
180.0
 43
296.3999939
 44
216.3999939
 45
-0.0000000000000363
 46
-296.47199631
 79
     2
 49
2.96400011
 49
-293.50799561
 53
153.43499756
 43
293.6000061000001
 44
216.3999939
 45
-296.4731053999999
 46
0.00064346
 79
     2
 49
6.629999879999999
 49
-656.3040161099999
 53
180.0
 43
287.60000229
 44
219.40000534
 45
-0.0000000000000363
 46
-296.47199631
 79
     2
 49
5.92999995
 49
-290.5439949
 53
198.43499756
 43
281.59999847
 44
219.40000534
 45
-592.9451390299999
 46
-296.47225602
 79
     2
 49
9.376000169999999
 49
-928.1539917000001
 53
180.0
 43
272.80000687
 44
216.3999939
 45
-0.0000000000000363
 46
-296.47199631
 79
     2
 49
8.89400005
 49
-287.57799149
 53
135.0
 43
263.79999161
 44
216.3999939
 45
-296.47290887
 46
0.0000000000000355
 79
     2
 49
4.192000029999999
 49
-415.08201599
 53
135.0
 43
260.79999924
 44
219.40000534
 45
-296.47290887
 46
0.0000000000000355
 79
     2
 49
4.192000029999999
 49
-415.08201599
 53
90.0
 43
257.99999237
 44
222.39999771
 45
-296.47199631
 46
0.0000000000000182
 79
     2
 49
2.96400011
 49
-293.50799561
 53
45.0
 43
257.99999237
 44
225.40000916
 45
0.0000000000000355
 46
296.47290887
 79
     2
 49
8.385999799999998
 49
-410.8900070199999
 53
26.56509972
 43
263.79999161
 44
231.20000839
 45
296.47285424
 46
296.47246092
 79
     2
 49
6.629999879999999
 49
-656.3040161099999
 53
14.03619957
 43
269.79999542
 44
234.20000076
 45
889.4166912599999
 46
296.47244202
 79
     2
 49
12.2239995
 49
-1210.16403198
 53
0.0
 43
281.59999847
 44
237.19999313
 45
0.0
 46
296.47199631
 79
     2
 49
8.89400005
 49
-287.57799149
 53
333.43490601
 43
290.59999466
 44
237.19999313
 45
296.4731053999999
 46
-0.0011172
 79
     2
 49
6.629999879999999
 49
-656.3040161099999
 53
0.0
 43
0.0
 44
234.20000076
 45
0.0
 46
296.47199631
 79
     2
 49
2.96400011
 49
-293.50799561
 53
0.0
 43
3.00000012
 44
234.20000076
 45
0.0
 46
296.47199631
 79
     2
 49
2.96400011
 49
-293.50799561
 53
341.56509399
 43
6.00000024
 44
234.20000076
 45
296.47174563
 46
-0.00040573
 79
     2
 49
9.376000169999999
 49
-928.1539917000001
 53
315.0
 43
14.80000019
 44
231.20000839
 45
296.47290887
 46
-0.0000000000000711
 79
     2
 49
4.192000029999999
 49
-415.08201599
 53
270.0
 43
17.79999971
 44
228.19999695
 45
296.47199631
 46
-0.0000000000000545
 79
     2
 49
5.92999995
 49
-290.5439949
 53
225.0
 43
17.79999971
 44
222.39999771
 45
-0.0000000000000533
 46
-296.47290887
 79
     2
 49
4.192000029999999
 49
-415.08201599
 53
161.56500244
 43
281.59999847
 44
237.19999313
 45
-296.47174563
 46
0.00087946
 79
     2
 49
9.376000169999999
 49
-928.1539917000001
 53
135.0
 43
272.80000687
 44
240.20000458
 45
-296.47290887
 46
0.0000000000000355
 79
     2
 49
4.192000029999999
 49
-415.08201599
 53
116.56500244
 43
269.79999542
 44
243.19999695
 45
-296.47195758
 46
296.47335758
 79
     2
 49
6.629999879999999
 49
-656.3040161099999
 53
90.0
 43
266.80000305
 44
248.99999619
 45
-296.47199631
 46
0.0000000000000182
 79
     2
 49
5.92999995
 49
-290.5439949
 53
63.43489838
 43
266.80000305
 44
255.0
 45
0.00115667
 46
296.4731053999999
 79
     2
 49
6.629999879999999
 49
-656.3040161099999
 53
33.69010162
 43
269.79999542
 44
260.79999924
 45
296.47320692
 46
296.47245153
 79
     2
 49
10.69000006
 49
-1058.25798035
 53
0.0
 43
278.6000061
 44
266.80000305
 45
0.0
 46
296.47199631
 79
     2
 49
11.85799956
 49
-284.61399078
 53
333.43490601
 43
290.59999466
 44
266.80000305
 45
296.4731053999999
 46
-0.0011172
 79
     2
 49
6.629999879999999
 49
-656.3040161099999
 53
0.0
 43
0.0
 44
263.79999161
 45
0.0
 46
296.47199631
 79
     2
 49
2.96400011
 49
-293.50799561
 53
326.30990601
 43
3.00000012
 44
263.79999161
 45
592.9449951399999
 46
-296.47367579
 79
     2
 49
10.69000006
 49
-1058.25798035
 53
296.56509399
 43
11.79999948
 44
257.99999237
 45
296.47243131
 46
-296.47288385
 79
     2
 49
6.629999879999999
 49
-656.3040161099999
 53
251.56500244
 43
14.80000019
 44
252.00000763
 45
-0.00087946
 46
-296.47174563
 79
     2
 49
9.376000169999999
 49
-928.1539917000001
 53
225.0
 43
8.79999995
 44
237.19999313
 45
-0.0000000000000533
 46
-296.47290887
 79
     2
 49
4.192000029999999
 49
-415.08201599
 53
180.0
 43
6.00000024
 44
234.20000076
 45
-0.0000000000000363
 46
-296.47199631
 79
     2
 49
2.96400011
 49
-293.50799561
 53
153.43499756
 43
296.3999939
 44
234.20000076
 45
-296.4731053999999
 46
0.00064346
 79
     2
 49
6.629999879999999
 49
-656.3040161099999
 53
180.0
 43
3.00000012
 44
234.20000076
 45
-0.0000000000000363
 46
-296.47199631
 79
     2
 49
2.96400011
 49
-293.50799561
 53
180.0
 43
290.59999466
 44
237.19999313
 45
-0.0000000000000363
 46
-296.47199631
 79
     2
 49
8.89400005
 49
-287.57799149
 53
90.0
 43
228.19999695
 44
243.19999695
 45
-296.47199631
 46
0.0000000000000182
 79
     2
 49
2.96400011
 49
-293.50799561
 53
45.0
 43
228.19999695
 44
246.00000381
 45
0.0000000000000355
 46
296.47290887
 79
     2
 49
4.192000029999999
 49
-415.08201599
 53
18.43490028
 43
231.20000839
 44
248.99999619
 45
592.9456423699999
 46
296.47124934
 79
     2
 49
9.376000169999999
 49
-928.1539917000001
 53
345.9637146
 43
240.20000458
 44
252.00000763
 45
296.47214391
 46
0.00075448
 79
     2
 49
12.2239995
 49
-1210.16403198
 53
0.0
 43
252.00000763
 44
248.99999619
 45
0.0
 46
296.47199631
 79
     2
 49
14.8239994
 49
-281.64800644
 53
296.56509399
 43
266.80000305
 44
248.99999619
 45
296.47243131
 46
-296.47288385
 79
     2
 49
6.629999879999999
 49
-656.3040161099999
 53
270.0
 43
269.79999542
 44
243.19999695
 45
296.47199631
 46
-0.0000000000000545
 79
     2
 49
2.96400011
 49
-293.50799561
 53
225.0
 43
269.79999542
 44
240.20000458
 45
-0.0000000000000533
 46
-296.47290887
 79
     2
 49
4.192000029999999
 49
-415.08201599
 53
180.0
 43
266.80000305
 44
237.19999313
 45
-0.0000000000000363
 46
-296.47199631
 79
     2
 49
14.8239994
 49
-281.64800644
 53
165.96380615
 43
252.00000763
 44
237.19999313
 45
-296.47214391
 46
-0.00122822
 79
     2
 49
12.2239995
 49
-1210.16403198
 53
206.56500244
 43
240.20000458
 44
240.20000458
 45
-296.47335758
 46
-296.47195758
 79
     2
 49
6.629999879999999
 49
-656.3040161099999
 53
135.0
 43
234.20000076
 44
237.19999313
 45
-296.47290887
 46
0.0000000000000355
 79
     2
 49
4.192000029999999
 49
-415.08201599
 53
135.0
 43
231.20000839
 44
240.20000458
 45
-296.47290887
 46
0.0000000000000355
 79
     2
 49
4.192000029999999
 49
-415.08201599
 53
180.0
 43
160.0
 44
284.5999908399999
 45
-0.0000000000000363
 46
-296.47199631
 79
     2
 49
2.96400011
 49
-293.50799561
 53
225.0
 43
157.20000267
 44
284.5999908399999
 45
-0.0000000000000533
 46
-296.47290887
 79
     2
 49
4.192000029999999
 49
-415.08201599
 53
270.0
 43
154.20000076
 44
281.59999847
 45
296.47199631
 46
-0.0000000000000545
 79
     2
 49
2.96400011
 49
-293.50799561
 53
270.0
 43
154.20000076
 44
278.6000061
 45
296.47199631
 46
-0.0000000000000545
 79
     2
 49
2.96400011
 49
-293.50799561
 53
315.0
 43
154.20000076
 44
275.79999924
 45
296.47290887
 46
-0.0000000000000711
 79
     2
 49
4.192000029999999
 49
-415.08201599
 53
0.0
 43
157.20000267
 44
272.80000687
 45
0.0
 46
296.47199631
 79
     2
 49
2.96400011
 49
-293.50799561
 53
0.0
 43
160.0
 44
272.80000687
 45
0.0
 46
296.47199631
 79
     2
 49
2.96400011
 49
-293.50799561
 53
333.43490601
 43
162.99999237
 44
272.80000687
 45
296.4731053999999
 46
-0.0011172
 79
     2
 49
6.629999879999999
 49
-656.3040161099999
 53
0.0
 43
168.99999619
 44
269.79999542
 45
0.0
 46
296.47199631
 79
     2
 49
2.96400011
 49
-293.50799561
 53
0.0
 43
172.00000763
 44
269.79999542
 45
0.0
 46
296.47199631
 79
     2
 49
2.96400011
 49
-293.50799561
 53
45.0
 43
175.0
 44
269.79999542
 45
0.0000000000000355
 46
296.47290887
 79
     2
 49
4.192000029999999
 49
-415.08201599
 53
63.43489838
 43
177.80000687
 44
272.80000687
 45
0.00115667
 46
296.4731053999999
 79
     2
 49
6.629999879999999
 49
-656.3040161099999
 53
135.0
 43
180.79999924
 44
278.6000061
 45
-296.47290887
 46
0.0000000000000355
 79
     2
 49
4.192000029999999
 49
-415.08201599
 53
180.0
 43
177.80000687
 44
281.59999847
 45
-0.0000000000000363
 46
-296.47199631
 79
     2
 49
2.96400011
 49
-293.50799561
 53
90.0
 43
195.59999466
 44
287.60000229
 45
-296.47199631
 46
0.0000000000000182
 79
     2
 49
2.96400011
 49
-293.50799561
 53
135.0
 43
195.59999466
 44
290.59999466
 45
-296.47290887
 46
0.0000000000000355
 79
     2
 49
4.192000029999999
 49
-415.08201599
 53
165.96380615
 43
192.80000687
 44
293.6000061000001
 45
-296.47214391
 46
-0.00122822
 79
     2
 49
12.2239995
 49
-1210.16403198
 53
225.0
 43
160.0
 44
296.3999939
 45
-0.0000000000000533
 46
-296.47290887
 79
     2
 49
4.192000029999999
 49
-415.08201599
 53
270.0
 43
157.20000267
 44
293.6000061000001
 45
296.47199631
 46
-0.0000000000000545
 79
     2
 49
2.96400011
 49
-293.50799561
 53
270.0
 43
157.20000267
 44
290.59999466
 45
296.47199631
 46
-0.0000000000000545
 79
     2
 49
2.96400011
 49
-293.50799561
 53
315.0
 43
157.20000267
 44
287.60000229
 45
296.47290887
 46
-0.0000000000000711
 79
     2
 49
4.192000029999999
 49
-415.08201599
 53
0.0
 43
160.0
 44
284.5999908399999
 45
0.0
 46
296.47199631
 79
     2
 49
8.89400005
 49
-287.57799149
 53
341.56509399
 43
168.99999619
 44
284.5999908399999
 45
296.47174563
 46
-0.00040573
 79
     2
 49
9.376000169999999
 49
-928.1539917000001
 53
0.0
 43
177.80000687
 44
281.59999847
 45
0.0
 46
296.47199631
 79
     2
 49
5.92999995
 49
-290.5439949
 53
26.56509972
 43
183.79999161
 44
281.59999847
 45
296.47285424
 46
296.47246092
 79
     2
 49
6.629999879999999
 49
-656.3040161099999
 53
45.0
 43
263.79999161
 44
272.80000687
 45
0.0000000000000355
 46
296.47290887
 79
     2
 49
4.192000029999999
 49
-415.08201599
 53
206.56500244
 43
263.79999161
 44
272.80000687
 45
-296.47335758
 46
-296.47195758
 79
     2
 49
6.629999879999999
 49
-656.3040161099999
 53
206.56500244
 43
257.99999237
 44
269.79999542
 45
-296.47335758
 46
-296.47195758
 79
     2
 49
6.629999879999999
 49
-656.3040161099999
 53
206.56500244
 43
252.00000763
 44
266.80000305
 45
-296.47335758
 46
-296.47195758
 79
     2
 49
6.629999879999999
 49
-656.3040161099999
 53
206.56500244
 43
246.00000381
 44
263.79999161
 45
-296.47335758
 46
-296.47195758
 79
     2
 49
6.629999879999999
 49
-656.3040161099999
 53
243.43499756
 43
240.20000458
 44
260.79999924
 45
-0.00064346
 46
-296.4731053999999
 79
     2
 49
6.629999879999999
 49
-656.3040161099999
 53
225.0
 43
237.19999313
 44
255.0
 45
-0.0000000000000533
 46
-296.47290887
 79
     2
 49
4.192000029999999
 49
-415.08201599
 53
225.0
 43
234.20000076
 44
252.00000763
 45
-0.0000000000000533
 46
-296.47290887
 79
     2
 49
4.192000029999999
 49
-415.08201599
 53
180.0
 43
231.20000839
 44
248.99999619
 45
-0.0000000000000363
 46
-296.47199631
 79
     2
 49
5.92999995
 49
-290.5439949
 53
135.0
 43
225.40000916
 44
248.99999619
 45
-296.47290887
 46
0.0000000000000355
 79
     2
 49
4.192000029999999
 49
-415.08201599
 53
153.43499756
 43
222.39999771
 44
252.00000763
 45
-296.4731053999999
 46
0.00064346
 79
     2
 49
6.629999879999999
 49
-656.3040161099999
 53
161.56500244
 43
216.3999939
 44
255.0
 45
-296.47174563
 46
0.00087946
 79
     2
 49
9.376000169999999
 49
-928.1539917000001
 53
161.56500244
 43
207.60000229
 44
257.99999237
 45
-296.47174563
 46
0.00087946
 79
     2
 49
9.376000169999999
 49
-928.1539917000001
 53
198.43499756
 43
198.6000061
 44
260.79999924
 45
-592.9451390299999
 46
-296.47225602
 79
     2
 49
9.376000169999999
 49
-928.1539917000001
 53
153.43499756
 43
189.79999542
 44
257.99999237
 45
-296.4731053999999
 46
0.00064346
 79
     2
 49
6.629999879999999
 49
-656.3040161099999
 53
135.0
 43
183.79999161
 44
260.79999924
 45
-296.47290887
 46
0.0000000000000355
 79
     2
 49
4.192000029999999
 49
-415.08201599
 53
116.56500244
 43
180.79999924
 44
263.79999161
 45
-296.47195758
 46
296.47335758
 79
     2
 49
6.629999879999999
 49
-656.3040161099999
 53
90.0
 43
177.80000687
 44
269.79999542
 45
-296.47199631
 46
0.0000000000000182
 79
     2
 49
2.96400011
 49
-293.50799561
 53
63.43489838
 43
177.80000687
 44
272.80000687
 45
0.00115667
 46
296.4731053999999
 79
     2
 49
6.629999879999999
 49
-656.3040161099999
 53
45.0
 43
180.79999924
 44
278.6000061
 45
0.0000000000000355
 46
296.47290887
 79
     2
 49
4.192000029999999
 49
-415.08201599
 53
18.43490028
 43
183.79999161
 44
281.59999847
 45
592.9456423699999
 46
296.47124934
 79
     2
 49
9.376000169999999
 49
-928.1539917000001
 53
26.56509972
 43
192.80000687
 44
284.5999908399999
 45
296.47285424
 46
296.47246092
 79
     2
 49
6.629999879999999
 49
-656.3040161099999
 53
33.69010162
 43
198.6000061
 44
287.60000229
 45
296.47320692
 46
296.47245153
 79
     2
 49
10.69000006
 49
-1058.25798035
 53
45.0
 43
207.60000229
 44
293.6000061000001
 45
0.0000000000000355
 46
296.47290887
 79
     2
 49
4.192000029999999
 49
-415.08201599
 53
63.43489838
 43
210.40000916
 44
0.0
 45
0.00115667
 46
296.4731053999999
 79
     2
 49
6.629999879999999
 49
-656.3040161099999
 53
45.0
 43
213.40000153
 44
6.00000024
 45
0.0000000000000355
 46
296.47290887
 79
     2
 49
4.192000029999999
 49
-415.08201599
 53
26.56509972
 43
216.3999939
 44
8.79999995
 45
296.47285424
 46
296.47246092
 79
     2
 49
6.629999879999999
 49
-656.3040161099999
 53
26.56509972
 43
222.39999771
 44
11.79999948
 45
296.47285424
 46
296.47246092
 79
     2
 49
6.629999879999999
 49
-656.3040161099999
 53
345.9637146
 43
228.19999695
 44
14.80000019
 45
296.47214391
 46
0.00075448
 79
     2
 49
12.2239995
 49
-1210.16403198
 53
341.56509399
 43
240.20000458
 44
11.79999948
 45
296.47174563
 46
-0.00040573
 79
     2
 49
9.376000169999999
 49
-928.1539917000001
 53
326.30990601
 43
248.99999619
 44
8.79999995
 45
592.9449951399999
 46
-296.47367579
 79
     2
 49
10.69000006
 49
-1058.25798035
 53
315.0
 43
257.99999237
 44
3.00000012
 45
296.47290887
 46
-0.0000000000000711
 79
     2
 49
4.192000029999999
 49
-415.08201599
 53
315.0
 43
260.79999924
 44
296.3999939
 45
296.47290887
 46
-0.0000000000000711
 79
     2
 49
4.192000029999999
 49
-415.08201599
 53
296.56509399
 43
263.79999161
 44
293.6000061000001
 45
296.47243131
 46
-296.47288385
 79
     2
 49
6.629999879999999
 49
-656.3040161099999
 53
270.0
 43
266.80000305
 44
287.60000229
 45
296.47199631
 46
-0.0000000000000545
 79
     2
 49
5.92999995
 49
-290.5439949
 53
270.0
 43
266.80000305
 44
281.59999847
 45
296.47199631
 46
-0.0000000000000545
 79
     2
 49
5.92999995
 49
-290.5439949
 47
0.775229
 98
        1
 10
0.0
 20
0.0
  0
LWPOLYLINE
  5
B6
330
5D
100
AcDbEntity
  8
Ech.1_5
  6
Continuous
 62
     7
370
    -3
100
AcDbPolyline
 90
        4
 70
     0
 43
0.0
 10
36539.99577507
 20
10851.66992194
 10
36444.99577507
 20
10806.66992194
 10
36444.99577507
 20
10851.66992194
 10
36539.99577507
 20
10806.66992194
  0
LWPOLYLINE
  5
B7
330
5D
100
AcDbEntity
  8
Ech.1_5
 62
     7
100
AcDbPolyline
 90
        5
 70
     0
 43
0.0
 10
36150.96217915001
 20
11218.81761329
 10
36285.39095814
 20
11218.81761329
 10
36285.39095814
 20
11162.09465447
 10
36150.96217915001
 20
11162.09465447
 10
36150.96217915001
 20
11218.81761329
  0
LWPOLYLINE
  5
B8
330
5D
100
AcDbEntity
  8
Ech.1_5
 62
     7
100
AcDbPolyline
 90
        5
 70
     0
 43
0.0
 10
36169.24222494
 20
11185.16080216
 10
36219.24222494
 20
11185.16080216
 10
36219.24222494
 20
11192.57593969
 10
36169.24222494
 20
11192.57593969
 10
36169.24222494
 20
11185.16080216
  0
LWPOLYLINE
  5
B9
330
5D
100
AcDbEntity
  8
Ech.1_5
 62
     7
100
AcDbPolyline
 90
        5
 70
     0
 43
0.0
 10
36219.24222494
 20
11185.16080216
 10
36269.24222494
 20
11185.16080216
 10
36269.24222494
 20
11192.57593969
 10
36219.24222494
 20
11192.57593969
 10
36219.24222494
 20
11185.16080216
  0
LWPOLYLINE
  5
BA
330
5D
100
AcDbEntity
  8
Ech.1_5
  6
Continuous
 62
     7
370
    -3
100
AcDbPolyline
 90
        4
 70
     1
 43
0.0
 10
36435.99577507
 20
11256.67030142
 10
36444.99577507
 20
11256.67030142
 10
36444.99577507
 20
10816.66992194
 10
36435.99577507
 20
10816.66992194
  0
HATCH
  5
BB
330
5D
100
AcDbEntity
  8
Ech.1_5
  6
Continuous
 62
     7
100
AcDbHatch
 10
0.0
 20
0.0
 30
0.0
210
0.0
220
0.0
230
1.0
  2
CDWK10A
 70
     0
 71
     0
 91
        1
 92
        7
 72
     0
 73
     1
 93
        4
 10
36435.99577507
 20
11256.67030142
 10
36444.99577507
 20
11256.67030142
 10
36444.99577507
 20
10816.66992194
 10
36435.99577507
 20
10816.66992194
 97
        0
 75
     0
 76
     2
 52
0.0
 41
1.0
 77
     0
 78
     3
 53
45.0
 43
0.0
 44
0.0
 45
0.0
 46
42.00000167
 79
     0
 53
45.0
 43
0.0
 44
10.80000043
 45
0.0
 46
42.00000167
 79
     0
 53
45.0
 43
0.0
 44
21.60000086
 45
0.0
 46
42.00000167
 79
     0
 47
0.775229
 98
        1
 10
0.0
 20
0.0
  0
LINE
  5
BC
330
5D
100
AcDbEntity
  8
Ech.1_5
  6
Continuous
 62
     7
370
    -3
100
AcDbLine
 10
36539.99577507
 20
11211.7205564
 30
0.0
 11
36539.99577507
 21
10851.66923983
 31
0.0
  0
LWPOLYLINE
  5
C9
330
5D
100
AcDbEntity
  8
Ech.1_5
  6
Continuous
 62
     7
370
    -3
100
AcDbPolyline
 90
        5
 70
     0
 43
0.0
 10
36539.99577507
 20
10806.66992194
 10
36444.99577507
 20
10806.66992194
 10
36444.99577507
 20
10851.66992194
 10
36539.99577507
 20
10851.66992194
 10
36539.99577507
 20
10806.66992194
  0
LWPOLYLINE
  5
CA
330
5D
100
AcDbEntity
  8
Ech.1_5
  6
Continuous
 62
     9
370
    -3
100
AcDbPolyline
 90
        6
 70
     0
 43
0.0
 10
36907.77463937
 20
10251.9844876
 10
36907.77463937
 20
10664.03335977
 10
36889.79729096
 20
10680.51886293
 10
36925.75299097
 20
10666.40892291
 10
36907.77463937
 20
10682.89527699
 10
36907.77450216
 20
10920.67026951
  0
LWPOLYLINE
  5
CB
330
5D
100
AcDbEntity
  8
Ech.1_5
  6
Continuous
 62
     9
370
    -3
100
AcDbPolyline
 90
        6
 70
     0
 43
0.0
 10
36067.97592413
 20
10251.9844876
 10
36067.97592413
 20
10664.03335977
 10
36049.99857572
 20
10680.51886293
 10
36085.95427573
 20
10666.40892291
 10
36067.97592413
 20
10682.89527699
 10
36067.97578692
 20
10920.67026951
  0
LWPOLYLINE
  5
CC
330
5D
100
AcDbEntity
  8
Ech.1_5
  6
Continuous
 62
     9
370
    -3
100
AcDbPolyline
 90
        6
 70
     0
 43
0.0
 10
36710.86919583
 20
10560.80453691
 10
36509.91269429
 20
10513.44974541
 10
36498.64180118
 20
10491.81819811
 10
36502.96493671
 20
10530.20065856
 10
36491.69348132
 20
10509.15645589
 10
36270.53922808
 20
10457.04228164
  0
LWPOLYLINE
  5
CD
102
{ACAD_REACTORS
330
CE
102
}
330
5D
100
AcDbEntity
  8
Ech.1_5
  6
Continuous
 62
     9
370
    -3
100
AcDbPolyline
 90
       10
 70
     1
 43
0.0
 38
2500.0
 39
-2500.0
 10
36581.30392765
 20
10626.66996535
 10
36403.68659849
 20
10626.66996535
 10
36392.49528116
 20
10626.66996535
 10
36392.49528116
 20
10485.78077031
 10
36491.69348132
 20
10509.15645589
 10
36502.96493671
 20
10530.20065856
 10
36498.64180118
 20
10491.81819811
 10
36509.91269429
 20
10513.44974541
 10
36592.49557046
 20
10532.93615802
 10
36592.49557046
 20
10626.66996535
  0
HATCH
  5
CE
330
5D
100
AcDbEntity
  8
Ech.1_5
  6
Continuous
 62
     9
100
AcDbHatch
 10
0.0
 20
0.0
 30
0.0
210
0.0
220
0.0
230
1.0
  2
AR-CONC
 70
     0
 71
     1
 91
        1
 92
        7
 72
     0
 73
     1
 93
        7
 10
36392.49528116
 20
10485.78077031
 10
36491.69348132
 20
10509.15645589
 10
36502.96493671
 20
10530.20065856001
 10
36500.83702424494
 20
10511.30823303586
 10
36592.49557046
 20
10532.93615802
 10
36592.49557046001
 20
10626.66996535
 10
36392.49528116001
 20
10626.66996535
 97
        1
330
CD
 75
     0
 76
     2
 52
5.0
 41
0.11811097
 77
     0
 78
    13
 53
50.0
 43
0.0
 44
0.0
 45
-18.84283637
 46
1.648534429999999
 79
     2
 49
1.97029307
 49
-21.67322338
 53
355.0
 43
0.0
 44
0.0
 45
-3.645077559999999
 46
19.76051824
 79
     2
 49
1.576233769999999
 49
-17.3385787
 53
100.45140076
 43
1.570235679999999
 44
-0.13737749
 45
-15.19777228
 46
-18.11197244
 79
     2
 49
1.67449124
 49
-18.41940522
 53
46.18420029
 43
0.0
 44
5.25411576
 45
-28.03703353
 46
4.34827878
 79
     2
 49
2.95543872
 49
-32.50983238
 53
96.63559723
 43
2.336418849999999
 44
4.891756919999999
 45
-24.55412615
 46
-25.59063404
 79
     2
 49
2.511736969999999
 49
-27.62910426
 53
351.1842041
 43
0.0
 44
5.25411576
 45
24.55410288
 46
25.59065715
 79
     2
 49
2.364352489999999
 49
-26.00786805
 53
21.0
 43
2.627056989999999
 44
3.94058615
 45
-15.68109068
 46
10.57702905
 79
     2
 49
1.97029307
 49
-21.67322338
 53
326.0
 43
2.627056989999999
 44
3.94058615
 45
6.392032679999999
 46
19.05010734
 79
     2
 49
1.576233769999999
 49
-17.3385787
 53
71.45140076
 43
3.933813569999999
 44
3.059165549999999
 45
-22.07312962
 46
-8.473061819999999
 79
     2
 49
1.67449124
 49
-18.41940522
 53
37.5
 43
0.0
 44
0.0
 45
0.31944534
 46
8.74531245
 79
     6
 49
0.01875
 49
-17.12841332
 49
0.01875
 49
-17.60128498
 49
0.01875
 49
-17.40425348
 53
7.499999999999999
 43
0.0
 44
0.0
 45
6.91098818
 46
10.3614222
 79
     6
 49
0.01875
 49
-10.03535807
 49
0.01875
 49
-16.7343539
 49
0.01875
 49
-6.633320599999999
 53
-32.5
 43
-5.858338329999999
 44
0.0
 45
14.02382061
 46
-0.59253003
 79
     6
 49
0.01875
 49
-6.56764314
 49
0.01875
 49
-20.49104869
 49
0.01875
 49
-27.19004452
 53
-42.5
 43
-8.485395309999999
 44
0.0
 45
15.32063571
 46
2.629815419999999
 79
     6
 49
0.01875
 49
-8.537936209999999
 49
0.01875
 49
-13.60815793
 49
0.01875
 49
-19.30887222
 47
0.775229
 98
        1
 10
0.0
 20
0.0
  0
LWPOLYLINE
  5
CF
330
5D
100
AcDbEntity
  8
Ech.1_5
  6
Continuous
 62
     9
370
    -3
100
AcDbPolyline
 90
        6
 70
     0
 43
0.0
 10
36710.86919583
 20
10555.84628059
 10
36511.26971812
 20
10508.85510253
 10
36492.85320637
 20
10473.50939911
 10
36497.21826821
 20
10512.26409748
 10
36492.87377131
 20
10504.51445731
 10
36270.53922808
 20
10452.08416735
  0
LWPOLYLINE
  5
D0
102
{ACAD_REACTORS
330
D1
102
}
330
5D
100
AcDbEntity
  8
Ech.1_5
  6
Continuous
 62
     9
370
    -3
100
AcDbPolyline
 90
        8
 70
     1
 43
0.0
 38
2500.0
 39
-2500.0
 10
36592.49561803
 20
10378.76630395
 10
36592.49561803
 20
10527.97790169
 10
36511.26971812
 20
10508.85510253
 10
36492.85320637
 20
10473.50939911
 10
36497.21826821
 20
10512.26409748
 10
36492.87377131
 20
10504.51445731
 10
36392.49528116
 20
10480.8226409
 10
36392.49528116
 20
10378.76630395
  0
HATCH
  5
D1
330
5D
100
AcDbEntity
  8
Ech.1_5
  6
Continuous
 62
     9
100
AcDbHatch
 10
0.0
 20
0.0
 30
0.0
210
0.0
220
0.0
230
1.0
  2
AR-CONC
 70
     0
 71
     1
 91
        1
 92
        7
 72
     0
 73
     1
 93
        7
 10
36392.49528116
 20
10378.76630395
 10
36592.49561803
 20
10378.76630395
 10
36592.49561803
 20
10527.97790168999
 10
36511.26971811999
 20
10508.85510253
 10
36492.85320636999
 20
10473.50939910999
 10
36496.44021324626
 20
10505.35622617367
 10
36392.49528116
 20
10480.8226409
 97
        1
330
D0
 75
     0
 76
     2
 52
45.0
 41
0.11811097
 77
     0
 78
    13
 53
50.0
 43
0.0
 44
0.0
 45
-18.84283637
 46
1.648534429999999
 79
     2
 49
1.97029307
 49
-21.67322338
 53
355.0
 43
0.0
 44
0.0
 45
-3.645077559999999
 46
19.76051824
 79
     2
 49
1.576233769999999
 49
-17.3385787
 53
100.45140076
 43
1.570235679999999
 44
-0.13737749
 45
-15.19777228
 46
-18.11197244
 79
     2
 49
1.67449124
 49
-18.41940522
 53
46.18420029
 43
0.0
 44
5.25411576
 45
-28.03703353
 46
4.34827878
 79
     2
 49
2.95543872
 49
-32.50983238
 53
96.63559723
 43
2.336418849999999
 44
4.891756919999999
 45
-24.55412615
 46
-25.59063404
 79
     2
 49
2.511736969999999
 49
-27.62910426
 53
351.1842041
 43
0.0
 44
5.25411576
 45
24.55410288
 46
25.59065715
 79
     2
 49
2.364352489999999
 49
-26.00786805
 53
21.0
 43
2.627056989999999
 44
3.94058615
 45
-15.68109068
 46
10.57702905
 79
     2
 49
1.97029307
 49
-21.67322338
 53
326.0
 43
2.627056989999999
 44
3.94058615
 45
6.392032679999999
 46
19.05010734
 79
     2
 49
1.576233769999999
 49
-17.3385787
 53
71.45140076
 43
3.933813569999999
 44
3.059165549999999
 45
-22.07312962
 46
-8.473061819999999
 79
     2
 49
1.67449124
 49
-18.41940522
 53
37.5
 43
0.0
 44
0.0
 45
0.31944534
 46
8.74531245
 79
     6
 49
0.01875
 49
-17.12841332
 49
0.01875
 49
-17.60128498
 49
0.01875
 49
-17.40425348
 53
7.499999999999999
 43
0.0
 44
0.0
 45
6.91098818
 46
10.3614222
 79
     6
 49
0.01875
 49
-10.03535807
 49
0.01875
 49
-16.7343539
 49
0.01875
 49
-6.633320599999999
 53
-32.5
 43
-5.858338329999999
 44
0.0
 45
14.02382061
 46
-0.59253003
 79
     6
 49
0.01875
 49
-6.56764314
 49
0.01875
 49
-20.49104869
 49
0.01875
 49
-27.19004452
 53
-42.5
 43
-8.485395309999999
 44
0.0
 45
15.32063571
 46
2.629815419999999
 79
     6
 49
0.01875
 49
-8.537936209999999
 49
0.01875
 49
-13.60815793
 49
0.01875
 49
-19.30887222
 47
0.775229
 98
        1
 10
0.0
 20
0.0
  0
LWPOLYLINE
  5
D2
102
{ACAD_REACTORS
330
D3
102
}
330
5D
100
AcDbEntity
  8
Ech.1_5
  6
Continuous
 62
     9
370
    -3
100
AcDbPolyline
 90
        8
 70
     1
 43
0.0
 10
36907.77431389
 20
10682.89527701
 10
36907.77431389
 20
10766.66808343
 10
36692.49557046
 20
10766.66970125
 10
36692.49557046
 20
10571.66985945
 10
36907.77431389
 20
10571.66948686
 10
36907.77431389
 20
10664.03335977
 10
36889.79696548
 20
10680.51886293
 10
36925.75266549
 20
10666.40892291
  0
HATCH
  5
D3
330
5D
100
AcDbEntity
  8
Ech.1_5
  6
Continuous
 62
     9
100
AcDbHatch
 10
0.0
 20
0.0
 30
0.0
210
0.0
220
0.0
230
1.0
  2
ANSI31
 70
     0
 71
     1
 91
        1
 92
        7
 72
     0
 73
     1
 93
        7
 10
36692.49557046
 20
10571.66985945
 10
36907.77431388999
 20
10571.66948686
 10
36907.77431389
 20
10664.03335977
 10
36889.79696548
 20
10680.51886292999
 10
36907.77431389
 20
10673.46408975875
 10
36907.77431389001
 20
10766.66808343
 10
36692.49557046
 20
10766.66970125
 97
        1
330
D2
 75
     0
 76
     2
 52
5.0
 41
6.299252099999999
 77
     0
 78
     1
 53
50.0
 43
0.0
 44
0.0
 45
15.32088886
 46
-12.85575219
 79
     0
 47
0.775229
 98
        1
 10
0.0
 20
0.0
  0
LWPOLYLINE
  5
D4
102
{ACAD_REACTORS
330
D5
102
}
330
5D
100
AcDbEntity
  8
Ech.1_5
  6
Continuous
 62
     9
370
    -3
100
AcDbPolyline
 90
       12
 70
     1
 43
0.0
 10
36292.49528116
 20
10571.66985945
 10
36292.49528116
 20
10462.21629812
 10
36392.49528116
 20
10485.78077031
 10
36392.49528116
 20
10626.67046751
 10
36403.68692397
 20
10626.66996535
 10
36403.68692397
 20
10671.66996535
 10
36425.68692397
 20
10671.66996535
 10
36425.68692397
 20
10716.66996535
 10
36395.68692397
 20
10716.66996535
 10
36326.68692397
 20
10758.66996535
 10
36326.68692397
 20
10766.6699582
 10
36292.49528116
 20
10766.66970125
  0
HATCH
  5
D5
330
5D
100
AcDbEntity
  8
Ech.1_5
  6
Continuous
 62
     9
100
AcDbHatch
 10
0.0
 20
0.0
 30
0.0
210
0.0
220
0.0
230
1.0
  2
ANSI31
 70
     0
 71
     1
 91
        1
 92
        7
 72
     0
 73
     1
 93
       10
 10
36292.49528116
 20
10462.21629812
 10
36392.49528116
 20
10485.78077031
 10
36392.49528116
 20
10626.67046751
 10
36403.68692397
 20
10671.66996535
 10
36425.68692397
 20
10671.66996535
 10
36425.68692397
 20
10716.66996535
 10
36395.68692397
 20
10716.66996535
 10
36313.54424083395
 20
10766.66985943281
 10
36292.49528116
 20
10766.66970125
 10
36292.49528116
 20
10571.66985945
 97
        1
330
D4
 75
     0
 76
     2
 52
5.0
 41
6.299252099999999
 77
     0
 78
     1
 53
50.0
 43
0.0
 44
0.0
 45
15.32088886
 46
-12.85575219
 79
     0
 47
0.775229
 98
        1
 10
0.0
 20
0.0
  0
LWPOLYLINE
  5
D6
102
{ACAD_REACTORS
330
D7
102
}
330
5D
100
AcDbEntity
  8
Ech.1_5
  6
Continuous
 62
     9
370
    -3
100
AcDbPolyline
 90
        9
 70
     1
 43
0.0
 10
36292.49528116
 20
10585.35680074
 10
36292.49528116
 20
10571.66986287
 10
36067.97555031
 20
10571.66948686
 10
36067.97555031
 20
10664.03335977
 10
36049.99825024
 20
10680.51886293
 10
36085.95395025
 20
10666.40892291
 10
36067.97555031
 20
10682.89532132
 10
36067.97555031
 20
10766.66808343
 10
36292.49528116
 20
10766.66971043
  0
HATCH
  5
D7
330
5D
100
AcDbEntity
  8
Ech.1_5
  6
Continuous
 62
     9
100
AcDbHatch
 10
0.0
 20
0.0
 30
0.0
210
0.0
220
0.0
230
1.0
  2
ANSI31
 70
     0
 71
     1
 91
        1
 92
        7
 72
     0
 73
     1
 93
        8
 10
36067.97555031
 20
10571.66948686
 10
36292.49528116
 20
10571.66986287
 10
36292.49528116
 20
10585.35680074
 10
36292.49528116
 20
10766.66971043
 10
36067.97555031
 20
10766.66808343
 10
36067.97555031001
 20
10682.89532132
 10
36085.95395025
 20
10666.40892291
 10
36067.97555031
 20
10673.46410872862
 97
        1
330
D6
 75
     0
 76
     2
 52
5.0
 41
6.299252099999999
 77
     0
 78
     1
 53
50.0
 43
0.0
 44
0.0
 45
15.32088886
 46
-12.85575219
 79
     0
 47
0.775229
 98
        1
 10
0.0
 20
0.0
  0
LWPOLYLINE
  5
D8
102
{ACAD_REACTORS
330
D9
102
}
330
5D
100
AcDbEntity
  8
Ech.1_5
  6
Continuous
 62
     9
370
    -3
100
AcDbPolyline
 90
        4
 70
     1
 43
0.0
 10
36292.49528116
 20
10457.2580293
 10
36292.49528116
 20
10378.76630395
 10
36392.49528116
 20
10378.76630395
 10
36392.49528116
 20
10480.8226409
  0
HATCH
  5
D9
330
5D
100
AcDbEntity
  8
Ech.1_5
  6
Continuous
 62
     9
100
AcDbHatch
 10
0.0
 20
0.0
 30
0.0
210
0.0
220
0.0
230
1.0
  2
ANSI31
 70
     0
 71
     1
 91
        1
 92
        7
 72
     0
 73
     1
 93
        4
 10
36292.49528116
 20
10378.76630395
 10
36392.49528116
 20
10378.76630395
 10
36392.49528116
 20
10480.8226409
 10
36292.49528116
 20
10457.2580293
 97
        1
330
D8
 75
     0
 76
     2
 52
5.0
 41
6.299252099999999
 77
     0
 78
     1
 53
50.0
 43
0.0
 44
0.0
 45
15.32088886
 46
-12.85575219
 79
     0
 47
0.775229
 98
        1
 10
0.0
 20
0.0
  0
LWPOLYLINE
  5
DA
102
{ACAD_REACTORS
330
DB
102
}
330
5D
100
AcDbEntity
  8
Ech.1_5
  6
Continuous
 62
     9
370
    -3
100
AcDbPolyline
 90
        4
 70
     1
 43
0.0
 10
36692.49557046
 20
10378.7661883
 10
36692.49557046
 20
10551.52062647
 10
36592.49557046
 20
10527.9819368
 10
36592.49557046
 20
10378.76630395
  0
HATCH
  5
DB
330
5D
100
AcDbEntity
  8
Ech.1_5
  6
Continuous
 62
     9
100
AcDbHatch
 10
0.0
 20
0.0
 30
0.0
210
0.0
220
0.0
230
1.0
  2
ANSI31
 70
     0
 71
     1
 91
        1
 92
        7
 72
     0
 73
     1
 93
        4
 10
36592.49557046
 20
10378.76630395
 10
36692.49557046
 20
10378.7661883
 10
36692.49557046
 20
10551.52062647
 10
36592.49557046
 20
10527.9819368
 97
        1
330
DA
 75
     0
 76
     2
 52
5.0
 41
6.299252099999999
 77
     0
 78
     1
 53
50.0
 43
0.0
 44
0.0
 45
15.32088886
 46
-12.85575219
 79
     0
 47
0.775229
 98
        1
 10
0.0
 20
0.0
  0
LWPOLYLINE
  5
DC
102
{ACAD_REACTORS
330
DD
102
}
330
5D
100
AcDbEntity
  8
Ech.1_5
  6
Continuous
 62
     9
370
    -3
100
AcDbPolyline
 90
       11
 70
     1
 43
0.0
 10
36592.49557046
 20
10626.67046751
 10
36592.49557046
 20
10532.93615802
 10
36692.49557046
 20
10556.47484769
 10
36692.49557046
 20
10766.66970125
 10
36658.30392765
 20
10766.6699582
 10
36658.30392765
 20
10758.66996535
 10
36589.30392765
 20
10716.66996535
 10
36559.30392765
 20
10716.66996535
 10
36559.30392765
 20
10671.66996535
 10
36581.30392765
 20
10671.66996535
 10
36581.30392765
 20
10626.66996535
  0
HATCH
  5
DD
330
5D
100
AcDbEntity
  8
Ech.1_5
  6
Continuous
 62
     9
100
AcDbHatch
 10
0.0
 20
0.0
 30
0.0
210
0.0
220
0.0
230
1.0
  2
ANSI31
 70
     0
 71
     1
 91
        1
 92
        7
 72
     0
 73
     1
 93
       11
 10
36592.49557046
 20
10532.93615802
 10
36692.49557046
 20
10556.47484769
 10
36692.49557046
 20
10766.66970125
 10
36658.30392765001
 20
10766.6699582
 10
36658.30392765001
 20
10758.66996535
 10
36589.30392765
 20
10716.66996535
 10
36559.30392765
 20
10716.66996535
 10
36559.30392765
 20
10671.66996535
 10
36581.30392764999
 20
10671.66996535
 10
36581.30392765
 20
10626.66996535
 10
36592.49557046
 20
10626.67046751
 97
        1
330
DC
 75
     0
 76
     2
 52
5.0
 41
6.299252099999999
 77
     0
 78
     1
 53
50.0
 43
0.0
 44
0.0
 45
15.32088886
 46
-12.85575219
 79
     0
 47
0.775229
 98
        1
 10
0.0
 20
0.0
  0
LWPOLYLINE
  5
DE
102
{ACAD_REACTORS
330
DF
102
}
330
5D
100
AcDbEntity
  8
Ech.1_5
  6
Continuous
 62
     9
370
    -3
100
AcDbPolyline
 90
       20
 70
     1
 43
0.0
 38
2500.0
 39
-2500.0
 10
36559.30425313
 20
10716.66996535
 10
36559.30425313
 20
10671.66996535
 10
36581.30425313
 20
10671.66996535
 10
36581.30425313
 20
10626.66996535
 10
36403.68692397
 20
10626.66996535
 10
36403.68692397
 20
10671.66996535
 10
36425.68692397
 20
10671.66996535
 10
36425.68692397
 20
10716.66996535
 10
36395.68692397
 20
10716.66996535
 10
36326.68692397
 20
10758.66996535
 10
36326.68692397
 20
10766.6699582
 10
36067.97587579
 20
10766.66790891
 10
36067.97587579
 20
10806.66992935
 10
36302.49542011
 20
10806.66992497
 10
36592.49594351
 20
10806.66993497
 10
36907.77463937
 20
10806.66992969
 10
36907.77463937
 20
10766.66775437
 10
36658.30425313
 20
10766.6699582
 10
36658.30425313
 20
10758.66996535
 10
36589.30425313
 20
10716.66996535
  0
HATCH
  5
DF
330
5D
100
AcDbEntity
  8
Ech.1_5
  6
Continuous
 62
     9
100
AcDbHatch
 10
0.0
 20
0.0
 30
0.0
210
0.0
220
0.0
230
1.0
  2
AR-CONC
 70
     0
 71
     1
 91
        1
 92
        7
 72
     0
 73
     1
 93
       20
 10
36067.97587579
 20
10766.66790891
 10
36326.68692397001
 20
10766.6699582
 10
36326.68692397
 20
10758.66996535
 10
36395.68692397
 20
10716.66996535
 10
36425.68692397
 20
10716.66996535
 10
36425.68692397
 20
10671.66996535
 10
36403.68692397
 20
10671.66996535
 10
36403.68692397
 20
10626.66996535
 10
36581.30425313
 20
10626.66996535
 10
36581.30425313
 20
10671.66996535
 10
36559.30425313
 20
10671.66996535
 10
36559.30425313
 20
10716.66996535
 10
36589.30425313001
 20
10716.66996535
 10
36658.30425313
 20
10758.66996535
 10
36658.30425313
 20
10766.6699582
 10
36907.77463937
 20
10766.66775437
 10
36907.77463937
 20
10806.66992969
 10
36592.49594351
 20
10806.66993497
 10
36302.49542011
 20
10806.66992497
 10
36067.97587579
 20
10806.66992935
 97
        1
330
DE
 75
     0
 76
     2
 52
5.0
 41
0.11811097
 77
     0
 78
    13
 53
50.0
 43
0.0
 44
0.0
 45
-18.84283637
 46
1.648534429999999
 79
     2
 49
1.97029307
 49
-21.67322338
 53
355.0
 43
0.0
 44
0.0
 45
-3.645077559999999
 46
19.76051824
 79
     2
 49
1.576233769999999
 49
-17.3385787
 53
100.45140076
 43
1.570235679999999
 44
-0.13737749
 45
-15.19777228
 46
-18.11197244
 79
     2
 49
1.67449124
 49
-18.41940522
 53
46.18420029
 43
0.0
 44
5.25411576
 45
-28.03703353
 46
4.34827878
 79
     2
 49
2.95543872
 49
-32.50983238
 53
96.63559723
 43
2.336418849999999
 44
4.891756919999999
 45
-24.55412615
 46
-25.59063404
 79
     2
 49
2.511736969999999
 49
-27.62910426
 53
351.1842041
 43
0.0
 44
5.25411576
 45
24.55410288
 46
25.59065715
 79
     2
 49
2.364352489999999
 49
-26.00786805
 53
21.0
 43
2.627056989999999
 44
3.94058615
 45
-15.68109068
 46
10.57702905
 79
     2
 49
1.97029307
 49
-21.67322338
 53
326.0
 43
2.627056989999999
 44
3.94058615
 45
6.392032679999999
 46
19.05010734
 79
     2
 49
1.576233769999999
 49
-17.3385787
 53
71.45140076
 43
3.933813569999999
 44
3.059165549999999
 45
-22.07312962
 46
-8.473061819999999
 79
     2
 49
1.67449124
 49
-18.41940522
 53
37.5
 43
0.0
 44
0.0
 45
0.31944534
 46
8.74531245
 79
     6
 49
0.01875
 49
-17.12841332
 49
0.01875
 49
-17.60128498
 49
0.01875
 49
-17.40425348
 53
7.499999999999999
 43
0.0
 44
0.0
 45
6.91098818
 46
10.3614222
 79
     6
 49
0.01875
 49
-10.03535807
 49
0.01875
 49
-16.7343539
 49
0.01875
 49
-6.633320599999999
 53
-32.5
 43
-5.858338329999999
 44
0.0
 45
14.02382061
 46
-0.59253003
 79
     6
 49
0.01875
 49
-6.56764314
 49
0.01875
 49
-20.49104869
 49
0.01875
 49
-27.19004452
 53
-42.5
 43
-8.485395309999999
 44
0.0
 45
15.32063571
 46
2.629815419999999
 79
     6
 49
0.01875
 49
-8.537936209999999
 49
0.01875
 49
-13.60815793
 49
0.01875
 49
-19.30887222
 47
0.775229
 98
        1
 10
0.0
 20
0.0
  0
LINE
  5
E0
330
5D
100
AcDbEntity
  8
Ech.1_5
  6
CENTER
 62
   204
370
    70
100
AcDbLine
 10
36402.34657135
 20
10805.82551704
 30
0.0
 11
36574.06673819
 21
10805.82551704
 31
0.0
  0
LWPOLYLINE
  5
E1
330
5D
100
AcDbEntity
  8
Ech.1_5
 62
     7
100
AcDbPolyline
 90
        6
 70
     0
 43
0.0
 10
36577.99719026
 20
10886.28322701
 10
36580.99577506
 20
10886.28315809
 42
-0.41421356
 10
36590.99577506
 20
10876.28315809
 10
36590.99577506
 20
10820.61838478
 10
36577.99577507
 20
10820.61838244
 10
36577.99577507
 20
10886.28315575
  0
LWPOLYLINE
  5
E2
330
5D
100
AcDbEntity
  8
Ech.1_5
  6
Continuous
 62
     9
370
    -3
100
AcDbPolyline
 90
        4
 70
     1
 43
0.0
 10
36907.77465108
 20
10806.61838244
 10
36907.77463937
 20
10820.61838244
 10
36587.99580787
 20
10820.61838244
 10
36587.99580787
 20
10806.61838244
  0
HATCH
  5
E3
330
5D
100
AcDbEntity
  8
Ech.1_5
  6
Continuous
 62
     9
100
AcDbHatch
 10
0.0
 20
0.0
 30
0.0
210
0.0
220
0.0
230
1.0
  2
ANSI31
 70
     0
 71
     0
 91
        1
 92
        7
 72
     0
 73
     1
 93
        4
 10
36907.77465108
 20
10806.61838244
 10
36907.77463937
 20
10820.61838244
 10
36587.99580787
 20
10820.61838244
 10
36587.99580787
 20
10806.61838244
 97
        0
 75
     0
 76
     2
 52
90.0
 41
3.14962605
 77
     0
 78
     1
 53
-45.0
 43
0.0
 44
0.0
 45
7.071067809999999
 46
7.071067809999999
 79
     0
 47
0.775229
 98
        1
 10
0.0
 20
0.0
  0
LWPOLYLINE
  5
E4
330
5D
100
AcDbEntity
  8
Ech.1_5
 62
     7
100
AcDbPolyline
 90
        6
 70
     0
 43
0.0
 10
36382.99435989
 20
10886.28321399
 10
36379.99577509
 20
10886.28314506
 42
0.41421356
 10
36369.99577509
 20
10876.28314506
 10
36369.99577509
 20
10820.61837175
 10
36382.99577507
 20
10820.61836942
 10
36382.99577507
 20
10886.28314273
  0
LWPOLYLINE
  5
E5
330
5D
100
AcDbEntity
  8
Ech.1_5
  6
Continuous
 62
     9
370
    -3
100
AcDbPolyline
 90
        4
 70
     1
 43
0.0
 10
36068.10964879
 20
10806.61836942
 10
36068.1096605
 20
10820.61836942
 10
36372.888492
 20
10820.61836942
 10
36372.888492
 20
10806.61836942
  0
HATCH
  5
E6
330
5D
100
AcDbEntity
  8
Ech.1_5
  6
Continuous
 62
     9
100
AcDbHatch
 10
0.0
 20
0.0
 30
0.0
210
0.0
220
0.0
230
1.0
  2
ANSI31
 70
     0
 71
     0
 91
        1
 92
        7
 72
     0
 73
     1
 93
        4
 10
36068.10964879
 20
10806.61836942
 10
36068.1096605
 20
10820.61836942
 10
36372.888492
 20
10820.61836942
 10
36372.888492
 20
10806.61836942
 97
        0
 75
     0
 76
     2
 52
90.0
 41
3.14962605
 77
     0
 78
     1
 53
-45.0
 43
0.0
 44
0.0
 45
7.071067809999999
 46
7.071067809999999
 79
     0
 47
0.775229
 98
        1
 10
0.0
 20
0.0
  0
LWPOLYLINE
  5
E7
330
5D
100
AcDbEntity
  8
Ech.1_5
  6
Continuous
 62
     7
370
    -3
100
AcDbPolyline
 90
        4
 70
     1
 43
0.0
 10
36382.99577507
 20
11256.6704671
 10
36395.99577507
 20
11256.6704671
 10
36395.99577507
 20
10816.66881597
 10
36382.99577507
 20
10816.66881597
  0
HATCH
  5
E8
330
5D
100
AcDbEntity
  8
Ech.1_5
  6
Continuous
 62
     7
100
AcDbHatch
 10
0.0
 20
0.0
 30
0.0
210
0.0
220
0.0
230
1.0
  2
DOTS2
 70
     0
 71
     0
 91
        1
 92
        7
 72
     0
 73
     1
 93
        4
 10
36382.99577507
 20
11256.6704671
 10
36395.99577507
 20
11256.6704671
 10
36395.99577507
 20
10816.66881597
 10
36382.99577507
 20
10816.66881597
 97
        0
 75
     0
 76
     2
 52
0.0
 41
4.72440952
 77
     0
 78
     1
 53
0.0
 43
0.0
 44
0.0
 45
3.75
 46
3.535
 79
     2
 49
0.0
 49
-3.535
 47
0.775229
 98
        1
 10
0.0
 20
0.0
  0
LWPOLYLINE
  5
E9
330
5D
100
AcDbEntity
  8
Ech.1_5
  6
Continuous
 62
     7
370
    -3
100
AcDbPolyline
 90
        4
 70
     1
 43
0.0
 10
36564.99577507
 20
11256.6704671
 10
36577.99577507
 20
11256.6704671
 10
36577.99577507
 20
10816.66881597
 10
36564.99577507
 20
10816.66881597
  0
HATCH
  5
EA
330
5D
100
AcDbEntity
  8
Ech.1_5
  6
Continuous
 62
     7
100
AcDbHatch
 10
0.0
 20
0.0
 30
0.0
210
0.0
220
0.0
230
1.0
  2
DOTS2
 70
     0
 71
     0
 91
        1
 92
        7
 72
     0
 73
     1
 93
        4
 10
36564.99577507
 20
11256.6704671
 10
36577.99577507
 20
11256.6704671
 10
36577.99577507
 20
10816.66881597
 10
36564.99577507
 20
10816.66881597
 97
        0
 75
     0
 76
     2
 52
0.0
 41
4.72440952
 77
     0
 78
     1
 53
0.0
 43
0.0
 44
0.0
 45
3.75
 46
3.535
 79
     2
 49
0.0
 49
-3.535
 47
0.775229
 98
        1
 10
0.0
 20
0.0
  0
LWPOLYLINE
  5
EB
330
5D
100
AcDbEntity
  8
Ech.1_5
  6
Continuous
 62
     7
370
    -3
100
AcDbPolyline
 90
        6
 70
     0
 43
0.0
 10
36362.99577507
 20
11256.67030142
 10
36468.97969954
 20
11256.67117937
 10
36485.46520269
 20
11274.64852778
 10
36471.35526268
 20
11238.69282777
 10
36487.84161676
 20
11256.67117937
 10
36597.99577507
 20
11256.67117937
  0
LWPOLYLINE
  5
EC
330
5D
100
AcDbEntity
  8
Ech.1_5
  6
Continuous
 62
     7
370
    -3
100
AcDbPolyline
 90
        4
 70
     1
 43
0.0
 10
36539.99577507
 20
10871.61903924
 10
36564.99577507
 20
10871.61903924
 10
36564.99577507
 20
10826.61903924
 10
36539.99577507
 20
10826.61903924
  0
LWPOLYLINE
  5
ED
330
5D
100
AcDbEntity
  8
Ech.1_5
  6
Continuous
 62
     7
370
    -3
100
AcDbPolyline
 90
        5
 70
     0
 43
0.0
 10
36539.99577507
 20
10871.61903924
 10
36564.99577507
 20
10871.61903924
 10
36564.99577507
 20
10826.61903924
 10
36539.99577507
 20
10826.61903924
 10
36539.99577507
 20
10871.61903924
  0
LWPOLYLINE
  5
EE
330
5D
100
AcDbEntity
  8
Ech.1_5
  6
Continuous
 62
     7
370
    -3
100
AcDbPolyline
 90
        4
 70
     1
 43
0.0
 10
36395.99577507
 20
10871.61903924
 10
36435.99577507
 20
10871.61903924
 10
36435.99577507
 20
10826.61903924
 10
36395.99577507
 20
10826.61903924
  0
LWPOLYLINE
  5
EF
330
5D
100
AcDbEntity
  8
Ech.1_5
  6
Continuous
 62
     7
370
    -3
100
AcDbPolyline
 90
        5
 70
     0
 43
0.0
 10
36395.99577507
 20
10871.61903924
 10
36435.99577507
 20
10871.61903924
 10
36435.99577507
 20
10826.61903924
 10
36395.99577507
 20
10826.61903924
 10
36395.99577507
 20
10871.61903924
  0
LWPOLYLINE
  5
F0
330
5D
100
AcDbEntity
  8
Ech.1_5
  6
Continuous
 62
     7
370
    -3
100
AcDbPolyline
 90
        5
 70
     0
 43
0.0
 10
35999.22171160001
 20
10145.83615323
 10
36984.2217116
 20
10145.83615323
 10
36984.2217116
 20
11500.83615323
 10
35999.22171160001
 20
11500.83615323
 10
35999.22171160001
 20
10145.83615323
  0
LWPOLYLINE
  5
F1
330
5D
100
AcDbEntity
  8
Ech.1_5
  6
Continuous
 62
     7
370
    -3
100
AcDbPolyline
 90
        4
 70
     0
 43
0.0
 10
36539.99577507
 20
10896.66992194
 10
36444.99577507
 20
10851.66992194
 10
36444.99577507
 20
10896.66992194
 10
36539.99577507
 20
10851.66992194
  0
LWPOLYLINE
  5
F2
330
5D
100
AcDbEntity
  8
Ech.1_5
  6
Continuous
 62
     7
370
    -3
100
AcDbPolyline
 90
        5
 70
     0
 43
0.0
 10
36539.99577507
 20
10851.66992194
 10
36444.99577507
 20
10851.66992194
 10
36444.99577507
 20
10896.66992194
 10
36539.99577507
 20
10896.66992194
 10
36539.99577507
 20
10851.66992194
  0
LWPOLYLINE
  5
F3
330
5D
100
AcDbEntity
  8
Ech.1_5
  6
Continuous
 62
     7
370
    -3
100
AcDbPolyline
 90
        5
 70
     0
 43
0.0
 10
36539.99577507
 20
10806.66923983
 10
36444.99577507
 20
10806.66992194
 10
36444.99577507
 20
10851.66992194
 10
36539.99577507
 20
10851.66923983
 10
36539.99577507
 20
10806.66923983
  0
LWPOLYLINE
  5
F4
330
5D
100
AcDbEntity
  8
Ech.1_5
  6
Continuous
 62
     7
370
     5
100
AcDbPolyline
 90
        5
 70
     0
 43
0.0
 10
36169.24222494
 20
11185.16080216
 10
36219.24222494
 20
11185.16080216
 10
36219.24222494
 20
11192.57593969
 10
36169.24222494
 20
11192.57593969
 10
36169.24222494
 20
11185.16080216
  0
LWPOLYLINE
  5
F5
330
5D
100
AcDbEntity
  8
Ech.1_5
  6
Continuous
 62
     7
370
    -3
100
AcDbPolyline
 90
        5
 70
     0
 43
0.0
 10
36435.99577507
 20
11256.67030142
 10
36444.99577507
 20
11256.67030142
 10
36444.99577507
 20
10816.66992194
 10
36435.99577507
 20
10816.66992194
 10
36435.99577507
 20
11256.67030142
  0
LWPOLYLINE
  5
F6
330
5D
100
AcDbEntity
  8
Ech.1_5
  6
Continuous
 62
     7
370
    -3
100
AcDbPolyline
 90
        9
 70
     0
 43
0.0
 10
36468.97969954
 20
11256.67057466
 10
36444.99577507
 20
11256.67037598
 10
36444.99577507
 20
10851.66992194
 10
36539.99577507
 20
10851.66992194
 10
36539.99577507
 20
11256.67057466
 10
36487.84161676
 20
11256.67057466
 10
36471.35526268
 20
11238.69222305
 10
36485.46520269
 20
11274.64792306
 10
36468.97969954
 20
11256.67057466
  0
LWPOLYLINE
  5
F7
330
5D
100
AcDbEntity
  8
Ech.1_5
  6
Continuous
 62
     7
370
    15
100
AcDbPolyline
 90
        5
 70
     0
 43
0.0
 10
36564.99577507
 20
11256.6704671
 10
36577.99577507
 20
11256.6704671
 10
36577.99577507
 20
10816.66881597
 10
36564.99577507
 20
10816.66881597
 10
36564.99577507
 20
11256.6704671
  0
LWPOLYLINE
  5
F8
330
5D
100
AcDbEntity
  8
Ech.1_5
  6
Continuous
 62
     7
370
    15
100
AcDbPolyline
 90
        5
 70
     0
 43
0.0
 10
36382.99577507
 20
11256.6704671
 10
36395.99577507
 20
11256.6704671
 10
36395.99577507
 20
10816.66881597
 10
36382.99577507
 20
10816.66881597
 10
36382.99577507
 20
11256.6704671
  0
LWPOLYLINE
  5
F9
330
5D
100
AcDbEntity
  8
Ech.1_5
  6
Continuous
 62
     7
370
    -3
100
AcDbPolyline
 90
        5
 70
     0
 43
0.0
 10
36539.99577507
 20
10871.61903924
 10
36564.99577507
 20
10871.61903924
 10
36564.99577507
 20
10826.61903924
 10
36539.99577507
 20
10826.61903924
 10
36539.99577507
 20
10871.61903924
  0
LWPOLYLINE
  5
FA
330
5D
100
AcDbEntity
  8
Ech.1_5
  6
Continuous
 62
     7
370
    -3
100
AcDbPolyline
 90
        5
 70
     0
 43
0.0
 10
36395.99577507
 20
10871.61903924
 10
36435.99577507
 20
10871.61903924
 10
36435.99577507
 20
10826.61903924
 10
36395.99577507
 20
10826.61903924
 10
36395.99577507
 20
10871.61903924
  0
LWPOLYLINE
  5
FB
330
5D
100
AcDbEntity
  8
Ech.1_5
  6
Continuous
 62
     7
370
    -3
100
AcDbPolyline
 90
        5
 70
     0
 43
0.0
 10
36539.99577507
 20
10851.66923983
 10
36444.99577507
 20
10851.66992194
 10
36444.99577507
 20
10896.66992194
 10
36539.99577507
 20
10896.66923983
 10
36539.99577507
 20
10851.66923983
  0
LWPOLYLINE
  5
FC
330
5D
100
AcDbEntity
  8
Ech.1_5
  6
Continuous
 62
     7
370
    -3
100
AcDbPolyline
 90
       44
 70
     0
 43
0.0
 10
36460.82910841
 20
11256.67030142
 42
1.14028181
 10
36464.92708585
 20
11225.54314498
 10
36520.0644643
 20
11240.29745787
 42
-1.303226189999999
 10
36520.0644643
 20
11209.70981165
 10
36464.92708585
 20
11224.46412454
 42
1.303226189999999
 10
36464.92708585
 20
11193.87647831
 10
36520.0644643
 20
11208.6307912
 42
-1.303226189999999
 10
36520.0644643
 20
11178.04314498
 10
36464.92708585
 20
11192.79745787
 42
1.303226189999999
 10
36464.92708585
 20
11162.20981165
 10
36520.0644643
 20
11176.96412454
 42
-1.303226189999999
 10
36520.0644643
 20
11146.37647831
 10
36464.92708585
 20
11161.1307912
 42
1.303226189999999
 10
36464.92708585
 20
11130.54314498
 10
36520.0644643
 20
11145.29745787
 42
-1.303226189999999
 10
36520.0644643
 20
11114.70981165
 10
36464.92708585
 20
11129.46412454
 42
1.303226189999999
 10
36464.92708585
 20
11098.87647831
 10
36520.0644643
 20
11113.6307912
 42
-1.303226189999999
 10
36520.0644643
 20
11083.04314498
 10
36464.92708585
 20
11097.79745787
 42
1.303226189999999
 10
36464.92708585
 20
11067.20981165
 10
36520.0644643
 20
11081.96412454
 42
-1.303226189999999
 10
36520.0644643
 20
11051.37647831
 10
36464.92708585
 20
11066.1307912
 42
1.303226189999999
 10
36464.92708585
 20
11035.54314498
 10
36520.0644643
 20
11050.29745787
 42
-1.303226189999999
 10
36520.0644643
 20
11019.70981165
 10
36464.92708585
 20
11034.46412454
 42
1.303226189999999
 10
36464.92708585
 20
11003.87647831
 10
36520.0644643
 20
11018.6307912
 42
-1.303226189999999
 10
36520.0644643
 20
10988.04314498
 10
36464.92708585
 20
11002.79745787
 42
1.303226189999999
 10
36464.92708585
 20
10972.20981165
 10
36520.0644643
 20
10986.96412454
 42
-1.303226189999999
 10
36520.0644643
 20
10956.37647831
 10
36464.92708585
 20
10971.1307912
 42
1.303226189999999
 10
36464.92708585
 20
10940.54314498
 10
36520.0644643
 20
10955.29745787
 42
-1.303226189999999
 10
36520.0644643
 20
10924.70981165
 10
36464.92708585
 20
10939.46412454
 42
1.303226189999999
 10
36464.92708585
 20
10908.87647831
 10
36520.0644643
 20
10923.6307912
 42
-0.78455943
 10
36534.86638861
 20
10896.66992194
  0
TEXT
  5
FD
330
5D
100
AcDbEntity
  8
Ech.1_5
 62
     7
100
AcDbText
 10
36180.53651756
 20
11202.16194277
 30
0.0
 40
8.000000119999999
  1
Echelle en mm
  7
ARIAL
100
AcDbText
  0
TEXT
  5
FE
330
5D
100
AcDbEntity
  8
Ech.1_5
 62
     7
100
AcDbText
 10
36166.55593281
 20
11173.95210724
 30
0.0
 40
8.000000119999999
  1
0
  7
ARIAL
100
AcDbText
  0
TEXT
  5
FF
330
5D
100
AcDbEntity
  8
Ech.1_5
 62
     7
100
AcDbText
 10
36253.15299071
 20
11173.95210724
 30
0.0
 40
8.000000119999999
  1
100
  7
ARIAL
100
AcDbText
  0
TEXT
  5
100
330
5D
100
AcDbEntity
  8
Ech.1_5
 62
     7
100
AcDbText
 10
36214.41255914
 20
11173.95210724
 30
0.0
 40
8.000000119999999
  1
50
  7
ARIAL
100
AcDbText
  0
INSERT
  5
101
330
5D
100
AcDbEntity
  8
Ech.1_5
 62
     0
370
    -3
100
AcDbBlockReference
  2
*D13
 10
0.0
 20
0.0
 30
0.0
  0
INSERT
  5
102
330
5D
100
AcDbEntity
  8
Ech.1_5
 62
     0
370
    -3
100
AcDbBlockReference
  2
*D14
 10
0.0
 20
0.0
 30
0.0
  0
ENDSEC
  0
SECTION
  2
OBJECTS
  0
DICTIONARY
  5
1
330
0
100
AcDbDictionary
281
     1
  3
ACAD_COLOR
350
13A
  3
ACAD_GROUP
350
2
  3
ACAD_LAYOUT
350
152
  3
ACAD_MATERIAL
350
108
  3
ACAD_MLEADERSTYLE
350
14F
  3
ACAD_MLINESTYLE
350
3
  3
ACAD_PLOTSETTINGS
350
153
  3
ACAD_PLOTSTYLENAME
350
106
  3
ACAD_SCALELIST
350
13D
  3
ACAD_TABLESTYLE
350
13B
  3
ACAD_VISUALSTYLE
350
121
  3
ACDB_RECOMPOSE_DATA
350
1A8
  3
AcDbVariableDictionary
350
19E
  3
DWGPROPS
350
1A9
  0
DICTIONARY
  5
162
330
37
100
AcDbDictionary
280
     1
281
     1
  3
ADSK_XREC_LAYER_RECONCILED
360
163
  0
DICTIONARY
  5
164
330
38
100
AcDbDictionary
280
     1
281
     1
  3
ADSK_XREC_LAYER_RECONCILED
360
165
  0
DICTIONARY
  5
166
330
39
100
AcDbDictionary
280
     1
281
     1
  3
ADSK_XREC_LAYER_RECONCILED
360
167
  0
DICTIONARY
  5
168
330
3A
100
AcDbDictionary
280
     1
281
     1
  3
ADSK_XREC_LAYER_RECONCILED
360
169
  0
DICTIONARY
  5
16A
330
3B
100
AcDbDictionary
280
     1
281
     1
  3
ADSK_XREC_LAYER_RECONCILED
360
16B
  0
DICTIONARY
  5
16C
330
3C
100
AcDbDictionary
280
     1
281
     1
  3
ADSK_XREC_LAYER_RECONCILED
360
16D
  0
DICTIONARY
  5
16E
330
3D
100
AcDbDictionary
280
     1
281
     1
  3
ADSK_XREC_LAYER_RECONCILED
360
16F
  0
DICTIONARY
  5
170
330
3E
100
AcDbDictionary
280
     1
281
     1
  3
ADSK_XREC_LAYER_RECONCILED
360
171
  0
DICTIONARY
  5
172
330
3F
100
AcDbDictionary
280
     1
281
     1
  3
ADSK_XREC_LAYER_RECONCILED
360
173
  0
DICTIONARY
  5
174
330
40
100
AcDbDictionary
280
     1
281
     1
  3
ADSK_XREC_LAYER_RECONCILED
360
175
  0
DICTIONARY
  5
176
330
41
100
AcDbDictionary
280
     1
281
     1
  3
ADSK_XREC_LAYER_RECONCILED
360
177
  0
DICTIONARY
  5
178
330
42
100
AcDbDictionary
280
     1
281
     1
  3
ADSK_XREC_LAYER_RECONCILED
360
179
  0
DICTIONARY
  5
17A
330
43
100
AcDbDictionary
280
     1
281
     1
  3
ADSK_XREC_LAYER_RECONCILED
360
17B
  0
DICTIONARY
  5
17C
330
44
100
AcDbDictionary
280
     1
281
     1
  3
ADSK_XREC_LAYER_RECONCILED
360
17D
  0
DICTIONARY
  5
17E
330
45
100
AcDbDictionary
280
     1
281
     1
  3
ADSK_XREC_LAYER_RECONCILED
360
17F
  0
DICTIONARY
  5
180
330
46
100
AcDbDictionary
280
     1
281
     1
  3
ADSK_XREC_LAYER_RECONCILED
360
181
  0
DICTIONARY
  5
182
330
47
100
AcDbDictionary
280
     1
281
     1
  3
ADSK_XREC_LAYER_RECONCILED
360
183
  0
DICTIONARY
  5
184
330
48
100
AcDbDictionary
280
     1
281
     1
  3
ADSK_XREC_LAYER_RECONCILED
360
185
  0
DICTIONARY
  5
186
330
49
100
AcDbDictionary
280
     1
281
     1
  3
ADSK_XREC_LAYER_RECONCILED
360
187
  0
DICTIONARY
  5
188
330
4A
100
AcDbDictionary
280
     1
281
     1
  3
ADSK_XREC_LAYER_RECONCILED
360
189
  0
DICTIONARY
  5
18A
330
4B
100
AcDbDictionary
280
     1
281
     1
  3
ADSK_XREC_LAYER_RECONCILED
360
18B
  0
DICTIONARY
  5
18C
330
4D
100
AcDbDictionary
280
     1
281
     1
  3
ADSK_XREC_LAYER_RECONCILED
360
18D
  0
DICTIONARY
  5
18E
330
4E
100
AcDbDictionary
280
     1
281
     1
  3
ADSK_XREC_LAYER_RECONCILED
360
18F
  0
DICTIONARY
  5
190
330
50
100
AcDbDictionary
280
     1
281
     1
  3
ADSK_XREC_LAYER_RECONCILED
360
191
  0
DICTIONARY
  5
192
330
51
100
AcDbDictionary
280
     1
281
     1
  3
ADSK_XREC_LAYER_RECONCILED
360
193
  0
DICTIONARY
  5
194
330
52
100
AcDbDictionary
280
     1
281
     1
  3
ADSK_XREC_LAYER_RECONCILED
360
195
  0
DICTIONARY
  5
196
330
53
100
AcDbDictionary
280
     1
281
     1
  3
ADSK_XREC_LAYER_RECONCILED
360
197
  0
DICTIONARY
  5
198
330
54
100
AcDbDictionary
280
     1
281
     1
  3
ADSK_XREC_LAYER_RECONCILED
360
199
  0
DICTIONARY
  5
19A
330
55
100
AcDbDictionary
280
     1
281
     1
  3
ADSK_XREC_LAYER_RECONCILED
360
19B
  0
DICTIONARY
  5
19C
330
56
100
AcDbDictionary
280
     1
281
     1
  3
ADSK_XREC_LAYER_RECONCILED
360
19D
  0
DICTIONARY
  5
13A
102
{ACAD_REACTORS
330
1
102
}
330
1
100
AcDbDictionary
281
     1
  0
DICTIONARY
  5
2
330
1
100
AcDbDictionary
281
     1
  0
DICTIONARY
  5
152
102
{ACAD_REACTORS
330
1
102
}
330
1
100
AcDbDictionary
281
     1
  3
Model
350
154
  3
Présentation1
350
155
  0
DICTIONARY
  5
108
102
{ACAD_REACTORS
330
1
102
}
330
1
100
AcDbDictionary
281
     1
  3
ByBlock
350
111
  3
ByLayer
350
109
  3
Global
350
119
  0
DICTIONARY
  5
14F
102
{ACAD_REACTORS
330
1
102
}
330
1
100
AcDbDictionary
281
     1
  3
Standard
350
150
  0
DICTIONARY
  5
3
330
1
100
AcDbDictionary
281
     1
  3
STANDARD
350
4
  0
DICTIONARY
  5
153
102
{ACAD_REACTORS
330
1
102
}
330
1
100
AcDbDictionary
281
     1
  0
ACDBDICTIONARYWDFLT
  5
106
102
{ACAD_REACTORS
330
1
102
}
330
1
100
AcDbDictionary
281
     1
  3
Normal
350
107
100
AcDbDictionaryWithDefault
340
107
  0
DICTIONARY
  5
13D
102
{ACAD_REACTORS
330
1
102
}
330
1
100
AcDbDictionary
281
     1
  3
A0
350
13E
  3
A1
350
13F
  3
A2
350
140
  3
A3
350
141
  3
A4
350
142
  3
A5
350
143
  3
A6
350
144
  3
A7
350
145
  3
A8
350
146
  3
A9
350
147
  3
B0
350
148
  3
B1
350
149
  3
B2
350
14A
  3
B3
350
14B
  3
B4
350
14C
  3
B5
350
14D
  3
B6
350
14E
  0
DICTIONARY
  5
13B
102
{ACAD_REACTORS
330
1
102
}
330
1
100
AcDbDictionary
281
     1
  3
Standard
350
13C
  0
DICTIONARY
  5
121
102
{ACAD_REACTORS
330
1
102
}
330
1
100
AcDbDictionary
281
     1
  3
2dWireframe
350
127
  3
Basic
350
126
  3
Brighten
350
12D
  3
ColorChange
350
131
  3
Conceptual
350
12A
  3
Dim
350
12C
  3
EdgeColorOff
350
139
  3
Facepattern
350
130
  3
Flat
350
122
  3
FlatWithEdges
350
123
  3
Gouraud
350
124
  3
GouraudWithEdges
350
125
  3
Hidden
350
129
  3
JitterOff
350
137
  3
Linepattern
350
12F
  3
OverhangOff
350
138
  3
Realistic
350
12B
  3
Shaded
350
136
  3
Shaded with edges
350
135
  3
Shades of Gray
350
132
  3
Sketchy
350
133
  3
Thicken
350
12E
  3
Wireframe
350
128
  3
X-Ray
350
134
  0
XRECORD
  5
1A8
102
{ACAD_REACTORS
330
1
102
}
330
1
100
AcDbXrecord
280
     1
 90
        1
330
13C
  0
DICTIONARY
  5
19E
102
{ACAD_REACTORS
330
1
102
}
330
1
100
AcDbDictionary
281
     1
  3
CANNOSCALE
350
1A1
  3
CMLEADERSTYLE
350
1A0
  3
CTABLESTYLE
350
19F
  3
DIMASSOC
350
1A4
  3
INDEXCTL
350
1A3
  3
SORTENTS
350
1A2
  3
XCLIPFRAME
350
1A5
  0
XRECORD
  5
1A9
102
{ACAD_REACTORS
330
1
102
}
330
1
100
AcDbXrecord
280
     1
  1
DWGPROPS COOKIE
  2

  3

  4

  6

  7

  8
cazeaux
  9

300
=
301
=
302
=
303
=
304
=
305
=
306
=
307
=
308
=
309
=
 40
0.0003111342592593
 41
2456443.0
 42
2456458.454718623
  1

 90
        0
  0
XRECORD
  5
163
102
{ACAD_REACTORS
330
162
102
}
330
162
100
AcDbXrecord
280
     1
290
     1
  0
XRECORD
  5
165
102
{ACAD_REACTORS
330
164
102
}
330
164
100
AcDbXrecord
280
     1
290
     1
  0
XRECORD
  5
167
102
{ACAD_REACTORS
330
166
102
}
330
166
100
AcDbXrecord
280
     1
290
     1
  0
XRECORD
  5
169
102
{ACAD_REACTORS
330
168
102
}
330
168
100
AcDbXrecord
280
     1
290
     1
  0
XRECORD
  5
16B
102
{ACAD_REACTORS
330
16A
102
}
330
16A
100
AcDbXrecord
280
     1
290
     1
  0
XRECORD
  5
16D
102
{ACAD_REACTORS
330
16C
102
}
330
16C
100
AcDbXrecord
280
     1
290
     1
  0
XRECORD
  5
16F
102
{ACAD_REACTORS
330
16E
102
}
330
16E
100
AcDbXrecord
280
     1
290
     1
  0
XRECORD
  5
171
102
{ACAD_REACTORS
330
170
102
}
330
170
100
AcDbXrecord
280
     1
290
     1
  0
XRECORD
  5
173
102
{ACAD_REACTORS
330
172
102
}
330
172
100
AcDbXrecord
280
     1
290
     1
  0
XRECORD
  5
175
102
{ACAD_REACTORS
330
174
102
}
330
174
100
AcDbXrecord
280
     1
290
     1
  0
XRECORD
  5
177
102
{ACAD_REACTORS
330
176
102
}
330
176
100
AcDbXrecord
280
     1
290
     1
  0
XRECORD
  5
179
102
{ACAD_REACTORS
330
178
102
}
330
178
100
AcDbXrecord
280
     1
290
     1
  0
XRECORD
  5
17B
102
{ACAD_REACTORS
330
17A
102
}
330
17A
100
AcDbXrecord
280
     1
290
     1
  0
XRECORD
  5
17D
102
{ACAD_REACTORS
330
17C
102
}
330
17C
100
AcDbXrecord
280
     1
290
     1
  0
XRECORD
  5
17F
102
{ACAD_REACTORS
330
17E
102
}
330
17E
100
AcDbXrecord
280
     1
290
     1
  0
XRECORD
  5
181
102
{ACAD_REACTORS
330
180
102
}
330
180
100
AcDbXrecord
280
     1
290
     1
  0
XRECORD
  5
183
102
{ACAD_REACTORS
330
182
102
}
330
182
100
AcDbXrecord
280
     1
290
     1
  0
XRECORD
  5
185
102
{ACAD_REACTORS
330
184
102
}
330
184
100
AcDbXrecord
280
     1
290
     1
  0
XRECORD
  5
187
102
{ACAD_REACTORS
330
186
102
}
330
186
100
AcDbXrecord
280
     1
290
     1
  0
XRECORD
  5
189
102
{ACAD_REACTORS
330
188
102
}
330
188
100
AcDbXrecord
280
     1
290
     1
  0
XRECORD
  5
18B
102
{ACAD_REACTORS
330
18A
102
}
330
18A
100
AcDbXrecord
280
     1
290
     1
  0
XRECORD
  5
18D
102
{ACAD_REACTORS
330
18C
102
}
330
18C
100
AcDbXrecord
280
     1
290
     1
  0
XRECORD
  5
18F
102
{ACAD_REACTORS
330
18E
102
}
330
18E
100
AcDbXrecord
280
     1
290
     1
  0
XRECORD
  5
191
102
{ACAD_REACTORS
330
190
102
}
330
190
100
AcDbXrecord
280
     1
290
     1
  0
XRECORD
  5
193
102
{ACAD_REACTORS
330
192
102
}
330
192
100
AcDbXrecord
280
     1
290
     1
  0
XRECORD
  5
195
102
{ACAD_REACTORS
330
194
102
}
330
194
100
AcDbXrecord
280
     1
290
     1
  0
XRECORD
  5
197
102
{ACAD_REACTORS
330
196
102
}
330
196
100
AcDbXrecord
280
     1
290
     1
  0
XRECORD
  5
199
102
{ACAD_REACTORS
330
198
102
}
330
198
100
AcDbXrecord
280
     1
290
     1
  0
XRECORD
  5
19B
102
{ACAD_REACTORS
330
19A
102
}
330
19A
100
AcDbXrecord
280
     1
290
     1
  0
XRECORD
  5
19D
102
{ACAD_REACTORS
330
19C
102
}
330
19C
100
AcDbXrecord
280
     1
290
     1
  0
LAYOUT
  5
154
102
{ACAD_XDICTIONARY
360
1DF
102
}
102
{ACAD_REACTORS
330
152
102
}
330
152
100
AcDbPlotSettings
  1

  2
Aucun(e)
  4

  6

 40
0.0
 41
0.0
 42
0.0
 43
0.0
 44
0.0
 45
0.0
 46
0.0
 47
0.0
 48
0.0
 49
0.0
140
0.0
141
0.0
142
1.0
143
1.0
 70
  1712
 72
     0
 73
     0
 74
     0
  7
acad.ctb
 75
     0
147
1.0
148
0.0
149
0.0
100
AcDbLayout
  1
Model
 70
     1
 71
     0
 10
0.0
 20
0.0
 11
12.0
 21
9.0
 12
0.0
 22
0.0
 32
0.0
 14
0.0
 24
0.0
 34
0.0
 15
0.0
 25
0.0
 35
0.0
146
0.0
 13
0.0
 23
0.0
 33
0.0
 16
1.0
 26
0.0
 36
0.0
 17
0.0
 27
1.0
 37
0.0
 76
     0
330
5D
331
158
  0
LAYOUT
  5
155
102
{ACAD_XDICTIONARY
360
1E1
102
}
102
{ACAD_REACTORS
330
152
102
}
330
152
100
AcDbPlotSettings
  1

  2
Aucun(e)
  4

  6

 40
0.0
 41
0.0
 42
0.0
 43
0.0
 44
0.0
 45
0.0
 46
0.0
 47
0.0
 48
0.0
 49
0.0
140
0.0
141
0.0
142
1.0
143
1.0
 70
   688
 72
     0
 73
     0
 74
     5
  7
acad.ctb
 75
    16
147
1.0
148
0.0
149
0.0
100
AcDbLayout
  1
Présentation1
 70
     1
 71
     1
 10
0.0
 20
0.0
 11
12.0
 21
9.0
 12
0.0
 22
0.0
 32
0.0
 14
1.000000000000000E+20
 24
1.000000000000000E+20
 34
1.000000000000000E+20
 15
-1.000000000000000E+20
 25
-1.000000000000000E+20
 35
-1.000000000000000E+20
146
0.0
 13
0.0
 23
0.0
 33
0.0
 16
1.0
 26
0.0
 36
0.0
 17
0.0
 27
1.0
 37
0.0
 76
     0
330
5E
  0
MATERIAL
  5
111
102
{ACAD_XDICTIONARY
360
112
102
}
102
{ACAD_REACTORS
330
108
102
}
330
108
100
AcDbMaterial
  1
ByBlock
 72
     0
 43
0.0208333333333333
 43
0.0
 43
0.0
 43
0.0
 43
0.0
 43
0.0208333333333333
 43
0.0
 43
0.0
 43
0.0
 43
0.0
 43
1.0
 43
0.0
 43
0.0
 43
0.0
 43
0.0
 43
1.0
 77
     0
 47
0.0208333333333333
 47
0.0
 47
0.0
 47
0.0
 47
0.0
 47
0.0208333333333333
 47
0.0
 47
0.0
 47
0.0
 47
0.0
 47
1.0
 47
0.0
 47
0.0
 47
0.0
 47
0.0
 47
1.0
171
     0
 49
0.0208333333333333
 49
0.0
 49
0.0
 49
0.0
 49
0.0
 49
0.0208333333333333
 49
0.0
 49
0.0
 49
0.0
 49
0.0
 49
1.0
 49
0.0
 49
0.0
 49
0.0
 49
0.0
 49
1.0
175
     0
142
0.0208333333333333
142
0.0
142
0.0
142
0.0
142
0.0
142
0.0208333333333333
142
0.0
142
0.0
142
0.0
142
0.0
142
1.0
142
0.0
142
0.0
142
0.0
142
0.0
142
1.0
179
     0
144
0.0208333333333333
144
0.0
144
0.0
144
0.0
144
0.0
144
0.0208333333333333
144
0.0
144
0.0
144
0.0
144
0.0
144
1.0
144
0.0
144
0.0
144
0.0
144
0.0
144
1.0
147
0.0208333333333333
147
0.0
147
0.0
147
0.0
147
0.0
147
0.0208333333333333
147
0.0
147
0.0
147
0.0
147
0.0
147
1.0
147
0.0
147
0.0
147
0.0
147
0.0
147
1.0
  0
MATERIAL
  5
109
102
{ACAD_XDICTIONARY
360
10A
102
}
102
{ACAD_REACTORS
330
108
102
}
330
108
100
AcDbMaterial
  1
ByLayer
 72
     0
 43
0.0208333333333333
 43
0.0
 43
0.0
 43
0.0
 43
0.0
 43
0.0208333333333333
 43
0.0
 43
0.0
 43
0.0
 43
0.0
 43
1.0
 43
0.0
 43
0.0
 43
0.0
 43
0.0
 43
1.0
 77
     0
 47
0.0208333333333333
 47
0.0
 47
0.0
 47
0.0
 47
0.0
 47
0.0208333333333333
 47
0.0
 47
0.0
 47
0.0
 47
0.0
 47
1.0
 47
0.0
 47
0.0
 47
0.0
 47
0.0
 47
1.0
171
     0
 49
0.0208333333333333
 49
0.0
 49
0.0
 49
0.0
 49
0.0
 49
0.0208333333333333
 49
0.0
 49
0.0
 49
0.0
 49
0.0
 49
1.0
 49
0.0
 49
0.0
 49
0.0
 49
0.0
 49
1.0
175
     0
142
0.0208333333333333
142
0.0
142
0.0
142
0.0
142
0.0
142
0.0208333333333333
142
0.0
142
0.0
142
0.0
142
0.0
142
1.0
142
0.0
142
0.0
142
0.0
142
0.0
142
1.0
179
     0
144
0.0208333333333333
144
0.0
144
0.0
144
0.0
144
0.0
144
0.0208333333333333
144
0.0
144
0.0
144
0.0
144
0.0
144
1.0
144
0.0
144
0.0
144
0.0
144
0.0
144
1.0
147
0.0208333333333333
147
0.0
147
0.0
147
0.0
147
0.0
147
0.0208333333333333
147
0.0
147
0.0
147
0.0
147
0.0
147
1.0
147
0.0
147
0.0
147
0.0
147
0.0
147
1.0
  0
MATERIAL
  5
119
102
{ACAD_XDICTIONARY
360
11A
102
}
102
{ACAD_REACTORS
330
108
102
}
330
108
100
AcDbMaterial
  1
Global
 72
     0
 43
0.0208333333333333
 43
0.0
 43
0.0
 43
0.0
 43
0.0
 43
0.0208333333333333
 43
0.0
 43
0.0
 43
0.0
 43
0.0
 43
1.0
 43
0.0
 43
0.0
 43
0.0
 43
0.0
 43
1.0
 77
     0
 47
0.0208333333333333
 47
0.0
 47
0.0
 47
0.0
 47
0.0
 47
0.0208333333333333
 47
0.0
 47
0.0
 47
0.0
 47
0.0
 47
1.0
 47
0.0
 47
0.0
 47
0.0
 47
0.0
 47
1.0
171
     0
 49
0.0208333333333333
 49
0.0
 49
0.0
 49
0.0
 49
0.0
 49
0.0208333333333333
 49
0.0
 49
0.0
 49
0.0
 49
0.0
 49
1.0
 49
0.0
 49
0.0
 49
0.0
 49
0.0
 49
1.0
175
     0
142
0.0208333333333333
142
0.0
142
0.0
142
0.0
142
0.0
142
0.0208333333333333
142
0.0
142
0.0
142
0.0
142
0.0
142
1.0
142
0.0
142
0.0
142
0.0
142
0.0
142
1.0
179
     0
144
0.0208333333333333
144
0.0
144
0.0
144
0.0
144
0.0
144
0.0208333333333333
144
0.0
144
0.0
144
0.0
144
0.0
144
1.0
144
0.0
144
0.0
144
0.0
144
0.0
144
1.0
147
0.0208333333333333
147
0.0
147
0.0
147
0.0
147
0.0
147
0.0208333333333333
147
0.0
147
0.0
147
0.0
147
0.0
147
1.0
147
0.0
147
0.0
147
0.0
147
0.0
147
1.0
  0
MLEADERSTYLE
  5
150
102
{ACAD_REACTORS
330
14F
102
}
330
14F
100
AcDbMLeaderStyle
170
     2
171
     1
172
     0
 90
        2
 40
0.0
 41
0.0
173
     1
 91
-1056964608
340
29
 92
       -2
290
     1
 42
2.0
291
     1
 43
0.36
  3
Standard
 44
4.0
300

342
24
174
     1
178
     6
175
     1
176
     0
 93
-1056964608
 45
4.0
292
     0
297
     0
 46
4.0
 94
-1056964608
 47
1.0
 49
1.0
140
1.0
293
     1
141
0.0
294
     1
177
     0
142
1.0
295
     0
296
     0
143
0.125
1001
ACAD_MLEADERVER
1070
     2
  0
MLINESTYLE
  5
4
330
3
100
AcDbMlineStyle
  2
STANDARD
 70
     0
  3

 62
     0
 51
90.0
 52
90.0
 71
     2
 49
0.5
 62
   256
  6
BYLAYER
 49
-0.5
 62
   256
  6
BYLAYER
  0
ACDBPLACEHOLDER
  5
107
102
{ACAD_REACTORS
330
106
102
}
330
106
  0
SCALE
  5
13E
102
{ACAD_REACTORS
330
13D
102
}
330
13D
100
AcDbScale
 70
     0
300
1:1
140
1.0
141
1.0
290
     1
  0
SCALE
  5
13F
102
{ACAD_REACTORS
330
13D
102
}
330
13D
100
AcDbScale
 70
     0
300
1:2
140
1.0
141
2.0
290
     0
  0
SCALE
  5
140
102
{ACAD_REACTORS
330
13D
102
}
330
13D
100
AcDbScale
 70
     0
300
1:4
140
1.0
141
4.0
290
     0
  0
SCALE
  5
141
102
{ACAD_REACTORS
330
13D
102
}
330
13D
100
AcDbScale
 70
     0
300
1:5
140
1.0
141
5.0
290
     0
  0
SCALE
  5
142
102
{ACAD_REACTORS
330
13D
102
}
330
13D
100
AcDbScale
 70
     0
300
1:8
140
1.0
141
8.0
290
     0
  0
SCALE
  5
143
102
{ACAD_REACTORS
330
13D
102
}
330
13D
100
AcDbScale
 70
     0
300
1:10
140
1.0
141
10.0
290
     0
  0
SCALE
  5
144
102
{ACAD_REACTORS
330
13D
102
}
330
13D
100
AcDbScale
 70
     0
300
1:16
140
1.0
141
16.0
290
     0
  0
SCALE
  5
145
102
{ACAD_REACTORS
330
13D
102
}
330
13D
100
AcDbScale
 70
     0
300
1:20
140
1.0
141
20.0
290
     0
  0
SCALE
  5
146
102
{ACAD_REACTORS
330
13D
102
}
330
13D
100
AcDbScale
 70
     0
300
1:30
140
1.0
141
30.0
290
     0
  0
SCALE
  5
147
102
{ACAD_REACTORS
330
13D
102
}
330
13D
100
AcDbScale
 70
     0
300
1:40
140
1.0
141
40.0
290
     0
  0
SCALE
  5
148
102
{ACAD_REACTORS
330
13D
102
}
330
13D
100
AcDbScale
 70
     0
300
1:50
140
1.0
141
50.0
290
     0
  0
SCALE
  5
149
102
{ACAD_REACTORS
330
13D
102
}
330
13D
100
AcDbScale
 70
     0
300
1:100
140
1.0
141
100.0
290
     0
  0
SCALE
  5
14A
102
{ACAD_REACTORS
330
13D
102
}
330
13D
100
AcDbScale
 70
     0
300
2:1
140
2.0
141
1.0
290
     0
  0
SCALE
  5
14B
102
{ACAD_REACTORS
330
13D
102
}
330
13D
100
AcDbScale
 70
     0
300
4:1
140
4.0
141
1.0
290
     0
  0
SCALE
  5
14C
102
{ACAD_REACTORS
330
13D
102
}
330
13D
100
AcDbScale
 70
     0
300
8:1
140
8.0
141
1.0
290
     0
  0
SCALE
  5
14D
102
{ACAD_REACTORS
330
13D
102
}
330
13D
100
AcDbScale
 70
     0
300
10:1
140
10.0
141
1.0
290
     0
  0
SCALE
  5
14E
102
{ACAD_REACTORS
330
13D
102
}
330
13D
100
AcDbScale
 70
     0
300
100:1
140
100.0
141
1.0
290
     0
  0
TABLESTYLE
  5
13C
102
{ACAD_XDICTIONARY
360
1A6
102
}
102
{ACAD_REACTORS
330
13B
102
}
330
13B
100
AcDbTableStyle
  3
Standard
 70
     0
 71
     0
 40
1.5
 41
1.5
280
     0
281
     0
  7
STANDARD
140
4.5
170
     2
 62
     0
 63
     7
283
     0
274
    -2
284
     1
 64
     0
275
    -2
285
     1
 65
     0
276
    -2
286
     1
 66
     0
277
    -2
287
     1
 67
     0
278
    -2
288
     1
 68
     0
279
    -2
289
     1
 69
     0
  7
STANDARD
140
6.0
170
     5
 62
     0
 63
     7
283
     0
274
    -2
284
     1
 64
     0
275
    -2
285
     1
 65
     0
276
    -2
286
     1
 66
     0
277
    -2
287
     1
 67
     0
278
    -2
288
     1
 68
     0
279
    -2
289
     1
 69
     0
  7
STANDARD
140
4.5
170
     5
 62
     0
 63
     7
283
     0
274
    -2
284
     1
 64
     0
275
    -2
285
     1
 65
     0
276
    -2
286
     1
 66
     0
277
    -2
287
     1
 67
     0
278
    -2
288
     1
 68
     0
279
    -2
289
     1
 69
     0
  0
VISUALSTYLE
  5
127
102
{ACAD_XDICTIONARY
360
1B7
102
}
102
{ACAD_REACTORS
330
121
102
}
330
121
100
AcDbVisualStyle
  2
2dWireframe
 70
     4
 71
     0
 72
     2
 73
     0
 90
        0
 40
-0.6
 41
-30.0
 62
     5
 63
     7
 74
     1
 91
        4
 64
     7
 65
   257
 75
     1
175
     1
 42
1.0
 92
        0
 66
   257
 43
1.0
 76
     1
 77
     6
 78
     2
 67
     7
 79
     5
170
     0
171
     0
290
     0
174
     0
 93
        1
 44
0.0
173
     0
291
     0
 45
0.0
1001
ACAD
1000
AcDbSavedByObjectVersion
1070
     0
  0
VISUALSTYLE
  5
126
102
{ACAD_XDICTIONARY
360
1B5
102
}
102
{ACAD_REACTORS
330
121
102
}
330
121
100
AcDbVisualStyle
  2
Basic
 70
     7
 71
     1
 72
     0
 73
     1
 90
        0
 40
-0.6
 41
-30.0
 62
     5
 63
     7
 74
     0
 91
        4
 64
     7
 65
   257
 75
     1
175
     1
 42
1.0
 92
        8
 66
     7
 43
1.0
 76
     1
 77
     6
 78
     2
 67
     7
 79
     5
170
     0
171
     0
290
     0
174
     0
 93
        1
 44
0.0
173
     0
291
     1
 45
0.0
1001
ACAD
1000
AcDbSavedByObjectVersion
1070
     0
  0
VISUALSTYLE
  5
12D
102
{ACAD_XDICTIONARY
360
1C3
102
}
102
{ACAD_REACTORS
330
121
102
}
330
121
100
AcDbVisualStyle
  2
Brighten
 70
    12
 71
     2
 72
     2
 73
     0
 90
        0
 40
-0.6
 41
-30.0
 62
     5
 63
     7
 74
     1
 91
        4
 64
     7
 65
   257
 75
     1
175
     1
 42
1.0
 92
        8
 66
     7
 43
1.0
 76
     1
 77
     6
 78
     2
 67
     7
 79
     5
170
     0
171
     0
290
     0
174
     0
 93
        1
 44
50.0
173
     0
291
     1
 45
0.0
1001
ACAD
1000
AcDbSavedByObjectVersion
1070
     0
  0
VISUALSTYLE
  5
131
102
{ACAD_XDICTIONARY
360
1CB
102
}
102
{ACAD_REACTORS
330
121
102
}
330
121
100
AcDbVisualStyle
  2
ColorChange
 70
    16
 71
     2
 72
     2
 73
     3
 90
        0
 40
-0.6
 41
-30.0
 62
     5
 63
     8
 74
     1
 91
        4
 64
     7
 65
   257
 75
     1
175
     1
 42
1.0
 92
        8
 66
     8
 43
1.0
 76
     1
 77
     6
 78
     2
 67
     7
 79
     5
170
     0
171
     0
290
     0
174
     0
 93
        1
 44
0.0
173
     0
291
     1
 45
0.0
1001
ACAD
1000
AcDbSavedByObjectVersion
1070
     0
  0
VISUALSTYLE
  5
12A
102
{ACAD_XDICTIONARY
360
1BD
102
}
102
{ACAD_REACTORS
330
121
102
}
330
121
100
AcDbVisualStyle
  2
Conceptual
 70
     9
 71
     3
 72
     2
 73
     0
 90
        0
 40
-0.6
 41
-30.0
 62
     5
 63
     7
 74
     2
 91
        2
 64
     7
 65
   257
 75
     1
175
     1
 42
179.0
 92
        8
 66
     7
 43
1.0
 76
     1
 77
     6
 78
     2
 67
     7
 79
     3
170
     0
171
     0
290
     0
174
     0
 93
        1
 44
0.0
173
     0
291
     0
 45
0.0
1001
ACAD
1000
AcDbSavedByObjectVersion
1070
     0
  0
VISUALSTYLE
  5
12C
102
{ACAD_XDICTIONARY
360
1C1
102
}
102
{ACAD_REACTORS
330
121
102
}
330
121
100
AcDbVisualStyle
  2
Dim
 70
    11
 71
     2
 72
     2
 73
     0
 90
        0
 40
-0.6
 41
-30.0
 62
     5
 63
     7
 74
     1
 91
        4
 64
     7
 65
   257
 75
     1
175
     1
 42
1.0
 92
        8
 66
     7
 43
1.0
 76
     1
 77
     6
 78
     2
 67
     7
 79
     5
170
     0
171
     0
290
     0
174
     0
 93
        1
 44
-50.0
173
     0
291
     1
 45
0.0
1001
ACAD
1000
AcDbSavedByObjectVersion
1070
     0
  0
VISUALSTYLE
  5
139
102
{ACAD_XDICTIONARY
360
1DB
102
}
102
{ACAD_REACTORS
330
121
102
}
330
121
100
AcDbVisualStyle
  2
EdgeColorOff
 70
    22
 71
     2
 72
     2
 73
     0
 90
        0
 40
-0.6
 41
-30.0
 62
     5
 63
     7
 74
     1
 91
        4
 64
     7
 65
   257
 75
     1
175
     1
 42
1.0
 92
        8
 66
     7
 43
1.0
 76
     1
 77
     6
 78
     2
 67
     7
 79
     5
170
     0
171
     0
290
     0
174
     0
 93
        1
 44
0.0
173
     0
291
     1
 45
0.0
1001
ACAD
1000
AcDbSavedByObjectVersion
1070
     0
  0
VISUALSTYLE
  5
130
102
{ACAD_XDICTIONARY
360
1C9
102
}
102
{ACAD_REACTORS
330
121
102
}
330
121
100
AcDbVisualStyle
  2
Facepattern
 70
    15
 71
     2
 72
     2
 73
     0
 90
        0
 40
-0.6
 41
-30.0
 62
     5
 63
     7
 74
     1
 91
        4
 64
     7
 65
   257
 75
     1
175
     1
 42
1.0
 92
        8
 66
     7
 43
1.0
 76
     1
 77
     6
 78
     2
 67
     7
 79
     5
170
     0
171
     0
290
     0
174
     0
 93
        1
 44
0.0
173
     0
291
     1
 45
0.0
1001
ACAD
1000
AcDbSavedByObjectVersion
1070
     0
  0
VISUALSTYLE
  5
122
102
{ACAD_XDICTIONARY
360
1AD
102
}
102
{ACAD_REACTORS
330
121
102
}
330
121
100
AcDbVisualStyle
  2
Flat
 70
     0
 71
     2
 72
     1
 73
     1
 90
        2
 40
-0.6
 41
30.0
 62
     5
 63
     7
 74
     0
 91
        0
 64
     7
 65
   257
 75
     1
175
     1
 42
1.0
 92
        8
 66
     7
 43
1.0
 76
     1
 77
     6
 78
     2
 67
     7
 79
     5
170
     0
171
     0
290
     0
174
     0
 93
       13
 44
0.0
173
     0
291
     1
 45
0.0
1001
ACAD
1000
AcDbSavedByObjectVersion
1070
     0
  0
VISUALSTYLE
  5
123
102
{ACAD_XDICTIONARY
360
1AF
102
}
102
{ACAD_REACTORS
330
121
102
}
330
121
100
AcDbVisualStyle
  2
FlatWithEdges
 70
     1
 71
     2
 72
     1
 73
     1
 90
        2
 40
-0.6
 41
30.0
 62
     5
 63
     7
 74
     1
 91
        0
 64
     7
 65
   257
 75
     1
175
     1
 42
1.0
 92
        0
 66
   257
 43
1.0
 76
     1
 77
     6
 78
     2
 67
     7
 79
     5
170
     0
171
     0
290
     0
174
     0
 93
       13
 44
0.0
173
     0
291
     1
 45
0.0
1001
ACAD
1000
AcDbSavedByObjectVersion
1070
     0
  0
VISUALSTYLE
  5
124
102
{ACAD_XDICTIONARY
360
1B1
102
}
102
{ACAD_REACTORS
330
121
102
}
330
121
100
AcDbVisualStyle
  2
Gouraud
 70
     2
 71
     2
 72
     2
 73
     1
 90
        2
 40
-0.6
 41
30.0
 62
     5
 63
     7
 74
     0
 91
        0
 64
     7
 65
   257
 75
     1
175
     1
 42
1.0
 92
        0
 66
     7
 43
1.0
 76
     1
 77
     6
 78
     2
 67
     7
 79
     5
170
     0
171
     0
290
     0
174
     0
 93
       13
 44
0.0
173
     0
291
     1
 45
0.0
1001
ACAD
1000
AcDbSavedByObjectVersion
1070
     0
  0
VISUALSTYLE
  5
125
102
{ACAD_XDICTIONARY
360
1B3
102
}
102
{ACAD_REACTORS
330
121
102
}
330
121
100
AcDbVisualStyle
  2
GouraudWithEdges
 70
     3
 71
     2
 72
     2
 73
     1
 90
        2
 40
-0.6
 41
30.0
 62
     5
 63
     7
 74
     1
 91
        0
 64
     7
 65
   257
 75
     1
175
     1
 42
1.0
 92
        0
 66
   257
 43
1.0
 76
     1
 77
     6
 78
     2
 67
     7
 79
     5
170
     0
171
     0
290
     0
174
     0
 93
       13
 44
0.0
173
     0
291
     1
 45
0.0
1001
ACAD
1000
AcDbSavedByObjectVersion
1070
     0
  0
VISUALSTYLE
  5
129
102
{ACAD_XDICTIONARY
360
1BB
102
}
102
{ACAD_REACTORS
330
121
102
}
330
121
100
AcDbVisualStyle
  2
Hidden
 70
     6
 71
     1
 72
     2
 73
     2
 90
        0
 40
-0.6
 41
-30.0
 62
     5
 63
     7
 74
     2
 91
        2
 64
     7
 65
   257
 75
     2
175
     1
 42
40.0
 92
        0
 66
   257
 43
1.0
 76
     1
 77
     6
 78
     2
 67
     7
 79
     3
170
     0
171
     0
290
     0
174
     0
 93
        1
 44
0.0
173
     0
291
     0
 45
0.0
1001
ACAD
1000
AcDbSavedByObjectVersion
1070
     0
  0
VISUALSTYLE
  5
137
102
{ACAD_XDICTIONARY
360
1D7
102
}
102
{ACAD_REACTORS
330
121
102
}
330
121
100
AcDbVisualStyle
  2
JitterOff
 70
    20
 71
     2
 72
     2
 73
     0
 90
        0
 40
-0.6
 41
-30.0
 62
     5
 63
     7
 74
     1
 91
        4
 64
     7
 65
   257
 75
     1
175
     1
 42
1.0
 92
       10
 66
     7
 43
1.0
 76
     1
 77
     6
 78
     2
 67
     7
 79
     5
170
     0
171
     0
290
     0
174
     0
 93
        1
 44
0.0
173
     0
291
     1
 45
0.0
1001
ACAD
1000
AcDbSavedByObjectVersion
1070
     0
  0
VISUALSTYLE
  5
12F
102
{ACAD_XDICTIONARY
360
1C7
102
}
102
{ACAD_REACTORS
330
121
102
}
330
121
100
AcDbVisualStyle
  2
Linepattern
 70
    14
 71
     2
 72
     2
 73
     0
 90
        0
 40
-0.6
 41
-30.0
 62
     5
 63
     7
 74
     1
 91
        4
 64
     7
 65
   257
 75
     7
175
     7
 42
1.0
 92
        8
 66
     7
 43
1.0
 76
     1
 77
     6
 78
     2
 67
     7
 79
     5
170
     0
171
     0
290
     0
174
     0
 93
        1
 44
0.0
173
     0
291
     1
 45
0.0
1001
ACAD
1000
AcDbSavedByObjectVersion
1070
     0
  0
VISUALSTYLE
  5
138
102
{ACAD_XDICTIONARY
360
1D9
102
}
102
{ACAD_REACTORS
330
121
102
}
330
121
100
AcDbVisualStyle
  2
OverhangOff
 70
    21
 71
     2
 72
     2
 73
     0
 90
        0
 40
-0.6
 41
-30.0
 62
     5
 63
     7
 74
     1
 91
        4
 64
     7
 65
   257
 75
     1
175
     1
 42
1.0
 92
        9
 66
     7
 43
1.0
 76
     1
 77
     6
 78
     2
 67
     7
 79
     5
170
     0
171
     0
290
     0
174
     0
 93
        1
 44
0.0
173
     0
291
     1
 45
0.0
1001
ACAD
1000
AcDbSavedByObjectVersion
1070
     0
  0
VISUALSTYLE
  5
12B
102
{ACAD_XDICTIONARY
360
1BF
102
}
102
{ACAD_REACTORS
330
121
102
}
330
121
100
AcDbVisualStyle
  2
Realistic
 70
     8
 71
     2
 72
     3
 73
     0
 90
        2
 40
-0.6
 41
30.0
 62
     5
 63
     7
 74
     0
 91
        0
 64
     7
 65
   257
 75
     1
175
     1
 42
1.0
 92
        8
 66
   257
 43
1.0
 76
     1
 77
     6
 78
     2
 67
     7
 79
     3
170
     0
171
     0
290
     0
174
     0
 93
       13
 44
0.0
173
     0
291
     0
 45
0.0
1001
ACAD
1000
AcDbSavedByObjectVersion
1070
     0
  0
VISUALSTYLE
  5
136
102
{ACAD_XDICTIONARY
360
1D5
102
}
102
{ACAD_REACTORS
330
121
102
}
330
121
100
AcDbVisualStyle
  2
Shaded
 70
    27
 71
     2
 72
     2
 73
     1
 90
        2
 40
-0.6
 41
30.0
 62
     5
 63
     7
 74
     0
 91
        4
 64
     7
 65
   257
 75
     1
175
     1
 42
1.0
 92
        8
 66
   257
 43
1.0
 76
     1
 77
     6
 78
     2
 67
     8
 79
     3
170
     0
171
     0
290
     0
174
     0
 93
        5
 44
0.0
173
     0
291
     0
 45
0.0
1001
ACAD
1000
AcDbSavedByObjectVersion
1070
     0
  0
VISUALSTYLE
  5
135
102
{ACAD_XDICTIONARY
360
1D3
102
}
102
{ACAD_REACTORS
330
121
102
}
330
121
100
AcDbVisualStyle
  2
Shaded with edges
 70
    26
 71
     2
 72
     2
 73
     1
 90
        2
 40
-0.6
 41
30.0
 62
     5
 63
     7
 74
     1
 91
       10
 64
     7
 65
   257
 75
     2
175
     1
 42
1.0
 92
        8
 66
   257
 43
1.0
 76
     1
 77
     6
 78
     2
 67
     7
 79
     3
170
     0
171
     0
290
     0
174
     0
 93
        5
 44
0.0
173
     0
291
     0
 45
0.0
1001
ACAD
1000
AcDbSavedByObjectVersion
1070
     0
  0
VISUALSTYLE
  5
132
102
{ACAD_XDICTIONARY
360
1CD
102
}
102
{ACAD_REACTORS
330
121
102
}
330
121
100
AcDbVisualStyle
  2
Shades of Gray
 70
    23
 71
     2
 72
     2
 73
     3
 90
        0
 40
-0.6
 41
-30.0
 62
     5
 63
     7
 74
     2
 91
        2
 64
     7
 65
     7
 75
     1
175
     1
 42
40.0
 92
        8
 66
     7
 43
1.0
 76
     1
 77
     6
 78
     2
 67
     7
 79
     3
170
     0
171
     0
290
     0
174
     0
 93
        1
 44
0.0
173
     0
291
     0
 45
0.0
1001
ACAD
1000
AcDbSavedByObjectVersion
1070
     0
  0
VISUALSTYLE
  5
133
102
{ACAD_XDICTIONARY
360
1CF
102
}
102
{ACAD_REACTORS
330
121
102
}
330
121
100
AcDbVisualStyle
  2
Sketchy
 70
    24
 71
     1
 72
     2
 73
     2
 90
        0
 40
-0.6
 41
-30.0
 62
     5
 63
     7
 74
     2
 91
        2
 64
     7
 65
     7
 75
     1
175
     1
 42
40.0
 92
       11
 66
     7
 43
1.0
 76
     1
 77
     6
 78
     2
 67
     7
 79
     6
170
     0
171
     0
290
     0
174
     0
 93
        1
 44
0.0
173
     0
291
     0
 45
0.0
1001
ACAD
1000
AcDbSavedByObjectVersion
1070
     0
  0
VISUALSTYLE
  5
12E
102
{ACAD_XDICTIONARY
360
1C5
102
}
102
{ACAD_REACTORS
330
121
102
}
330
121
100
AcDbVisualStyle
  2
Thicken
 70
    13
 71
     2
 72
     2
 73
     0
 90
        0
 40
-0.6
 41
-30.0
 62
     5
 63
     7
 74
     1
 91
        4
 64
     7
 65
   257
 75
     1
175
     1
 42
1.0
 92
       12
 66
     7
 43
1.0
 76
     1
 77
     6
 78
     2
 67
     7
 79
     5
170
     0
171
     0
290
     0
174
     0
 93
        1
 44
0.0
173
     0
291
     1
 45
0.0
1001
ACAD
1000
AcDbSavedByObjectVersion
1070
     0
  0
VISUALSTYLE
  5
128
102
{ACAD_XDICTIONARY
360
1B9
102
}
102
{ACAD_REACTORS
330
121
102
}
330
121
100
AcDbVisualStyle
  2
Wireframe
 70
     5
 71
     0
 72
     2
 73
     0
 90
        0
 40
-0.6
 41
-30.0
 62
     5
 63
     7
 74
     1
 91
        4
 64
     7
 65
   257
 75
     1
175
     1
 42
1.0
 92
        0
 66
   257
 43
1.0
 76
     1
 77
     6
 78
     2
 67
     7
 79
     3
170
     0
171
     0
290
     0
174
     0
 93
        1
 44
0.0
173
     0
291
     0
 45
0.0
1001
ACAD
1000
AcDbSavedByObjectVersion
1070
     0
  0
VISUALSTYLE
  5
134
102
{ACAD_XDICTIONARY
360
1D1
102
}
102
{ACAD_REACTORS
330
121
102
}
330
121
100
AcDbVisualStyle
  2
X-Ray
 70
    25
 71
     2
 72
     2
 73
     1
 90
        1
 40
0.5
 41
-30.0
 62
     5
 63
     7
 74
     1
 91
        0
 64
     7
 65
   257
 75
     1
175
     1
 42
1.0
 92
        8
 66
     7
 43
1.0
 76
     1
 77
     6
 78
     2
 67
     7
 79
     3
170
     0
171
     0
290
     0
174
     0
 93
       13
 44
0.0
173
     0
291
     0
 45
0.0
1001
ACAD
1000
AcDbSavedByObjectVersion
1070
     0
  0
DICTIONARYVAR
  5
1A1
102
{ACAD_REACTORS
330
19E
102
}
330
19E
100
DictionaryVariables
280
     0
  1
1:1
  0
DICTIONARYVAR
  5
1A0
102
{ACAD_REACTORS
330
19E
102
}
330
19E
100
DictionaryVariables
280
     0
  1
STANDARD
  0
DICTIONARYVAR
  5
19F
102
{ACAD_REACTORS
330
19E
102
}
330
19E
100
DictionaryVariables
280
     0
  1
STANDARD
  0
DICTIONARYVAR
  5
1A4
102
{ACAD_REACTORS
330
19E
102
}
330
19E
100
DictionaryVariables
280
     0
  1
1
  0
DICTIONARYVAR
  5
1A3
102
{ACAD_REACTORS
330
19E
102
}
330
19E
100
DictionaryVariables
280
     0
  1
0
  0
DICTIONARYVAR
  5
1A2
102
{ACAD_REACTORS
330
19E
102
}
330
19E
100
DictionaryVariables
280
     0
  1
127
  0
DICTIONARYVAR
  5
1A5
102
{ACAD_REACTORS
330
19E
102
}
330
19E
100
DictionaryVariables
280
     0
  1
2
  0
DICTIONARY
  5
1DF
330
154
100
AcDbDictionary
280
     1
281
     1
  3
ACAD_XREC_ROUNDTRIP
360
1E0
  0
DICTIONARY
  5
1E1
330
155
100
AcDbDictionary
280
     1
281
     1
  3
ACAD_XREC_ROUNDTRIP
360
1E2
  0
DICTIONARY
  5
112
330
111
100
AcDbDictionary
280
     1
281
     1
  3
ACAD_XREC_ROUNDTRIP
360
1AB
  3
BUMPTILE
360
114
  3
DIFFUSETILE
360
113
  3
OPACITYTILE
360
117
  3
REFLECTIONTILE
360
116
  3
REFRACTIONTILE
360
118
  3
SPECULARTILE
360
115
  0
DICTIONARY
  5
10A
330
109
100
AcDbDictionary
280
     1
281
     1
  3
ACAD_XREC_ROUNDTRIP
360
1AA
  3
BUMPTILE
360
10C
  3
DIFFUSETILE
360
10B
  3
OPACITYTILE
360
10F
  3
REFLECTIONTILE
360
10E
  3
REFRACTIONTILE
360
110
  3
SPECULARTILE
360
10D
  0
DICTIONARY
  5
11A
330
119
100
AcDbDictionary
280
     1
281
     1
  3
ACAD_XREC_ROUNDTRIP
360
1AC
  3
BUMPTILE
360
11C
  3
DIFFUSETILE
360
11B
  3
OPACITYTILE
360
11F
  3
REFLECTIONTILE
360
11E
  3
REFRACTIONTILE
360
120
  3
SPECULARTILE
360
11D
  0
DICTIONARY
  5
1A6
330
13C
100
AcDbDictionary
280
     1
281
     1
  3
ACAD_ROUNDTRIP_2008_TABLESTYLE_CELLSTYLEMAP
360
1A7
  3
ACAD_XREC_ROUNDTRIP
360
1DD
  0
DICTIONARY
  5
1B7
330
127
100
AcDbDictionary
280
     1
281
     1
  3
ACAD_XREC_ROUNDTRIP
360
1B8
  0
DICTIONARY
  5
1B5
330
126
100
AcDbDictionary
280
     1
281
     1
  3
ACAD_XREC_ROUNDTRIP
360
1B6
  0
DICTIONARY
  5
1C3
330
12D
100
AcDbDictionary
280
     1
281
     1
  3
ACAD_XREC_ROUNDTRIP
360
1C4
  0
DICTIONARY
  5
1CB
330
131
100
AcDbDictionary
280
     1
281
     1
  3
ACAD_XREC_ROUNDTRIP
360
1CC
  0
DICTIONARY
  5
1BD
330
12A
100
AcDbDictionary
280
     1
281
     1
  3
ACAD_XREC_ROUNDTRIP
360
1BE
  0
DICTIONARY
  5
1C1
330
12C
100
AcDbDictionary
280
     1
281
     1
  3
ACAD_XREC_ROUNDTRIP
360
1C2
  0
DICTIONARY
  5
1DB
330
139
100
AcDbDictionary
280
     1
281
     1
  3
ACAD_XREC_ROUNDTRIP
360
1DC
  0
DICTIONARY
  5
1C9
330
130
100
AcDbDictionary
280
     1
281
     1
  3
ACAD_XREC_ROUNDTRIP
360
1CA
  0
DICTIONARY
  5
1AD
330
122
100
AcDbDictionary
280
     1
281
     1
  3
ACAD_XREC_ROUNDTRIP
360
1AE
  0
DICTIONARY
  5
1AF
330
123
100
AcDbDictionary
280
     1
281
     1
  3
ACAD_XREC_ROUNDTRIP
360
1B0
  0
DICTIONARY
  5
1B1
330
124
100
AcDbDictionary
280
     1
281
     1
  3
ACAD_XREC_ROUNDTRIP
360
1B2
  0
DICTIONARY
  5
1B3
330
125
100
AcDbDictionary
280
     1
281
     1
  3
ACAD_XREC_ROUNDTRIP
360
1B4
  0
DICTIONARY
  5
1BB
330
129
100
AcDbDictionary
280
     1
281
     1
  3
ACAD_XREC_ROUNDTRIP
360
1BC
  0
DICTIONARY
  5
1D7
330
137
100
AcDbDictionary
280
     1
281
     1
  3
ACAD_XREC_ROUNDTRIP
360
1D8
  0
DICTIONARY
  5
1C7
330
12F
100
AcDbDictionary
280
     1
281
     1
  3
ACAD_XREC_ROUNDTRIP
360
1C8
  0
DICTIONARY
  5
1D9
330
138
100
AcDbDictionary
280
     1
281
     1
  3
ACAD_XREC_ROUNDTRIP
360
1DA
  0
DICTIONARY
  5
1BF
330
12B
100
AcDbDictionary
280
     1
281
     1
  3
ACAD_XREC_ROUNDTRIP
360
1C0
  0
DICTIONARY
  5
1D5
330
136
100
AcDbDictionary
280
     1
281
     1
  3
ACAD_XREC_ROUNDTRIP
360
1D6
  0
DICTIONARY
  5
1D3
330
135
100
AcDbDictionary
280
     1
281
     1
  3
ACAD_XREC_ROUNDTRIP
360
1D4
  0
DICTIONARY
  5
1CD
330
132
100
AcDbDictionary
280
     1
281
     1
  3
ACAD_XREC_ROUNDTRIP
360
1CE
  0
DICTIONARY
  5
1CF
330
133
100
AcDbDictionary
280
     1
281
     1
  3
ACAD_XREC_ROUNDTRIP
360
1D0
  0
DICTIONARY
  5
1C5
330
12E
100
AcDbDictionary
280
     1
281
     1
  3
ACAD_XREC_ROUNDTRIP
360
1C6
  0
DICTIONARY
  5
1B9
330
128
100
AcDbDictionary
280
     1
281
     1
  3
ACAD_XREC_ROUNDTRIP
360
1BA
  0
DICTIONARY
  5
1D1
330
134
100
AcDbDictionary
280
     1
281
     1
  3
ACAD_XREC_ROUNDTRIP
360
1D2
  0
XRECORD
  5
1E0
102
{ACAD_REACTORS
330
1DF
102
}
330
1DF
100
AcDbXrecord
280
     1
102
SHADEPLOT
 70
     0
102
SHADEPLOTRESLEVEL
 70
     2
102
SHADEPLOTCUSTOMDPI
 70
   300
  0
XRECORD
  5
1E2
102
{ACAD_REACTORS
330
1E1
102
}
330
1E1
100
AcDbXrecord
280
     1
102
SHADEPLOT
 70
     0
102
SHADEPLOTRESLEVEL
 70
     2
102
SHADEPLOTCUSTOMDPI
 70
   300
  0
XRECORD
  5
1AB
102
{ACAD_REACTORS
330
112
102
}
330
112
100
AcDbXrecord
280
     1
102
MATERIAL
148
0.0
149
0.0
149
0.0
 93
        0
 94
      127
282
     0
 72
     0
 77
     0
171
     0
175
     0
179
     0
273
     0
  0
XRECORD
  5
114
102
{ACAD_REACTORS
330
112
102
}
330
112
100
AcDbXrecord
280
     1
270
     1
271
     1
  0
XRECORD
  5
113
102
{ACAD_REACTORS
330
112
102
}
330
112
100
AcDbXrecord
280
     1
270
     1
271
     1
  0
XRECORD
  5
117
102
{ACAD_REACTORS
330
112
102
}
330
112
100
AcDbXrecord
280
     1
270
     1
271
     1
  0
XRECORD
  5
116
102
{ACAD_REACTORS
330
112
102
}
330
112
100
AcDbXrecord
280
     1
270
     1
271
     1
  0
XRECORD
  5
118
102
{ACAD_REACTORS
330
112
102
}
330
112
100
AcDbXrecord
280
     1
270
     1
271
     1
  0
XRECORD
  5
115
102
{ACAD_REACTORS
330
112
102
}
330
112
100
AcDbXrecord
280
     1
270
     1
271
     1
  0
XRECORD
  5
1AA
102
{ACAD_REACTORS
330
10A
102
}
330
10A
100
AcDbXrecord
280
     1
102
MATERIAL
148
0.0
149
0.0
149
0.0
 93
        0
 94
      127
282
     0
 72
     0
 77
     0
171
     0
175
     0
179
     0
273
     0
  0
XRECORD
  5
10C
102
{ACAD_REACTORS
330
10A
102
}
330
10A
100
AcDbXrecord
280
     1
270
     1
271
     1
  0
XRECORD
  5
10B
102
{ACAD_REACTORS
330
10A
102
}
330
10A
100
AcDbXrecord
280
     1
270
     1
271
     1
  0
XRECORD
  5
10F
102
{ACAD_REACTORS
330
10A
102
}
330
10A
100
AcDbXrecord
280
     1
270
     1
271
     1
  0
XRECORD
  5
10E
102
{ACAD_REACTORS
330
10A
102
}
330
10A
100
AcDbXrecord
280
     1
270
     1
271
     1
  0
XRECORD
  5
110
102
{ACAD_REACTORS
330
10A
102
}
330
10A
100
AcDbXrecord
280
     1
270
     1
271
     1
  0
XRECORD
  5
10D
102
{ACAD_REACTORS
330
10A
102
}
330
10A
100
AcDbXrecord
280
     1
270
     1
271
     1
  0
XRECORD
  5
1AC
102
{ACAD_REACTORS
330
11A
102
}
330
11A
100
AcDbXrecord
280
     1
102
MATERIAL
148
0.0
149
0.0
149
0.0
 93
        0
 94
      127
282
     0
 72
     0
 77
     0
171
     0
175
     0
179
     0
273
     0
  0
XRECORD
  5
11C
102
{ACAD_REACTORS
330
11A
102
}
330
11A
100
AcDbXrecord
280
     1
270
     1
271
     1
  0
XRECORD
  5
11B
102
{ACAD_REACTORS
330
11A
102
}
330
11A
100
AcDbXrecord
280
     1
270
     1
271
     1
  0
XRECORD
  5
11F
102
{ACAD_REACTORS
330
11A
102
}
330
11A
100
AcDbXrecord
280
     1
270
     1
271
     1
  0
XRECORD
  5
11E
102
{ACAD_REACTORS
330
11A
102
}
330
11A
100
AcDbXrecord
280
     1
270
     1
271
     1
  0
XRECORD
  5
120
102
{ACAD_REACTORS
330
11A
102
}
330
11A
100
AcDbXrecord
280
     1
270
     1
271
     1
  0
XRECORD
  5
11D
102
{ACAD_REACTORS
330
11A
102
}
330
11A
100
AcDbXrecord
280
     1
270
     1
271
     1
  0
CELLSTYLEMAP
  5
1A7
102
{ACAD_REACTORS
330
1A6
102
}
330
1A6
100
AcDbCellStyleMap
 90
        3
300
CELLSTYLE
  1
TABLEFORMAT_BEGIN
 90
        5
170
     1
 91
        0
 92
    32768
 62
   257
 93
        1
300
CONTENTFORMAT
  1
CONTENTFORMAT_BEGIN
 90
        0
 91
        0
 92
      512
 93
        0
300

 40
0.0
140
1.0
 94
        5
 62
     0
340
24
144
6.0
309
CONTENTFORMAT_END
171
     1
301
MARGIN
  1
CELLMARGIN_BEGIN
 40
1.5
 40
1.5
 40
1.5
 40
1.5
 40
4.5
 40
4.5
309
CELLMARGIN_END
 94
        6
 95
        1
302
GRIDFORMAT
  1
GRIDFORMAT_BEGIN
 90
        0
 91
        1
 62
     0
 92
       -2
340
0
 93
        0
 40
1.125
309
GRIDFORMAT_END
 95
        2
302
GRIDFORMAT
  1
GRIDFORMAT_BEGIN
 90
        0
 91
        1
 62
     0
 92
       -2
340
0
 93
        0
 40
1.125
309
GRIDFORMAT_END
 95
        4
302
GRIDFORMAT
  1
GRIDFORMAT_BEGIN
 90
        0
 91
        1
 62
     0
 92
       -2
340
0
 93
        0
 40
1.125
309
GRIDFORMAT_END
 95
        8
302
GRIDFORMAT
  1
GRIDFORMAT_BEGIN
 90
        0
 91
        1
 62
     0
 92
       -2
340
0
 93
        0
 40
1.125
309
GRIDFORMAT_END
 95
       16
302
GRIDFORMAT
  1
GRIDFORMAT_BEGIN
 90
        0
 91
        1
 62
     0
 92
       -2
340
0
 93
        0
 40
1.125
309
GRIDFORMAT_END
 95
       32
302
GRIDFORMAT
  1
GRIDFORMAT_BEGIN
 90
        0
 91
        1
 62
     0
 92
       -2
340
0
 93
        0
 40
1.125
309
GRIDFORMAT_END
309
TABLEFORMAT_END
  1
CELLSTYLE_BEGIN
 90
        1
 91
        1
300
_TITLE
309
CELLSTYLE_END
300
CELLSTYLE
  1
TABLEFORMAT_BEGIN
 90
        5
170
     1
 91
        0
 92
        0
 62
   257
 93
        1
300
CONTENTFORMAT
  1
CONTENTFORMAT_BEGIN
 90
        0
 91
        0
 92
      512
 93
        0
300

 40
0.0
140
1.0
 94
        5
 62
     0
340
24
144
4.5
309
CONTENTFORMAT_END
171
     1
301
MARGIN
  1
CELLMARGIN_BEGIN
 40
1.5
 40
1.5
 40
1.5
 40
1.5
 40
4.5
 40
4.5
309
CELLMARGIN_END
 94
        6
 95
        1
302
GRIDFORMAT
  1
GRIDFORMAT_BEGIN
 90
        0
 91
        1
 62
     0
 92
       -2
340
0
 93
        0
 40
1.125
309
GRIDFORMAT_END
 95
        2
302
GRIDFORMAT
  1
GRIDFORMAT_BEGIN
 90
        0
 91
        1
 62
     0
 92
       -2
340
0
 93
        0
 40
1.125
309
GRIDFORMAT_END
 95
        4
302
GRIDFORMAT
  1
GRIDFORMAT_BEGIN
 90
        0
 91
        1
 62
     0
 92
       -2
340
0
 93
        0
 40
1.125
309
GRIDFORMAT_END
 95
        8
302
GRIDFORMAT
  1
GRIDFORMAT_BEGIN
 90
        0
 91
        1
 62
     0
 92
       -2
340
0
 93
        0
 40
1.125
309
GRIDFORMAT_END
 95
       16
302
GRIDFORMAT
  1
GRIDFORMAT_BEGIN
 90
        0
 91
        1
 62
     0
 92
       -2
340
0
 93
        0
 40
1.125
309
GRIDFORMAT_END
 95
       32
302
GRIDFORMAT
  1
GRIDFORMAT_BEGIN
 90
        0
 91
        1
 62
     0
 92
       -2
340
0
 93
        0
 40
1.125
309
GRIDFORMAT_END
309
TABLEFORMAT_END
  1
CELLSTYLE_BEGIN
 90
        2
 91
        1
300
_HEADER
309
CELLSTYLE_END
300
CELLSTYLE
  1
TABLEFORMAT_BEGIN
 90
        5
170
     1
 91
        0
 92
        0
 62
   257
 93
        1
300
CONTENTFORMAT
  1
CONTENTFORMAT_BEGIN
 90
        0
 91
        0
 92
      512
 93
        0
300

 40
0.0
140
1.0
 94
        2
 62
     0
340
24
144
4.5
309
CONTENTFORMAT_END
171
     1
301
MARGIN
  1
CELLMARGIN_BEGIN
 40
1.5
 40
1.5
 40
1.5
 40
1.5
 40
4.5
 40
4.5
309
CELLMARGIN_END
 94
        6
 95
        1
302
GRIDFORMAT
  1
GRIDFORMAT_BEGIN
 90
        0
 91
        1
 62
     0
 92
       -2
340
0
 93
        0
 40
1.125
309
GRIDFORMAT_END
 95
        2
302
GRIDFORMAT
  1
GRIDFORMAT_BEGIN
 90
        0
 91
        1
 62
     0
 92
       -2
340
0
 93
        0
 40
1.125
309
GRIDFORMAT_END
 95
        4
302
GRIDFORMAT
  1
GRIDFORMAT_BEGIN
 90
        0
 91
        1
 62
     0
 92
       -2
340
0
 93
        0
 40
1.125
309
GRIDFORMAT_END
 95
        8
302
GRIDFORMAT
  1
GRIDFORMAT_BEGIN
 90
        0
 91
        1
 62
     0
 92
       -2
340
0
 93
        0
 40
1.125
309
GRIDFORMAT_END
 95
       16
302
GRIDFORMAT
  1
GRIDFORMAT_BEGIN
 90
        0
 91
        1
 62
     0
 92
       -2
340
0
 93
        0
 40
1.125
309
GRIDFORMAT_END
 95
       32
302
GRIDFORMAT
  1
GRIDFORMAT_BEGIN
 90
        0
 91
        1
 62
     0
 92
       -2
340
0
 93
        0
 40
1.125
309
GRIDFORMAT_END
309
TABLEFORMAT_END
  1
CELLSTYLE_BEGIN
 90
        3
 91
        2
300
_DATA
309
CELLSTYLE_END
  0
XRECORD
  5
1DD
102
{ACAD_REACTORS
330
1A6
102
}
330
1A6
100
AcDbXrecord
280
     1
102
ACAD_ROUNDTRIP_PRE2007_TABLESTYLE
 90
      512
 91
        0
  1

 92
      512
 93
        0
  2

 94
      512
 95
        0
  3

  0
XRECORD
  5
1B8
102
{ACAD_REACTORS
330
1B7
102
}
330
1B7
100
AcDbXrecord
280
     1
102
RTVSPropertyOp0
 70
     1
102
RTVSPropertyOp1
 70
     1
102
RTVSPropertyOp2
 70
     1
102
RTVSPropertyOp3
 70
     1
102
RTVSPropertyOp4
 70
     1
102
RTVSPropertyOp5
 70
     1
102
RTVSPropertyOp6
 70
     1
102
RTVSPropertyOp7
 70
     1
102
RTVSPropertyOp8
 70
     1
102
RTVSPropertyOp9
 70
     1
102
RTVSPropertyOp10
 70
     1
102
RTVSPropertyOp11
 70
     1
102
RTVSPropertyOp12
 70
     1
102
RTVSPropertyOp13
 70
     1
102
RTVSPropertyOp14
 70
     1
102
RTVSPropertyOp15
 70
     1
102
RTVSPropertyOp16
 70
     1
102
RTVSPropertyOp17
 70
     1
102
RTVSPropertyOp18
 70
     1
102
RTVSPropertyOp19
 70
     1
102
RTVSPropertyOp20
 70
     1
102
RTVSPropertyOp21
 70
     1
102
RTVSPropertyOp22
 70
     1
102
RTVSPropertyOp23
 70
     1
102
RTVSPropertyOp24
 70
     1
102
RTVSPropertyOp25
 70
     1
102
RTVSPropertyOp26
 70
     1
102
RTVSPropertyOp27
 70
     1
102
RTVSPropertyOp28
 70
     1
102
RTVSPropertyOp29
 70
     1
102
RTVSPropertyOp30
 70
     1
102
RTVSPropertyOp31
 70
     1
102
RTVSPropertyOp32
 70
     1
  0
XRECORD
  5
1B6
102
{ACAD_REACTORS
330
1B5
102
}
330
1B5
100
AcDbXrecord
280
     1
102
RTVSPropertyOp0
 70
     1
102
RTVSPropertyOp1
 70
     1
102
RTVSPropertyOp2
 70
     1
102
RTVSPropertyOp3
 70
     1
102
RTVSPropertyOp4
 70
     1
102
RTVSPropertyOp5
 70
     1
102
RTVSPropertyOp6
 70
     1
102
RTVSPropertyOp7
 70
     1
102
RTVSPropertyOp8
 70
     1
102
RTVSPropertyOp9
 70
     1
102
RTVSPropertyOp10
 70
     1
102
RTVSPropertyOp11
 70
     1
102
RTVSPropertyOp12
 70
     1
102
RTVSPropertyOp13
 70
     1
102
RTVSPropertyOp14
 70
     1
102
RTVSPropertyOp15
 70
     1
102
RTVSPropertyOp16
 70
     1
102
RTVSPropertyOp17
 70
     1
102
RTVSPropertyOp18
 70
     1
102
RTVSPropertyOp19
 70
     1
102
RTVSPropertyOp20
 70
     1
102
RTVSPropertyOp21
 70
     1
102
RTVSPropertyOp22
 70
     1
102
RTVSPropertyOp23
 70
     1
102
RTVSPropertyOp24
 70
     1
102
RTVSPropertyOp25
 70
     1
102
RTVSPropertyOp26
 70
     1
102
RTVSPropertyOp27
 70
     1
102
RTVSPropertyOp28
 70
     1
102
RTVSPropertyOp29
 70
     1
102
RTVSPropertyOp30
 70
     1
102
RTVSPropertyOp31
 70
     1
102
RTVSPropertyOp32
 70
     1
  0
XRECORD
  5
1C4
102
{ACAD_REACTORS
330
1C3
102
}
330
1C3
100
AcDbXrecord
280
     1
102
RTVSPropertyOp0
 70
     1
102
RTVSPropertyOp1
 70
     1
102
RTVSPropertyOp2
 70
     1
102
RTVSPropertyOp3
 70
     1
102
RTVSPropertyOp4
 70
     1
102
RTVSPropertyOp5
 70
     1
102
RTVSPropertyOp6
 70
     1
102
RTVSPropertyOp7
 70
     1
102
RTVSPropertyOp8
 70
     1
102
RTVSPropertyOp9
 70
     1
102
RTVSPropertyOp10
 70
     1
102
RTVSPropertyOp11
 70
     1
102
RTVSPropertyOp12
 70
     1
102
RTVSPropertyOp13
 70
     1
102
RTVSPropertyOp14
 70
     1
102
RTVSPropertyOp15
 70
     1
102
RTVSPropertyOp16
 70
     1
102
RTVSPropertyOp17
 70
     1
102
RTVSPropertyOp18
 70
     1
102
RTVSPropertyOp19
 70
     1
102
RTVSPropertyOp20
 70
     1
102
RTVSPropertyOp21
 70
     1
102
RTVSPropertyOp22
 70
     1
102
RTVSPropertyOp23
 70
     1
102
RTVSPropertyOp24
 70
     1
102
RTVSPropertyOp25
 70
     1
102
RTVSPropertyOp26
 70
     1
102
RTVSPropertyOp27
 70
     1
102
RTVSPropertyOp28
 70
     1
102
RTVSPropertyOp29
 70
     1
102
RTVSPropertyOp30
 70
     1
102
RTVSPropertyOp31
 70
     1
102
RTVSPropertyOp32
 70
     1
  0
XRECORD
  5
1CC
102
{ACAD_REACTORS
330
1CB
102
}
330
1CB
100
AcDbXrecord
280
     1
102
RTVSPropertyOp0
 70
     1
102
RTVSPropertyOp1
 70
     1
102
RTVSPropertyOp2
 70
     1
102
RTVSPropertyOp3
 70
     1
102
RTVSPropertyOp4
 70
     1
102
RTVSPropertyOp5
 70
     1
102
RTVSPropertyOp6
 70
     1
102
RTVSPropertyOp7
 70
     1
102
RTVSPropertyOp8
 70
     1
102
RTVSPropertyOp9
 70
     1
102
RTVSPropertyOp10
 70
     1
102
RTVSPropertyOp11
 70
     1
102
RTVSPropertyOp12
 70
     1
102
RTVSPropertyOp13
 70
     1
102
RTVSPropertyOp14
 70
     1
102
RTVSPropertyOp15
 70
     1
102
RTVSPropertyOp16
 70
     1
102
RTVSPropertyOp17
 70
     1
102
RTVSPropertyOp18
 70
     1
102
RTVSPropertyOp19
 70
     1
102
RTVSPropertyOp20
 70
     1
102
RTVSPropertyOp21
 70
     1
102
RTVSPropertyOp22
 70
     1
102
RTVSPropertyOp23
 70
     1
102
RTVSPropertyOp24
 70
     1
102
RTVSPropertyOp25
 70
     1
102
RTVSPropertyOp26
 70
     1
102
RTVSPropertyOp27
 70
     1
102
RTVSPropertyOp28
 70
     1
102
RTVSPropertyOp29
 70
     1
102
RTVSPropertyOp30
 70
     1
102
RTVSPropertyOp31
 70
     1
102
RTVSPropertyOp32
 70
     1
  0
XRECORD
  5
1BE
102
{ACAD_REACTORS
330
1BD
102
}
330
1BD
100
AcDbXrecord
280
     1
102
RTVSPropertyOp0
 70
     1
102
RTVSPropertyOp1
 70
     1
102
RTVSPropertyOp2
 70
     1
102
RTVSPropertyOp3
 70
     1
102
RTVSPropertyOp4
 70
     1
102
RTVSPropertyOp5
 70
     1
102
RTVSPropertyOp6
 70
     1
102
RTVSPropertyOp7
 70
     1
102
RTVSPropertyOp8
 70
     1
102
RTVSPropertyOp9
 70
     1
102
RTVSPropertyOp10
 70
     1
102
RTVSPropertyOp11
 70
     1
102
RTVSPropertyOp12
 70
     1
102
RTVSPropertyOp13
 70
     1
102
RTVSPropertyOp14
 70
     1
102
RTVSPropertyOp15
 70
     1
102
RTVSPropertyOp16
 70
     1
102
RTVSPropertyOp17
 70
     1
102
RTVSPropertyOp18
 70
     1
102
RTVSPropertyOp19
 70
     1
102
RTVSPropertyOp20
 70
     1
102
RTVSPropertyOp21
 70
     1
102
RTVSPropertyOp22
 70
     1
102
RTVSPropertyOp23
 70
     1
102
RTVSPropertyOp24
 70
     1
102
RTVSPropertyOp25
 70
     1
102
RTVSPropertyOp26
 70
     1
102
RTVSPropertyOp27
 70
     1
102
RTVSPropertyOp28
 70
     1
102
RTVSPropertyOp29
 70
     1
102
RTVSPropertyOp30
 70
     1
102
RTVSPropertyOp31
 70
     1
102
RTVSPropertyOp32
 70
     1
  0
XRECORD
  5
1C2
102
{ACAD_REACTORS
330
1C1
102
}
330
1C1
100
AcDbXrecord
280
     1
102
RTVSPropertyOp0
 70
     1
102
RTVSPropertyOp1
 70
     1
102
RTVSPropertyOp2
 70
     1
102
RTVSPropertyOp3
 70
     1
102
RTVSPropertyOp4
 70
     1
102
RTVSPropertyOp5
 70
     1
102
RTVSPropertyOp6
 70
     1
102
RTVSPropertyOp7
 70
     1
102
RTVSPropertyOp8
 70
     1
102
RTVSPropertyOp9
 70
     1
102
RTVSPropertyOp10
 70
     1
102
RTVSPropertyOp11
 70
     1
102
RTVSPropertyOp12
 70
     1
102
RTVSPropertyOp13
 70
     1
102
RTVSPropertyOp14
 70
     1
102
RTVSPropertyOp15
 70
     1
102
RTVSPropertyOp16
 70
     1
102
RTVSPropertyOp17
 70
     1
102
RTVSPropertyOp18
 70
     1
102
RTVSPropertyOp19
 70
     1
102
RTVSPropertyOp20
 70
     1
102
RTVSPropertyOp21
 70
     1
102
RTVSPropertyOp22
 70
     1
102
RTVSPropertyOp23
 70
     1
102
RTVSPropertyOp24
 70
     1
102
RTVSPropertyOp25
 70
     1
102
RTVSPropertyOp26
 70
     1
102
RTVSPropertyOp27
 70
     1
102
RTVSPropertyOp28
 70
     1
102
RTVSPropertyOp29
 70
     1
102
RTVSPropertyOp30
 70
     1
102
RTVSPropertyOp31
 70
     1
102
RTVSPropertyOp32
 70
     1
  0
XRECORD
  5
1DC
102
{ACAD_REACTORS
330
1DB
102
}
330
1DB
100
AcDbXrecord
280
     1
102
RTVSPropertyOp0
 70
     0
102
RTVSPropertyOp1
 70
     0
102
RTVSPropertyOp2
 70
     0
102
RTVSPropertyOp3
 70
     0
102
RTVSPropertyOp4
 70
     0
102
RTVSPropertyOp5
 70
     0
102
RTVSPropertyOp6
 70
     0
102
RTVSPropertyOp7
 70
     0
102
RTVSPropertyOp8
 70
     0
102
RTVSPropertyOp9
 70
     0
102
RTVSPropertyOp10
 70
     0
102
RTVSPropertyOp11
 70
     0
102
RTVSPropertyOp12
 70
     0
102
RTVSPropertyOp13
 70
     0
102
RTVSPropertyOp14
 70
     2
102
RTVSPropertyOp15
 70
     0
102
RTVSPropertyOp16
 70
     0
102
RTVSPropertyOp17
 70
     0
102
RTVSPropertyOp18
 70
     0
102
RTVSPropertyOp19
 70
     0
102
RTVSPropertyOp20
 70
     0
102
RTVSPropertyOp21
 70
     0
102
RTVSPropertyOp22
 70
     0
102
RTVSPropertyOp23
 70
     0
102
RTVSPropertyOp24
 70
     0
102
RTVSPropertyOp25
 70
     0
102
RTVSPropertyOp26
 70
     0
102
RTVSPropertyOp27
 70
     0
102
RTVSPropertyOp28
 70
     0
102
RTVSPropertyOp29
 70
     0
102
RTVSPropertyOp30
 70
     0
102
RTVSPropertyOp31
 70
     0
102
RTVSPropertyOp32
 70
     0
  0
XRECORD
  5
1CA
102
{ACAD_REACTORS
330
1C9
102
}
330
1C9
100
AcDbXrecord
280
     1
102
RTVSPropertyOp0
 70
     1
102
RTVSPropertyOp1
 70
     1
102
RTVSPropertyOp2
 70
     1
102
RTVSPropertyOp3
 70
     1
102
RTVSPropertyOp4
 70
     1
102
RTVSPropertyOp5
 70
     1
102
RTVSPropertyOp6
 70
     1
102
RTVSPropertyOp7
 70
     1
102
RTVSPropertyOp8
 70
     1
102
RTVSPropertyOp9
 70
     1
102
RTVSPropertyOp10
 70
     1
102
RTVSPropertyOp11
 70
     1
102
RTVSPropertyOp12
 70
     1
102
RTVSPropertyOp13
 70
     1
102
RTVSPropertyOp14
 70
     1
102
RTVSPropertyOp15
 70
     1
102
RTVSPropertyOp16
 70
     1
102
RTVSPropertyOp17
 70
     1
102
RTVSPropertyOp18
 70
     1
102
RTVSPropertyOp19
 70
     1
102
RTVSPropertyOp20
 70
     1
102
RTVSPropertyOp21
 70
     1
102
RTVSPropertyOp22
 70
     1
102
RTVSPropertyOp23
 70
     1
102
RTVSPropertyOp24
 70
     1
102
RTVSPropertyOp25
 70
     1
102
RTVSPropertyOp26
 70
     1
102
RTVSPropertyOp27
 70
     1
102
RTVSPropertyOp28
 70
     1
102
RTVSPropertyOp29
 70
     1
102
RTVSPropertyOp30
 70
     1
102
RTVSPropertyOp31
 70
     1
102
RTVSPropertyOp32
 70
     1
  0
XRECORD
  5
1AE
102
{ACAD_REACTORS
330
1AD
102
}
330
1AD
100
AcDbXrecord
280
     1
102
RTVSPropertyOp0
 70
     1
102
RTVSPropertyOp1
 70
     1
102
RTVSPropertyOp2
 70
     1
102
RTVSPropertyOp3
 70
     1
102
RTVSPropertyOp4
 70
     1
102
RTVSPropertyOp5
 70
     1
102
RTVSPropertyOp6
 70
     1
102
RTVSPropertyOp7
 70
     1
102
RTVSPropertyOp8
 70
     1
102
RTVSPropertyOp9
 70
     1
102
RTVSPropertyOp10
 70
     1
102
RTVSPropertyOp11
 70
     1
102
RTVSPropertyOp12
 70
     1
102
RTVSPropertyOp13
 70
     1
102
RTVSPropertyOp14
 70
     1
102
RTVSPropertyOp15
 70
     1
102
RTVSPropertyOp16
 70
     1
102
RTVSPropertyOp17
 70
     1
102
RTVSPropertyOp18
 70
     1
102
RTVSPropertyOp19
 70
     1
102
RTVSPropertyOp20
 70
     1
102
RTVSPropertyOp21
 70
     1
102
RTVSPropertyOp22
 70
     1
102
RTVSPropertyOp23
 70
     1
102
RTVSPropertyOp24
 70
     1
102
RTVSPropertyOp25
 70
     1
102
RTVSPropertyOp26
 70
     1
102
RTVSPropertyOp27
 70
     1
102
RTVSPropertyOp28
 70
     1
102
RTVSPropertyOp29
 70
     1
102
RTVSPropertyOp30
 70
     1
102
RTVSPropertyOp31
 70
     1
102
RTVSPropertyOp32
 70
     1
  0
XRECORD
  5
1B0
102
{ACAD_REACTORS
330
1AF
102
}
330
1AF
100
AcDbXrecord
280
     1
102
RTVSPropertyOp0
 70
     1
102
RTVSPropertyOp1
 70
     1
102
RTVSPropertyOp2
 70
     1
102
RTVSPropertyOp3
 70
     1
102
RTVSPropertyOp4
 70
     1
102
RTVSPropertyOp5
 70
     1
102
RTVSPropertyOp6
 70
     1
102
RTVSPropertyOp7
 70
     1
102
RTVSPropertyOp8
 70
     1
102
RTVSPropertyOp9
 70
     1
102
RTVSPropertyOp10
 70
     1
102
RTVSPropertyOp11
 70
     1
102
RTVSPropertyOp12
 70
     1
102
RTVSPropertyOp13
 70
     1
102
RTVSPropertyOp14
 70
     1
102
RTVSPropertyOp15
 70
     1
102
RTVSPropertyOp16
 70
     1
102
RTVSPropertyOp17
 70
     1
102
RTVSPropertyOp18
 70
     1
102
RTVSPropertyOp19
 70
     1
102
RTVSPropertyOp20
 70
     1
102
RTVSPropertyOp21
 70
     1
102
RTVSPropertyOp22
 70
     1
102
RTVSPropertyOp23
 70
     1
102
RTVSPropertyOp24
 70
     1
102
RTVSPropertyOp25
 70
     1
102
RTVSPropertyOp26
 70
     1
102
RTVSPropertyOp27
 70
     1
102
RTVSPropertyOp28
 70
     1
102
RTVSPropertyOp29
 70
     1
102
RTVSPropertyOp30
 70
     1
102
RTVSPropertyOp31
 70
     1
102
RTVSPropertyOp32
 70
     1
  0
XRECORD
  5
1B2
102
{ACAD_REACTORS
330
1B1
102
}
330
1B1
100
AcDbXrecord
280
     1
102
RTVSPropertyOp0
 70
     1
102
RTVSPropertyOp1
 70
     1
102
RTVSPropertyOp2
 70
     1
102
RTVSPropertyOp3
 70
     1
102
RTVSPropertyOp4
 70
     1
102
RTVSPropertyOp5
 70
     1
102
RTVSPropertyOp6
 70
     1
102
RTVSPropertyOp7
 70
     1
102
RTVSPropertyOp8
 70
     1
102
RTVSPropertyOp9
 70
     1
102
RTVSPropertyOp10
 70
     1
102
RTVSPropertyOp11
 70
     1
102
RTVSPropertyOp12
 70
     1
102
RTVSPropertyOp13
 70
     1
102
RTVSPropertyOp14
 70
     1
102
RTVSPropertyOp15
 70
     1
102
RTVSPropertyOp16
 70
     1
102
RTVSPropertyOp17
 70
     1
102
RTVSPropertyOp18
 70
     1
102
RTVSPropertyOp19
 70
     1
102
RTVSPropertyOp20
 70
     1
102
RTVSPropertyOp21
 70
     1
102
RTVSPropertyOp22
 70
     1
102
RTVSPropertyOp23
 70
     1
102
RTVSPropertyOp24
 70
     1
102
RTVSPropertyOp25
 70
     1
102
RTVSPropertyOp26
 70
     1
102
RTVSPropertyOp27
 70
     1
102
RTVSPropertyOp28
 70
     1
102
RTVSPropertyOp29
 70
     1
102
RTVSPropertyOp30
 70
     1
102
RTVSPropertyOp31
 70
     1
102
RTVSPropertyOp32
 70
     1
  0
XRECORD
  5
1B4
102
{ACAD_REACTORS
330
1B3
102
}
330
1B3
100
AcDbXrecord
280
     1
102
RTVSPropertyOp0
 70
     1
102
RTVSPropertyOp1
 70
     1
102
RTVSPropertyOp2
 70
     1
102
RTVSPropertyOp3
 70
     1
102
RTVSPropertyOp4
 70
     1
102
RTVSPropertyOp5
 70
     1
102
RTVSPropertyOp6
 70
     1
102
RTVSPropertyOp7
 70
     1
102
RTVSPropertyOp8
 70
     1
102
RTVSPropertyOp9
 70
     1
102
RTVSPropertyOp10
 70
     1
102
RTVSPropertyOp11
 70
     1
102
RTVSPropertyOp12
 70
     1
102
RTVSPropertyOp13
 70
     1
102
RTVSPropertyOp14
 70
     1
102
RTVSPropertyOp15
 70
     1
102
RTVSPropertyOp16
 70
     1
102
RTVSPropertyOp17
 70
     1
102
RTVSPropertyOp18
 70
     1
102
RTVSPropertyOp19
 70
     1
102
RTVSPropertyOp20
 70
     1
102
RTVSPropertyOp21
 70
     1
102
RTVSPropertyOp22
 70
     1
102
RTVSPropertyOp23
 70
     1
102
RTVSPropertyOp24
 70
     1
102
RTVSPropertyOp25
 70
     1
102
RTVSPropertyOp26
 70
     1
102
RTVSPropertyOp27
 70
     1
102
RTVSPropertyOp28
 70
     1
102
RTVSPropertyOp29
 70
     1
102
RTVSPropertyOp30
 70
     1
102
RTVSPropertyOp31
 70
     1
102
RTVSPropertyOp32
 70
     1
  0
XRECORD
  5
1BC
102
{ACAD_REACTORS
330
1BB
102
}
330
1BB
100
AcDbXrecord
280
     1
102
RTVSPropertyOp0
 70
     1
102
RTVSPropertyOp1
 70
     1
102
RTVSPropertyOp2
 70
     1
102
RTVSPropertyOp3
 70
     1
102
RTVSPropertyOp4
 70
     1
102
RTVSPropertyOp5
 70
     1
102
RTVSPropertyOp6
 70
     1
102
RTVSPropertyOp7
 70
     1
102
RTVSPropertyOp8
 70
     1
102
RTVSPropertyOp9
 70
     1
102
RTVSPropertyOp10
 70
     1
102
RTVSPropertyOp11
 70
     1
102
RTVSPropertyOp12
 70
     1
102
RTVSPropertyOp13
 70
     1
102
RTVSPropertyOp14
 70
     1
102
RTVSPropertyOp15
 70
     1
102
RTVSPropertyOp16
 70
     1
102
RTVSPropertyOp17
 70
     1
102
RTVSPropertyOp18
 70
     1
102
RTVSPropertyOp19
 70
     1
102
RTVSPropertyOp20
 70
     1
102
RTVSPropertyOp21
 70
     1
102
RTVSPropertyOp22
 70
     1
102
RTVSPropertyOp23
 70
     1
102
RTVSPropertyOp24
 70
     1
102
RTVSPropertyOp25
 70
     1
102
RTVSPropertyOp26
 70
     1
102
RTVSPropertyOp27
 70
     1
102
RTVSPropertyOp28
 70
     1
102
RTVSPropertyOp29
 70
     1
102
RTVSPropertyOp30
 70
     1
102
RTVSPropertyOp31
 70
     1
102
RTVSPropertyOp32
 70
     1
  0
XRECORD
  5
1D8
102
{ACAD_REACTORS
330
1D7
102
}
330
1D7
100
AcDbXrecord
280
     1
102
RTVSPropertyOp0
 70
     0
102
RTVSPropertyOp1
 70
     0
102
RTVSPropertyOp2
 70
     0
102
RTVSPropertyOp3
 70
     0
102
RTVSPropertyOp4
 70
     0
102
RTVSPropertyOp5
 70
     0
102
RTVSPropertyOp6
 70
     0
102
RTVSPropertyOp7
 70
     0
102
RTVSPropertyOp8
 70
     0
102
RTVSPropertyOp9
 70
     0
102
RTVSPropertyOp10
 70
     0
102
RTVSPropertyOp11
 70
     0
102
RTVSPropertyOp12
 70
     0
102
RTVSPropertyOp13
 70
     0
102
RTVSPropertyOp14
 70
     2
102
RTVSPropertyOp15
 70
     0
102
RTVSPropertyOp16
 70
     0
102
RTVSPropertyOp17
 70
     0
102
RTVSPropertyOp18
 70
     0
102
RTVSPropertyOp19
 70
     0
102
RTVSPropertyOp20
 70
     0
102
RTVSPropertyOp21
 70
     0
102
RTVSPropertyOp22
 70
     0
102
RTVSPropertyOp23
 70
     0
102
RTVSPropertyOp24
 70
     0
102
RTVSPropertyOp25
 70
     0
102
RTVSPropertyOp26
 70
     0
102
RTVSPropertyOp27
 70
     0
102
RTVSPropertyOp28
 70
     0
102
RTVSPropertyOp29
 70
     0
102
RTVSPropertyOp30
 70
     0
102
RTVSPropertyOp31
 70
     0
102
RTVSPropertyOp32
 70
     0
  0
XRECORD
  5
1C8
102
{ACAD_REACTORS
330
1C7
102
}
330
1C7
100
AcDbXrecord
280
     1
102
RTVSPropertyOp0
 70
     1
102
RTVSPropertyOp1
 70
     1
102
RTVSPropertyOp2
 70
     1
102
RTVSPropertyOp3
 70
     1
102
RTVSPropertyOp4
 70
     1
102
RTVSPropertyOp5
 70
     1
102
RTVSPropertyOp6
 70
     1
102
RTVSPropertyOp7
 70
     1
102
RTVSPropertyOp8
 70
     1
102
RTVSPropertyOp9
 70
     1
102
RTVSPropertyOp10
 70
     1
102
RTVSPropertyOp11
 70
     1
102
RTVSPropertyOp12
 70
     1
102
RTVSPropertyOp13
 70
     1
102
RTVSPropertyOp14
 70
     1
102
RTVSPropertyOp15
 70
     1
102
RTVSPropertyOp16
 70
     1
102
RTVSPropertyOp17
 70
     1
102
RTVSPropertyOp18
 70
     1
102
RTVSPropertyOp19
 70
     1
102
RTVSPropertyOp20
 70
     1
102
RTVSPropertyOp21
 70
     1
102
RTVSPropertyOp22
 70
     1
102
RTVSPropertyOp23
 70
     1
102
RTVSPropertyOp24
 70
     1
102
RTVSPropertyOp25
 70
     1
102
RTVSPropertyOp26
 70
     1
102
RTVSPropertyOp27
 70
     1
102
RTVSPropertyOp28
 70
     1
102
RTVSPropertyOp29
 70
     1
102
RTVSPropertyOp30
 70
     1
102
RTVSPropertyOp31
 70
     1
102
RTVSPropertyOp32
 70
     1
  0
XRECORD
  5
1DA
102
{ACAD_REACTORS
330
1D9
102
}
330
1D9
100
AcDbXrecord
280
     1
102
RTVSPropertyOp0
 70
     0
102
RTVSPropertyOp1
 70
     0
102
RTVSPropertyOp2
 70
     0
102
RTVSPropertyOp3
 70
     0
102
RTVSPropertyOp4
 70
     0
102
RTVSPropertyOp5
 70
     0
102
RTVSPropertyOp6
 70
     0
102
RTVSPropertyOp7
 70
     0
102
RTVSPropertyOp8
 70
     0
102
RTVSPropertyOp9
 70
     0
102
RTVSPropertyOp10
 70
     0
102
RTVSPropertyOp11
 70
     0
102
RTVSPropertyOp12
 70
     0
102
RTVSPropertyOp13
 70
     0
102
RTVSPropertyOp14
 70
     2
102
RTVSPropertyOp15
 70
     0
102
RTVSPropertyOp16
 70
     0
102
RTVSPropertyOp17
 70
     0
102
RTVSPropertyOp18
 70
     0
102
RTVSPropertyOp19
 70
     0
102
RTVSPropertyOp20
 70
     0
102
RTVSPropertyOp21
 70
     0
102
RTVSPropertyOp22
 70
     0
102
RTVSPropertyOp23
 70
     0
102
RTVSPropertyOp24
 70
     0
102
RTVSPropertyOp25
 70
     0
102
RTVSPropertyOp26
 70
     0
102
RTVSPropertyOp27
 70
     0
102
RTVSPropertyOp28
 70
     0
102
RTVSPropertyOp29
 70
     0
102
RTVSPropertyOp30
 70
     0
102
RTVSPropertyOp31
 70
     0
102
RTVSPropertyOp32
 70
     0
  0
XRECORD
  5
1C0
102
{ACAD_REACTORS
330
1BF
102
}
330
1BF
100
AcDbXrecord
280
     1
102
RTVSPropertyOp0
 70
     1
102
RTVSPropertyOp1
 70
     1
102
RTVSPropertyOp2
 70
     1
102
RTVSPropertyOp3
 70
     1
102
RTVSPropertyOp4
 70
     1
102
RTVSPropertyOp5
 70
     1
102
RTVSPropertyOp6
 70
     1
102
RTVSPropertyOp7
 70
     1
102
RTVSPropertyOp8
 70
     1
102
RTVSPropertyOp9
 70
     1
102
RTVSPropertyOp10
 70
     1
102
RTVSPropertyOp11
 70
     1
102
RTVSPropertyOp12
 70
     1
102
RTVSPropertyOp13
 70
     1
102
RTVSPropertyOp14
 70
     1
102
RTVSPropertyOp15
 70
     1
102
RTVSPropertyOp16
 70
     1
102
RTVSPropertyOp17
 70
     1
102
RTVSPropertyOp18
 70
     1
102
RTVSPropertyOp19
 70
     1
102
RTVSPropertyOp20
 70
     1
102
RTVSPropertyOp21
 70
     1
102
RTVSPropertyOp22
 70
     1
102
RTVSPropertyOp23
 70
     1
102
RTVSPropertyOp24
 70
     1
102
RTVSPropertyOp25
 70
     1
102
RTVSPropertyOp26
 70
     1
102
RTVSPropertyOp27
 70
     1
102
RTVSPropertyOp28
 70
     1
102
RTVSPropertyOp29
 70
     1
102
RTVSPropertyOp30
 70
     1
102
RTVSPropertyOp31
 70
     1
102
RTVSPropertyOp32
 70
     1
  0
XRECORD
  5
1D6
102
{ACAD_REACTORS
330
1D5
102
}
330
1D5
100
AcDbXrecord
280
     1
102
RTVSPropertyOp0
 70
     1
102
RTVSPropertyOp1
 70
     1
102
RTVSPropertyOp2
 70
     1
102
RTVSPropertyOp3
 70
     1
102
RTVSPropertyOp4
 70
     1
102
RTVSPropertyOp5
 70
     1
102
RTVSPropertyOp6
 70
     1
102
RTVSPropertyOp7
 70
     1
102
RTVSPropertyOp8
 70
     1
102
RTVSPropertyOp9
 70
     1
102
RTVSPropertyOp10
 70
     1
102
RTVSPropertyOp11
 70
     1
102
RTVSPropertyOp12
 70
     1
102
RTVSPropertyOp13
 70
     1
102
RTVSPropertyOp14
 70
     1
102
RTVSPropertyOp15
 70
     1
102
RTVSPropertyOp16
 70
     1
102
RTVSPropertyOp17
 70
     1
102
RTVSPropertyOp18
 70
     1
102
RTVSPropertyOp19
 70
     1
102
RTVSPropertyOp20
 70
     1
102
RTVSPropertyOp21
 70
     1
102
RTVSPropertyOp22
 70
     1
102
RTVSPropertyOp23
 70
     1
102
RTVSPropertyOp24
 70
     1
102
RTVSPropertyOp25
 70
     1
102
RTVSPropertyOp26
 70
     1
102
RTVSPropertyOp27
 70
     1
102
RTVSPropertyOp28
 70
     1
102
RTVSPropertyOp29
 70
     1
102
RTVSPropertyOp30
 70
     1
102
RTVSPropertyOp31
 70
     1
102
RTVSPropertyOp32
 70
     1
  0
XRECORD
  5
1D4
102
{ACAD_REACTORS
330
1D3
102
}
330
1D3
100
AcDbXrecord
280
     1
102
RTVSPropertyOp0
 70
     1
102
RTVSPropertyOp1
 70
     1
102
RTVSPropertyOp2
 70
     1
102
RTVSPropertyOp3
 70
     1
102
RTVSPropertyOp4
 70
     1
102
RTVSPropertyOp5
 70
     1
102
RTVSPropertyOp6
 70
     1
102
RTVSPropertyOp7
 70
     1
102
RTVSPropertyOp8
 70
     1
102
RTVSPropertyOp9
 70
     1
102
RTVSPropertyOp10
 70
     1
102
RTVSPropertyOp11
 70
     1
102
RTVSPropertyOp12
 70
     1
102
RTVSPropertyOp13
 70
     1
102
RTVSPropertyOp14
 70
     1
102
RTVSPropertyOp15
 70
     1
102
RTVSPropertyOp16
 70
     1
102
RTVSPropertyOp17
 70
     1
102
RTVSPropertyOp18
 70
     1
102
RTVSPropertyOp19
 70
     1
102
RTVSPropertyOp20
 70
     1
102
RTVSPropertyOp21
 70
     1
102
RTVSPropertyOp22
 70
     1
102
RTVSPropertyOp23
 70
     1
102
RTVSPropertyOp24
 70
     1
102
RTVSPropertyOp25
 70
     1
102
RTVSPropertyOp26
 70
     1
102
RTVSPropertyOp27
 70
     1
102
RTVSPropertyOp28
 70
     1
102
RTVSPropertyOp29
 70
     1
102
RTVSPropertyOp30
 70
     1
102
RTVSPropertyOp31
 70
     1
102
RTVSPropertyOp32
 70
     1
  0
XRECORD
  5
1CE
102
{ACAD_REACTORS
330
1CD
102
}
330
1CD
100
AcDbXrecord
280
     1
102
RTVSPropertyOp0
 70
     1
102
RTVSPropertyOp1
 70
     1
102
RTVSPropertyOp2
 70
     1
102
RTVSPropertyOp3
 70
     1
102
RTVSPropertyOp4
 70
     1
102
RTVSPropertyOp5
 70
     1
102
RTVSPropertyOp6
 70
     1
102
RTVSPropertyOp7
 70
     1
102
RTVSPropertyOp8
 70
     1
102
RTVSPropertyOp9
 70
     1
102
RTVSPropertyOp10
 70
     1
102
RTVSPropertyOp11
 70
     1
102
RTVSPropertyOp12
 70
     1
102
RTVSPropertyOp13
 70
     1
102
RTVSPropertyOp14
 70
     1
102
RTVSPropertyOp15
 70
     1
102
RTVSPropertyOp16
 70
     1
102
RTVSPropertyOp17
 70
     1
102
RTVSPropertyOp18
 70
     1
102
RTVSPropertyOp19
 70
     1
102
RTVSPropertyOp20
 70
     1
102
RTVSPropertyOp21
 70
     1
102
RTVSPropertyOp22
 70
     1
102
RTVSPropertyOp23
 70
     1
102
RTVSPropertyOp24
 70
     1
102
RTVSPropertyOp25
 70
     1
102
RTVSPropertyOp26
 70
     1
102
RTVSPropertyOp27
 70
     1
102
RTVSPropertyOp28
 70
     1
102
RTVSPropertyOp29
 70
     1
102
RTVSPropertyOp30
 70
     1
102
RTVSPropertyOp31
 70
     1
102
RTVSPropertyOp32
 70
     1
  0
XRECORD
  5
1D0
102
{ACAD_REACTORS
330
1CF
102
}
330
1CF
100
AcDbXrecord
280
     1
102
RTVSPropertyOp0
 70
     1
102
RTVSPropertyOp1
 70
     1
102
RTVSPropertyOp2
 70
     1
102
RTVSPropertyOp3
 70
     1
102
RTVSPropertyOp4
 70
     1
102
RTVSPropertyOp5
 70
     1
102
RTVSPropertyOp6
 70
     1
102
RTVSPropertyOp7
 70
     1
102
RTVSPropertyOp8
 70
     1
102
RTVSPropertyOp9
 70
     1
102
RTVSPropertyOp10
 70
     1
102
RTVSPropertyOp11
 70
     1
102
RTVSPropertyOp12
 70
     1
102
RTVSPropertyOp13
 70
     1
102
RTVSPropertyOp14
 70
     1
102
RTVSPropertyOp15
 70
     1
102
RTVSPropertyOp16
 70
     1
102
RTVSPropertyOp17
 70
     1
102
RTVSPropertyOp18
 70
     1
102
RTVSPropertyOp19
 70
     1
102
RTVSPropertyOp20
 70
     1
102
RTVSPropertyOp21
 70
     1
102
RTVSPropertyOp22
 70
     1
102
RTVSPropertyOp23
 70
     1
102
RTVSPropertyOp24
 70
     1
102
RTVSPropertyOp25
 70
     1
102
RTVSPropertyOp26
 70
     1
102
RTVSPropertyOp27
 70
     1
102
RTVSPropertyOp28
 70
     1
102
RTVSPropertyOp29
 70
     1
102
RTVSPropertyOp30
 70
     1
102
RTVSPropertyOp31
 70
     1
102
RTVSPropertyOp32
 70
     1
  0
XRECORD
  5
1C6
102
{ACAD_REACTORS
330
1C5
102
}
330
1C5
100
AcDbXrecord
280
     1
102
RTVSPropertyOp0
 70
     1
102
RTVSPropertyOp1
 70
     1
102
RTVSPropertyOp2
 70
     1
102
RTVSPropertyOp3
 70
     1
102
RTVSPropertyOp4
 70
     1
102
RTVSPropertyOp5
 70
     1
102
RTVSPropertyOp6
 70
     1
102
RTVSPropertyOp7
 70
     1
102
RTVSPropertyOp8
 70
     1
102
RTVSPropertyOp9
 70
     1
102
RTVSPropertyOp10
 70
     1
102
RTVSPropertyOp11
 70
     1
102
RTVSPropertyOp12
 70
     1
102
RTVSPropertyOp13
 70
     1
102
RTVSPropertyOp14
 70
     1
102
RTVSPropertyOp15
 70
     1
102
RTVSPropertyOp16
 70
     1
102
RTVSPropertyOp17
 70
     1
102
RTVSPropertyOp18
 70
     1
102
RTVSPropertyOp19
 70
     1
102
RTVSPropertyOp20
 70
     1
102
RTVSPropertyOp21
 70
     1
102
RTVSPropertyOp22
 70
     1
102
RTVSPropertyOp23
 70
     1
102
RTVSPropertyOp24
 70
     1
102
RTVSPropertyOp25
 70
     1
102
RTVSPropertyOp26
 70
     1
102
RTVSPropertyOp27
 70
     1
102
RTVSPropertyOp28
 70
     1
102
RTVSPropertyOp29
 70
     1
102
RTVSPropertyOp30
 70
     1
102
RTVSPropertyOp31
 70
     1
102
RTVSPropertyOp32
 70
     1
  0
XRECORD
  5
1BA
102
{ACAD_REACTORS
330
1B9
102
}
330
1B9
100
AcDbXrecord
280
     1
102
RTVSPropertyOp0
 70
     1
102
RTVSPropertyOp1
 70
     1
102
RTVSPropertyOp2
 70
     1
102
RTVSPropertyOp3
 70
     1
102
RTVSPropertyOp4
 70
     1
102
RTVSPropertyOp5
 70
     1
102
RTVSPropertyOp6
 70
     1
102
RTVSPropertyOp7
 70
     1
102
RTVSPropertyOp8
 70
     1
102
RTVSPropertyOp9
 70
     1
102
RTVSPropertyOp10
 70
     1
102
RTVSPropertyOp11
 70
     1
102
RTVSPropertyOp12
 70
     1
102
RTVSPropertyOp13
 70
     1
102
RTVSPropertyOp14
 70
     1
102
RTVSPropertyOp15
 70
     1
102
RTVSPropertyOp16
 70
     1
102
RTVSPropertyOp17
 70
     1
102
RTVSPropertyOp18
 70
     1
102
RTVSPropertyOp19
 70
     1
102
RTVSPropertyOp20
 70
     1
102
RTVSPropertyOp21
 70
     1
102
RTVSPropertyOp22
 70
     1
102
RTVSPropertyOp23
 70
     1
102
RTVSPropertyOp24
 70
     1
102
RTVSPropertyOp25
 70
     1
102
RTVSPropertyOp26
 70
     1
102
RTVSPropertyOp27
 70
     1
102
RTVSPropertyOp28
 70
     1
102
RTVSPropertyOp29
 70
     1
102
RTVSPropertyOp30
 70
     1
102
RTVSPropertyOp31
 70
     1
102
RTVSPropertyOp32
 70
     1
  0
XRECORD
  5
1D2
102
{ACAD_REACTORS
330
1D1
102
}
330
1D1
100
AcDbXrecord
280
     1
102
RTVSPropertyOp0
 70
     1
102
RTVSPropertyOp1
 70
     1
102
RTVSPropertyOp2
 70
     1
102
RTVSPropertyOp3
 70
     1
102
RTVSPropertyOp4
 70
     1
102
RTVSPropertyOp5
 70
     1
102
RTVSPropertyOp6
 70
     1
102
RTVSPropertyOp7
 70
     1
102
RTVSPropertyOp8
 70
     1
102
RTVSPropertyOp9
 70
     1
102
RTVSPropertyOp10
 70
     1
102
RTVSPropertyOp11
 70
     1
102
RTVSPropertyOp12
 70
     1
102
RTVSPropertyOp13
 70
     1
102
RTVSPropertyOp14
 70
     1
102
RTVSPropertyOp15
 70
     1
102
RTVSPropertyOp16
 70
     1
102
RTVSPropertyOp17
 70
     1
102
RTVSPropertyOp18
 70
     1
102
RTVSPropertyOp19
 70
     1
102
RTVSPropertyOp20
 70
     1
102
RTVSPropertyOp21
 70
     1
102
RTVSPropertyOp22
 70
     1
102
RTVSPropertyOp23
 70
     1
102
RTVSPropertyOp24
 70
     1
102
RTVSPropertyOp25
 70
     1
102
RTVSPropertyOp26
 70
     1
102
RTVSPropertyOp27
 70
     1
102
RTVSPropertyOp28
 70
     1
102
RTVSPropertyOp29
 70
     1
102
RTVSPropertyOp30
 70
     1
102
RTVSPropertyOp31
 70
     1
102
RTVSPropertyOp32
 70
     1
  0
ENDSEC
  0
EOF
