  0
SECTION
  2
HEADER
  9
$ACADVER
  1
AC1015
  9
$ACADMAINTVER
 70
    20
  9
$DWGCODEPAGE
  3
ANSI_1252
  9
$INSBASE
 10
0.0
 20
0.0
 30
0.0
  9
$EXTMIN
 10
34810.62262641
 20
10145.83615323
 30
0.0
  9
$EXTMAX
 10
35795.62262641
 20
11500.83615323
 30
2500.0
  9
$LIMMIN
 10
0.0
 20
0.0
  9
$LIMMAX
 10
35795.62262641
 20
11500.83615323
  9
$ORTHOMODE
 70
     0
  9
$REGENMODE
 70
     1
  9
$FILLMODE
 70
     1
  9
$QTEXTMODE
 70
     0
  9
$MIRRTEXT
 70
     1
  9
$LTSCALE
 40
5.0
  9
$ATTMODE
 70
     1
  9
$TEXTSIZE
 40
3.5
  9
$TRACEWID
 40
1.0
  9
$TEXTSTYLE
  7
STANDARD
  9
$CLAYER
  8
0
  9
$CELTYPE
  6
BYLAYER
  9
$CECOLOR
 62
   256
  9
$CELTSCALE
 40
1.0
  9
$DISPSILH
 70
     0
  9
$DIMSCALE
 40
1.0
  9
$DIMASZ
 40
4.0
  9
$DIMEXO
 40
5.0
  9
$DIMDLI
 40
10.0
  9
$DIMRND
 40
0.0
  9
$DIMDLE
 40
2.0
  9
$DIMEXE
 40
2.0
  9
$DIMTP
 40
0.0
  9
$DIMTM
 40
0.0
  9
$DIMTXT
 40
2.0
  9
$DIMCEN
 40
1.5
  9
$DIMTSZ
 40
0.0
  9
$DIMTOL
 70
     0
  9
$DIMLIM
 70
     0
  9
$DIMTIH
 70
     1
  9
$DIMTOH
 70
     0
  9
$DIMSE1
 70
     0
  9
$DIMSE2
 70
     0
  9
$DIMTAD
 70
     1
  9
$DIMZIN
 70
     8
  9
$DIMBLK
  1

  9
$DIMASO
 70
     1
  9
$DIMSHO
 70
     1
  9
$DIMPOST
  1

  9
$DIMAPOST
  1

  9
$DIMALT
 70
     0
  9
$DIMALTD
 70
     2
  9
$DIMALTF
 40
25.4
  9
$DIMLFAC
 40
1.0
  9
$DIMTOFL
 70
     0
  9
$DIMTVP
 40
0.0
  9
$DIMTIX
 70
     0
  9
$DIMSOXD
 70
     0
  9
$DIMSAH
 70
     0
  9
$DIMBLK1
  1

  9
$DIMBLK2
  1

  9
$DIMSTYLE
  2
Standard
  9
$DIMCLRD
 70
     9
  9
$DIMCLRE
 70
     9
  9
$DIMCLRT
 70
     7
  9
$DIMTFAC
 40
1.0
  9
$DIMGAP
 40
0.09
  9
$DIMJUST
 70
     0
  9
$DIMSD1
 70
     0
  9
$DIMSD2
 70
     0
  9
$DIMTOLJ
 70
     1
  9
$DIMTZIN
 70
     0
  9
$DIMALTZ
 70
     0
  9
$DIMALTTZ
 70
     0
  9
$DIMUPT
 70
     0
  9
$DIMDEC
 70
     4
  9
$DIMTDEC
 70
     4
  9
$DIMALTU
 70
     2
  9
$DIMALTTD
 70
     2
  9
$DIMTXSTY
  7
STANDARD
  9
$DIMAUNIT
 70
     0
  9
$DIMADEC
 70
     0
  9
$DIMALTRND
 40
0.0
  9
$DIMAZIN
 70
     0
  9
$DIMDSEP
 70
    46
  9
$DIMATFIT
 70
     3
  9
$DIMFRAC
 70
     0
  9
$DIMLDRBLK
  1

  9
$DIMLUNIT
 70
     2
  9
$DIMLWD
 70
    -2
  9
$DIMLWE
 70
    -2
  9
$DIMTMOVE
 70
     0
  9
$LUNITS
 70
     2
  9
$LUPREC
 70
     6
  9
$SKETCHINC
 40
0.1
  9
$FILLETRAD
 40
0.0
  9
$AUNITS
 70
     0
  9
$AUPREC
 70
     0
  9
$MENU
  1
ACAD
  9
$ELEVATION
 40
0.0
  9
$PELEVATION
 40
0.0
  9
$THICKNESS
 40
0.0
  9
$LIMCHECK
 70
     0
  9
$CHAMFERA
 40
0.0
  9
$CHAMFERB
 40
0.0
  9
$CHAMFERC
 40
0.0
  9
$CHAMFERD
 40
0.0
  9
$SKPOLY
 70
     1
  9
$TDCREATE
 40
2456443.000000000
  9
$TDUCREATE
 40
2456442.916666667
  9
$TDUPDATE
 40
2456458.458708484
  9
$TDUUPDATE
 40
2456458.375375150
  9
$TDINDWG
 40
0.0044185069
  9
$TDUSRTIMER
 40
0.0044183218
  9
$USRTIMER
 70
     1
  9
$ANGBASE
 50
0.0
  9
$ANGDIR
 70
     0
  9
$PDMODE
 70
     0
  9
$PDSIZE
 40
0.0
  9
$PLINEWID
 40
0.0
  9
$SPLFRAME
 70
     0
  9
$SPLINETYPE
 70
     6
  9
$SPLINESEGS
 70
     8
  9
$HANDSEED
  5
20C
  9
$SURFTAB1
 70
     6
  9
$SURFTAB2
 70
     6
  9
$SURFTYPE
 70
     6
  9
$SURFU
 70
     6
  9
$SURFV
 70
     6
  9
$UCSBASE
  2

  9
$UCSNAME
  2

  9
$UCSORG
 10
0.0
 20
0.0
 30
0.0
  9
$UCSXDIR
 10
1.0
 20
0.0
 30
0.0
  9
$UCSYDIR
 10
0.0
 20
1.0
 30
0.0
  9
$UCSORTHOREF
  2

  9
$UCSORTHOVIEW
 70
     0
  9
$UCSORGTOP
 10
0.0
 20
0.0
 30
0.0
  9
$UCSORGBOTTOM
 10
0.0
 20
0.0
 30
0.0
  9
$UCSORGLEFT
 10
0.0
 20
0.0
 30
0.0
  9
$UCSORGRIGHT
 10
0.0
 20
0.0
 30
0.0
  9
$UCSORGFRONT
 10
0.0
 20
0.0
 30
0.0
  9
$UCSORGBACK
 10
0.0
 20
0.0
 30
0.0
  9
$PUCSBASE
  2

  9
$PUCSNAME
  2

  9
$PUCSORG
 10
0.0
 20
0.0
 30
0.0
  9
$PUCSXDIR
 10
1.0
 20
0.0
 30
0.0
  9
$PUCSYDIR
 10
0.0
 20
1.0
 30
0.0
  9
$PUCSORTHOREF
  2

  9
$PUCSORTHOVIEW
 70
     0
  9
$PUCSORGTOP
 10
0.0
 20
0.0
 30
0.0
  9
$PUCSORGBOTTOM
 10
0.0
 20
0.0
 30
0.0
  9
$PUCSORGLEFT
 10
0.0
 20
0.0
 30
0.0
  9
$PUCSORGRIGHT
 10
0.0
 20
0.0
 30
0.0
  9
$PUCSORGFRONT
 10
0.0
 20
0.0
 30
0.0
  9
$PUCSORGBACK
 10
0.0
 20
0.0
 30
0.0
  9
$USERI1
 70
     0
  9
$USERI2
 70
     0
  9
$USERI3
 70
     0
  9
$USERI4
 70
     0
  9
$USERI5
 70
     0
  9
$USERR1
 40
0.0
  9
$USERR2
 40
0.0
  9
$USERR3
 40
0.0
  9
$USERR4
 40
0.0
  9
$USERR5
 40
0.0
  9
$WORLDVIEW
 70
     1
  9
$SHADEDGE
 70
     3
  9
$SHADEDIF
 70
    70
  9
$TILEMODE
 70
     1
  9
$MAXACTVP
 70
    16
  9
$PINSBASE
 10
0.0
 20
0.0
 30
0.0
  9
$PLIMCHECK
 70
     0
  9
$PEXTMIN
 10
1.000000000000000E+20
 20
1.000000000000000E+20
 30
1.000000000000000E+20
  9
$PEXTMAX
 10
-1.000000000000000E+20
 20
-1.000000000000000E+20
 30
-1.000000000000000E+20
  9
$PLIMMIN
 10
0.0
 20
0.0
  9
$PLIMMAX
 10
12.0
 20
9.0
  9
$UNITMODE
 70
     0
  9
$VISRETAIN
 70
     0
  9
$PLINEGEN
 70
     0
  9
$PSLTSCALE
 70
     1
  9
$TREEDEPTH
 70
  3020
  9
$CMLSTYLE
  2
STANDARD
  9
$CMLJUST
 70
     0
  9
$CMLSCALE
 40
1.0
  9
$PROXYGRAPHICS
 70
     1
  9
$MEASUREMENT
 70
     1
  9
$CELWEIGHT
370
    -1
  9
$ENDCAPS
280
     0
  9
$JOINSTYLE
280
     0
  9
$LWDISPLAY
290
     0
  9
$INSUNITS
 70
     0
  9
$HYPERLINKBASE
  1

  9
$STYLESHEET
  1

  9
$XEDIT
290
     1
  9
$CEPSNTYPE
380
     0
  9
$PSTYLEMODE
290
     1
  9
$FINGERPRINTGUID
  2
{E8EC367C-AA0C-4F5E-A66C-B7E8300C3F38}
  9
$VERSIONGUID
  2
{03994C52-016E-451B-A04E-91D4018CE7BF}
  9
$EXTNAMES
290
     1
  9
$PSVPSCALE
 40
0.0
  9
$OLESTARTUP
290
     0
  0
ENDSEC
  0
SECTION
  2
CLASSES
  0
CLASS
  1
ACDBDICTIONARYWDFLT
  2
AcDbDictionaryWithDefault
  3
ObjectDBX Classes
 90
        0
280
     0
281
     0
  0
CLASS
  1
MATERIAL
  2
AcDbMaterial
  3
ObjectDBX Classes
 90
     1153
280
     0
281
     0
  0
CLASS
  1
VISUALSTYLE
  2
AcDbVisualStyle
  3
ObjectDBX Classes
 90
     4095
280
     0
281
     0
  0
CLASS
  1
TABLESTYLE
  2
AcDbTableStyle
  3
ObjectDBX Classes
 90
     4095
280
     0
281
     0
  0
CLASS
  1
SCALE
  2
AcDbScale
  3
ObjectDBX Classes
 90
     1153
280
     0
281
     0
  0
CLASS
  1
MLEADERSTYLE
  2
AcDbMLeaderStyle
  3
ACDB_MLEADERSTYLE_CLASS
 90
     4095
280
     0
281
     0
  0
CLASS
  1
DICTIONARYVAR
  2
AcDbDictionaryVar
  3
ObjectDBX Classes
 90
        0
280
     0
281
     0
  0
CLASS
  1
CELLSTYLEMAP
  2
AcDbCellStyleMap
  3
ObjectDBX Classes
 90
     1152
280
     0
281
     0
  0
CLASS
  1
ACDBPLACEHOLDER
  2
AcDbPlaceHolder
  3
ObjectDBX Classes
 90
        0
280
     0
281
     0
  0
CLASS
  1
LAYOUT
  2
AcDbLayout
  3
ObjectDBX Classes
 90
        0
280
     0
281
     0
  0
ENDSEC
  0
SECTION
  2
TABLES
  0
TABLE
  2
VPORT
  5
22
330
0
100
AcDbSymbolTable
 70
     1
  0
VPORT
  5
177
330
22
100
AcDbSymbolTableRecord
100
AcDbViewportTableRecord
  2
*Active
 70
     0
 10
0.0
 20
0.0
 11
1.0
 21
1.0
 12
35303.12262641
 22
10823.33615323
 13
0.0
 23
0.0
 14
1.0
 24
1.0
 15
0.0
 25
0.0
 16
0.0
 26
0.0
 36
1.0
 17
0.0
 27
0.0
 37
0.0
 40
1365.383141762453
 41
2.015345268542199
 42
50.0
 43
0.0
 44
0.0
 50
0.0
 51
0.0
 71
     0
 72
  1000
 73
     1
 74
     3
 75
     0
 76
     0
 77
     0
 78
     0
281
     0
 65
     1
110
0.0
120
0.0
130
0.0
111
1.0
121
0.0
131
0.0
112
0.0
122
1.0
132
0.0
 79
     0
146
0.0
  0
ENDTAB
  0
TABLE
  2
LTYPE
  5
28
330
0
100
AcDbSymbolTable
 70
    12
  0
LTYPE
  5
29
330
28
100
AcDbSymbolTableRecord
100
AcDbLinetypeTableRecord
  2
BYBLOCK
 70
     0
  3

 72
    65
 73
     0
 40
0.0
  0
LTYPE
  5
2A
330
28
100
AcDbSymbolTableRecord
100
AcDbLinetypeTableRecord
  2
BYLAYER
 70
     0
  3

 72
    65
 73
     0
 40
0.0
  0
LTYPE
  5
2B
330
28
100
AcDbSymbolTableRecord
100
AcDbLinetypeTableRecord
  2
CONTINUOUS
 70
     0
  3
Solid line
 72
    65
 73
     0
 40
0.0
  0
LTYPE
  5
2C
330
28
100
AcDbSymbolTableRecord
100
AcDbLinetypeTableRecord
  2
DOT
 70
     0
  3
. . . . . . . . . . . . . . . . . . . . . . . .
 72
    65
 73
     2
 40
2.5
 49
0.0
 74
     0
 49
-2.5
 74
     0
  0
LTYPE
  5
2D
330
28
100
AcDbSymbolTableRecord
100
AcDbLinetypeTableRecord
  2
HIDDEN
 70
     0
  3
__ __ __ __ __ __ __ __ __ __ __ __ __ __ __ __
 72
    65
 73
     2
 40
1.875
 49
1.25
 74
     0
 49
-0.625
 74
     0
  0
LTYPE
  5
2E
330
28
100
AcDbSymbolTableRecord
100
AcDbLinetypeTableRecord
  2
CENTER
 70
     0
  3
 ____ _ ____ _ ____ _ ____ _ ____ _ ____ _ ____
 72
    65
 73
     4
 40
20.0
 49
12.5
 74
     0
 49
-2.5
 74
     0
 49
2.5
 74
     0
 49
-2.5
 74
     0
  0
LTYPE
  5
2F
330
28
100
AcDbSymbolTableRecord
100
AcDbLinetypeTableRecord
  2
CADWORK_22
 70
     0
  3
22 =======================================
 72
    65
 73
     0
 40
0.0
  0
LTYPE
  5
30
330
28
100
AcDbSymbolTableRecord
100
AcDbLinetypeTableRecord
  2
DAL
 70
     0
  3
Solid line (for MAPS)
 72
    65
 73
     0
 40
0.0
  0
LTYPE
  5
31
330
28
100
AcDbSymbolTableRecord
100
AcDbLinetypeTableRecord
  2
MUR
 70
     0
  3
Solid line (for MAPS)
 72
    65
 73
     0
 40
0.0
  0
LTYPE
  5
32
330
28
100
AcDbSymbolTableRecord
100
AcDbLinetypeTableRecord
  2
SOM
 70
     0
  3
Solid line (for MAPS)
 72
    65
 73
     0
 40
0.0
  0
LTYPE
  5
33
330
28
100
AcDbSymbolTableRecord
100
AcDbLinetypeTableRecord
  2
COL
 70
     0
  3
Solid line (for MAPS)
 72
    65
 73
     0
 40
0.0
  0
LTYPE
  5
34
330
28
100
AcDbSymbolTableRecord
100
AcDbLinetypeTableRecord
  2
LGN
 70
     0
  3
Solid line (for MAPS)
 72
    65
 73
     0
 40
0.0
  0
LTYPE
  5
35
330
28
100
AcDbSymbolTableRecord
100
AcDbLinetypeTableRecord
  2
PNT
 70
     0
  3
Solid line (for MAPS)
 72
    65
 73
     0
 40
0.0
  0
ENDTAB
  0
TABLE
  2
LAYER
  5
36
330
0
100
AcDbSymbolTable
 70
    32
  0
LAYER
  5
37
102
{ACAD_XDICTIONARY
360
18B
102
}
330
36
100
AcDbSymbolTableRecord
100
AcDbLayerTableRecord
  2
STANDARD
 70
     0
 62
     7
  6
CONTINUOUS
370
    -3
390
126
  0
LAYER
  5
38
102
{ACAD_XDICTIONARY
360
18D
102
}
330
36
100
AcDbSymbolTableRecord
100
AcDbLayerTableRecord
  2
Ech.1_1
 70
     0
 62
     7
  6
CONTINUOUS
370
    -3
390
126
  0
LAYER
  5
39
102
{ACAD_XDICTIONARY
360
18F
102
}
330
36
100
AcDbSymbolTableRecord
100
AcDbLayerTableRecord
  2
Ech.1_2
 70
     0
 62
     7
  6
CONTINUOUS
370
    -3
390
126
  0
LAYER
  5
3A
102
{ACAD_XDICTIONARY
360
191
102
}
330
36
100
AcDbSymbolTableRecord
100
AcDbLayerTableRecord
  2
Ech.1_5
 70
     0
 62
     7
  6
CONTINUOUS
370
    -3
390
126
  0
LAYER
  5
3B
102
{ACAD_XDICTIONARY
360
193
102
}
330
36
100
AcDbSymbolTableRecord
100
AcDbLayerTableRecord
  2
Ech.1_10
 70
     0
 62
     7
  6
CONTINUOUS
370
    -3
390
126
  0
LAYER
  5
3C
102
{ACAD_XDICTIONARY
360
195
102
}
330
36
100
AcDbSymbolTableRecord
100
AcDbLayerTableRecord
  2
Ech.1_20
 70
     0
 62
     7
  6
CONTINUOUS
370
    -3
390
126
  0
LAYER
  5
3D
102
{ACAD_XDICTIONARY
360
197
102
}
330
36
100
AcDbSymbolTableRecord
100
AcDbLayerTableRecord
  2
Ech.1_25
 70
     0
 62
     7
  6
CONTINUOUS
370
    -3
390
126
  0
LAYER
  5
3E
102
{ACAD_XDICTIONARY
360
199
102
}
330
36
100
AcDbSymbolTableRecord
100
AcDbLayerTableRecord
  2
Ech.1_33
 70
     0
 62
     7
  6
CONTINUOUS
370
    -3
390
126
  0
LAYER
  5
3F
102
{ACAD_XDICTIONARY
360
19B
102
}
330
36
100
AcDbSymbolTableRecord
100
AcDbLayerTableRecord
  2
Ech.1_50
 70
     0
 62
     7
  6
CONTINUOUS
370
    -3
390
126
  0
LAYER
  5
40
102
{ACAD_XDICTIONARY
360
19D
102
}
330
36
100
AcDbSymbolTableRecord
100
AcDbLayerTableRecord
  2
Ech.1_75
 70
     0
 62
     7
  6
CONTINUOUS
370
    -3
390
126
  0
LAYER
  5
41
102
{ACAD_XDICTIONARY
360
19F
102
}
330
36
100
AcDbSymbolTableRecord
100
AcDbLayerTableRecord
  2
Ech.1_100
 70
     0
 62
     7
  6
CONTINUOUS
370
    -3
390
126
  0
LAYER
  5
42
102
{ACAD_XDICTIONARY
360
1A1
102
}
330
36
100
AcDbSymbolTableRecord
100
AcDbLayerTableRecord
  2
Ech.1_200
 70
     0
 62
     7
  6
CONTINUOUS
370
    -3
390
126
  0
LAYER
  5
43
102
{ACAD_XDICTIONARY
360
1A3
102
}
330
36
100
AcDbSymbolTableRecord
100
AcDbLayerTableRecord
  2
Ech.1_500
 70
     0
 62
     7
  6
CONTINUOUS
370
    -3
390
126
  0
LAYER
  5
44
102
{ACAD_XDICTIONARY
360
1A5
102
}
330
36
100
AcDbSymbolTableRecord
100
AcDbLayerTableRecord
  2
Ech.1_1000
 70
     0
 62
     7
  6
CONTINUOUS
370
    -3
390
126
  0
LAYER
  5
45
102
{ACAD_XDICTIONARY
360
1A7
102
}
330
36
100
AcDbSymbolTableRecord
100
AcDbLayerTableRecord
  2
Cadres traceur
 70
     0
 62
     7
  6
CONTINUOUS
370
    -3
390
126
  0
LAYER
  5
46
102
{ACAD_XDICTIONARY
360
1A9
102
}
330
36
100
AcDbSymbolTableRecord
100
AcDbLayerTableRecord
  2
Cadres laser
 70
     0
 62
     7
  6
CONTINUOUS
370
    -3
390
126
  0
LAYER
  5
47
102
{ACAD_XDICTIONARY
360
1AB
102
}
330
36
100
AcDbSymbolTableRecord
100
AcDbLayerTableRecord
  2
Légende d_aide
 70
     0
 62
     7
  6
CONTINUOUS
370
    -3
390
126
  0
LAYER
  5
48
102
{ACAD_XDICTIONARY
360
1AD
102
}
330
36
100
AcDbSymbolTableRecord
100
AcDbLayerTableRecord
  2
hachures ok
 70
     0
 62
     7
  6
CONTINUOUS
370
    -3
390
126
  0
LAYER
  5
49
102
{ACAD_XDICTIONARY
360
1AF
102
}
330
36
100
AcDbSymbolTableRecord
100
AcDbLayerTableRecord
  2
ossature bois
 70
     0
 62
     7
  6
CONTINUOUS
370
    -3
390
126
  0
LAYER
  5
4A
102
{ACAD_XDICTIONARY
360
1B1
102
}
330
36
100
AcDbSymbolTableRecord
100
AcDbLayerTableRecord
  2
VR
 70
     0
 62
     7
  6
CONTINUOUS
370
    -3
390
126
  0
LAYER
  5
4B
102
{ACAD_XDICTIONARY
360
1B3
102
}
330
36
100
AcDbSymbolTableRecord
100
AcDbLayerTableRecord
  2
CALQUE1
 70
     0
 62
     7
  6
CONTINUOUS
370
    -3
390
126
  0
LAYER
  5
4C
330
36
100
AcDbSymbolTableRecord
100
AcDbLayerTableRecord
  2
0
 70
     0
 62
     7
  6
CONTINUOUS
370
    -3
390
126
  0
LAYER
  5
4D
102
{ACAD_XDICTIONARY
360
1B5
102
}
330
36
100
AcDbSymbolTableRecord
100
AcDbLayerTableRecord
  2
MENUISERIE
 70
     0
 62
     7
  6
CONTINUOUS
370
    -3
390
126
  0
LAYER
  5
4E
102
{ACAD_XDICTIONARY
360
1B7
102
}
330
36
100
AcDbSymbolTableRecord
100
AcDbLayerTableRecord
  2
COTATION
 70
     0
 62
   250
  6
CONTINUOUS
370
    -3
390
126
  0
LAYER
  5
4F
330
36
100
AcDbSymbolTableRecord
100
AcDbLayerTableRecord
  2
DEFPOINTS
 70
     0
 62
    10
  6
CONTINUOUS
290
     0
370
    -3
390
126
  0
LAYER
  5
50
102
{ACAD_XDICTIONARY
360
1B9
102
}
330
36
100
AcDbSymbolTableRecord
100
AcDbLayerTableRecord
  2
HACHURE
 70
     0
 62
   254
  6
CONTINUOUS
370
    -3
390
126
  0
LAYER
  5
51
102
{ACAD_XDICTIONARY
360
1BB
102
}
330
36
100
AcDbSymbolTableRecord
100
AcDbLayerTableRecord
  2
MAT1
 70
     0
 62
     7
  6
CONTINUOUS
370
    -3
390
126
  0
LAYER
  5
52
102
{ACAD_XDICTIONARY
360
1BD
102
}
330
36
100
AcDbSymbolTableRecord
100
AcDbLayerTableRecord
  2
MAT2
 70
     0
 62
     7
  6
CONTINUOUS
370
    -3
390
126
  0
LAYER
  5
53
102
{ACAD_XDICTIONARY
360
1BF
102
}
330
36
100
AcDbSymbolTableRecord
100
AcDbLayerTableRecord
  2
HACH
 70
     0
 62
     8
  6
CONTINUOUS
370
    -3
390
126
  0
LAYER
  5
54
102
{ACAD_XDICTIONARY
360
1C1
102
}
330
36
100
AcDbSymbolTableRecord
100
AcDbLayerTableRecord
  2
MENUISERIES
 70
     0
 62
     7
  6
CONTINUOUS
370
    -3
390
126
  0
LAYER
  5
55
102
{ACAD_XDICTIONARY
360
1C3
102
}
330
36
100
AcDbSymbolTableRecord
100
AcDbLayerTableRecord
  2
BÉTONMÉTAL
 70
     0
 62
     7
  6
CONTINUOUS
370
    -3
390
126
  0
LAYER
  5
56
102
{ACAD_XDICTIONARY
360
1C5
102
}
330
36
100
AcDbSymbolTableRecord
100
AcDbLayerTableRecord
  2
BOIS
 70
     0
 62
     7
  6
CONTINUOUS
370
    -3
390
126
  0
ENDTAB
  0
TABLE
  2
STYLE
  5
23
330
0
100
AcDbSymbolTable
 70
     4
  0
STYLE
  5
24
330
23
100
AcDbSymbolTableRecord
100
AcDbTextStyleTableRecord
  2
STANDARD
 70
     0
 40
0.0
 41
1.0
 50
0.0
 71
     0
 42
3.5
  3
MONOTXT
  4

  0
STYLE
  5
25
330
23
100
AcDbSymbolTableRecord
100
AcDbTextStyleTableRecord
  2
CADWORK1
 70
     0
 40
0.0
 41
1.0
 50
0.0
 71
     0
 42
3.5
  3
MONOTXT
  4

  0
STYLE
  5
26
330
23
100
AcDbSymbolTableRecord
100
AcDbTextStyleTableRecord
  2
MONOTXT
 70
     0
 40
0.0
 41
1.0
 50
0.0
 71
     0
 42
3.5
  3
MONOTXT
  4

  0
STYLE
  5
27
330
23
100
AcDbSymbolTableRecord
100
AcDbTextStyleTableRecord
  2
ARIAL
 70
     0
 40
0.0
 41
1.0
 50
0.0
 71
     0
 42
3.5
  3

  4

1001
ACAD
1000
Arial
1071
        0
  0
ENDTAB
  0
TABLE
  2
VIEW
  5
57
330
0
100
AcDbSymbolTable
 70
     4
  0
ENDTAB
  0
TABLE
  2
UCS
  5
58
330
0
100
AcDbSymbolTable
 70
     0
  0
ENDTAB
  0
TABLE
  2
APPID
  5
59
330
0
100
AcDbSymbolTable
 70
     3
  0
APPID
  5
5A
330
59
100
AcDbSymbolTableRecord
100
AcDbRegAppTableRecord
  2
ACAD
 70
     0
  0
APPID
  5
181
330
59
100
AcDbSymbolTableRecord
100
AcDbRegAppTableRecord
  2
ACAD_EXEMPT_FROM_CAD_STANDARDS
 70
     0
  0
APPID
  5
207
330
59
100
AcDbSymbolTableRecord
100
AcDbRegAppTableRecord
  2
ACAD_MLEADERVER
 70
     0
  0
ENDTAB
  0
TABLE
  2
DIMSTYLE
  5
5B
330
0
100
AcDbSymbolTable
 70
     2
100
AcDbDimStyleTable
 71
     1
340
170
  0
DIMSTYLE
105
170
330
5B
100
AcDbSymbolTableRecord
100
AcDbDimStyleTableRecord
  2
Standard
 70
     0
340
24
  0
ENDTAB
  0
TABLE
  2
BLOCK_RECORD
  5
5C
330
0
100
AcDbSymbolTable
 70
    18
  0
BLOCK_RECORD
  5
5D
330
5C
100
AcDbSymbolTableRecord
100
AcDbBlockTableRecord
  2
*MODEL_SPACE
340
173
  0
BLOCK_RECORD
  5
5E
330
5C
100
AcDbSymbolTableRecord
100
AcDbBlockTableRecord
  2
*PAPER_SPACE
340
174
  0
BLOCK_RECORD
  5
5F
330
5C
100
AcDbSymbolTableRecord
100
AcDbBlockTableRecord
  2
CDWK_EXTR_0
340
0
  0
BLOCK_RECORD
  5
60
330
5C
100
AcDbSymbolTableRecord
100
AcDbBlockTableRecord
  2
CDWK_EXTR_1D
340
0
  0
BLOCK_RECORD
  5
61
330
5C
100
AcDbSymbolTableRecord
100
AcDbBlockTableRecord
  2
CDWK_EXTR_1G
340
0
  0
BLOCK_RECORD
  5
62
330
5C
100
AcDbSymbolTableRecord
100
AcDbBlockTableRecord
  2
CDWK_EXTR_2
340
0
  0
BLOCK_RECORD
  5
63
330
5C
100
AcDbSymbolTableRecord
100
AcDbBlockTableRecord
  2
CDWK_EXTR_3
340
0
  0
BLOCK_RECORD
  5
64
330
5C
100
AcDbSymbolTableRecord
100
AcDbBlockTableRecord
  2
CDWK_EXTR_4
340
0
  0
BLOCK_RECORD
  5
65
330
5C
100
AcDbSymbolTableRecord
100
AcDbBlockTableRecord
  2
CDWK_PTTYP0
340
0
  0
BLOCK_RECORD
  5
66
330
5C
100
AcDbSymbolTableRecord
100
AcDbBlockTableRecord
  2
*X7
340
0
102
{BLKREFS
331
B8
102
}
  0
BLOCK_RECORD
  5
67
330
5C
100
AcDbSymbolTableRecord
100
AcDbBlockTableRecord
  2
*X8
340
0
102
{BLKREFS
331
B9
102
}
  0
BLOCK_RECORD
  5
68
330
5C
100
AcDbSymbolTableRecord
100
AcDbBlockTableRecord
  2
*X9
340
0
102
{BLKREFS
331
BA
102
}
  0
BLOCK_RECORD
  5
69
330
5C
100
AcDbSymbolTableRecord
100
AcDbBlockTableRecord
  2
*X10
340
0
102
{BLKREFS
331
BB
102
}
  0
BLOCK_RECORD
  5
6A
330
5C
100
AcDbSymbolTableRecord
100
AcDbBlockTableRecord
  2
*X11
340
0
102
{BLKREFS
331
BC
102
}
  0
BLOCK_RECORD
  5
6B
330
5C
100
AcDbSymbolTableRecord
100
AcDbBlockTableRecord
  2
*X12
340
0
102
{BLKREFS
331
BD
102
}
  0
BLOCK_RECORD
  5
6C
330
5C
100
AcDbSymbolTableRecord
100
AcDbBlockTableRecord
  2
*X13
340
0
102
{BLKREFS
331
BE
102
}
  0
BLOCK_RECORD
  5
6D
330
5C
100
AcDbSymbolTableRecord
100
AcDbBlockTableRecord
  2
*X14
340
0
102
{BLKREFS
331
BF
102
}
  0
BLOCK_RECORD
  5
6E
330
5C
100
AcDbSymbolTableRecord
100
AcDbBlockTableRecord
  2
*D15
340
0
102
{BLKREFS
331
120
102
}
  0
BLOCK_RECORD
  5
6F
330
5C
100
AcDbSymbolTableRecord
100
AcDbBlockTableRecord
  2
*D16
340
0
102
{BLKREFS
331
121
102
}
  0
ENDTAB
  0
ENDSEC
  0
SECTION
  2
BLOCKS
  0
BLOCK
  5
70
330
5D
100
AcDbEntity
  8
0
100
AcDbBlockBegin
  2
*MODEL_SPACE
 70
     0
 10
0.0
 20
0.0
 30
0.0
  3
*MODEL_SPACE
  1

  0
ENDBLK
  5
71
330
5D
100
AcDbEntity
  8
0
100
AcDbBlockEnd
  0
BLOCK
  5
72
330
5E
100
AcDbEntity
 67
     1
  8
0
100
AcDbBlockBegin
  2
*PAPER_SPACE
 70
     0
 10
0.0
 20
0.0
 30
0.0
  3
*PAPER_SPACE
  1

  0
ENDBLK
  5
73
330
5E
100
AcDbEntity
 67
     1
  8
0
100
AcDbBlockEnd
  0
BLOCK
  5
74
330
5F
100
AcDbEntity
  8
0
100
AcDbBlockBegin
  2
CDWK_EXTR_0
 70
     0
 10
0.0
 20
0.0
 30
0.0
  3
CDWK_EXTR_0
  1

  0
LINE
  5
75
330
5F
100
AcDbEntity
  8
0
 62
     0
370
    -2
100
AcDbLine
 10
0.0
 20
0.0
 30
0.0
 11
2.0
 21
0.5
 31
0.0
  0
LINE
  5
76
330
5F
100
AcDbEntity
  8
0
 62
     0
370
    -2
100
AcDbLine
 10
0.0
 20
0.0
 30
0.0
 11
2.0
 21
-0.5
 31
0.0
  0
LINE
  5
77
330
5F
100
AcDbEntity
  8
0
 62
     0
370
    -2
100
AcDbLine
 10
2.0
 20
0.5
 30
0.0
 11
2.0
 21
-0.5
 31
0.0
  0
ENDBLK
  5
78
330
5F
100
AcDbEntity
  8
0
100
AcDbBlockEnd
  0
BLOCK
  5
79
330
60
100
AcDbEntity
  8
0
100
AcDbBlockBegin
  2
CDWK_EXTR_1D
 70
     0
 10
0.0
 20
0.0
 30
0.0
  3
CDWK_EXTR_1D
  1

  0
LINE
  5
7A
330
60
100
AcDbEntity
  8
0
 62
     0
370
    -2
100
AcDbLine
 10
0.0
 20
0.0
 30
0.0
 11
0.0
 21
1.0
 31
0.0
  0
LINE
  5
7B
330
60
100
AcDbEntity
  8
0
 62
     0
370
    -2
100
AcDbLine
 10
0.0
 20
1.0
 30
0.0
 11
0.5
 21
1.5
 31
0.0
  0
LINE
  5
7C
330
60
100
AcDbEntity
  8
0
 62
     0
370
    -2
100
AcDbLine
 10
0.5
 20
1.5
 30
0.0
 11
1.5
 21
1.5
 31
0.0
  0
ENDBLK
  5
7D
330
60
100
AcDbEntity
  8
0
100
AcDbBlockEnd
  0
BLOCK
  5
7E
330
61
100
AcDbEntity
  8
0
100
AcDbBlockBegin
  2
CDWK_EXTR_1G
 70
     0
 10
0.0
 20
0.0
 30
0.0
  3
CDWK_EXTR_1G
  1

  0
LINE
  5
7F
330
61
100
AcDbEntity
  8
0
 62
     0
370
    -2
100
AcDbLine
 10
0.0
 20
0.0
 30
0.0
 11
0.0
 21
-1.0
 31
0.0
  0
LINE
  5
80
330
61
100
AcDbEntity
  8
0
 62
     0
370
    -2
100
AcDbLine
 10
0.0
 20
-1.0
 30
0.0
 11
0.5
 21
-1.5
 31
0.0
  0
LINE
  5
81
330
61
100
AcDbEntity
  8
0
 62
     0
370
    -2
100
AcDbLine
 10
0.5
 20
-1.5
 30
0.0
 11
1.5
 21
-1.5
 31
0.0
  0
ENDBLK
  5
82
330
61
100
AcDbEntity
  8
0
100
AcDbBlockEnd
  0
BLOCK
  5
83
330
62
100
AcDbEntity
  8
0
100
AcDbBlockBegin
  2
CDWK_EXTR_2
 70
     0
 10
0.0
 20
0.0
 30
0.0
  3
CDWK_EXTR_2
  1

  0
SOLID
  5
84
330
62
100
AcDbEntity
  8
0
 62
     0
100
AcDbTrace
 10
0.0
 20
0.0
 30
0.0
 11
2.0
 21
0.5
 31
0.0
 12
2.0
 22
-0.5
 32
0.0
 13
2.0
 23
-0.5
 33
0.0
  0
ENDBLK
  5
85
330
62
100
AcDbEntity
  8
0
100
AcDbBlockEnd
  0
BLOCK
  5
86
330
63
100
AcDbEntity
  8
0
100
AcDbBlockBegin
  2
CDWK_EXTR_3
 70
     0
 10
0.0
 20
0.0
 30
0.0
  3
CDWK_EXTR_3
  1

  0
SOLID
  5
87
330
63
100
AcDbEntity
  8
0
 62
     0
100
AcDbTrace
 10
0.0
 20
0.0
 30
0.0
 11
2.0
 21
0.5
 31
0.0
 12
2.0
 22
-0.5
 32
0.0
 13
2.0
 23
-0.5
 33
0.0
  0
LINE
  5
88
330
63
100
AcDbEntity
  8
0
 62
     0
370
    -2
100
AcDbLine
 10
0.0
 20
1.0
 30
0.0
 11
0.0
 21
-1.0
 31
0.0
  0
ENDBLK
  5
89
330
63
100
AcDbEntity
  8
0
100
AcDbBlockEnd
  0
BLOCK
  5
8A
330
64
100
AcDbEntity
  8
0
100
AcDbBlockBegin
  2
CDWK_EXTR_4
 70
     0
 10
0.0
 20
0.0
 30
0.0
  3
CDWK_EXTR_4
  1

  0
HATCH
  5
8B
330
64
100
AcDbEntity
  8
0
 62
     0
370
    20
100
AcDbHatch
 10
0.0
 20
0.0
 30
0.0
210
0.0
220
0.0
230
1.0
  2
SOLID
 70
     1
 71
     0
 91
        1
 92
        1
 93
        1
 72
     2
 10
0.0
 20
0.0
 40
0.5
 50
0.0
 51
360.0
 73
     1
 97
        0
 75
     0
 76
     1
 98
        1
 10
0.0
 20
0.0
  0
ENDBLK
  5
8C
330
64
100
AcDbEntity
  8
0
100
AcDbBlockEnd
  0
BLOCK
  5
8D
330
65
100
AcDbEntity
  8
0
100
AcDbBlockBegin
  2
CDWK_PTTYP0
 70
     0
 10
0.0
 20
0.0
 30
0.0
  3
CDWK_PTTYP0
  1

  0
POINT
  5
8E
330
65
100
AcDbEntity
  8
0
 62
     0
100
AcDbPoint
 10
0.0
 20
0.0
 30
0.0
  0
ENDBLK
  5
8F
330
65
100
AcDbEntity
  8
0
100
AcDbBlockEnd
  0
BLOCK
  5
90
330
66
100
AcDbEntity
  8
Ech.1_5
100
AcDbBlockBegin
  2
*X7
 70
     1
 10
0.0
 20
0.0
 30
0.0
  3
*X7
  1

  0
ENDBLK
  5
91
330
66
100
AcDbEntity
  8
0
100
AcDbBlockEnd
  0
BLOCK
  5
92
330
67
100
AcDbEntity
  8
Ech.1_5
100
AcDbBlockBegin
  2
*X8
 70
     1
 10
0.0
 20
0.0
 30
0.0
  3
*X8
  1

  0
ENDBLK
  5
93
330
67
100
AcDbEntity
  8
0
100
AcDbBlockEnd
  0
BLOCK
  5
94
330
68
100
AcDbEntity
  8
Ech.1_5
100
AcDbBlockBegin
  2
*X9
 70
     1
 10
0.0
 20
0.0
 30
0.0
  3
*X9
  1

  0
ENDBLK
  5
95
330
68
100
AcDbEntity
  8
0
100
AcDbBlockEnd
  0
BLOCK
  5
96
330
69
100
AcDbEntity
  8
Ech.1_5
100
AcDbBlockBegin
  2
*X10
 70
     1
 10
0.0
 20
0.0
 30
0.0
  3
*X10
  1

  0
ENDBLK
  5
97
330
69
100
AcDbEntity
  8
0
100
AcDbBlockEnd
  0
BLOCK
  5
98
330
6A
100
AcDbEntity
  8
Ech.1_5
100
AcDbBlockBegin
  2
*X11
 70
     1
 10
0.0
 20
0.0
 30
0.0
  3
*X11
  1

  0
LINE
  5
99
330
6A
100
AcDbEntity
  8
Ech.1_5
  6
Continuous
 62
     7
370
    -2
100
AcDbLine
 10
35353.48611419999
 20
11334.0457547
 30
0.0
 11
35378.48933217
 21
11289.04752315
 31
0.0
  0
LINE
  5
9A
330
6A
100
AcDbEntity
  8
Ech.1_5
  6
Continuous
 62
     7
370
    -2
100
AcDbLine
 10
35378.48933217
 20
11334.0457547
 30
0.0
 11
35353.48611419999
 21
11289.04752315
 31
0.0
  0
ENDBLK
  5
9B
330
6A
100
AcDbEntity
  8
0
100
AcDbBlockEnd
  0
BLOCK
  5
9C
330
6B
100
AcDbEntity
  8
Ech.1_5
100
AcDbBlockBegin
  2
*X12
 70
     1
 10
0.0
 20
0.0
 30
0.0
  3
*X12
  1

  0
LINE
  5
9D
330
6B
100
AcDbEntity
  8
Ech.1_5
  6
Continuous
 62
     7
370
    -2
100
AcDbLine
 10
35353.48611419999
 20
10893.99602171
 30
0.0
 11
35378.48933217
 21
10848.9961465
 31
0.0
  0
LINE
  5
9E
330
6B
100
AcDbEntity
  8
Ech.1_5
  6
Continuous
 62
     7
370
    -2
100
AcDbLine
 10
35378.48933217
 20
10893.99602171
 30
0.0
 11
35353.48611419999
 21
10848.9961465
 31
0.0
  0
ENDBLK
  5
9F
330
6B
100
AcDbEntity
  8
0
100
AcDbBlockEnd
  0
BLOCK
  5
A0
330
6C
100
AcDbEntity
  8
Ech.1_5
100
AcDbBlockBegin
  2
*X13
 70
     1
 10
0.0
 20
0.0
 30
0.0
  3
*X13
  1

  0
LINE
  5
A1
330
6C
100
AcDbEntity
  8
Ech.1_5
  6
Continuous
 62
     7
370
    -2
100
AcDbLine
 10
35209.48914338
 20
11334.0457547
 30
0.0
 11
35249.48903245
 21
11289.04752315
 31
0.0
  0
LINE
  5
A2
330
6C
100
AcDbEntity
  8
Ech.1_5
  6
Continuous
 62
     7
370
    -2
100
AcDbLine
 10
35249.48903245
 20
11334.0457547
 30
0.0
 11
35209.48914338
 21
11289.04752315
 31
0.0
  0
ENDBLK
  5
A3
330
6C
100
AcDbEntity
  8
0
100
AcDbBlockEnd
  0
BLOCK
  5
A4
330
6D
100
AcDbEntity
  8
Ech.1_5
100
AcDbBlockBegin
  2
*X14
 70
     1
 10
0.0
 20
0.0
 30
0.0
  3
*X14
  1

  0
LINE
  5
A5
330
6D
100
AcDbEntity
  8
Ech.1_5
  6
Continuous
 62
     7
370
    -2
100
AcDbLine
 10
35209.48914338
 20
10893.99602171
 30
0.0
 11
35249.48903245
 21
10848.9961465
 31
0.0
  0
LINE
  5
A6
330
6D
100
AcDbEntity
  8
Ech.1_5
  6
Continuous
 62
     7
370
    -2
100
AcDbLine
 10
35249.48903245
 20
10893.99602171
 30
0.0
 11
35209.48914338
 21
10848.9961465
 31
0.0
  0
ENDBLK
  5
A7
330
6D
100
AcDbEntity
  8
0
100
AcDbBlockEnd
  0
BLOCK
  5
A8
330
6E
100
AcDbEntity
  8
Ech.1_5
100
AcDbBlockBegin
  2
*D15
 70
     1
 10
0.0
 20
0.0
 30
0.0
  3
*D15
  1

  0
TEXT
  5
A9
330
6E
100
AcDbEntity
  8
Ech.1_5
 62
     7
370
    18
100
AcDbText
 10
35338.82394141
 20
10852.00462756
 30
0.0
 40
12.5
  1
max 20mm
 50
89.99999749999998
  7
ARIAL
100
AcDbText
  0
LINE
  5
AA
330
6E
100
AcDbEntity
  8
Ech.1_5
 62
     7
370
    -2
100
AcDbLine
 10
35348.82394141
 20
10859.09871805
 30
0.0
 11
35338.48870199
 21
10859.09871805
 31
0.0
  0
LINE
  5
AB
330
6E
100
AcDbEntity
  8
Ech.1_5
 62
     7
370
    -2
100
AcDbLine
 10
35348.82394141
 20
10839.09761208
 30
0.0
 11
35378.48870199
 21
10839.09761208
 31
0.0
  0
LINE
  5
AC
330
6E
100
AcDbEntity
  8
Ech.1_5
 62
     7
370
    -2
100
AcDbLine
 10
35343.82394141001
 20
10864.09871805
 30
0.0
 11
35343.82394141001
 21
10834.09761208
 31
0.0
  0
LINE
  5
AD
330
6E
100
AcDbEntity
  8
Ech.1_5
 62
     7
370
    -2
100
AcDbLine
 10
35341.32394141
 20
10861.59871805
 30
0.0
 11
35346.32394141
 21
10856.59871805
 31
0.0
  0
LINE
  5
AE
330
6E
100
AcDbEntity
  8
Ech.1_5
 62
     7
370
    -2
100
AcDbLine
 10
35341.32394141
 20
10841.59761208
 30
0.0
 11
35346.32394141
 21
10836.59761208
 31
0.0
  0
ENDBLK
  5
AF
330
6E
100
AcDbEntity
  8
0
100
AcDbBlockEnd
  0
BLOCK
  5
B0
330
6F
100
AcDbEntity
  8
Ech.1_5
100
AcDbBlockBegin
  2
*D16
 70
     1
 10
0.0
 20
0.0
 30
0.0
  3
*D16
  1

  0
TEXT
  5
B1
330
6F
100
AcDbEntity
  8
Ech.1_5
 62
     7
370
    18
100
AcDbText
 10
35338.82394141
 20
10814.30895852
 30
0.0
 40
12.5
  1
10
 50
89.99999749999998
  7
ARIAL
100
AcDbText
  0
LINE
  5
B2
330
6F
100
AcDbEntity
  8
Ech.1_5
 62
     7
370
    -2
100
AcDbLine
 10
35338.82394141
 20
10839.09761208
 30
0.0
 11
35378.48870199
 21
10839.09761208
 31
0.0
  0
LINE
  5
B3
330
6F
100
AcDbEntity
  8
Ech.1_5
 62
     7
370
    -2
100
AcDbLine
 10
35338.82394141
 20
10829.04717855
 30
0.0
 11
35401.48873478
 21
10829.04717855
 31
0.0
  0
LINE
  5
B4
330
6F
100
AcDbEntity
  8
Ech.1_5
 62
     7
370
    -2
100
AcDbLine
 10
35343.82394141001
 20
10844.09761208
 30
0.0
 11
35343.82394141001
 21
10824.04717855
 31
0.0
  0
LINE
  5
B5
330
6F
100
AcDbEntity
  8
Ech.1_5
 62
     7
370
    -2
100
AcDbLine
 10
35341.32394141
 20
10841.59761208
 30
0.0
 11
35346.32394141
 21
10836.59761208
 31
0.0
  0
LINE
  5
B6
330
6F
100
AcDbEntity
  8
Ech.1_5
 62
     7
370
    -2
100
AcDbLine
 10
35341.32394141
 20
10831.54717855
 30
0.0
 11
35346.32394141
 21
10826.54717855
 31
0.0
  0
ENDBLK
  5
B7
330
6F
100
AcDbEntity
  8
0
100
AcDbBlockEnd
  0
ENDSEC
  0
SECTION
  2
ENTITIES
  0
INSERT
  5
B8
330
5D
100
AcDbEntity
  8
Ech.1_5
 62
     0
370
    -3
100
AcDbBlockReference
  2
*X7
 10
0.0
 20
0.0
 30
0.0
  0
INSERT
  5
B9
330
5D
100
AcDbEntity
  8
Ech.1_5
 62
     0
370
    -3
100
AcDbBlockReference
  2
*X8
 10
0.0
 20
0.0
 30
0.0
  0
INSERT
  5
BA
330
5D
100
AcDbEntity
  8
Ech.1_5
 62
     0
370
    -3
100
AcDbBlockReference
  2
*X9
 10
0.0
 20
0.0
 30
0.0
  0
INSERT
  5
BB
330
5D
100
AcDbEntity
  8
Ech.1_5
 62
     0
370
    -3
100
AcDbBlockReference
  2
*X10
 10
0.0
 20
0.0
 30
0.0
  0
INSERT
  5
BC
330
5D
100
AcDbEntity
  8
Ech.1_5
 62
     0
370
    -3
100
AcDbBlockReference
  2
*X11
 10
0.0
 20
0.0
 30
0.0
  0
INSERT
  5
BD
330
5D
100
AcDbEntity
  8
Ech.1_5
 62
     0
370
    -3
100
AcDbBlockReference
  2
*X12
 10
0.0
 20
0.0
 30
0.0
  0
INSERT
  5
BE
330
5D
100
AcDbEntity
  8
Ech.1_5
 62
     0
370
    -3
100
AcDbBlockReference
  2
*X13
 10
0.0
 20
0.0
 30
0.0
  0
INSERT
  5
BF
330
5D
100
AcDbEntity
  8
Ech.1_5
 62
     0
370
    -3
100
AcDbBlockReference
  2
*X14
 10
0.0
 20
0.0
 30
0.0
  0
LWPOLYLINE
  5
C0
102
{ACAD_REACTORS
330
C1
102
}
330
5D
100
AcDbEntity
  8
Ech.1_5
  6
Continuous
 62
     9
370
    -3
100
AcDbPolyline
 90
        4
 70
     1
 43
0.0
 10
34881.46885104
 20
10249.85085312
 10
35721.26756628001
 20
10249.85085312
 10
35721.26756628001
 20
10376.63266947
 10
34881.46885104
 20
10376.63266947
  0
HATCH
  5
C1
330
5D
100
AcDbEntity
  8
Ech.1_5
  6
Continuous
 62
     9
100
AcDbHatch
 10
0.0
 20
0.0
 30
0.0
210
0.0
220
0.0
230
1.0
  2
SSTNWSB
 70
     0
 71
     1
 91
        1
 92
        7
 72
     0
 73
     1
 93
        4
 10
34881.46885104
 20
10249.85085312
 10
35721.26756628
 20
10249.85085312
 10
35721.26756628001
 20
10376.63266947
 10
34881.46885104
 20
10376.63266947
 97
        1
330
C0
 75
     0
 76
     2
 52
0.0
 41
1.0
 77
     0
 78
  1001
 53
90.0
 43
29.60000038
 44
213.40000153
 45
-296.47199631
 46
0.0000000000000182
 79
     2
 49
2.96400011
 49
-293.50799561
 53
45.0
 43
26.60000086
 44
210.40000916
 45
0.0000000000000355
 46
296.47290887
 79
     2
 49
4.192000029999999
 49
-415.08201599
 53
26.56509972
 43
20.79999924
 44
207.60000229
 45
296.47285424
 46
296.47246092
 79
     2
 49
6.629999879999999
 49
-656.3040161099999
 53
0.0
 43
14.80000019
 44
207.60000229
 45
0.0
 46
296.47199631
 79
     2
 49
5.92999995
 49
-290.5439949
 53
296.56509399
 43
11.79999948
 44
213.40000153
 45
296.47243131
 46
-296.47288385
 79
     2
 49
6.629999879999999
 49
-656.3040161099999
 53
243.43499756
 43
14.80000019
 44
219.40000534
 45
-0.00064346
 46
-296.4731053999999
 79
     2
 49
6.629999879999999
 49
-656.3040161099999
 53
206.56500244
 43
20.79999924
 44
222.39999771
 45
-296.47335758
 46
-296.47195758
 79
     2
 49
6.629999879999999
 49
-656.3040161099999
 53
180.0
 43
26.60000086
 44
222.39999771
 45
-0.0000000000000363
 46
-296.47199631
 79
     2
 49
5.92999995
 49
-290.5439949
 53
135.0
 43
29.60000038
 44
219.40000534
 45
-296.47290887
 46
0.0000000000000355
 79
     2
 49
4.192000029999999
 49
-415.08201599
 53
0.0
 43
255.0
 44
207.60000229
 45
0.0
 46
296.47199631
 79
     2
 49
8.89400005
 49
-287.57799149
 53
315.0
 43
252.00000763
 44
210.40000916
 45
296.47290887
 46
-0.0000000000000711
 79
     2
 49
4.192000029999999
 49
-415.08201599
 53
270.0
 43
252.00000763
 44
213.40000153
 45
296.47199631
 46
-0.0000000000000545
 79
     2
 49
2.96400011
 49
-293.50799561
 53
225.0
 43
255.0
 44
216.3999939
 45
-0.0000000000000533
 46
-296.47290887
 79
     2
 49
4.192000029999999
 49
-415.08201599
 53
225.0
 43
257.99999237
 44
219.40000534
 45
-0.0000000000000533
 46
-296.47290887
 79
     2
 49
4.192000029999999
 49
-415.08201599
 53
153.43499756
 43
263.79999161
 44
216.3999939
 45
-296.4731053999999
 46
0.00064346
 79
     2
 49
6.629999879999999
 49
-656.3040161099999
 53
135.0
 43
266.80000305
 44
213.40000153
 45
-296.47290887
 46
0.0000000000000355
 79
     2
 49
4.192000029999999
 49
-415.08201599
 53
63.43489838
 43
263.79999161
 44
207.60000229
 45
0.00115667
 46
296.4731053999999
 79
     2
 49
6.629999879999999
 49
-656.3040161099999
 53
135.0
 43
160.0
 44
228.19999695
 45
-296.47290887
 46
0.0000000000000355
 79
     2
 49
4.192000029999999
 49
-415.08201599
 53
180.0
 43
162.99999237
 44
228.19999695
 45
-0.0000000000000363
 46
-296.47199631
 79
     2
 49
2.96400011
 49
-293.50799561
 53
161.56500244
 43
172.00000763
 44
225.40000916
 45
-296.47174563
 46
0.00087946
 79
     2
 49
9.376000169999999
 49
-928.1539917000001
 53
225.0
 43
175.0
 44
228.19999695
 45
-0.0000000000000533
 46
-296.47290887
 79
     2
 49
4.192000029999999
 49
-415.08201599
 53
270.0
 43
175.0
 44
234.20000076
 45
296.47199631
 46
-0.0000000000000545
 79
     2
 49
5.92999995
 49
-290.5439949
 53
333.43490601
 43
168.99999619
 44
237.19999313
 45
296.4731053999999
 46
-0.0011172
 79
     2
 49
6.629999879999999
 49
-656.3040161099999
 53
0.0
 43
160.0
 44
237.19999313
 45
0.0
 46
296.47199631
 79
     2
 49
8.89400005
 49
-287.57799149
 53
45.0
 43
157.20000267
 44
234.20000076
 45
0.0000000000000355
 46
296.47290887
 79
     2
 49
4.192000029999999
 49
-415.08201599
 53
0.0
 43
281.59999847
 44
175.0
 45
0.0
 46
296.47199631
 79
     2
 49
11.85799956
 49
-284.61399078
 53
180.0
 43
278.6000061
 44
157.20000267
 45
-0.0000000000000363
 46
-296.47199631
 79
     2
 49
5.92999995
 49
-290.5439949
 53
180.0
 43
290.59999466
 44
118.59999657
 45
-0.0000000000000363
 46
-296.47199631
 79
     2
 49
2.96400011
 49
-293.50799561
 53
26.56509972
 43
290.59999466
 44
118.59999657
 45
296.47285424
 46
296.47246092
 79
     2
 49
6.629999879999999
 49
-656.3040161099999
 53
296.56509399
 43
11.79999948
 44
237.19999313
 45
296.47243131
 46
-296.47288385
 79
     2
 49
6.629999879999999
 49
-656.3040161099999
 53
270.0
 43
11.79999948
 44
243.19999695
 45
296.47199631
 46
-0.0000000000000545
 79
     2
 49
5.92999995
 49
-290.5439949
 53
63.43489838
 43
8.79999995
 44
237.19999313
 45
0.00115667
 46
296.4731053999999
 79
     2
 49
6.629999879999999
 49
-656.3040161099999
 53
26.56509972
 43
189.79999542
 44
284.5999908399999
 45
296.47285424
 46
296.47246092
 79
     2
 49
6.629999879999999
 49
-656.3040161099999
 53
168.69009399
 43
175.0
 44
281.59999847
 45
-296.47346827
 46
-0.00092342
 79
     2
 49
15.11800051
 49
-1496.60202026
 53
26.56509972
 43
243.19999695
 44
260.79999924
 45
296.47285424
 46
296.47246092
 79
     2
 49
6.629999879999999
 49
-656.3040161099999
 53
26.56509972
 43
248.99999619
 44
263.79999161
 45
296.47285424
 46
296.47246092
 79
     2
 49
6.629999879999999
 49
-656.3040161099999
 53
26.56509972
 43
255.0
 44
266.80000305
 45
296.47285424
 46
296.47246092
 79
     2
 49
6.629999879999999
 49
-656.3040161099999
 53
0.0
 43
260.79999924
 44
269.79999542
 45
0.0
 46
296.47199631
 79
     2
 49
5.92999995
 49
-290.5439949
 53
315.0
 43
266.80000305
 44
269.79999542
 45
296.47290887
 46
-0.0000000000000711
 79
     2
 49
4.192000029999999
 49
-415.08201599
 53
270.0
 43
269.79999542
 44
266.80000305
 45
296.47199631
 46
-0.0000000000000545
 79
     2
 49
5.92999995
 49
-290.5439949
 53
243.43499756
 43
269.79999542
 44
260.79999924
 45
-0.00064346
 46
-296.4731053999999
 79
     2
 49
6.629999879999999
 49
-656.3040161099999
 53
225.0
 43
266.80000305
 44
255.0
 45
-0.0000000000000533
 46
-296.47290887
 79
     2
 49
4.192000029999999
 49
-415.08201599
 53
194.03619385
 43
263.79999161
 44
252.00000763
 45
-889.4167208699998
 46
-296.4723532
 79
     2
 49
12.2239995
 49
-1210.16403198
 53
161.56500244
 43
252.00000763
 44
248.99999619
 45
-296.47174563
 46
0.00087946
 79
     2
 49
9.376000169999999
 49
-928.1539917000001
 53
135.0
 43
243.19999695
 44
252.00000763
 45
-296.47290887
 46
0.0000000000000355
 79
     2
 49
4.192000029999999
 49
-415.08201599
 53
90.0
 43
240.20000458
 44
255.0
 45
-296.47199631
 46
0.0000000000000182
 79
     2
 49
2.96400011
 49
-293.50799561
 53
45.0
 43
240.20000458
 44
257.99999237
 45
0.0000000000000355
 46
296.47290887
 79
     2
 49
4.192000029999999
 49
-415.08201599
 53
165.96380615
 43
168.99999619
 44
162.99999237
 45
-296.47214391
 46
-0.00122822
 79
     2
 49
12.2239995
 49
-1210.16403198
 53
18.43490028
 43
216.3999939
 44
97.79999733
 45
592.9456423699999
 46
296.47124934
 79
     2
 49
9.376000169999999
 49
-928.1539917000001
 53
0.0
 43
225.40000916
 44
100.79999924
 45
0.0
 46
296.47199631
 79
     2
 49
8.89400005
 49
-287.57799149
 53
341.56509399
 43
234.20000076
 44
100.79999924
 45
296.47174563
 46
-0.00040573
 79
     2
 49
9.376000169999999
 49
-928.1539917000001
 53
341.56509399
 43
243.19999695
 44
97.79999733
 45
296.47174563
 46
-0.00040573
 79
     2
 49
9.376000169999999
 49
-928.1539917000001
 53
296.56509399
 43
252.00000763
 44
94.79999541999999
 45
296.47243131
 46
-296.47288385
 79
     2
 49
6.629999879999999
 49
-656.3040161099999
 53
270.0
 43
255.0
 44
88.99999619
 45
296.47199631
 46
-0.0000000000000545
 79
     2
 49
11.85799956
 49
-284.61399078
 53
225.0
 43
255.0
 44
76.99999809000001
 45
-0.0000000000000533
 46
-296.47290887
 79
     2
 49
4.192000029999999
 49
-415.08201599
 53
206.56500244
 43
252.00000763
 44
74.20000075999999
 45
-296.47335758
 46
-296.47195758
 79
     2
 49
6.629999879999999
 49
-656.3040161099999
 53
180.0
 43
246.00000381
 44
71.19999885999999
 45
-0.0000000000000363
 46
-296.47199631
 79
     2
 49
23.71799946
 49
-272.75400162
 53
153.43499756
 43
222.39999771
 44
71.19999885999999
 45
-296.4731053999999
 46
0.00064346
 79
     2
 49
6.629999879999999
 49
-656.3040161099999
 53
135.0
 43
216.3999939
 44
74.20000075999999
 45
-296.47290887
 46
0.0000000000000355
 79
     2
 49
8.385999799999998
 49
-410.8900070199999
 53
116.56500244
 43
210.40000916
 44
80.0
 45
-296.47195758
 46
296.47335758
 79
     2
 49
6.629999879999999
 49
-656.3040161099999
 53
90.0
 43
207.60000229
 44
86.00000380999999
 45
-296.47199631
 46
0.0000000000000182
 79
     2
 49
2.96400011
 49
-293.50799561
 53
63.43489838
 43
207.60000229
 44
88.99999619
 45
0.00115667
 46
296.4731053999999
 79
     2
 49
6.629999879999999
 49
-656.3040161099999
 53
26.56509972
 43
210.40000916
 44
94.79999541999999
 45
296.47285424
 46
296.47246092
 79
     2
 49
6.629999879999999
 49
-656.3040161099999
 53
45.0
 43
6.00000024
 44
139.3999958
 45
0.0000000000000355
 46
296.47290887
 79
     2
 49
8.385999799999998
 49
-410.8900070199999
 53
0.0
 43
11.79999948
 44
145.20000458
 45
0.0
 46
296.47199631
 79
     2
 49
5.92999995
 49
-290.5439949
 53
0.0
 43
17.79999971
 44
145.20000458
 45
0.0
 46
296.47199631
 79
     2
 49
8.89400005
 49
-287.57799149
 53
315.0
 43
26.60000086
 44
145.20000458
 45
296.47290887
 46
-0.0000000000000711
 79
     2
 49
8.385999799999998
 49
-410.8900070199999
 53
270.0
 43
32.5999999
 44
139.3999958
 45
296.47199631
 46
-0.0000000000000545
 79
     2
 49
5.92999995
 49
-290.5439949
 53
225.0
 43
32.5999999
 44
133.40000153
 45
-0.0000000000000533
 46
-296.47290887
 79
     2
 49
8.385999799999998
 49
-410.8900070199999
 53
206.56500244
 43
26.60000086
 44
127.39999771
 45
-296.47335758
 46
-296.47195758
 79
     2
 49
6.629999879999999
 49
-656.3040161099999
 53
180.0
 43
20.79999924
 44
124.60000038
 45
-0.0000000000000363
 46
-296.47199631
 79
     2
 49
11.85799956
 49
-284.61399078
 53
153.43499756
 43
8.79999995
 44
124.60000038
 45
-296.4731053999999
 46
0.00064346
 79
     2
 49
6.629999879999999
 49
-656.3040161099999
 53
206.56500244
 43
275.79999924
 44
142.39999771
 45
-296.47335758
 46
-296.47195758
 79
     2
 49
6.629999879999999
 49
-656.3040161099999
 53
270.0
 43
269.79999542
 44
139.3999958
 45
296.47199631
 46
-0.0000000000000545
 79
     2
 49
5.92999995
 49
-290.5439949
 53
315.0
 43
269.79999542
 44
133.40000153
 45
296.47290887
 46
-0.0000000000000711
 79
     2
 49
4.192000029999999
 49
-415.08201599
 53
333.43490601
 43
272.80000687
 44
130.39999962
 45
296.4731053999999
 46
-0.0011172
 79
     2
 49
6.629999879999999
 49
-656.3040161099999
 53
315.0
 43
278.6000061
 44
127.39999771
 45
296.47290887
 46
-0.0000000000000711
 79
     2
 49
4.192000029999999
 49
-415.08201599
 53
315.0
 43
281.59999847
 44
124.60000038
 45
296.47290887
 46
-0.0000000000000711
 79
     2
 49
8.385999799999998
 49
-410.8900070199999
 53
45.0
 43
0.0
 44
121.59999847
 45
0.0000000000000355
 46
296.47290887
 79
     2
 49
4.192000029999999
 49
-415.08201599
 53
90.0
 43
3.00000012
 44
124.60000038
 45
-296.47199631
 46
0.0000000000000182
 79
     2
 49
5.92999995
 49
-290.5439949
 53
63.43489838
 43
3.00000012
 44
130.39999962
 45
0.00115667
 46
296.4731053999999
 79
     2
 49
6.629999879999999
 49
-656.3040161099999
 53
90.0
 43
6.00000024
 44
136.40000343
 45
-296.47199631
 46
0.0000000000000182
 79
     2
 49
2.96400011
 49
-293.50799561
 53
135.0
 43
6.00000024
 44
139.3999958
 45
-296.47290887
 46
0.0000000000000355
 79
     2
 49
4.192000029999999
 49
-415.08201599
 53
180.0
 43
3.00000012
 44
142.39999771
 45
-0.0000000000000363
 46
-296.47199631
 79
     2
 49
2.96400011
 49
-293.50799561
 53
180.0
 43
296.3999939
 44
142.39999771
 45
-0.0000000000000363
 46
-296.47199631
 79
     2
 49
11.85799956
 49
-284.61399078
 53
0.0
 43
293.6000061000001
 44
160.0
 45
0.0
 46
296.47199631
 79
     2
 49
2.96400011
 49
-293.50799561
 53
0.0
 43
0.0
 44
160.0
 45
0.0
 46
296.47199631
 79
     2
 49
14.8239994
 49
-281.64800644
 53
26.56509972
 43
14.80000019
 44
160.0
 45
296.47285424
 46
296.47246092
 79
     2
 49
6.629999879999999
 49
-656.3040161099999
 53
90.0
 43
20.79999924
 44
162.99999237
 45
-296.47199631
 46
0.0000000000000182
 79
     2
 49
2.96400011
 49
-293.50799561
 53
90.0
 43
20.79999924
 44
166.00000381
 45
-296.47199631
 46
0.0000000000000182
 79
     2
 49
2.96400011
 49
-293.50799561
 53
135.0
 43
20.79999924
 44
168.99999619
 45
-296.47290887
 46
0.0000000000000355
 79
     2
 49
4.192000029999999
 49
-415.08201599
 53
153.43499756
 43
17.79999971
 44
172.00000763
 45
-296.4731053999999
 46
0.00064346
 79
     2
 49
6.629999879999999
 49
-656.3040161099999
 53
180.0
 43
11.79999948
 44
175.0
 45
-0.0000000000000363
 46
-296.47199631
 79
     2
 49
11.85799956
 49
-284.61399078
 53
180.0
 43
296.3999939
 44
175.0
 45
-0.0000000000000363
 46
-296.47199631
 79
     2
 49
2.96400011
 49
-293.50799561
 53
194.03619385
 43
293.6000061000001
 44
175.0
 45
-889.4167208699998
 46
-296.4723532
 79
     2
 49
12.2239995
 49
-1210.16403198
 53
206.56500244
 43
281.59999847
 44
172.00000763
 45
-296.47335758
 46
-296.47195758
 79
     2
 49
6.629999879999999
 49
-656.3040161099999
 53
270.0
 43
275.79999924
 44
168.99999619
 45
296.47199631
 46
-0.0000000000000545
 79
     2
 49
2.96400011
 49
-293.50799561
 53
270.0
 43
275.79999924
 44
166.00000381
 45
296.47199631
 46
-0.0000000000000545
 79
     2
 49
2.96400011
 49
-293.50799561
 53
315.0
 43
275.79999924
 44
162.99999237
 45
296.47290887
 46
-0.0000000000000711
 79
     2
 49
4.192000029999999
 49
-415.08201599
 53
0.0
 43
278.6000061
 44
160.0
 45
0.0
 46
296.47199631
 79
     2
 49
5.92999995
 49
-290.5439949
 53
0.0
 43
284.5999908399999
 44
160.0
 45
0.0
 46
296.47199631
 79
     2
 49
8.89400005
 49
-287.57799149
 53
194.03619385
 43
26.60000086
 44
148.19999695
 45
-889.4167208699998
 46
-296.4723532
 79
     2
 49
12.2239995
 49
-1210.16403198
 53
180.0
 43
14.80000019
 44
145.20000458
 45
-0.0000000000000363
 46
-296.47199631
 79
     2
 49
14.8239994
 49
-281.64800644
 53
194.03619385
 43
296.3999939
 44
145.20000458
 45
-889.4167208699998
 46
-296.4723532
 79
     2
 49
12.2239995
 49
-1210.16403198
 53
180.0
 43
284.5999908399999
 44
142.39999771
 45
-0.0000000000000363
 46
-296.47199631
 79
     2
 49
8.89400005
 49
-287.57799149
 53
153.43499756
 43
275.79999924
 44
142.39999771
 45
-296.4731053999999
 46
0.00064346
 79
     2
 49
6.629999879999999
 49
-656.3040161099999
 53
135.0
 43
269.79999542
 44
145.20000458
 45
-296.47290887
 46
0.0000000000000355
 79
     2
 49
4.192000029999999
 49
-415.08201599
 53
90.0
 43
266.80000305
 44
148.19999695
 45
-296.47199631
 46
0.0000000000000182
 79
     2
 49
2.96400011
 49
-293.50799561
 53
90.0
 43
266.80000305
 44
151.19999886
 45
-296.47199631
 46
0.0000000000000182
 79
     2
 49
2.96400011
 49
-293.50799561
 53
11.30990028
 43
278.6000061
 44
157.20000267
 45
1185.89014473
 46
296.47280949
 79
     2
 49
15.11800051
 49
-1496.60202026
 53
0.0
 43
293.6000061000001
 44
160.0
 45
0.0
 46
296.47199631
 79
     2
 49
2.96400011
 49
-293.50799561
 53
0.0
 43
0.0
 44
160.0
 45
0.0
 46
296.47199631
 79
     2
 49
8.89400005
 49
-287.57799149
 53
0.0
 43
8.79999995
 44
160.0
 45
0.0
 46
296.47199631
 79
     2
 49
11.85799956
 49
-284.61399078
 53
333.43490601
 43
20.79999924
 44
160.0
 45
296.4731053999999
 46
-0.0011172
 79
     2
 49
6.629999879999999
 49
-656.3040161099999
 53
315.0
 43
26.60000086
 44
157.20000267
 45
296.47290887
 46
-0.0000000000000711
 79
     2
 49
4.192000029999999
 49
-415.08201599
 53
270.0
 43
29.60000038
 44
154.20000076
 45
296.47199631
 46
-0.0000000000000545
 79
     2
 49
2.96400011
 49
-293.50799561
 53
225.0
 43
29.60000038
 44
151.19999886
 45
-0.0000000000000533
 46
-296.47290887
 79
     2
 49
4.192000029999999
 49
-415.08201599
 53
333.43490601
 43
23.80000114
 44
189.79999542
 45
296.4731053999999
 46
-0.0011172
 79
     2
 49
6.629999879999999
 49
-656.3040161099999
 53
315.0
 43
29.60000038
 44
186.80000305
 45
296.47290887
 46
-0.0000000000000711
 79
     2
 49
4.192000029999999
 49
-415.08201599
 53
296.56509399
 43
32.5999999
 44
183.79999161
 45
296.47243131
 46
-296.47288385
 79
     2
 49
6.629999879999999
 49
-656.3040161099999
 53
270.0
 43
35.59999943
 44
177.80000687
 45
296.47199631
 46
-0.0000000000000545
 79
     2
 49
5.92999995
 49
-290.5439949
 53
225.0
 43
35.59999943
 44
172.00000763
 45
-0.0000000000000533
 46
-296.47290887
 79
     2
 49
4.192000029999999
 49
-415.08201599
 53
180.0
 43
32.5999999
 44
168.99999619
 45
-0.0000000000000363
 46
-296.47199631
 79
     2
 49
5.92999995
 49
-290.5439949
 53
161.56500244
 43
26.60000086
 44
168.99999619
 45
-296.47174563
 46
0.00087946
 79
     2
 49
9.376000169999999
 49
-928.1539917000001
 53
146.30990601
 43
17.79999971
 44
172.00000763
 45
-592.9449951399999
 46
296.47367579
 79
     2
 49
10.69000006
 49
-1058.25798035
 53
90.0
 43
8.79999995
 44
177.80000687
 45
-296.47199631
 46
0.0000000000000182
 79
     2
 49
2.96400011
 49
-293.50799561
 53
90.0
 43
8.79999995
 44
180.79999924
 45
-296.47199631
 46
0.0000000000000182
 79
     2
 49
5.92999995
 49
-290.5439949
 53
45.0
 43
8.79999995
 44
186.80000305
 45
0.0000000000000355
 46
296.47290887
 79
     2
 49
8.385999799999998
 49
-410.8900070199999
 53
0.0
 43
20.79999924
 44
207.60000229
 45
0.0
 46
296.47199631
 79
     2
 49
11.85799956
 49
-284.61399078
 53
345.9637146
 43
32.5999999
 44
207.60000229
 45
296.47214391
 46
0.00075448
 79
     2
 49
12.2239995
 49
-1210.16403198
 53
326.30990601
 43
44.40000057
 44
204.59999084
 45
592.9449951399999
 46
-296.47367579
 79
     2
 49
10.69000006
 49
-1058.25798035
 53
270.0
 43
53.40000153
 44
198.6000061
 45
296.47199631
 46
-0.0000000000000545
 79
     2
 49
5.92999995
 49
-290.5439949
 53
225.0
 43
53.40000153
 44
192.80000687
 45
-0.0000000000000533
 46
-296.47290887
 79
     2
 49
4.192000029999999
 49
-415.08201599
 53
198.43499756
 43
50.39999962
 44
189.79999542
 45
-592.9451390299999
 46
-296.47225602
 79
     2
 49
9.376000169999999
 49
-928.1539917000001
 53
180.0
 43
41.59999847
 44
186.80000305
 45
-0.0000000000000363
 46
-296.47199631
 79
     2
 49
8.89400005
 49
-287.57799149
 53
161.56500244
 43
32.5999999
 44
186.80000305
 45
-296.47174563
 46
0.00087946
 79
     2
 49
9.376000169999999
 49
-928.1539917000001
 53
161.56500244
 43
23.80000114
 44
189.79999542
 45
-296.47174563
 46
0.00087946
 79
     2
 49
9.376000169999999
 49
-928.1539917000001
 53
135.0
 43
14.80000019
 44
192.80000687
 45
-296.47290887
 46
0.0000000000000355
 79
     2
 49
4.192000029999999
 49
-415.08201599
 53
71.56500244
 43
11.79999948
 44
195.59999466
 45
0.00087946
 46
296.47174563
 79
     2
 49
9.376000169999999
 49
-928.1539917000001
 53
26.56509972
 43
14.80000019
 44
204.59999084
 45
296.47285424
 46
296.47246092
 79
     2
 49
6.629999879999999
 49
-656.3040161099999
 53
26.56509972
 43
172.00000763
 44
6.00000024
 45
296.47285424
 46
296.47246092
 79
     2
 49
6.629999879999999
 49
-656.3040161099999
 53
18.43490028
 43
177.80000687
 44
8.79999995
 45
592.9456423699999
 46
296.47124934
 79
     2
 49
9.376000169999999
 49
-928.1539917000001
 53
0.0
 43
186.80000305
 44
11.79999948
 45
0.0
 46
296.47199631
 79
     2
 49
8.89400005
 49
-287.57799149
 53
345.9637146
 43
195.59999466
 44
11.79999948
 45
296.47214391
 46
0.00075448
 79
     2
 49
12.2239995
 49
-1210.16403198
 53
315.0
 43
207.60000229
 44
8.79999995
 45
296.47290887
 46
-0.0000000000000711
 79
     2
 49
4.192000029999999
 49
-415.08201599
 53
270.0
 43
210.40000916
 44
6.00000024
 45
296.47199631
 46
-0.0000000000000545
 79
     2
 49
2.96400011
 49
-293.50799561
 53
225.0
 43
210.40000916
 44
3.00000012
 45
-0.0000000000000533
 46
-296.47290887
 79
     2
 49
4.192000029999999
 49
-415.08201599
 53
198.43499756
 43
207.60000229
 44
296.3999939
 45
-592.9451390299999
 46
-296.47225602
 79
     2
 49
9.376000169999999
 49
-928.1539917000001
 53
180.0
 43
198.6000061
 44
293.6000061000001
 45
-0.0000000000000363
 46
-296.47199631
 79
     2
 49
8.89400005
 49
-287.57799149
 53
165.96380615
 43
189.79999542
 44
293.6000061000001
 45
-296.47214391
 46
-0.00122822
 79
     2
 49
12.2239995
 49
-1210.16403198
 53
153.43499756
 43
177.80000687
 44
0.0
 45
-296.4731053999999
 46
0.00064346
 79
     2
 49
6.629999879999999
 49
-656.3040161099999
 53
90.0
 43
172.00000763
 44
3.00000012
 45
-296.47199631
 46
0.0000000000000182
 79
     2
 49
2.96400011
 49
-293.50799561
 53
270.0
 43
145.20000458
 44
11.79999948
 45
296.47199631
 46
-0.0000000000000545
 79
     2
 49
2.96400011
 49
-293.50799561
 53
315.0
 43
145.20000458
 44
8.79999995
 45
296.47290887
 46
-0.0000000000000711
 79
     2
 49
8.385999799999998
 49
-410.8900070199999
 53
333.43490601
 43
151.19999886
 44
3.00000012
 45
296.4731053999999
 46
-0.0011172
 79
     2
 49
6.629999879999999
 49
-656.3040161099999
 53
26.56509972
 43
162.99999237
 44
0.0
 45
296.47285424
 46
296.47246092
 79
     2
 49
6.629999879999999
 49
-656.3040161099999
 53
45.0
 43
168.99999619
 44
3.00000012
 45
0.0000000000000355
 46
296.47290887
 79
     2
 49
4.192000029999999
 49
-415.08201599
 53
90.0
 43
172.00000763
 44
6.00000024
 45
-296.47199631
 46
0.0000000000000182
 79
     2
 49
2.96400011
 49
-293.50799561
 53
135.0
 43
172.00000763
 44
8.79999995
 45
-296.47290887
 46
0.0000000000000355
 79
     2
 49
4.192000029999999
 49
-415.08201599
 53
153.43499756
 43
168.99999619
 44
11.79999948
 45
-296.4731053999999
 46
0.00064346
 79
     2
 49
6.629999879999999
 49
-656.3040161099999
 53
180.0
 43
166.00000381
 44
14.80000019
 45
-0.0000000000000363
 46
-296.47199631
 79
     2
 49
11.85799956
 49
-284.61399078
 53
198.43499756
 43
154.20000076
 44
14.80000019
 45
-592.9451390299999
 46
-296.47225602
 79
     2
 49
9.376000169999999
 49
-928.1539917000001
 53
180.0
 43
145.20000458
 44
11.79999948
 45
-0.0000000000000363
 46
-296.47199631
 79
     2
 49
5.92999995
 49
-290.5439949
 53
153.43499756
 43
139.3999958
 44
11.79999948
 45
-296.4731053999999
 46
0.00064346
 79
     2
 49
6.629999879999999
 49
-656.3040161099999
 53
161.56500244
 43
133.40000153
 44
14.80000019
 45
-296.47174563
 46
0.00087946
 79
     2
 49
9.376000169999999
 49
-928.1539917000001
 53
116.56500244
 43
124.60000038
 44
17.79999971
 45
-296.47195758
 46
296.47335758
 79
     2
 49
6.629999879999999
 49
-656.3040161099999
 53
90.0
 43
121.59999847
 44
23.80000114
 45
-296.47199631
 46
0.0000000000000182
 79
     2
 49
5.92999995
 49
-290.5439949
 53
45.0
 43
121.59999847
 44
29.60000038
 45
0.0000000000000355
 46
296.47290887
 79
     2
 49
8.385999799999998
 49
-410.8900070199999
 53
0.0
 43
127.39999771
 44
35.59999943
 45
0.0
 46
296.47199631
 79
     2
 49
5.92999995
 49
-290.5439949
 53
9.4623003
 43
133.40000153
 44
35.59999943
 45
1482.36341412
 46
296.47229169
 79
     2
 49
18.0340004
 49
-1785.33798218
 53
0.0
 43
151.19999886
 44
38.59999895
 45
0.0
 46
296.47199631
 79
     2
 49
8.89400005
 49
-287.57799149
 53
341.56509399
 43
160.0
 44
38.59999895
 45
296.47174563
 46
-0.00040573
 79
     2
 49
9.376000169999999
 49
-928.1539917000001
 53
333.43490601
 43
168.99999619
 44
35.59999943
 45
296.4731053999999
 46
-0.0011172
 79
     2
 49
6.629999879999999
 49
-656.3040161099999
 53
296.56509399
 43
175.0
 44
32.5999999
 45
296.47243131
 46
-296.47288385
 79
     2
 49
6.629999879999999
 49
-656.3040161099999
 53
270.0
 43
177.80000687
 44
26.60000086
 45
296.47199631
 46
-0.0000000000000545
 79
     2
 49
2.96400011
 49
-293.50799561
 53
243.43499756
 43
177.80000687
 44
23.80000114
 45
-0.00064346
 46
-296.4731053999999
 79
     2
 49
6.629999879999999
 49
-656.3040161099999
 53
198.43499756
 43
175.0
 44
17.79999971
 45
-592.9451390299999
 46
-296.47225602
 79
     2
 49
9.376000169999999
 49
-928.1539917000001
 53
180.0
 43
91.99999809000001
 44
41.59999847
 45
-0.0000000000000363
 46
-296.47199631
 79
     2
 49
8.89400005
 49
-287.57799149
 53
165.96380615
 43
83.00000191
 44
41.59999847
 45
-296.47214391
 46
-0.00122822
 79
     2
 49
12.2239995
 49
-1210.16403198
 53
135.0
 43
71.19999885999999
 44
44.40000057
 45
-296.47290887
 46
0.0000000000000355
 79
     2
 49
4.192000029999999
 49
-415.08201599
 53
90.0
 43
68.20000172
 44
47.39999770999999
 45
-296.47199631
 46
0.0000000000000182
 79
     2
 49
2.96400011
 49
-293.50799561
 53
63.43489838
 43
68.20000172
 44
50.39999962
 45
0.00115667
 46
296.4731053999999
 79
     2
 49
6.629999879999999
 49
-656.3040161099999
 53
45.0
 43
71.19999885999999
 44
56.39999866
 45
0.0000000000000355
 46
296.47290887
 79
     2
 49
8.385999799999998
 49
-410.8900070199999
 53
26.56509972
 43
76.99999809000001
 44
62.19999789999999
 45
296.47285424
 46
296.47246092
 79
     2
 49
6.629999879999999
 49
-656.3040161099999
 53
0.0
 43
83.00000191
 44
65.19999980999999
 45
0.0
 46
296.47199631
 79
     2
 49
5.92999995
 49
-290.5439949
 53
315.0
 43
88.99999619
 44
65.19999980999999
 45
296.47290887
 46
-0.0000000000000711
 79
     2
 49
8.385999799999998
 49
-410.8900070199999
 53
288.43490601
 43
94.79999541999999
 44
59.20000076
 45
296.47130856
 46
-592.9456127599999
 79
     2
 49
9.376000169999999
 49
-928.1539917000001
 53
270.0
 43
97.79999733
 44
50.39999962
 45
296.47199631
 46
-0.0000000000000545
 79
     2
 49
5.92999995
 49
-290.5439949
 53
206.56500244
 43
97.79999733
 44
44.40000057
 45
-296.47335758
 46
-296.47195758
 79
     2
 49
6.629999879999999
 49
-656.3040161099999
 53
135.0
 43
97.79999733
 44
115.6000042
 45
-296.47290887
 46
0.0000000000000355
 79
     2
 49
4.192000029999999
 49
-415.08201599
 53
90.0
 43
94.79999541999999
 44
118.59999657
 45
-296.47199631
 46
0.0000000000000182
 79
     2
 49
2.96400011
 49
-293.50799561
 53
63.43489838
 43
94.79999541999999
 44
121.59999847
 45
0.00115667
 46
296.4731053999999
 79
     2
 49
6.629999879999999
 49
-656.3040161099999
 53
63.43489838
 43
97.79999733
 44
127.39999771
 45
0.00115667
 46
296.4731053999999
 79
     2
 49
6.629999879999999
 49
-656.3040161099999
 53
26.56509972
 43
100.79999924
 44
133.40000153
 45
296.47285424
 46
296.47246092
 79
     2
 49
6.629999879999999
 49
-656.3040161099999
 53
341.56509399
 43
106.80000305
 44
136.40000343
 45
296.47174563
 46
-0.00040573
 79
     2
 49
9.376000169999999
 49
-928.1539917000001
 53
315.0
 43
115.6000042
 44
133.40000153
 45
296.47290887
 46
-0.0000000000000711
 79
     2
 49
8.385999799999998
 49
-410.8900070199999
 53
270.0
 43
121.59999847
 44
127.39999771
 45
296.47199631
 46
-0.0000000000000545
 79
     2
 49
5.92999995
 49
-290.5439949
 53
213.69009399
 43
121.59999847
 44
121.59999847
 45
-296.4732464
 46
-296.47241205
 79
     2
 49
10.69000006
 49
-1058.25798035
 53
206.56500244
 43
112.60000229
 44
115.6000042
 45
-296.47335758
 46
-296.47195758
 79
     2
 49
6.629999879999999
 49
-656.3040161099999
 53
116.56500244
 43
56.39999866
 44
106.80000305
 45
-296.47195758
 46
296.47335758
 79
     2
 49
6.629999879999999
 49
-656.3040161099999
 53
135.0
 43
53.40000153
 44
112.60000229
 45
-296.47290887
 46
0.0000000000000355
 79
     2
 49
4.192000029999999
 49
-415.08201599
 53
180.0
 43
50.39999962
 44
115.6000042
 45
-0.0000000000000363
 46
-296.47199631
 79
     2
 49
5.92999995
 49
-290.5439949
 53
206.56500244
 43
44.40000057
 44
115.6000042
 45
-296.47335758
 46
-296.47195758
 79
     2
 49
6.629999879999999
 49
-656.3040161099999
 53
243.43499756
 43
38.59999895
 44
112.60000229
 45
-0.00064346
 46
-296.4731053999999
 79
     2
 49
6.629999879999999
 49
-656.3040161099999
 53
270.0
 43
35.59999943
 44
106.80000305
 45
296.47199631
 46
-0.0000000000000545
 79
     2
 49
5.92999995
 49
-290.5439949
 53
315.0
 43
35.59999943
 44
100.79999924
 45
296.47290887
 46
-0.0000000000000711
 79
     2
 49
4.192000029999999
 49
-415.08201599
 53
333.43490601
 43
38.59999895
 44
97.79999733
 45
296.4731053999999
 46
-0.0011172
 79
     2
 49
6.629999879999999
 49
-656.3040161099999
 53
0.0
 43
44.40000057
 44
94.79999541999999
 45
0.0
 46
296.47199631
 79
     2
 49
5.92999995
 49
-290.5439949
 53
45.0
 43
50.39999962
 44
94.79999541999999
 45
0.0000000000000355
 46
296.47290887
 79
     2
 49
4.192000029999999
 49
-415.08201599
 53
153.43499756
 43
62.19999789999999
 44
88.99999619
 45
-296.4731053999999
 46
0.00064346
 79
     2
 49
6.629999879999999
 49
-656.3040161099999
 53
116.56500244
 43
56.39999866
 44
91.99999809000001
 45
-296.47195758
 46
296.47335758
 79
     2
 49
6.629999879999999
 49
-656.3040161099999
 53
71.56500244
 43
53.40000153
 44
97.79999733
 45
0.00087946
 46
296.47174563
 79
     2
 49
9.376000169999999
 49
-928.1539917000001
 53
45.0
 43
56.39999866
 44
106.80000305
 45
0.0000000000000355
 46
296.47290887
 79
     2
 49
8.385999799999998
 49
-410.8900070199999
 53
0.0
 43
62.19999789999999
 44
112.60000229
 45
0.0
 46
296.47199631
 79
     2
 49
11.85799956
 49
-284.61399078
 53
315.0
 43
74.20000075999999
 44
112.60000229
 45
296.47290887
 46
-0.0000000000000711
 79
     2
 49
8.385999799999998
 49
-410.8900070199999
 53
243.43499756
 43
80.0
 44
106.80000305
 45
-0.00064346
 46
-296.4731053999999
 79
     2
 49
6.629999879999999
 49
-656.3040161099999
 53
225.0
 43
76.99999809000001
 44
100.79999924
 45
-0.0000000000000533
 46
-296.47290887
 79
     2
 49
8.385999799999998
 49
-410.8900070199999
 53
213.69009399
 43
71.19999885999999
 44
94.79999541999999
 45
-296.4732464
 46
-296.47241205
 79
     2
 49
10.69000006
 49
-1058.25798035
 53
146.30990601
 43
80.0
 44
68.20000172
 45
-592.9449951399999
 46
296.47367579
 79
     2
 49
10.69000006
 49
-1058.25798035
 53
108.43499756
 43
71.19999885999999
 44
74.20000075999999
 45
-296.47225602
 46
592.9451390299999
 79
     2
 49
9.376000169999999
 49
-928.1539917000001
 53
71.56500244
 43
68.20000172
 44
83.00000191
 45
0.00087946
 46
296.47174563
 79
     2
 49
9.376000169999999
 49
-928.1539917000001
 53
56.30989838
 43
71.19999885999999
 44
91.99999809000001
 45
296.47375474
 46
592.9449556599999
 79
     2
 49
10.69000006
 49
-1058.25798035
 53
56.30989838
 43
76.99999809000001
 44
100.79999924
 45
296.47375474
 46
592.9449556599999
 79
     2
 49
10.69000006
 49
-1058.25798035
 53
26.56509972
 43
83.00000191
 44
109.60000038
 45
296.47285424
 46
296.47246092
 79
     2
 49
6.629999879999999
 49
-656.3040161099999
 53
18.43490028
 43
88.99999619
 44
112.60000229
 45
592.9456423699999
 46
296.47124934
 79
     2
 49
9.376000169999999
 49
-928.1539917000001
 53
341.56509399
 43
97.79999733
 44
115.6000042
 45
296.47174563
 46
-0.00040573
 79
     2
 49
9.376000169999999
 49
-928.1539917000001
 53
303.69009399
 43
106.80000305
 44
112.60000229
 45
296.47241205
 46
-296.4732464
 79
     2
 49
10.69000006
 49
-1058.25798035
 53
270.0
 43
112.60000229
 44
103.80000114
 45
296.47199631
 46
-0.0000000000000545
 79
     2
 49
8.89400005
 49
-287.57799149
 53
243.43499756
 43
112.60000229
 44
94.79999541999999
 45
-0.00064346
 46
-296.4731053999999
 79
     2
 49
6.629999879999999
 49
-656.3040161099999
 53
231.3401947
 43
109.60000038
 44
88.99999619
 45
-889.4173313199999
 46
-1185.89114968
 79
     2
 49
18.98399949
 49
-1879.36599731
 53
213.69009399
 43
97.79999733
 44
74.20000075999999
 45
-296.4732464
 46
-296.47241205
 79
     2
 49
10.69000006
 49
-1058.25798035
 53
180.0
 43
88.99999619
 44
68.20000172
 45
-0.0000000000000363
 46
-296.47199631
 79
     2
 49
5.92999995
 49
-290.5439949
 53
180.0
 43
83.00000191
 44
68.20000172
 45
-0.0000000000000363
 46
-296.47199631
 79
     2
 49
2.96400011
 49
-293.50799561
 53
0.0
 43
86.00000380999999
 44
142.39999771
 45
0.0
 46
296.47199631
 79
     2
 49
5.92999995
 49
-290.5439949
 53
333.43490601
 43
91.99999809000001
 44
142.39999771
 45
296.4731053999999
 46
-0.0011172
 79
     2
 49
6.629999879999999
 49
-656.3040161099999
 53
296.56509399
 43
97.79999733
 44
139.3999958
 45
296.47243131
 46
-296.47288385
 79
     2
 49
6.629999879999999
 49
-656.3040161099999
 53
243.43499756
 43
100.79999924
 44
133.40000153
 45
-0.00064346
 46
-296.4731053999999
 79
     2
 49
6.629999879999999
 49
-656.3040161099999
 53
236.30990601
 43
97.79999733
 44
127.39999771
 45
-296.47367579
 46
-592.9449951399999
 79
     2
 49
10.69000006
 49
-1058.25798035
 53
213.69009399
 43
91.99999809000001
 44
118.59999657
 45
-296.4732464
 46
-296.47241205
 79
     2
 49
10.69000006
 49
-1058.25798035
 53
180.0
 43
83.00000191
 44
112.60000229
 45
-0.0000000000000363
 46
-296.47199631
 79
     2
 49
11.85799956
 49
-284.61399078
 53
180.0
 43
71.19999885999999
 44
112.60000229
 45
-0.0000000000000363
 46
-296.47199631
 79
     2
 49
8.89400005
 49
-287.57799149
 53
161.56500244
 43
62.19999789999999
 44
112.60000229
 45
-296.47174563
 46
0.00087946
 79
     2
 49
9.376000169999999
 49
-928.1539917000001
 53
180.0
 43
53.40000153
 44
115.6000042
 45
-0.0000000000000363
 46
-296.47199631
 79
     2
 49
11.85799956
 49
-284.61399078
 53
161.56500244
 43
41.59999847
 44
115.6000042
 45
-296.47174563
 46
0.00087946
 79
     2
 49
9.376000169999999
 49
-928.1539917000001
 53
135.0
 43
32.5999999
 44
118.59999657
 45
-296.47290887
 46
0.0000000000000355
 79
     2
 49
4.192000029999999
 49
-415.08201599
 53
90.0
 43
29.60000038
 44
121.59999847
 45
-296.47199631
 46
0.0000000000000182
 79
     2
 49
5.92999995
 49
-290.5439949
 53
63.43489838
 43
29.60000038
 44
127.39999771
 45
0.00115667
 46
296.4731053999999
 79
     2
 49
6.629999879999999
 49
-656.3040161099999
 53
26.56509972
 43
32.5999999
 44
133.40000153
 45
296.47285424
 46
296.47246092
 79
     2
 49
6.629999879999999
 49
-656.3040161099999
 53
8.130100249999999
 43
38.59999895
 44
136.40000343
 45
1778.83466221
 46
296.47284693
 79
     2
 49
20.96400023
 49
-2075.41397095
 53
0.0
 43
59.20000076
 44
139.3999958
 45
0.0
 46
296.47199631
 79
     2
 49
8.89400005
 49
-287.57799149
 53
9.4623003
 43
68.20000172
 44
139.3999958
 45
1482.36341412
 46
296.47229169
 79
     2
 49
18.0340004
 49
-1785.33798218
 53
338.1986084
 43
162.99999237
 44
127.39999771
 45
889.41728701
 46
-296.47162555
 79
     2
 49
15.96600056
 49
-1580.58807373
 53
315.0
 43
177.80000687
 44
121.59999847
 45
296.47290887
 46
-0.0000000000000711
 79
     2
 49
4.192000029999999
 49
-415.08201599
 53
270.0
 43
180.79999924
 44
118.59999657
 45
296.47199631
 46
-0.0000000000000545
 79
     2
 49
2.96400011
 49
-293.50799561
 53
206.56500244
 43
180.79999924
 44
115.6000042
 45
-296.47335758
 46
-296.47195758
 79
     2
 49
6.629999879999999
 49
-656.3040161099999
 53
206.56500244
 43
175.0
 44
112.60000229
 45
-296.47335758
 46
-296.47195758
 79
     2
 49
6.629999879999999
 49
-656.3040161099999
 53
191.30990601
 43
168.99999619
 44
109.60000038
 45
-1185.89011512
 46
-296.47292792
 79
     2
 49
15.11800051
 49
-1496.60202026
 53
194.03619385
 43
154.20000076
 44
106.80000305
 45
-889.4167208699998
 46
-296.4723532
 79
     2
 49
12.2239995
 49
-1210.16403198
 53
191.30990601
 43
142.39999771
 44
103.80000114
 45
-1185.89011512
 46
-296.47292792
 79
     2
 49
15.11800051
 49
-1496.60202026
 53
180.0
 43
127.39999771
 44
100.79999924
 45
-0.0000000000000363
 46
-296.47199631
 79
     2
 49
8.89400005
 49
-287.57799149
 53
153.43499756
 43
118.59999657
 44
100.79999924
 45
-296.4731053999999
 46
0.00064346
 79
     2
 49
6.629999879999999
 49
-656.3040161099999
 53
116.56500244
 43
112.60000229
 44
103.80000114
 45
-296.47195758
 46
296.47335758
 79
     2
 49
6.629999879999999
 49
-656.3040161099999
 53
90.0
 43
109.60000038
 44
109.60000038
 45
-296.47199631
 46
0.0000000000000182
 79
     2
 49
2.96400011
 49
-293.50799561
 53
33.69010162
 43
109.60000038
 44
112.60000229
 45
296.47320692
 46
296.47245153
 79
     2
 49
10.69000006
 49
-1058.25798035
 53
33.69010162
 43
118.59999657
 44
118.59999657
 45
296.47320692
 46
296.47245153
 79
     2
 49
10.69000006
 49
-1058.25798035
 53
26.56509972
 43
127.39999771
 44
124.60000038
 45
296.47285424
 46
296.47246092
 79
     2
 49
6.629999879999999
 49
-656.3040161099999
 53
9.4623003
 43
133.40000153
 44
127.39999771
 45
1482.36341412
 46
296.47229169
 79
     2
 49
18.0340004
 49
-1785.33798218
 53
345.9637146
 43
151.19999886
 44
130.39999962
 45
296.47214391
 46
0.00075448
 79
     2
 49
12.2239995
 49
-1210.16403198
 53
180.0
 43
207.60000229
 44
91.99999809000001
 45
-0.0000000000000363
 46
-296.47199631
 79
     2
 49
2.96400011
 49
-293.50799561
 53
153.43499756
 43
204.59999084
 44
91.99999809000001
 45
-296.4731053999999
 46
0.00064346
 79
     2
 49
6.629999879999999
 49
-656.3040161099999
 53
161.56500244
 43
198.6000061
 44
94.79999541999999
 45
-296.47174563
 46
0.00087946
 79
     2
 49
9.376000169999999
 49
-928.1539917000001
 53
180.0
 43
189.79999542
 44
97.79999733
 45
-0.0000000000000363
 46
-296.47199631
 79
     2
 49
5.92999995
 49
-290.5439949
 53
180.0
 43
183.79999161
 44
97.79999733
 45
-0.0000000000000363
 46
-296.47199631
 79
     2
 49
5.92999995
 49
-290.5439949
 53
153.43499756
 43
177.80000687
 44
97.79999733
 45
-296.4731053999999
 46
0.00064346
 79
     2
 49
6.629999879999999
 49
-656.3040161099999
 53
90.0
 43
172.00000763
 44
100.79999924
 45
-296.47199631
 46
0.0000000000000182
 79
     2
 49
8.89400005
 49
-287.57799149
 53
45.0
 43
172.00000763
 44
109.60000038
 45
0.0000000000000355
 46
296.47290887
 79
     2
 49
4.192000029999999
 49
-415.08201599
 53
0.0
 43
175.0
 44
112.60000229
 45
0.0
 46
296.47199631
 79
     2
 49
8.89400005
 49
-287.57799149
 53
345.9637146
 43
183.79999161
 44
112.60000229
 45
296.47214391
 46
0.00075448
 79
     2
 49
12.2239995
 49
-1210.16403198
 53
333.43490601
 43
195.59999466
 44
109.60000038
 45
296.4731053999999
 46
-0.0011172
 79
     2
 49
13.25799942
 49
-649.67399597
 53
315.0
 43
207.60000229
 44
103.80000114
 45
296.47290887
 46
-0.0000000000000711
 79
     2
 49
4.192000029999999
 49
-415.08201599
 53
270.0
 43
210.40000916
 44
100.79999924
 45
296.47199631
 46
-0.0000000000000545
 79
     2
 49
5.92999995
 49
-290.5439949
 53
225.0
 43
210.40000916
 44
94.79999541999999
 45
-0.0000000000000533
 46
-296.47290887
 79
     2
 49
4.192000029999999
 49
-415.08201599
 53
165.96380615
 43
204.59999084
 44
53.40000153
 45
-296.47214391
 46
-0.00122822
 79
     2
 49
12.2239995
 49
-1210.16403198
 53
180.0
 43
192.80000687
 44
56.39999866
 45
-0.0000000000000363
 46
-296.47199631
 79
     2
 49
5.92999995
 49
-290.5439949
 53
116.56500244
 43
186.80000305
 44
56.39999866
 45
-296.47195758
 46
296.47335758
 79
     2
 49
6.629999879999999
 49
-656.3040161099999
 53
90.0
 43
183.79999161
 44
62.19999789999999
 45
-296.47199631
 46
0.0000000000000182
 79
     2
 49
20.75400114
 49
-275.72000504
 53
108.43499756
 43
183.79999161
 44
83.00000191
 45
-296.47225602
 46
592.9451390299999
 79
     2
 49
9.376000169999999
 49
-928.1539917000001
 53
63.43489838
 43
180.79999924
 44
91.99999809000001
 45
0.00115667
 46
296.4731053999999
 79
     2
 49
6.629999879999999
 49
-656.3040161099999
 53
0.0
 43
183.79999161
 44
97.79999733
 45
0.0
 46
296.47199631
 79
     2
 49
5.92999995
 49
-290.5439949
 53
341.56509399
 43
189.79999542
 44
97.79999733
 45
296.47174563
 46
-0.00040573
 79
     2
 49
9.376000169999999
 49
-928.1539917000001
 53
315.0
 43
198.6000061
 44
94.79999541999999
 45
296.47290887
 46
-0.0000000000000711
 79
     2
 49
12.57799983
 49
-406.69799805
 53
284.0362854
 43
207.60000229
 44
86.00000380999999
 45
296.47377439
 46
-889.4162471299999
 79
     2
 49
12.2239995
 49
-1210.16403198
 53
296.56509399
 43
210.40000916
 44
74.20000075999999
 45
296.47243131
 46
-296.47288385
 79
     2
 49
6.629999879999999
 49
-656.3040161099999
 53
270.0
 43
213.40000153
 44
68.20000172
 45
296.47199631
 46
-0.0000000000000545
 79
     2
 49
5.92999995
 49
-290.5439949
 53
243.43499756
 43
213.40000153
 44
62.19999789999999
 45
-0.00064346
 46
-296.4731053999999
 79
     2
 49
6.629999879999999
 49
-656.3040161099999
 53
206.56500244
 43
210.40000916
 44
56.39999866
 45
-296.47335758
 46
-296.47195758
 79
     2
 49
6.629999879999999
 49
-656.3040161099999
 53
270.0
 43
278.6000061
 44
88.99999619
 45
296.47199631
 46
-0.0000000000000545
 79
     2
 49
8.89400005
 49
-287.57799149
 53
243.43499756
 43
278.6000061
 44
80.0
 45
-0.00064346
 46
-296.4731053999999
 79
     2
 49
6.629999879999999
 49
-656.3040161099999
 53
206.56500244
 43
275.79999924
 44
74.20000075999999
 45
-296.47335758
 46
-296.47195758
 79
     2
 49
6.629999879999999
 49
-656.3040161099999
 53
180.0
 43
269.79999542
 44
71.19999885999999
 45
-0.0000000000000363
 46
-296.47199631
 79
     2
 49
5.92999995
 49
-290.5439949
 53
153.43499756
 43
263.79999161
 44
71.19999885999999
 45
-296.4731053999999
 46
0.00064346
 79
     2
 49
6.629999879999999
 49
-656.3040161099999
 53
135.0
 43
257.99999237
 44
74.20000075999999
 45
-296.47290887
 46
0.0000000000000355
 79
     2
 49
4.192000029999999
 49
-415.08201599
 53
90.0
 43
255.0
 44
76.99999809000001
 45
-296.47199631
 46
0.0000000000000182
 79
     2
 49
5.92999995
 49
-290.5439949
 53
71.56500244
 43
255.0
 44
83.00000191
 45
0.00087946
 46
296.47174563
 79
     2
 49
9.376000169999999
 49
-928.1539917000001
 53
45.0
 43
257.99999237
 44
91.99999809000001
 45
0.0000000000000355
 46
296.47290887
 79
     2
 49
4.192000029999999
 49
-415.08201599
 53
18.43490028
 43
260.79999924
 44
94.79999541999999
 45
592.9456423699999
 46
296.47124934
 79
     2
 49
9.376000169999999
 49
-928.1539917000001
 53
333.43490601
 43
269.79999542
 44
97.79999733
 45
296.4731053999999
 46
-0.0011172
 79
     2
 49
6.629999879999999
 49
-656.3040161099999
 53
296.56509399
 43
275.79999924
 44
94.79999541999999
 45
296.47243131
 46
-296.47288385
 79
     2
 49
6.629999879999999
 49
-656.3040161099999
 53
63.43489838
 43
237.19999313
 44
109.60000038
 45
0.00115667
 46
296.4731053999999
 79
     2
 49
6.629999879999999
 49
-656.3040161099999
 53
45.0
 43
240.20000458
 44
115.6000042
 45
0.0000000000000355
 46
296.47290887
 79
     2
 49
4.192000029999999
 49
-415.08201599
 53
21.80139923
 43
243.19999695
 44
118.59999657
 45
592.9442207000001
 46
296.47253553
 79
     2
 49
15.96600056
 49
-1580.58807373
 53
18.43490028
 43
257.99999237
 44
124.60000038
 45
592.9456423699999
 46
296.47124934
 79
     2
 49
9.376000169999999
 49
-928.1539917000001
 53
0.0
 43
266.80000305
 44
127.39999771
 45
0.0
 46
296.47199631
 79
     2
 49
8.89400005
 49
-287.57799149
 53
333.43490601
 43
275.79999924
 44
127.39999771
 45
296.4731053999999
 46
-0.0011172
 79
     2
 49
6.629999879999999
 49
-656.3040161099999
 53
296.56509399
 43
281.59999847
 44
124.60000038
 45
296.47243131
 46
-296.47288385
 79
     2
 49
6.629999879999999
 49
-656.3040161099999
 53
270.0
 43
284.5999908399999
 44
118.59999657
 45
296.47199631
 46
-0.0000000000000545
 79
     2
 49
5.92999995
 49
-290.5439949
 53
243.43499756
 43
284.5999908399999
 44
112.60000229
 45
-0.00064346
 46
-296.4731053999999
 79
     2
 49
6.629999879999999
 49
-656.3040161099999
 53
225.0
 43
281.59999847
 44
106.80000305
 45
-0.0000000000000533
 46
-296.47290887
 79
     2
 49
4.192000029999999
 49
-415.08201599
 53
213.69009399
 43
278.6000061
 44
103.80000114
 45
-296.4732464
 46
-296.47241205
 79
     2
 49
10.69000006
 49
-1058.25798035
 53
194.03619385
 43
269.79999542
 44
97.79999733
 45
-889.4167208699998
 46
-296.4723532
 79
     2
 49
12.2239995
 49
-1210.16403198
 53
180.0
 43
257.99999237
 44
94.79999541999999
 45
-0.0000000000000363
 46
-296.47199631
 79
     2
 49
5.92999995
 49
-290.5439949
 53
153.43499756
 43
252.00000763
 44
94.79999541999999
 45
-296.4731053999999
 46
0.00064346
 79
     2
 49
13.25799942
 49
-649.67399597
 53
116.56500244
 43
240.20000458
 44
100.79999924
 45
-296.47195758
 46
296.47335758
 79
     2
 49
6.629999879999999
 49
-656.3040161099999
 53
90.0
 43
237.19999313
 44
106.80000305
 45
-296.47199631
 46
0.0000000000000182
 79
     2
 49
2.96400011
 49
-293.50799561
 53
180.0
 43
293.6000061000001
 44
38.59999895
 45
-0.0000000000000363
 46
-296.47199631
 79
     2
 49
8.89400005
 49
-287.57799149
 53
135.0
 43
284.5999908399999
 44
38.59999895
 45
-296.47290887
 46
0.0000000000000355
 79
     2
 49
8.385999799999998
 49
-410.8900070199999
 53
90.0
 43
278.6000061
 44
44.40000057
 45
-296.47199631
 46
0.0000000000000182
 79
     2
 49
8.89400005
 49
-287.57799149
 53
45.0
 43
278.6000061
 44
53.40000153
 45
0.0000000000000355
 46
296.47290887
 79
     2
 49
8.385999799999998
 49
-410.8900070199999
 53
18.43490028
 43
284.5999908399999
 44
59.20000076
 45
592.9456423699999
 46
296.47124934
 79
     2
 49
9.376000169999999
 49
-928.1539917000001
 53
0.0
 43
293.6000061000001
 44
62.19999789999999
 45
0.0
 46
296.47199631
 79
     2
 49
2.96400011
 49
-293.50799561
 53
0.0
 43
0.0
 44
62.19999789999999
 45
0.0
 46
296.47199631
 79
     2
 49
5.92999995
 49
-290.5439949
 53
341.56509399
 43
6.00000024
 44
62.19999789999999
 45
296.47174563
 46
-0.00040573
 79
     2
 49
9.376000169999999
 49
-928.1539917000001
 53
315.0
 43
14.80000019
 44
59.20000076
 45
296.47290887
 46
-0.0000000000000711
 79
     2
 49
8.385999799999998
 49
-410.8900070199999
 53
296.56509399
 43
20.79999924
 44
53.40000153
 45
296.47243131
 46
-296.47288385
 79
     2
 49
6.629999879999999
 49
-656.3040161099999
 53
225.0
 43
23.80000114
 44
47.39999770999999
 45
-0.0000000000000533
 46
-296.47290887
 79
     2
 49
8.385999799999998
 49
-410.8900070199999
 53
194.03619385
 43
17.79999971
 44
41.59999847
 45
-889.4167208699998
 46
-296.4723532
 79
     2
 49
12.2239995
 49
-1210.16403198
 53
180.0
 43
6.00000024
 44
38.59999895
 45
-0.0000000000000363
 46
-296.47199631
 79
     2
 49
5.92999995
 49
-290.5439949
 53
180.0
 43
296.3999939
 44
38.59999895
 45
-0.0000000000000363
 46
-296.47199631
 79
     2
 49
2.96400011
 49
-293.50799561
 53
135.0
 43
272.80000687
 44
17.79999971
 45
-296.47290887
 46
0.0000000000000355
 79
     2
 49
4.192000029999999
 49
-415.08201599
 53
135.0
 43
269.79999542
 44
20.79999924
 45
-296.47290887
 46
0.0000000000000355
 79
     2
 49
4.192000029999999
 49
-415.08201599
 53
135.0
 43
266.80000305
 44
23.80000114
 45
-296.47290887
 46
0.0000000000000355
 79
     2
 49
4.192000029999999
 49
-415.08201599
 53
116.56500244
 43
263.79999161
 44
26.60000086
 45
-296.47195758
 46
296.47335758
 79
     2
 49
6.629999879999999
 49
-656.3040161099999
 53
90.0
 43
260.79999924
 44
32.5999999
 45
-296.47199631
 46
0.0000000000000182
 79
     2
 49
5.92999995
 49
-290.5439949
 53
45.0
 43
260.79999924
 44
38.59999895
 45
0.0000000000000355
 46
296.47290887
 79
     2
 49
8.385999799999998
 49
-410.8900070199999
 53
0.0
 43
266.80000305
 44
44.40000057
 45
0.0
 46
296.47199631
 79
     2
 49
11.85799956
 49
-284.61399078
 53
315.0
 43
278.6000061
 44
44.40000057
 45
296.47290887
 46
-0.0000000000000711
 79
     2
 49
8.385999799999998
 49
-410.8900070199999
 53
0.0
 43
284.5999908399999
 44
38.59999895
 45
0.0
 46
296.47199631
 79
     2
 49
8.89400005
 49
-287.57799149
 53
333.43490601
 43
0.0
 44
38.59999895
 45
296.4731053999999
 46
-0.0011172
 79
     2
 49
6.629999879999999
 49
-656.3040161099999
 53
0.0
 43
293.6000061000001
 44
38.59999895
 45
0.0
 46
296.47199631
 79
     2
 49
2.96400011
 49
-293.50799561
 53
270.0
 43
6.00000024
 44
35.59999943
 45
296.47199631
 46
-0.0000000000000545
 79
     2
 49
5.92999995
 49
-290.5439949
 53
243.43499756
 43
6.00000024
 44
29.60000038
 45
-0.00064346
 46
-296.4731053999999
 79
     2
 49
6.629999879999999
 49
-656.3040161099999
 53
180.0
 43
3.00000012
 44
23.80000114
 45
-0.0000000000000363
 46
-296.47199631
 79
     2
 49
2.96400011
 49
-293.50799561
 53
180.0
 43
296.3999939
 44
23.80000114
 45
-0.0000000000000363
 46
-296.47199631
 79
     2
 49
2.96400011
 49
-293.50799561
 53
198.43499756
 43
293.6000061000001
 44
23.80000114
 45
-592.9451390299999
 46
-296.47225602
 79
     2
 49
9.376000169999999
 49
-928.1539917000001
 53
206.56500244
 43
284.5999908399999
 44
20.79999924
 45
-296.47335758
 46
-296.47195758
 79
     2
 49
6.629999879999999
 49
-656.3040161099999
 53
180.0
 43
278.6000061
 44
17.79999971
 45
-0.0000000000000363
 46
-296.47199631
 79
     2
 49
5.92999995
 49
-290.5439949
 53
33.69010162
 43
222.39999771
 44
26.60000086
 45
296.47320692
 46
296.47245153
 79
     2
 49
10.69000006
 49
-1058.25798035
 53
0.0
 43
231.20000839
 44
32.5999999
 45
0.0
 46
296.47199631
 79
     2
 49
5.92999995
 49
-290.5439949
 53
341.56509399
 43
237.19999313
 44
32.5999999
 45
296.47174563
 46
-0.00040573
 79
     2
 49
9.376000169999999
 49
-928.1539917000001
 53
0.0
 43
246.00000381
 44
29.60000038
 45
0.0
 46
296.47199631
 79
     2
 49
8.89400005
 49
-287.57799149
 53
333.43490601
 43
255.0
 44
29.60000038
 45
296.4731053999999
 46
-0.0011172
 79
     2
 49
6.629999879999999
 49
-656.3040161099999
 53
326.30990601
 43
260.79999924
 44
26.60000086
 45
592.9449951399999
 46
-296.47367579
 79
     2
 49
10.69000006
 49
-1058.25798035
 53
315.0
 43
269.79999542
 44
20.79999924
 45
296.47290887
 46
-0.0000000000000711
 79
     2
 49
4.192000029999999
 49
-415.08201599
 53
270.0
 43
272.80000687
 44
17.79999971
 45
296.47199631
 46
-0.0000000000000545
 79
     2
 49
5.92999995
 49
-290.5439949
 53
243.43499756
 43
272.80000687
 44
11.79999948
 45
-0.00064346
 46
-296.4731053999999
 79
     2
 49
6.629999879999999
 49
-656.3040161099999
 53
206.56500244
 43
269.79999542
 44
6.00000024
 45
-296.47335758
 46
-296.47195758
 79
     2
 49
6.629999879999999
 49
-656.3040161099999
 53
161.56500244
 43
263.79999161
 44
3.00000012
 45
-296.47174563
 46
0.00087946
 79
     2
 49
9.376000169999999
 49
-928.1539917000001
 53
153.43499756
 43
255.0
 44
6.00000024
 45
-296.4731053999999
 46
0.00064346
 79
     2
 49
6.629999879999999
 49
-656.3040161099999
 53
161.56500244
 43
248.99999619
 44
8.79999995
 45
-296.47174563
 46
0.00087946
 79
     2
 49
9.376000169999999
 49
-928.1539917000001
 53
180.0
 43
240.20000458
 44
11.79999948
 45
-0.0000000000000363
 46
-296.47199631
 79
     2
 49
8.89400005
 49
-287.57799149
 53
146.30990601
 43
231.20000839
 44
11.79999948
 45
-592.9449951399999
 46
296.47367579
 79
     2
 49
10.69000006
 49
-1058.25798035
 53
90.0
 43
222.39999771
 44
17.79999971
 45
-296.47199631
 46
0.0000000000000182
 79
     2
 49
8.89400005
 49
-287.57799149
 53
18.43490028
 43
198.6000061
 44
11.79999948
 45
592.9456423699999
 46
296.47124934
 79
     2
 49
9.376000169999999
 49
-928.1539917000001
 53
0.0
 43
207.60000229
 44
14.80000019
 45
0.0
 46
296.47199631
 79
     2
 49
5.92999995
 49
-290.5439949
 53
45.0
 43
213.40000153
 44
14.80000019
 45
0.0000000000000355
 46
296.47290887
 79
     2
 49
8.385999799999998
 49
-410.8900070199999
 53
63.43489838
 43
219.40000534
 44
20.79999924
 45
0.00115667
 46
296.4731053999999
 79
     2
 49
6.629999879999999
 49
-656.3040161099999
 53
90.0
 43
222.39999771
 44
26.60000086
 45
-296.47199631
 46
0.0000000000000182
 79
     2
 49
2.96400011
 49
-293.50799561
 53
108.43499756
 43
222.39999771
 44
29.60000038
 45
-296.47225602
 46
592.9451390299999
 79
     2
 49
9.376000169999999
 49
-928.1539917000001
 53
135.0
 43
219.40000534
 44
38.59999895
 45
-296.47290887
 46
0.0000000000000355
 79
     2
 49
12.57799983
 49
-406.69799805
 53
135.0
 43
210.40000916
 44
47.39999770999999
 45
-296.47290887
 46
0.0000000000000355
 79
     2
 49
8.385999799999998
 49
-410.8900070199999
 53
165.96380615
 43
204.59999084
 44
53.40000153
 45
-296.47214391
 46
-0.00122822
 79
     2
 49
12.2239995
 49
-1210.16403198
 53
180.0
 43
192.80000687
 44
56.39999866
 45
-0.0000000000000363
 46
-296.47199631
 79
     2
 49
5.92999995
 49
-290.5439949
 53
225.0
 43
186.80000305
 44
56.39999866
 45
-0.0000000000000533
 46
-296.47290887
 79
     2
 49
8.385999799999998
 49
-410.8900070199999
 53
243.43499756
 43
180.79999924
 44
50.39999962
 45
-0.00064346
 46
-296.4731053999999
 79
     2
 49
6.629999879999999
 49
-656.3040161099999
 53
270.0
 43
177.80000687
 44
44.40000057
 45
296.47199631
 46
-0.0000000000000545
 79
     2
 49
8.89400005
 49
-287.57799149
 53
270.0
 43
177.80000687
 44
35.59999943
 45
296.47199631
 46
-0.0000000000000545
 79
     2
 49
11.85799956
 49
-284.61399078
 53
288.43490601
 43
177.80000687
 44
23.80000114
 45
296.47130856
 46
-592.9456127599999
 79
     2
 49
9.376000169999999
 49
-928.1539917000001
 53
333.43490601
 43
180.79999924
 44
14.80000019
 45
296.4731053999999
 46
-0.0011172
 79
     2
 49
6.629999879999999
 49
-656.3040161099999
 53
0.0
 43
186.80000305
 44
11.79999948
 45
0.0
 46
296.47199631
 79
     2
 49
11.85799956
 49
-284.61399078
 53
251.56500244
 43
35.59999943
 44
26.60000086
 45
-0.00087946
 46
-296.47174563
 79
     2
 49
9.376000169999999
 49
-928.1539917000001
 53
180.0
 43
32.5999999
 44
17.79999971
 45
-0.0000000000000363
 46
-296.47199631
 79
     2
 49
5.92999995
 49
-290.5439949
 53
161.56500244
 43
26.60000086
 44
17.79999971
 45
-296.47174563
 46
0.00087946
 79
     2
 49
9.376000169999999
 49
-928.1539917000001
 53
153.43499756
 43
17.79999971
 44
20.79999924
 45
-296.4731053999999
 46
0.00064346
 79
     2
 49
6.629999879999999
 49
-656.3040161099999
 53
135.0
 43
11.79999948
 44
23.80000114
 45
-296.47290887
 46
0.0000000000000355
 79
     2
 49
4.192000029999999
 49
-415.08201599
 53
116.56500244
 43
8.79999995
 44
26.60000086
 45
-296.47195758
 46
296.47335758
 79
     2
 49
6.629999879999999
 49
-656.3040161099999
 53
63.43489838
 43
6.00000024
 44
32.5999999
 45
0.00115667
 46
296.4731053999999
 79
     2
 49
6.629999879999999
 49
-656.3040161099999
 53
26.56509972
 43
8.79999995
 44
38.59999895
 45
296.47285424
 46
296.47246092
 79
     2
 49
6.629999879999999
 49
-656.3040161099999
 53
0.0
 43
14.80000019
 44
41.59999847
 45
0.0
 46
296.47199631
 79
     2
 49
5.92999995
 49
-290.5439949
 53
333.43490601
 43
20.79999924
 44
41.59999847
 45
296.4731053999999
 46
-0.0011172
 79
     2
 49
13.25799942
 49
-649.67399597
 53
288.43490601
 43
32.5999999
 44
35.59999943
 45
296.47130856
 46
-592.9456127599999
 79
     2
 49
9.376000169999999
 49
-928.1539917000001
 53
75.96379852
 43
35.59999943
 44
23.80000114
 45
-0.00118874
 46
296.47214391
 79
     2
 49
12.2239995
 49
-1210.16403198
 53
63.43489838
 43
38.59999895
 44
35.59999943
 45
0.00115667
 46
296.4731053999999
 79
     2
 49
6.629999879999999
 49
-656.3040161099999
 53
14.03619957
 43
41.59999847
 44
41.59999847
 45
889.4166912599999
 46
296.47244202
 79
     2
 49
12.2239995
 49
-1210.16403198
 53
341.56509399
 43
53.40000153
 44
44.40000057
 45
296.47174563
 46
-0.00040573
 79
     2
 49
9.376000169999999
 49
-928.1539917000001
 53
296.56509399
 43
62.19999789999999
 44
41.59999847
 45
296.47243131
 46
-296.47288385
 79
     2
 49
6.629999879999999
 49
-656.3040161099999
 53
281.30990601
 43
65.19999980999999
 44
35.59999943
 45
296.47292792
 46
-1185.89011512
 79
     2
 49
15.11800051
 49
-1496.60202026
 53
281.30990601
 43
68.20000172
 44
20.79999924
 45
296.47292792
 46
-1185.89011512
 79
     2
 49
15.11800051
 49
-1496.60202026
 53
270.0
 43
71.19999885999999
 44
6.00000024
 45
296.47199631
 46
-0.0000000000000545
 79
     2
 49
5.92999995
 49
-290.5439949
 53
270.0
 43
71.19999885999999
 44
296.3999939
 45
296.47199631
 46
-0.0000000000000545
 79
     2
 49
5.92999995
 49
-290.5439949
 53
243.43499756
 43
71.19999885999999
 44
290.59999466
 45
-0.00064346
 46
-296.4731053999999
 79
     2
 49
6.629999879999999
 49
-656.3040161099999
 53
198.43499756
 43
68.20000172
 44
284.5999908399999
 45
-592.9451390299999
 46
-296.47225602
 79
     2
 49
9.376000169999999
 49
-928.1539917000001
 53
180.0
 43
59.20000076
 44
281.59999847
 45
-0.0000000000000363
 46
-296.47199631
 79
     2
 49
17.78800011
 49
-278.68400574
 53
161.56500244
 43
41.59999847
 44
281.59999847
 45
-296.47174563
 46
0.00087946
 79
     2
 49
9.376000169999999
 49
-928.1539917000001
 53
116.56500244
 43
32.5999999
 44
284.5999908399999
 45
-296.47195758
 46
296.47335758
 79
     2
 49
6.629999879999999
 49
-656.3040161099999
 53
90.0
 43
29.60000038
 44
290.59999466
 45
-296.47199631
 46
0.0000000000000182
 79
     2
 49
5.92999995
 49
-290.5439949
 53
75.96379852
 43
29.60000038
 44
0.0
 45
-0.00118874
 46
296.47214391
 79
     2
 49
12.2239995
 49
-1210.16403198
 53
75.96379852
 43
32.5999999
 44
11.79999948
 45
-0.00118874
 46
296.47214391
 79
     2
 49
12.2239995
 49
-1210.16403198
 53
26.56509972
 43
284.5999908399999
 44
17.79999971
 45
296.47285424
 46
296.47246092
 79
     2
 49
13.25799942
 49
-649.67399597
 53
0.0
 43
0.0
 44
23.80000114
 45
0.0
 46
296.47199631
 79
     2
 49
5.92999995
 49
-290.5439949
 53
341.56509399
 43
6.00000024
 44
23.80000114
 45
296.47174563
 46
-0.00040573
 79
     2
 49
9.376000169999999
 49
-928.1539917000001
 53
341.56509399
 43
14.80000019
 44
20.79999924
 45
296.47174563
 46
-0.00040573
 79
     2
 49
9.376000169999999
 49
-928.1539917000001
 53
315.0
 43
23.80000114
 44
17.79999971
 45
296.47290887
 46
-0.0000000000000711
 79
     2
 49
8.385999799999998
 49
-410.8900070199999
 53
270.0
 43
29.60000038
 44
11.79999948
 45
296.47199631
 46
-0.0000000000000545
 79
     2
 49
8.89400005
 49
-287.57799149
 53
270.0
 43
29.60000038
 44
3.00000012
 45
296.47199631
 46
-0.0000000000000545
 79
     2
 49
2.96400011
 49
-293.50799561
 53
270.0
 43
29.60000038
 44
296.3999939
 45
296.47199631
 46
-0.0000000000000545
 79
     2
 49
8.89400005
 49
-287.57799149
 53
258.69009399
 43
29.60000038
 44
287.60000229
 45
0.00092342
 46
-296.47346827
 79
     2
 49
15.11800051
 49
-1496.60202026
 53
198.43499756
 43
26.60000086
 44
272.80000687
 45
-592.9451390299999
 46
-296.47225602
 79
     2
 49
9.376000169999999
 49
-928.1539917000001
 53
180.0
 43
17.79999971
 44
269.79999542
 45
-0.0000000000000363
 46
-296.47199631
 79
     2
 49
14.8239994
 49
-281.64800644
 53
180.0
 43
3.00000012
 44
269.79999542
 45
-0.0000000000000363
 46
-296.47199631
 79
     2
 49
2.96400011
 49
-293.50799561
 53
206.56500244
 43
296.3999939
 44
269.79999542
 45
-296.47335758
 46
-296.47195758
 79
     2
 49
6.629999879999999
 49
-656.3040161099999
 53
180.0
 43
290.59999466
 44
266.80000305
 45
-0.0000000000000363
 46
-296.47199631
 79
     2
 49
5.92999995
 49
-290.5439949
 53
146.30990601
 43
284.5999908399999
 44
266.80000305
 45
-592.9449951399999
 46
296.47367579
 79
     2
 49
10.69000006
 49
-1058.25798035
 53
116.56500244
 43
275.79999924
 44
272.80000687
 45
-296.47195758
 46
296.47335758
 79
     2
 49
6.629999879999999
 49
-656.3040161099999
 53
108.43499756
 43
272.80000687
 44
278.6000061
 45
-296.47225602
 46
592.9451390299999
 79
     2
 49
9.376000169999999
 49
-928.1539917000001
 53
90.0
 43
269.79999542
 44
287.60000229
 45
-296.47199631
 46
0.0000000000000182
 79
     2
 49
5.92999995
 49
-290.5439949
 53
71.56500244
 43
272.80000687
 44
0.0
 45
0.00087946
 46
296.47174563
 79
     2
 49
9.376000169999999
 49
-928.1539917000001
 53
45.0
 43
269.79999542
 44
293.6000061000001
 45
0.0000000000000355
 46
296.47290887
 79
     2
 49
4.192000029999999
 49
-415.08201599
 53
45.0
 43
275.79999924
 44
8.79999995
 45
0.0000000000000355
 46
296.47290887
 79
     2
 49
12.57799983
 49
-406.69799805
 53
165.96380615
 43
175.0
 44
124.60000038
 45
-296.47214391
 46
-0.00122822
 79
     2
 49
12.2239995
 49
-1210.16403198
 53
161.56500244
 43
162.99999237
 44
127.39999771
 45
-296.47174563
 46
0.00087946
 79
     2
 49
9.376000169999999
 49
-928.1539917000001
 53
116.56500244
 43
154.20000076
 44
130.39999962
 45
-296.47195758
 46
296.47335758
 79
     2
 49
6.629999879999999
 49
-656.3040161099999
 53
45.0
 43
151.19999886
 44
136.40000343
 45
0.0000000000000355
 46
296.47290887
 79
     2
 49
8.385999799999998
 49
-410.8900070199999
 53
345.9637146
 43
157.20000267
 44
142.39999771
 45
296.47214391
 46
0.00075448
 79
     2
 49
12.2239995
 49
-1210.16403198
 53
333.43490601
 43
168.99999619
 44
139.3999958
 45
296.4731053999999
 46
-0.0011172
 79
     2
 49
13.25799942
 49
-649.67399597
 53
270.0
 43
180.79999924
 44
133.40000153
 45
296.47199631
 46
-0.0000000000000545
 79
     2
 49
5.92999995
 49
-290.5439949
 53
206.56500244
 43
180.79999924
 44
127.39999771
 45
-296.47335758
 46
-296.47195758
 79
     2
 49
6.629999879999999
 49
-656.3040161099999
 53
165.96380615
 43
168.99999619
 44
139.3999958
 45
-296.47214391
 46
-0.00122822
 79
     2
 49
12.2239995
 49
-1210.16403198
 53
90.0
 43
157.20000267
 44
142.39999771
 45
-296.47199631
 46
0.0000000000000182
 79
     2
 49
5.92999995
 49
-290.5439949
 53
45.0
 43
157.20000267
 44
148.19999695
 45
0.0000000000000355
 46
296.47290887
 79
     2
 49
4.192000029999999
 49
-415.08201599
 53
18.43490028
 43
160.0
 44
151.19999886
 45
592.9456423699999
 46
296.47124934
 79
     2
 49
9.376000169999999
 49
-928.1539917000001
 53
345.9637146
 43
168.99999619
 44
154.20000076
 45
296.47214391
 46
0.00075448
 79
     2
 49
12.2239995
 49
-1210.16403198
 53
345.9637146
 43
180.79999924
 44
151.19999886
 45
296.47214391
 46
0.00075448
 79
     2
 49
12.2239995
 49
-1210.16403198
 53
270.0
 43
192.80000687
 44
148.19999695
 45
296.47199631
 46
-0.0000000000000545
 79
     2
 49
5.92999995
 49
-290.5439949
 53
213.69009399
 43
192.80000687
 44
142.39999771
 45
-296.4732464
 46
-296.47241205
 79
     2
 49
10.69000006
 49
-1058.25798035
 53
168.69009399
 43
183.79999161
 44
136.40000343
 45
-296.47346827
 46
-0.00092342
 79
     2
 49
15.11800051
 49
-1496.60202026
 53
11.30990028
 43
172.00000763
 44
160.0
 45
1185.89014473
 46
296.47280949
 79
     2
 49
15.11800051
 49
-1496.60202026
 53
0.0
 43
186.80000305
 44
162.99999237
 45
0.0
 46
296.47199631
 79
     2
 49
14.8239994
 49
-281.64800644
 53
341.56509399
 43
201.59999847
 44
162.99999237
 45
296.47174563
 46
-0.00040573
 79
     2
 49
9.376000169999999
 49
-928.1539917000001
 53
270.0
 43
210.40000916
 44
160.0
 45
296.47199631
 46
-0.0000000000000545
 79
     2
 49
5.92999995
 49
-290.5439949
 53
206.56500244
 43
210.40000916
 44
154.20000076
 45
-296.47335758
 46
-296.47195758
 79
     2
 49
13.25799942
 49
-649.67399597
 53
180.0
 43
198.6000061
 44
148.19999695
 45
-0.0000000000000363
 46
-296.47199631
 79
     2
 49
5.92999995
 49
-290.5439949
 53
165.96380615
 43
192.80000687
 44
148.19999695
 45
-296.47214391
 46
-0.00122822
 79
     2
 49
12.2239995
 49
-1210.16403198
 53
161.56500244
 43
180.79999924
 44
151.19999886
 45
-296.47174563
 46
0.00087946
 79
     2
 49
9.376000169999999
 49
-928.1539917000001
 53
90.0
 43
172.00000763
 44
154.20000076
 45
-296.47199631
 46
0.0000000000000182
 79
     2
 49
2.96400011
 49
-293.50799561
 53
90.0
 43
172.00000763
 44
157.20000267
 45
-296.47199631
 46
0.0000000000000182
 79
     2
 49
2.96400011
 49
-293.50799561
 53
243.43499756
 43
148.19999695
 44
166.00000381
 45
-0.00064346
 46
-296.4731053999999
 79
     2
 49
6.629999879999999
 49
-656.3040161099999
 53
315.0
 43
145.20000458
 44
160.0
 45
296.47290887
 46
-0.0000000000000711
 79
     2
 49
8.385999799999998
 49
-410.8900070199999
 53
341.56509399
 43
151.19999886
 44
154.20000076
 45
296.47174563
 46
-0.00040573
 79
     2
 49
9.376000169999999
 49
-928.1539917000001
 53
18.43490028
 43
160.0
 44
151.19999886
 45
592.9456423699999
 46
296.47124934
 79
     2
 49
9.376000169999999
 49
-928.1539917000001
 53
45.0
 43
168.99999619
 44
154.20000076
 45
0.0000000000000355
 46
296.47290887
 79
     2
 49
4.192000029999999
 49
-415.08201599
 53
116.56500244
 43
172.00000763
 44
157.20000267
 45
-296.47195758
 46
296.47335758
 79
     2
 49
6.629999879999999
 49
-656.3040161099999
 53
45.0
 43
121.59999847
 44
180.79999924
 45
0.0000000000000355
 46
296.47290887
 79
     2
 49
8.385999799999998
 49
-410.8900070199999
 53
18.43490028
 43
127.39999771
 44
186.80000305
 45
592.9456423699999
 46
296.47124934
 79
     2
 49
9.376000169999999
 49
-928.1539917000001
 53
354.80560303
 43
136.40000343
 44
189.79999542
 45
296.47161493
 46
0.00088987
 79
     2
 49
32.74600029
 49
-3241.90002441
 53
350.53768921
 43
168.99999619
 44
186.80000305
 45
296.47186526
 46
0.00038989
 79
     2
 49
18.0340004
 49
-1785.33798218
 53
341.56509399
 43
186.80000305
 44
183.79999161
 45
296.47174563
 46
-0.00040573
 79
     2
 49
9.376000169999999
 49
-928.1539917000001
 53
315.0
 43
195.59999466
 44
180.79999924
 45
296.47290887
 46
-0.0000000000000711
 79
     2
 49
4.192000029999999
 49
-415.08201599
 53
270.0
 43
198.6000061
 44
177.80000687
 45
296.47199631
 46
-0.0000000000000545
 79
     2
 49
8.89400005
 49
-287.57799149
 53
225.0
 43
198.6000061
 44
168.99999619
 45
-0.0000000000000533
 46
-296.47290887
 79
     2
 49
4.192000029999999
 49
-415.08201599
 53
198.43499756
 43
195.59999466
 44
166.00000381
 45
-592.9451390299999
 46
-296.47225602
 79
     2
 49
9.376000169999999
 49
-928.1539917000001
 53
180.0
 43
186.80000305
 44
162.99999237
 45
-0.0000000000000363
 46
-296.47199631
 79
     2
 49
14.8239994
 49
-281.64800644
 53
168.69009399
 43
172.00000763
 44
162.99999237
 45
-296.47346827
 46
-0.00092342
 79
     2
 49
15.11800051
 49
-1496.60202026
 53
180.0
 43
157.20000267
 44
166.00000381
 45
-0.0000000000000363
 46
-296.47199631
 79
     2
 49
17.78800011
 49
-278.68400574
 53
165.96380615
 43
139.3999958
 44
166.00000381
 45
-296.47214391
 46
-0.00122822
 79
     2
 49
12.2239995
 49
-1210.16403198
 53
135.0
 43
127.39999771
 44
168.99999619
 45
-296.47290887
 46
0.0000000000000355
 79
     2
 49
8.385999799999998
 49
-410.8900070199999
 53
153.43499756
 43
216.3999939
 44
183.79999161
 45
-296.4731053999999
 46
0.00064346
 79
     2
 49
6.629999879999999
 49
-656.3040161099999
 53
198.43499756
 43
210.40000916
 44
186.80000305
 45
-592.9451390299999
 46
-296.47225602
 79
     2
 49
9.376000169999999
 49
-928.1539917000001
 53
243.43499756
 43
201.59999847
 44
183.79999161
 45
-0.00064346
 46
-296.4731053999999
 79
     2
 49
6.629999879999999
 49
-656.3040161099999
 53
270.0
 43
198.6000061
 44
177.80000687
 45
296.47199631
 46
-0.0000000000000545
 79
     2
 49
5.92999995
 49
-290.5439949
 53
288.43490601
 43
198.6000061
 44
172.00000763
 45
296.47130856
 46
-592.9456127599999
 79
     2
 49
9.376000169999999
 49
-928.1539917000001
 53
341.56509399
 43
201.59999847
 44
162.99999237
 45
296.47174563
 46
-0.00040573
 79
     2
 49
9.376000169999999
 49
-928.1539917000001
 53
26.56509972
 43
210.40000916
 44
160.0
 45
296.47285424
 46
296.47246092
 79
     2
 49
6.629999879999999
 49
-656.3040161099999
 53
45.0
 43
216.3999939
 44
162.99999237
 45
0.0000000000000355
 46
296.47290887
 79
     2
 49
8.385999799999998
 49
-410.8900070199999
 53
90.0
 43
222.39999771
 44
168.99999619
 45
-296.47199631
 46
0.0000000000000182
 79
     2
 49
5.92999995
 49
-290.5439949
 53
123.69010162
 43
222.39999771
 44
175.0
 45
-296.47245153
 46
296.47320692
 79
     2
 49
10.69000006
 49
-1058.25798035
 53
180.0
 43
80.0
 44
160.0
 45
-0.0000000000000363
 46
-296.47199631
 79
     2
 49
2.96400011
 49
-293.50799561
 53
135.0
 43
76.99999809000001
 44
160.0
 45
-296.47290887
 46
0.0000000000000355
 79
     2
 49
8.385999799999998
 49
-410.8900070199999
 53
116.56500244
 43
71.19999885999999
 44
166.00000381
 45
-296.47195758
 46
296.47335758
 79
     2
 49
6.629999879999999
 49
-656.3040161099999
 53
71.56500244
 43
68.20000172
 44
172.00000763
 45
0.00087946
 46
296.47174563
 79
     2
 49
9.376000169999999
 49
-928.1539917000001
 53
56.30989838
 43
71.19999885999999
 44
180.79999924
 45
296.47375474
 46
592.9449556599999
 79
     2
 49
10.69000006
 49
-1058.25798035
 53
11.30990028
 43
76.99999809000001
 44
189.79999542
 45
1185.89014473
 46
296.47280949
 79
     2
 49
15.11800051
 49
-1496.60202026
 53
333.43490601
 43
91.99999809000001
 44
192.80000687
 45
296.4731053999999
 46
-0.0011172
 79
     2
 49
13.25799942
 49
-649.67399597
 53
0.0
 43
103.80000114
 44
186.80000305
 45
0.0
 46
296.47199631
 79
     2
 49
8.89400005
 49
-287.57799149
 53
326.30990601
 43
112.60000229
 44
186.80000305
 45
592.9449951399999
 46
-296.47367579
 79
     2
 49
10.69000006
 49
-1058.25798035
 53
270.0
 43
121.59999847
 44
180.79999924
 45
296.47199631
 46
-0.0000000000000545
 79
     2
 49
5.92999995
 49
-290.5439949
 53
225.0
 43
121.59999847
 44
175.0
 45
-0.0000000000000533
 46
-296.47290887
 79
     2
 49
8.385999799999998
 49
-410.8900070199999
 53
18.43490028
 43
62.19999789999999
 44
177.80000687
 45
592.9456423699999
 46
296.47124934
 79
     2
 49
9.376000169999999
 49
-928.1539917000001
 53
90.0
 43
71.19999885999999
 44
180.79999924
 45
-296.47199631
 46
0.0000000000000182
 79
     2
 49
2.96400011
 49
-293.50799561
 53
116.56500244
 43
71.19999885999999
 44
183.79999161
 45
-296.47195758
 46
296.47335758
 79
     2
 49
6.629999879999999
 49
-656.3040161099999
 53
180.0
 43
68.20000172
 44
189.79999542
 45
-0.0000000000000363
 46
-296.47199631
 79
     2
 49
11.85799956
 49
-284.61399078
 53
191.30990601
 43
56.39999866
 44
189.79999542
 45
-1185.89011512
 46
-296.47292792
 79
     2
 49
15.11800051
 49
-1496.60202026
 53
225.0
 43
41.59999847
 44
186.80000305
 45
-0.0000000000000533
 46
-296.47290887
 79
     2
 49
4.192000029999999
 49
-415.08201599
 53
270.0
 43
38.59999895
 44
183.79999161
 45
296.47199631
 46
-0.0000000000000545
 79
     2
 49
2.96400011
 49
-293.50799561
 53
315.0
 43
38.59999895
 44
180.79999924
 45
296.47290887
 46
-0.0000000000000711
 79
     2
 49
4.192000029999999
 49
-415.08201599
 53
281.30990601
 43
68.20000172
 44
172.00000763
 45
296.47292792
 46
-1185.89011512
 79
     2
 49
15.11800051
 49
-1496.60202026
 53
270.0
 43
71.19999885999999
 44
157.20000267
 45
296.47199631
 46
-0.0000000000000545
 79
     2
 49
8.89400005
 49
-287.57799149
 53
236.30990601
 43
71.19999885999999
 44
148.19999695
 45
-296.47367579
 46
-592.9449951399999
 79
     2
 49
10.69000006
 49
-1058.25798035
 53
180.0
 43
65.19999980999999
 44
139.3999958
 45
-0.0000000000000363
 46
-296.47199631
 79
     2
 49
11.85799956
 49
-284.61399078
 53
180.0
 43
53.40000153
 44
139.3999958
 45
-0.0000000000000363
 46
-296.47199631
 79
     2
 49
14.8239994
 49
-281.64800644
 53
153.43499756
 43
38.59999895
 44
139.3999958
 45
-296.4731053999999
 46
0.00064346
 79
     2
 49
6.629999879999999
 49
-656.3040161099999
 53
108.43499756
 43
32.5999999
 44
142.39999771
 45
-296.47225602
 46
592.9451390299999
 79
     2
 49
9.376000169999999
 49
-928.1539917000001
 53
90.0
 43
29.60000038
 44
151.19999886
 45
-296.47199631
 46
0.0000000000000182
 79
     2
 49
8.89400005
 49
-287.57799149
 53
71.56500244
 43
29.60000038
 44
160.0
 45
0.00087946
 46
296.47174563
 79
     2
 49
9.376000169999999
 49
-928.1539917000001
 53
45.0
 43
32.5999999
 44
168.99999619
 45
0.0000000000000355
 46
296.47290887
 79
     2
 49
12.57799983
 49
-406.69799805
 53
0.0
 43
41.59999847
 44
177.80000687
 45
0.0
 46
296.47199631
 79
     2
 49
20.75400114
 49
-275.72000504
 53
315.0
 43
62.19999789999999
 44
177.80000687
 45
296.47290887
 46
-0.0000000000000711
 79
     2
 49
8.385999799999998
 49
-410.8900070199999
 53
26.56509972
 43
112.60000229
 44
17.79999971
 45
296.47285424
 46
296.47246092
 79
     2
 49
6.629999879999999
 49
-656.3040161099999
 53
45.0
 43
118.59999657
 44
20.79999924
 45
0.0000000000000355
 46
296.47290887
 79
     2
 49
4.192000029999999
 49
-415.08201599
 53
90.0
 43
121.59999847
 44
23.80000114
 45
-296.47199631
 46
0.0000000000000182
 79
     2
 49
5.92999995
 49
-290.5439949
 53
116.56500244
 43
121.59999847
 44
29.60000038
 45
-296.47195758
 46
296.47335758
 79
     2
 49
6.629999879999999
 49
-656.3040161099999
 53
161.56500244
 43
118.59999657
 44
35.59999943
 45
-296.47174563
 46
0.00087946
 79
     2
 49
9.376000169999999
 49
-928.1539917000001
 53
161.56500244
 43
109.60000038
 44
38.59999895
 45
-296.47174563
 46
0.00087946
 79
     2
 49
9.376000169999999
 49
-928.1539917000001
 53
180.0
 43
100.79999924
 44
41.59999847
 45
-0.0000000000000363
 46
-296.47199631
 79
     2
 49
11.85799956
 49
-284.61399078
 53
194.03619385
 43
88.99999619
 44
41.59999847
 45
-889.4167208699998
 46
-296.4723532
 79
     2
 49
12.2239995
 49
-1210.16403198
 53
236.30990601
 43
76.99999809000001
 44
38.59999895
 45
-296.47367579
 46
-592.9449951399999
 79
     2
 49
10.69000006
 49
-1058.25798035
 53
251.56500244
 43
71.19999885999999
 44
29.60000038
 45
-0.00087946
 46
-296.47174563
 79
     2
 49
9.376000169999999
 49
-928.1539917000001
 53
288.43490601
 43
68.20000172
 44
20.79999924
 45
296.47130856
 46
-592.9456127599999
 79
     2
 49
9.376000169999999
 49
-928.1539917000001
 53
333.43490601
 43
71.19999885999999
 44
11.79999948
 45
296.4731053999999
 46
-0.0011172
 79
     2
 49
6.629999879999999
 49
-656.3040161099999
 53
11.30990028
 43
76.99999809000001
 44
8.79999995
 45
1185.89014473
 46
296.47280949
 79
     2
 49
15.11800051
 49
-1496.60202026
 53
191.30990601
 43
145.20000458
 44
275.79999924
 45
-1185.89011512
 46
-296.47292792
 79
     2
 49
15.11800051
 49
-1496.60202026
 53
161.56500244
 43
130.39999962
 44
272.80000687
 45
-296.47174563
 46
0.00087946
 79
     2
 49
9.376000169999999
 49
-928.1539917000001
 53
146.30990601
 43
121.59999847
 44
275.79999924
 45
-592.9449951399999
 46
296.47367579
 79
     2
 49
10.69000006
 49
-1058.25798035
 53
161.56500244
 43
112.60000229
 44
281.59999847
 45
-296.47174563
 46
0.00087946
 79
     2
 49
9.376000169999999
 49
-928.1539917000001
 53
171.86990356
 43
103.80000114
 44
284.5999908399999
 45
-296.4717645
 46
-0.00059775
 79
     2
 49
20.96400023
 49
-2075.41397095
 53
161.56500244
 43
83.00000191
 44
287.60000229
 45
-296.47174563
 46
0.00087946
 79
     2
 49
9.376000169999999
 49
-928.1539917000001
 53
116.56500244
 43
74.20000075999999
 44
290.59999466
 45
-296.47195758
 46
296.47335758
 79
     2
 49
6.629999879999999
 49
-656.3040161099999
 53
63.43489838
 43
71.19999885999999
 44
0.0
 45
0.00115667
 46
296.4731053999999
 79
     2
 49
6.629999879999999
 49
-656.3040161099999
 53
26.56509972
 43
74.20000075999999
 44
6.00000024
 45
296.47285424
 46
296.47246092
 79
     2
 49
6.629999879999999
 49
-656.3040161099999
 53
14.03619957
 43
80.0
 44
8.79999995
 45
889.4166912599999
 46
296.47244202
 79
     2
 49
12.2239995
 49
-1210.16403198
 53
18.43490028
 43
91.99999809000001
 44
11.79999948
 45
592.9456423699999
 46
296.47124934
 79
     2
 49
9.376000169999999
 49
-928.1539917000001
 53
14.03619957
 43
100.79999924
 44
14.80000019
 45
889.4166912599999
 46
296.47244202
 79
     2
 49
12.2239995
 49
-1210.16403198
 53
0.0
 43
112.60000229
 44
17.79999971
 45
0.0
 46
296.47199631
 79
     2
 49
8.89400005
 49
-287.57799149
 53
345.9637146
 43
121.59999847
 44
17.79999971
 45
296.47214391
 46
0.00075448
 79
     2
 49
12.2239995
 49
-1210.16403198
 53
333.43490601
 43
133.40000153
 44
14.80000019
 45
296.4731053999999
 46
-0.0011172
 79
     2
 49
13.25799942
 49
-649.67399597
 53
315.0
 43
145.20000458
 44
8.79999995
 45
296.47290887
 46
-0.0000000000000711
 79
     2
 49
12.57799983
 49
-406.69799805
 53
270.0
 43
154.20000076
 44
296.3999939
 45
296.47199631
 46
-0.0000000000000545
 79
     2
 49
5.92999995
 49
-290.5439949
 53
255.96380615
 43
154.20000076
 44
290.59999466
 45
0.00122822
 46
-296.47214391
 79
     2
 49
12.2239995
 49
-1210.16403198
 53
206.56500244
 43
151.19999886
 44
278.6000061
 45
-296.47335758
 46
-296.47195758
 79
     2
 49
6.629999879999999
 49
-656.3040161099999
 53
0.0
 43
8.79999995
 44
124.60000038
 45
0.0
 46
296.47199631
 79
     2
 49
11.85799956
 49
-284.61399078
 53
341.56509399
 43
20.79999924
 44
124.60000038
 45
296.47174563
 46
-0.00040573
 79
     2
 49
9.376000169999999
 49
-928.1539917000001
 53
315.0
 43
29.60000038
 44
121.59999847
 45
296.47290887
 46
-0.0000000000000711
 79
     2
 49
8.385999799999998
 49
-410.8900070199999
 53
270.0
 43
35.59999943
 44
115.6000042
 45
296.47199631
 46
-0.0000000000000545
 79
     2
 49
5.92999995
 49
-290.5439949
 53
258.69009399
 43
35.59999943
 44
109.60000038
 45
0.00092342
 46
-296.47346827
 79
     2
 49
15.11800051
 49
-1496.60202026
 53
236.30990601
 43
32.5999999
 44
94.79999541999999
 45
-296.47367579
 46
-592.9449951399999
 79
     2
 49
10.69000006
 49
-1058.25798035
 53
225.0
 43
26.60000086
 44
86.00000380999999
 45
-0.0000000000000533
 46
-296.47290887
 79
     2
 49
12.57799983
 49
-406.69799805
 53
225.0
 43
17.79999971
 44
76.99999809000001
 45
-0.0000000000000533
 46
-296.47290887
 79
     2
 49
12.57799983
 49
-406.69799805
 53
180.0
 43
296.3999939
 44
62.19999789999999
 45
-0.0000000000000363
 46
-296.47199631
 79
     2
 49
2.96400011
 49
-293.50799561
 53
213.69009399
 43
8.79999995
 44
68.20000172
 45
-296.4732464
 46
-296.47241205
 79
     2
 49
10.69000006
 49
-1058.25798035
 53
180.0
 43
293.6000061000001
 44
62.19999789999999
 45
-0.0000000000000363
 46
-296.47199631
 79
     2
 49
5.92999995
 49
-290.5439949
 53
153.43499756
 43
287.60000229
 44
62.19999789999999
 45
-296.4731053999999
 46
0.00064346
 79
     2
 49
6.629999879999999
 49
-656.3040161099999
 53
101.30989838
 43
281.59999847
 44
65.19999980999999
 45
-296.47277001
 46
1185.8901546
 79
     2
 49
15.11800051
 49
-1496.60202026
 53
90.0
 43
278.6000061
 44
80.0
 45
-296.47199631
 46
0.0000000000000182
 79
     2
 49
11.85799956
 49
-284.61399078
 53
75.96379852
 43
278.6000061
 44
91.99999809000001
 45
-0.00118874
 46
296.47214391
 79
     2
 49
12.2239995
 49
-1210.16403198
 53
71.56500244
 43
281.59999847
 44
103.80000114
 45
0.00087946
 46
296.47174563
 79
     2
 49
9.376000169999999
 49
-928.1539917000001
 53
36.86989975
 43
284.5999908399999
 44
112.60000229
 45
296.47318037
 46
296.47240392
 79
     2
 49
14.8239994
 49
-1467.53997803
 53
18.43490028
 43
0.0
 44
121.59999847
 45
592.9456423699999
 46
296.47124934
 79
     2
 49
9.376000169999999
 49
-928.1539917000001
 53
213.69009399
 43
275.79999924
 44
50.39999962
 45
-296.4732464
 46
-296.47241205
 79
     2
 49
10.69000006
 49
-1058.25798035
 53
206.56500244
 43
266.80000305
 44
44.40000057
 45
-296.47335758
 46
-296.47195758
 79
     2
 49
6.629999879999999
 49
-656.3040161099999
 53
225.0
 43
260.79999924
 44
41.59999847
 45
-0.0000000000000533
 46
-296.47290887
 79
     2
 49
8.385999799999998
 49
-410.8900070199999
 53
206.56500244
 43
255.0
 44
35.59999943
 45
-296.47335758
 46
-296.47195758
 79
     2
 49
6.629999879999999
 49
-656.3040161099999
 53
180.0
 43
248.99999619
 44
32.5999999
 45
-0.0000000000000363
 46
-296.47199631
 79
     2
 49
5.92999995
 49
-290.5439949
 53
180.0
 43
243.19999695
 44
32.5999999
 45
-0.0000000000000363
 46
-296.47199631
 79
     2
 49
14.8239994
 49
-281.64800644
 53
146.30990601
 43
228.19999695
 44
32.5999999
 45
-592.9449951399999
 46
296.47367579
 79
     2
 49
10.69000006
 49
-1058.25798035
 53
116.56500244
 43
219.40000534
 44
38.59999895
 45
-296.47195758
 46
296.47335758
 79
     2
 49
6.629999879999999
 49
-656.3040161099999
 53
108.43499756
 43
216.3999939
 44
44.40000057
 45
-296.47225602
 46
592.9451390299999
 79
     2
 49
9.376000169999999
 49
-928.1539917000001
 53
90.0
 43
213.40000153
 44
53.40000153
 45
-296.47199631
 46
0.0000000000000182
 79
     2
 49
8.89400005
 49
-287.57799149
 53
63.43489838
 43
213.40000153
 44
62.19999789999999
 45
0.00115667
 46
296.4731053999999
 79
     2
 49
6.629999879999999
 49
-656.3040161099999
 53
26.56509972
 43
216.3999939
 44
68.20000172
 45
296.47285424
 46
296.47246092
 79
     2
 49
6.629999879999999
 49
-656.3040161099999
 53
0.0
 43
222.39999771
 44
71.19999885999999
 45
0.0
 46
296.47199631
 79
     2
 49
26.68200016
 49
-269.79000092
 53
352.875
 43
248.99999619
 44
71.19999885999999
 45
296.47327836
 46
-0.00090666
 79
     2
 49
23.901999
 49
-2366.33605957
 53
341.56509399
 43
272.80000687
 44
68.20000172
 45
296.47174563
 46
-0.00040573
 79
     2
 49
9.376000169999999
 49
-928.1539917000001
 53
270.0
 43
281.59999847
 44
65.19999980999999
 45
296.47199631
 46
-0.0000000000000545
 79
     2
 49
5.92999995
 49
-290.5439949
 53
243.43499756
 43
281.59999847
 44
59.20000076
 45
-0.00064346
 46
-296.4731053999999
 79
     2
 49
6.629999879999999
 49
-656.3040161099999
 53
225.0
 43
278.6000061
 44
53.40000153
 45
-0.0000000000000533
 46
-296.47290887
 79
     2
 49
4.192000029999999
 49
-415.08201599
 53
194.03619385
 43
142.39999771
 44
130.39999962
 45
-889.4167208699998
 46
-296.4723532
 79
     2
 49
12.2239995
 49
-1210.16403198
 53
180.0
 43
130.39999962
 44
127.39999771
 45
-0.0000000000000363
 46
-296.47199631
 79
     2
 49
5.92999995
 49
-290.5439949
 53
146.30990601
 43
124.60000038
 44
127.39999771
 45
-592.9449951399999
 46
296.47367579
 79
     2
 49
10.69000006
 49
-1058.25798035
 53
146.30990601
 43
115.6000042
 44
133.40000153
 45
-592.9449951399999
 46
296.47367579
 79
     2
 49
10.69000006
 49
-1058.25798035
 53
161.56500244
 43
106.80000305
 44
139.3999958
 45
-296.47174563
 46
0.00087946
 79
     2
 49
9.376000169999999
 49
-928.1539917000001
 53
180.0
 43
97.79999733
 44
142.39999771
 45
-0.0000000000000363
 46
-296.47199631
 79
     2
 49
11.85799956
 49
-284.61399078
 53
161.56500244
 43
86.00000380999999
 44
142.39999771
 45
-296.47174563
 46
0.00087946
 79
     2
 49
9.376000169999999
 49
-928.1539917000001
 53
135.0
 43
76.99999809000001
 44
145.20000458
 45
-296.47290887
 46
0.0000000000000355
 79
     2
 49
4.192000029999999
 49
-415.08201599
 53
90.0
 43
74.20000075999999
 44
148.19999695
 45
-296.47199631
 46
0.0000000000000182
 79
     2
 49
5.92999995
 49
-290.5439949
 53
45.0
 43
74.20000075999999
 44
154.20000076
 45
0.0000000000000355
 46
296.47290887
 79
     2
 49
8.385999799999998
 49
-410.8900070199999
 53
18.43490028
 43
80.0
 44
160.0
 45
592.9456423699999
 46
296.47124934
 79
     2
 49
9.376000169999999
 49
-928.1539917000001
 53
21.80139923
 43
88.99999619
 44
162.99999237
 45
592.9442207000001
 46
296.47253553
 79
     2
 49
15.96600056
 49
-1580.58807373
 53
0.0
 43
103.80000114
 44
168.99999619
 45
0.0
 46
296.47199631
 79
     2
 49
14.8239994
 49
-281.64800644
 53
348.69009399
 43
118.59999657
 44
168.99999619
 45
296.47346827
 46
0.00092342
 79
     2
 49
15.11800051
 49
-1496.60202026
 53
333.43490601
 43
133.40000153
 44
166.00000381
 45
296.4731053999999
 46
-0.0011172
 79
     2
 49
13.25799942
 49
-649.67399597
 53
315.0
 43
145.20000458
 44
160.0
 45
296.47290887
 46
-0.0000000000000711
 79
     2
 49
8.385999799999998
 49
-410.8900070199999
 53
296.56509399
 43
151.19999886
 44
154.20000076
 45
296.47243131
 46
-296.47288385
 79
     2
 49
6.629999879999999
 49
-656.3040161099999
 53
270.0
 43
154.20000076
 44
148.19999695
 45
296.47199631
 46
-0.0000000000000545
 79
     2
 49
8.89400005
 49
-287.57799149
 53
225.0
 43
154.20000076
 44
139.3999958
 45
-0.0000000000000533
 46
-296.47290887
 79
     2
 49
8.385999799999998
 49
-410.8900070199999
 53
206.56500244
 43
148.19999695
 44
133.40000153
 45
-296.47335758
 46
-296.47195758
 79
     2
 49
6.629999879999999
 49
-656.3040161099999
 53
194.03619385
 43
53.40000153
 44
44.40000057
 45
-889.4167208699998
 46
-296.4723532
 79
     2
 49
12.2239995
 49
-1210.16403198
 53
180.0
 43
41.59999847
 44
41.59999847
 45
-0.0000000000000363
 46
-296.47199631
 79
     2
 49
5.92999995
 49
-290.5439949
 53
153.43499756
 43
35.59999943
 44
41.59999847
 45
-296.4731053999999
 46
0.00064346
 79
     2
 49
6.629999879999999
 49
-656.3040161099999
 53
135.0
 43
29.60000038
 44
44.40000057
 45
-296.47290887
 46
0.0000000000000355
 79
     2
 49
8.385999799999998
 49
-410.8900070199999
 53
135.0
 43
23.80000114
 44
50.39999962
 45
-296.47290887
 46
0.0000000000000355
 79
     2
 49
8.385999799999998
 49
-410.8900070199999
 53
116.56500244
 43
17.79999971
 44
56.39999866
 45
-296.47195758
 46
296.47335758
 79
     2
 49
6.629999879999999
 49
-656.3040161099999
 53
90.0
 43
14.80000019
 44
62.19999789999999
 45
-296.47199631
 46
0.0000000000000182
 79
     2
 49
5.92999995
 49
-290.5439949
 53
71.56500244
 43
14.80000019
 44
68.20000172
 45
0.00087946
 46
296.47174563
 79
     2
 49
9.376000169999999
 49
-928.1539917000001
 53
45.0
 43
17.79999971
 44
76.99999809000001
 45
0.0000000000000355
 46
296.47290887
 79
     2
 49
12.57799983
 49
-406.69799805
 53
33.69010162
 43
26.60000086
 44
86.00000380999999
 45
296.47320692
 46
296.47245153
 79
     2
 49
10.69000006
 49
-1058.25798035
 53
14.03619957
 43
35.59999943
 44
91.99999809000001
 45
889.4166912599999
 46
296.47244202
 79
     2
 49
12.2239995
 49
-1210.16403198
 53
341.56509399
 43
47.39999770999999
 44
94.79999541999999
 45
296.47174563
 46
-0.00040573
 79
     2
 49
9.376000169999999
 49
-928.1539917000001
 53
333.43490601
 43
56.39999866
 44
91.99999809000001
 45
296.4731053999999
 46
-0.0011172
 79
     2
 49
6.629999879999999
 49
-656.3040161099999
 53
315.0
 43
62.19999789999999
 44
88.99999619
 45
296.47290887
 46
-0.0000000000000711
 79
     2
 49
8.385999799999998
 49
-410.8900070199999
 53
288.43490601
 43
68.20000172
 44
83.00000191
 45
296.47130856
 46
-592.9456127599999
 79
     2
 49
9.376000169999999
 49
-928.1539917000001
 53
288.43490601
 43
71.19999885999999
 44
74.20000075999999
 45
296.47130856
 46
-592.9456127599999
 79
     2
 49
9.376000169999999
 49
-928.1539917000001
 53
71.56500244
 43
71.19999885999999
 44
56.39999866
 45
0.00087946
 46
296.47174563
 79
     2
 49
9.376000169999999
 49
-928.1539917000001
 53
225.0
 43
76.99999809000001
 44
62.19999789999999
 45
-0.0000000000000533
 46
-296.47290887
 79
     2
 49
8.385999799999998
 49
-410.8900070199999
 53
213.69009399
 43
71.19999885999999
 44
56.39999866
 45
-296.4732464
 46
-296.47241205
 79
     2
 49
10.69000006
 49
-1058.25798035
 53
213.69009399
 43
62.19999789999999
 44
50.39999962
 45
-296.4732464
 46
-296.47241205
 79
     2
 49
10.69000006
 49
-1058.25798035
 53
206.56500244
 43
263.79999161
 44
127.39999771
 45
-296.47335758
 46
-296.47195758
 79
     2
 49
6.629999879999999
 49
-656.3040161099999
 53
201.80140686
 43
257.99999237
 44
124.60000038
 45
-592.94418122
 46
-296.47261448
 79
     2
 49
15.96600056
 49
-1580.58807373
 53
225.0
 43
243.19999695
 44
118.59999657
 45
-0.0000000000000533
 46
-296.47290887
 79
     2
 49
4.192000029999999
 49
-415.08201599
 53
243.43499756
 43
240.20000458
 44
115.6000042
 45
-0.00064346
 46
-296.4731053999999
 79
     2
 49
6.629999879999999
 49
-656.3040161099999
 53
225.0
 43
237.19999313
 44
109.60000038
 45
-0.0000000000000533
 46
-296.47290887
 79
     2
 49
4.192000029999999
 49
-415.08201599
 53
206.56500244
 43
234.20000076
 44
106.80000305
 45
-296.47335758
 46
-296.47195758
 79
     2
 49
6.629999879999999
 49
-656.3040161099999
 53
198.43499756
 43
228.19999695
 44
103.80000114
 45
-592.9451390299999
 46
-296.47225602
 79
     2
 49
9.376000169999999
 49
-928.1539917000001
 53
180.0
 43
219.40000534
 44
100.79999924
 45
-0.0000000000000363
 46
-296.47199631
 79
     2
 49
5.92999995
 49
-290.5439949
 53
153.43499756
 43
213.40000153
 44
100.79999924
 45
-296.4731053999999
 46
0.00064346
 79
     2
 49
13.25799942
 49
-649.67399597
 53
153.43499756
 43
201.59999847
 44
106.80000305
 45
-296.4731053999999
 46
0.00064346
 79
     2
 49
13.25799942
 49
-649.67399597
 53
135.0
 43
189.79999542
 44
112.60000229
 45
-296.47290887
 46
0.0000000000000355
 79
     2
 49
8.385999799999998
 49
-410.8900070199999
 53
116.56500244
 43
183.79999161
 44
118.59999657
 45
-296.47195758
 46
296.47335758
 79
     2
 49
6.629999879999999
 49
-656.3040161099999
 53
90.0
 43
180.79999924
 44
124.60000038
 45
-296.47199631
 46
0.0000000000000182
 79
     2
 49
5.92999995
 49
-290.5439949
 53
63.43489838
 43
180.79999924
 44
130.39999962
 45
0.00115667
 46
296.4731053999999
 79
     2
 49
6.629999879999999
 49
-656.3040161099999
 53
26.56509972
 43
183.79999161
 44
136.40000343
 45
296.47285424
 46
296.47246092
 79
     2
 49
13.25799942
 49
-649.67399597
 53
33.69010162
 43
195.59999466
 44
142.39999771
 45
296.47320692
 46
296.47245153
 79
     2
 49
10.69000006
 49
-1058.25798035
 53
45.0
 43
204.59999084
 44
148.19999695
 45
0.0000000000000355
 46
296.47290887
 79
     2
 49
8.385999799999998
 49
-410.8900070199999
 53
56.30989838
 43
210.40000916
 44
154.20000076
 45
296.47375474
 46
592.9449556599999
 79
     2
 49
10.69000006
 49
-1058.25798035
 53
18.43490028
 43
216.3999939
 44
162.99999237
 45
592.9456423699999
 46
296.47124934
 79
     2
 49
9.376000169999999
 49
-928.1539917000001
 53
0.0
 43
225.40000916
 44
166.00000381
 45
0.0
 46
296.47199631
 79
     2
 49
11.85799956
 49
-284.61399078
 53
338.1986084
 43
237.19999313
 44
166.00000381
 45
889.41728701
 46
-296.47162555
 79
     2
 49
15.96600056
 49
-1580.58807373
 53
315.0
 43
252.00000763
 44
160.0
 45
296.47290887
 46
-0.0000000000000711
 79
     2
 49
8.385999799999998
 49
-410.8900070199999
 53
315.0
 43
257.99999237
 44
154.20000076
 45
296.47290887
 46
-0.0000000000000711
 79
     2
 49
8.385999799999998
 49
-410.8900070199999
 53
296.56509399
 43
263.79999161
 44
148.19999695
 45
296.47243131
 46
-296.47288385
 79
     2
 49
6.629999879999999
 49
-656.3040161099999
 53
270.0
 43
266.80000305
 44
142.39999771
 45
296.47199631
 46
-0.0000000000000545
 79
     2
 49
8.89400005
 49
-287.57799149
 53
243.43499756
 43
266.80000305
 44
133.40000153
 45
-0.00064346
 46
-296.4731053999999
 79
     2
 49
6.629999879999999
 49
-656.3040161099999
 53
180.0
 43
133.40000153
 44
35.59999943
 45
-0.0000000000000363
 46
-296.47199631
 79
     2
 49
8.89400005
 49
-287.57799149
 53
168.69009399
 43
124.60000038
 44
35.59999943
 45
-296.47346827
 46
-0.00092342
 79
     2
 49
15.11800051
 49
-1496.60202026
 53
146.30990601
 43
109.60000038
 44
38.59999895
 45
-592.9449951399999
 46
296.47367579
 79
     2
 49
10.69000006
 49
-1058.25798035
 53
108.43499756
 43
100.79999924
 44
44.40000057
 45
-296.47225602
 46
592.9451390299999
 79
     2
 49
9.376000169999999
 49
-928.1539917000001
 53
108.43499756
 43
97.79999733
 44
53.40000153
 45
-296.47225602
 46
592.9451390299999
 79
     2
 49
9.376000169999999
 49
-928.1539917000001
 53
75.96379852
 43
94.79999541999999
 44
62.19999789999999
 45
-0.00118874
 46
296.47214391
 79
     2
 49
12.2239995
 49
-1210.16403198
 53
51.34019852
 43
97.79999733
 44
74.20000075999999
 45
889.4172523599999
 46
1185.89120889
 79
     2
 49
18.98399949
 49
-1879.36599731
 53
29.74489975
 43
109.60000038
 44
88.99999619
 45
1482.36285273
 46
889.4173209799999
 79
     2
 49
23.901999
 49
-2366.33605957
 53
6.340199949999999
 43
130.39999962
 44
100.79999924
 45
2371.78050757
 46
296.47298984
 79
     2
 49
26.84600115
 49
-2657.82592773
 53
348.69009399
 43
157.20000267
 44
103.80000114
 45
296.47346827
 46
0.00092342
 79
     2
 49
15.11800051
 49
-1496.60202026
 53
315.0
 43
172.00000763
 44
100.79999924
 45
296.47290887
 46
-0.0000000000000711
 79
     2
 49
12.57799983
 49
-406.69799805
 53
288.43490601
 43
180.79999924
 44
91.99999809000001
 45
296.47130856
 46
-592.9456127599999
 79
     2
 49
9.376000169999999
 49
-928.1539917000001
 53
270.0
 43
183.79999161
 44
83.00000191
 45
296.47199631
 46
-0.0000000000000545
 79
     2
 49
17.78800011
 49
-278.68400574
 53
251.56500244
 43
183.79999161
 44
65.19999980999999
 45
-0.00087946
 46
-296.47174563
 79
     2
 49
18.75
 49
-918.7779998799999
 53
206.56500244
 43
177.80000687
 44
47.39999770999999
 45
-296.47335758
 46
-296.47195758
 79
     2
 49
13.25799942
 49
-649.67399597
 53
191.30990601
 43
166.00000381
 44
41.59999847
 45
-1185.89011512
 46
-296.47292792
 79
     2
 49
15.11800051
 49
-1496.60202026
 53
189.46229553
 43
151.19999886
 44
38.59999895
 45
-1482.36343879
 46
-296.47216832
 79
     2
 49
18.0340004
 49
-1785.33798218
 53
341.56509399
 43
17.79999971
 44
252.00000763
 45
296.47174563
 46
-0.00040573
 79
     2
 49
9.376000169999999
 49
-928.1539917000001
 53
315.0
 43
26.60000086
 44
248.99999619
 45
296.47290887
 46
-0.0000000000000711
 79
     2
 49
8.385999799999998
 49
-410.8900070199999
 53
270.0
 43
32.5999999
 44
243.19999695
 45
296.47199631
 46
-0.0000000000000545
 79
     2
 49
5.92999995
 49
-290.5439949
 53
251.56500244
 43
32.5999999
 44
237.19999313
 45
-0.00087946
 46
-296.47174563
 79
     2
 49
9.376000169999999
 49
-928.1539917000001
 53
225.0
 43
29.60000038
 44
228.19999695
 45
-0.0000000000000533
 46
-296.47290887
 79
     2
 49
4.192000029999999
 49
-415.08201599
 53
180.0
 43
26.60000086
 44
225.40000916
 45
-0.0000000000000363
 46
-296.47199631
 79
     2
 49
5.92999995
 49
-290.5439949
 53
135.0
 43
20.79999924
 44
225.40000916
 45
-296.47290887
 46
0.0000000000000355
 79
     2
 49
8.385999799999998
 49
-410.8900070199999
 53
56.30989838
 43
11.79999948
 44
243.19999695
 45
296.47375474
 46
592.9449556599999
 79
     2
 49
10.69000006
 49
-1058.25798035
 53
0.0
 43
56.39999866
 44
252.00000763
 45
0.0
 46
296.47199631
 79
     2
 49
11.85799956
 49
-284.61399078
 53
9.4623003
 43
68.20000172
 44
252.00000763
 45
1482.36341412
 46
296.47229169
 79
     2
 49
18.0340004
 49
-1785.33798218
 53
0.0
 43
86.00000380999999
 44
255.0
 45
0.0
 46
296.47199631
 79
     2
 49
11.85799956
 49
-284.61399078
 53
326.30990601
 43
97.79999733
 44
255.0
 45
592.9449951399999
 46
-296.47367579
 79
     2
 49
10.69000006
 49
-1058.25798035
 53
300.9637146
 43
106.80000305
 44
248.99999619
 45
592.9444088999999
 46
-889.41922419
 79
     2
 49
17.28800058
 49
-1711.43005371
 53
270.0
 43
115.6000042
 44
234.20000076
 45
296.47199631
 46
-0.0000000000000545
 79
     2
 49
11.85799956
 49
-284.61399078
 53
236.30990601
 43
115.6000042
 44
222.39999771
 45
-296.47367579
 46
-592.9449951399999
 79
     2
 49
10.69000006
 49
-1058.25798035
 53
251.56500244
 43
109.60000038
 44
213.40000153
 45
-0.00087946
 46
-296.47174563
 79
     2
 49
9.376000169999999
 49
-928.1539917000001
 53
213.69009399
 43
106.80000305
 44
204.59999084
 45
-296.4732464
 46
-296.47241205
 79
     2
 49
10.69000006
 49
-1058.25798035
 53
198.43499756
 43
97.79999733
 44
198.6000061
 45
-592.9451390299999
 46
-296.47225602
 79
     2
 49
9.376000169999999
 49
-928.1539917000001
 53
191.30990601
 43
88.99999619
 44
195.59999466
 45
-1185.89011512
 46
-296.47292792
 79
     2
 49
15.11800051
 49
-1496.60202026
 53
180.0
 43
74.20000075999999
 44
192.80000687
 45
-0.0000000000000363
 46
-296.47199631
 79
     2
 49
14.8239994
 49
-281.64800644
 53
135.0
 43
59.20000076
 44
192.80000687
 45
-296.47290887
 46
0.0000000000000355
 79
     2
 49
8.385999799999998
 49
-410.8900070199999
 53
146.30990601
 43
53.40000153
 44
198.6000061
 45
-592.9449951399999
 46
296.47367579
 79
     2
 49
10.69000006
 49
-1058.25798035
 53
161.56500244
 43
44.40000057
 44
204.59999084
 45
-296.47174563
 46
0.00087946
 79
     2
 49
9.376000169999999
 49
-928.1539917000001
 53
123.69010162
 43
35.59999943
 44
207.60000229
 45
-296.47245153
 46
296.47320692
 79
     2
 49
10.69000006
 49
-1058.25798035
 53
90.0
 43
29.60000038
 44
216.3999939
 45
-296.47199631
 46
0.0000000000000182
 79
     2
 49
5.92999995
 49
-290.5439949
 53
78.69010161999999
 43
29.60000038
 44
222.39999771
 45
-0.0009629
 46
296.47346827
 79
     2
 49
15.11800051
 49
-1496.60202026
 53
56.30989838
 43
32.5999999
 44
237.19999313
 45
296.47375474
 46
592.9449556599999
 79
     2
 49
10.69000006
 49
-1058.25798035
 53
45.0
 43
38.59999895
 44
246.00000381
 45
0.0000000000000355
 46
296.47290887
 79
     2
 49
4.192000029999999
 49
-415.08201599
 53
26.56509972
 43
41.59999847
 44
248.99999619
 45
296.47285424
 46
296.47246092
 79
     2
 49
6.629999879999999
 49
-656.3040161099999
 53
0.0
 43
47.39999770999999
 44
252.00000763
 45
0.0
 46
296.47199631
 79
     2
 49
8.89400005
 49
-287.57799149
 53
326.30990601
 43
32.5999999
 44
263.79999161
 45
592.9449951399999
 46
-296.47367579
 79
     2
 49
10.69000006
 49
-1058.25798035
 53
333.43490601
 43
41.59999847
 44
257.99999237
 45
296.4731053999999
 46
-0.0011172
 79
     2
 49
6.629999879999999
 49
-656.3040161099999
 53
270.0
 43
47.39999770999999
 44
255.0
 45
296.47199631
 46
-0.0000000000000545
 79
     2
 49
2.96400011
 49
-293.50799561
 53
206.56500244
 43
47.39999770999999
 44
252.00000763
 45
-296.47335758
 46
-296.47195758
 79
     2
 49
6.629999879999999
 49
-656.3040161099999
 53
180.0
 43
41.59999847
 44
248.99999619
 45
-0.0000000000000363
 46
-296.47199631
 79
     2
 49
11.85799956
 49
-284.61399078
 53
165.96380615
 43
29.60000038
 44
248.99999619
 45
-296.47214391
 46
-0.00122822
 79
     2
 49
12.2239995
 49
-1210.16403198
 53
135.0
 43
17.79999971
 44
252.00000763
 45
-296.47290887
 46
0.0000000000000355
 79
     2
 49
4.192000029999999
 49
-415.08201599
 53
116.56500244
 43
14.80000019
 44
255.0
 45
-296.47195758
 46
296.47335758
 79
     2
 49
6.629999879999999
 49
-656.3040161099999
 53
63.43489838
 43
11.79999948
 44
260.79999924
 45
0.00115667
 46
296.4731053999999
 79
     2
 49
6.629999879999999
 49
-656.3040161099999
 53
26.56509972
 43
14.80000019
 44
266.80000305
 45
296.47285424
 46
296.47246092
 79
     2
 49
6.629999879999999
 49
-656.3040161099999
 53
0.0
 43
20.79999924
 44
269.79999542
 45
0.0
 46
296.47199631
 79
     2
 49
5.92999995
 49
-290.5439949
 53
315.0
 43
26.60000086
 44
269.79999542
 45
296.47290887
 46
-0.0000000000000711
 79
     2
 49
8.385999799999998
 49
-410.8900070199999
 53
236.30990601
 43
97.79999733
 44
272.80000687
 45
-296.47367579
 46
-592.9449951399999
 79
     2
 49
10.69000006
 49
-1058.25798035
 53
225.0
 43
91.99999809000001
 44
263.79999161
 45
-0.0000000000000533
 46
-296.47290887
 79
     2
 49
12.57799983
 49
-406.69799805
 53
191.30990601
 43
83.00000191
 44
255.0
 45
-1185.89011512
 46
-296.47292792
 79
     2
 49
15.11800051
 49
-1496.60202026
 53
180.0
 43
68.20000172
 44
252.00000763
 45
-0.0000000000000363
 46
-296.47199631
 79
     2
 49
11.85799956
 49
-284.61399078
 53
158.19859314
 43
56.39999866
 44
252.00000763
 45
-889.41720806
 46
296.47186242
 79
     2
 49
15.96600056
 49
-1580.58807373
 53
146.30990601
 43
41.59999847
 44
257.99999237
 45
-592.9449951399999
 46
296.47367579
 79
     2
 49
10.69000006
 49
-1058.25798035
 53
116.56500244
 43
32.5999999
 44
263.79999161
 45
-296.47195758
 46
296.47335758
 79
     2
 49
6.629999879999999
 49
-656.3040161099999
 53
90.0
 43
29.60000038
 44
269.79999542
 45
-296.47199631
 46
0.0000000000000182
 79
     2
 49
5.92999995
 49
-290.5439949
 53
45.0
 43
29.60000038
 44
275.79999924
 45
0.0000000000000355
 46
296.47290887
 79
     2
 49
8.385999799999998
 49
-410.8900070199999
 53
0.0
 43
35.59999943
 44
281.59999847
 45
0.0
 46
296.47199631
 79
     2
 49
23.71799946
 49
-272.75400162
 53
15.94540024
 43
59.20000076
 44
281.59999847
 45
889.4178531299999
 46
296.47306062
 79
     2
 49
21.58400059
 49
-2136.77001953
 53
0.0
 43
80.0
 44
287.60000229
 45
0.0
 46
296.47199631
 79
     2
 49
11.85799956
 49
-284.61399078
 53
326.30990601
 43
91.99999809000001
 44
287.60000229
 45
592.9449951399999
 46
-296.47367579
 79
     2
 49
10.69000006
 49
-1058.25798035
 53
251.56500244
 43
100.79999924
 44
281.59999847
 45
-0.00087946
 46
-296.47174563
 79
     2
 49
9.376000169999999
 49
-928.1539917000001
 53
243.43499756
 43
139.3999958
 44
195.59999466
 45
-0.00064346
 46
-296.4731053999999
 79
     2
 49
6.629999879999999
 49
-656.3040161099999
 53
180.0
 43
136.40000343
 44
189.79999542
 45
-0.0000000000000363
 46
-296.47199631
 79
     2
 49
11.85799956
 49
-284.61399078
 53
194.03619385
 43
124.60000038
 44
189.79999542
 45
-889.4167208699998
 46
-296.4723532
 79
     2
 49
12.2239995
 49
-1210.16403198
 53
180.0
 43
112.60000229
 44
186.80000305
 45
-0.0000000000000363
 46
-296.47199631
 79
     2
 49
8.89400005
 49
-287.57799149
 53
135.0
 43
103.80000114
 44
186.80000305
 45
-296.47290887
 46
0.0000000000000355
 79
     2
 49
8.385999799999998
 49
-410.8900070199999
 53
90.0
 43
97.79999733
 44
192.80000687
 45
-296.47199631
 46
0.0000000000000182
 79
     2
 49
5.92999995
 49
-290.5439949
 53
18.43490028
 43
97.79999733
 44
198.6000061
 45
592.9456423699999
 46
296.47124934
 79
     2
 49
9.376000169999999
 49
-928.1539917000001
 53
14.03619957
 43
106.80000305
 44
201.59999847
 45
889.4166912599999
 46
296.47244202
 79
     2
 49
12.2239995
 49
-1210.16403198
 53
0.0
 43
118.59999657
 44
204.59999084
 45
0.0
 46
296.47199631
 79
     2
 49
11.85799956
 49
-284.61399078
 53
326.30990601
 43
130.39999962
 44
204.59999084
 45
592.9449951399999
 46
-296.47367579
 79
     2
 49
10.69000006
 49
-1058.25798035
 53
270.0
 43
162.99999237
 44
198.6000061
 45
296.47199631
 46
-0.0000000000000545
 79
     2
 49
5.92999995
 49
-290.5439949
 53
206.56500244
 43
162.99999237
 44
192.80000687
 45
-296.47335758
 46
-296.47195758
 79
     2
 49
6.629999879999999
 49
-656.3040161099999
 53
180.0
 43
157.20000267
 44
189.79999542
 45
-0.0000000000000363
 46
-296.47199631
 79
     2
 49
8.89400005
 49
-287.57799149
 53
153.43499756
 43
148.19999695
 44
189.79999542
 45
-296.4731053999999
 46
0.00064346
 79
     2
 49
6.629999879999999
 49
-656.3040161099999
 53
135.0
 43
142.39999771
 44
192.80000687
 45
-296.47290887
 46
0.0000000000000355
 79
     2
 49
4.192000029999999
 49
-415.08201599
 53
90.0
 43
139.3999958
 44
195.59999466
 45
-296.47199631
 46
0.0000000000000182
 79
     2
 49
5.92999995
 49
-290.5439949
 53
26.56509972
 43
139.3999958
 44
201.59999847
 45
296.47285424
 46
296.47246092
 79
     2
 49
6.629999879999999
 49
-656.3040161099999
 53
0.0
 43
145.20000458
 44
204.59999084
 45
0.0
 46
296.47199631
 79
     2
 49
11.85799956
 49
-284.61399078
 53
333.43490601
 43
157.20000267
 44
204.59999084
 45
296.4731053999999
 46
-0.0011172
 79
     2
 49
6.629999879999999
 49
-656.3040161099999
 53
180.0
 43
195.59999466
 44
183.79999161
 45
-0.0000000000000363
 46
-296.47199631
 79
     2
 49
8.89400005
 49
-287.57799149
 53
165.96380615
 43
186.80000305
 44
183.79999161
 45
-296.47214391
 46
-0.00122822
 79
     2
 49
12.2239995
 49
-1210.16403198
 53
146.30990601
 43
175.0
 44
186.80000305
 45
-592.9449951399999
 46
296.47367579
 79
     2
 49
10.69000006
 49
-1058.25798035
 53
116.56500244
 43
166.00000381
 44
192.80000687
 45
-296.47195758
 46
296.47335758
 79
     2
 49
6.629999879999999
 49
-656.3040161099999
 53
90.0
 43
162.99999237
 44
198.6000061
 45
-296.47199631
 46
0.0000000000000182
 79
     2
 49
5.92999995
 49
-290.5439949
 53
33.69010162
 43
162.99999237
 44
204.59999084
 45
296.47320692
 46
296.47245153
 79
     2
 49
10.69000006
 49
-1058.25798035
 53
18.43490028
 43
172.00000763
 44
210.40000916
 45
592.9456423699999
 46
296.47124934
 79
     2
 49
9.376000169999999
 49
-928.1539917000001
 53
0.0
 43
180.79999924
 44
213.40000153
 45
0.0
 46
296.47199631
 79
     2
 49
11.85799956
 49
-284.61399078
 53
350.53768921
 43
192.80000687
 44
213.40000153
 45
296.47186526
 46
0.00038989
 79
     2
 49
18.0340004
 49
-1785.33798218
 53
296.56509399
 43
210.40000916
 44
210.40000916
 45
296.47243131
 46
-296.47288385
 79
     2
 49
6.629999879999999
 49
-656.3040161099999
 53
270.0
 43
213.40000153
 44
204.59999084
 45
296.47199631
 46
-0.0000000000000545
 79
     2
 49
11.85799956
 49
-284.61399078
 53
243.43499756
 43
213.40000153
 44
192.80000687
 45
-0.00064346
 46
-296.4731053999999
 79
     2
 49
6.629999879999999
 49
-656.3040161099999
 53
198.43499756
 43
210.40000916
 44
186.80000305
 45
-592.9451390299999
 46
-296.47225602
 79
     2
 49
9.376000169999999
 49
-928.1539917000001
 53
180.0
 43
201.59999847
 44
183.79999161
 45
-0.0000000000000363
 46
-296.47199631
 79
     2
 49
5.92999995
 49
-290.5439949
 53
180.0
 43
154.20000076
 44
204.59999084
 45
-0.0000000000000363
 46
-296.47199631
 79
     2
 49
26.68200016
 49
-269.79000092
 53
165.96380615
 43
127.39999771
 44
204.59999084
 45
-296.47214391
 46
-0.00122822
 79
     2
 49
12.2239995
 49
-1210.16403198
 53
135.0
 43
115.6000042
 44
207.60000229
 45
-296.47290887
 46
0.0000000000000355
 79
     2
 49
4.192000029999999
 49
-415.08201599
 53
90.0
 43
112.60000229
 44
210.40000916
 45
-296.47199631
 46
0.0000000000000182
 79
     2
 49
5.92999995
 49
-290.5439949
 53
63.43489838
 43
112.60000229
 44
216.3999939
 45
0.00115667
 46
296.4731053999999
 79
     2
 49
6.629999879999999
 49
-656.3040161099999
 53
18.43490028
 43
115.6000042
 44
222.39999771
 45
592.9456423699999
 46
296.47124934
 79
     2
 49
9.376000169999999
 49
-928.1539917000001
 53
11.30990028
 43
124.60000038
 44
225.40000916
 45
1185.89014473
 46
296.47280949
 79
     2
 49
15.11800051
 49
-1496.60202026
 53
0.0
 43
139.3999958
 44
228.19999695
 45
0.0
 46
296.47199631
 79
     2
 49
11.85799956
 49
-284.61399078
 53
0.0
 43
151.19999886
 44
228.19999695
 45
0.0
 46
296.47199631
 79
     2
 49
11.85799956
 49
-284.61399078
 53
333.43490601
 43
162.99999237
 44
228.19999695
 45
296.4731053999999
 46
-0.0011172
 79
     2
 49
13.25799942
 49
-649.67399597
 53
296.56509399
 43
175.0
 44
222.39999771
 45
296.47243131
 46
-296.47288385
 79
     2
 49
6.629999879999999
 49
-656.3040161099999
 53
270.0
 43
177.80000687
 44
216.3999939
 45
296.47199631
 46
-0.0000000000000545
 79
     2
 49
2.96400011
 49
-293.50799561
 53
206.56500244
 43
177.80000687
 44
213.40000153
 45
-296.47335758
 46
-296.47195758
 79
     2
 49
6.629999879999999
 49
-656.3040161099999
 53
206.56500244
 43
172.00000763
 44
210.40000916
 45
-296.47335758
 46
-296.47195758
 79
     2
 49
6.629999879999999
 49
-656.3040161099999
 53
206.56500244
 43
166.00000381
 44
207.60000229
 45
-296.47335758
 46
-296.47195758
 79
     2
 49
6.629999879999999
 49
-656.3040161099999
 53
180.0
 43
160.0
 44
204.59999084
 45
-0.0000000000000363
 46
-296.47199631
 79
     2
 49
5.92999995
 49
-290.5439949
 53
63.43489838
 43
94.79999541999999
 44
266.80000305
 45
0.00115667
 46
296.4731053999999
 79
     2
 49
6.629999879999999
 49
-656.3040161099999
 53
45.0
 43
97.79999733
 44
272.80000687
 45
0.0000000000000355
 46
296.47290887
 79
     2
 49
8.385999799999998
 49
-410.8900070199999
 53
0.0
 43
103.80000114
 44
278.6000061
 45
0.0
 46
296.47199631
 79
     2
 49
8.89400005
 49
-287.57799149
 53
341.56509399
 43
112.60000229
 44
278.6000061
 45
296.47174563
 46
-0.00040573
 79
     2
 49
9.376000169999999
 49
-928.1539917000001
 53
270.0
 43
121.59999847
 44
275.79999924
 45
296.47199631
 46
-0.0000000000000545
 79
     2
 49
5.92999995
 49
-290.5439949
 53
243.43499756
 43
121.59999847
 44
269.79999542
 45
-0.00064346
 46
-296.4731053999999
 79
     2
 49
6.629999879999999
 49
-656.3040161099999
 53
213.69009399
 43
118.59999657
 44
263.79999161
 45
-296.4732464
 46
-296.47241205
 79
     2
 49
10.69000006
 49
-1058.25798035
 53
180.0
 43
109.60000038
 44
257.99999237
 45
-0.0000000000000363
 46
-296.47199631
 79
     2
 49
5.92999995
 49
-290.5439949
 53
161.56500244
 43
103.80000114
 44
257.99999237
 45
-296.47174563
 46
0.00087946
 79
     2
 49
9.376000169999999
 49
-928.1539917000001
 53
90.0
 43
94.79999541999999
 44
260.79999924
 45
-296.47199631
 46
0.0000000000000182
 79
     2
 49
5.92999995
 49
-290.5439949
 53
90.0
 43
154.20000076
 44
243.19999695
 45
-296.47199631
 46
0.0000000000000182
 79
     2
 49
5.92999995
 49
-290.5439949
 53
26.56509972
 43
154.20000076
 44
248.99999619
 45
296.47285424
 46
296.47246092
 79
     2
 49
6.629999879999999
 49
-656.3040161099999
 53
11.30990028
 43
160.0
 44
252.00000763
 45
1185.89014473
 46
296.47280949
 79
     2
 49
15.11800051
 49
-1496.60202026
 53
315.0
 43
175.0
 44
255.0
 45
296.47290887
 46
-0.0000000000000711
 79
     2
 49
8.385999799999998
 49
-410.8900070199999
 53
251.56500244
 43
180.79999924
 44
248.99999619
 45
-0.00087946
 46
-296.47174563
 79
     2
 49
9.376000169999999
 49
-928.1539917000001
 53
206.56500244
 43
177.80000687
 44
240.20000458
 45
-296.47335758
 46
-296.47195758
 79
     2
 49
6.629999879999999
 49
-656.3040161099999
 53
180.0
 43
172.00000763
 44
237.19999313
 45
-0.0000000000000363
 46
-296.47199631
 79
     2
 49
8.89400005
 49
-287.57799149
 53
146.30990601
 43
162.99999237
 44
237.19999313
 45
-592.9449951399999
 46
296.47367579
 79
     2
 49
10.69000006
 49
-1058.25798035
 53
26.56509972
 43
124.60000038
 44
246.00000381
 45
296.47285424
 46
296.47246092
 79
     2
 49
6.629999879999999
 49
-656.3040161099999
 53
0.0
 43
130.39999962
 44
248.99999619
 45
0.0
 46
296.47199631
 79
     2
 49
11.85799956
 49
-284.61399078
 53
333.43490601
 43
142.39999771
 44
248.99999619
 45
296.4731053999999
 46
-0.0011172
 79
     2
 49
13.25799942
 49
-649.67399597
 53
296.56509399
 43
154.20000076
 44
243.19999695
 45
296.47243131
 46
-296.47288385
 79
     2
 49
6.629999879999999
 49
-656.3040161099999
 53
270.0
 43
157.20000267
 44
237.19999313
 45
296.47199631
 46
-0.0000000000000545
 79
     2
 49
5.92999995
 49
-290.5439949
 53
206.56500244
 43
157.20000267
 44
231.20000839
 45
-296.47335758
 46
-296.47195758
 79
     2
 49
6.629999879999999
 49
-656.3040161099999
 53
180.0
 43
151.19999886
 44
228.19999695
 45
-0.0000000000000363
 46
-296.47199631
 79
     2
 49
11.85799956
 49
-284.61399078
 53
191.30990601
 43
139.3999958
 44
228.19999695
 45
-1185.89011512
 46
-296.47292792
 79
     2
 49
15.11800051
 49
-1496.60202026
 53
153.43499756
 43
124.60000038
 44
225.40000916
 45
-296.4731053999999
 46
0.00064346
 79
     2
 49
6.629999879999999
 49
-656.3040161099999
 53
90.0
 43
118.59999657
 44
228.19999695
 45
-296.47199631
 46
0.0000000000000182
 79
     2
 49
5.92999995
 49
-290.5439949
 53
63.43489838
 43
118.59999657
 44
234.20000076
 45
0.00115667
 46
296.4731053999999
 79
     2
 49
6.629999879999999
 49
-656.3040161099999
 53
63.43489838
 43
121.59999847
 44
240.20000458
 45
0.00115667
 46
296.4731053999999
 79
     2
 49
6.629999879999999
 49
-656.3040161099999
 53
21.80139923
 43
124.60000038
 44
266.80000305
 45
592.9442207000001
 46
296.47253553
 79
     2
 49
15.96600056
 49
-1580.58807373
 53
0.0
 43
139.3999958
 44
272.80000687
 45
0.0
 46
296.47199631
 79
     2
 49
14.8239994
 49
-281.64800644
 53
348.69009399
 43
154.20000076
 44
272.80000687
 45
296.47346827
 46
0.00092342
 79
     2
 49
15.11800051
 49
-1496.60202026
 53
341.56509399
 43
168.99999619
 44
269.79999542
 45
296.47174563
 46
-0.00040573
 79
     2
 49
9.376000169999999
 49
-928.1539917000001
 53
296.56509399
 43
177.80000687
 44
266.80000305
 45
296.47243131
 46
-296.47288385
 79
     2
 49
6.629999879999999
 49
-656.3040161099999
 53
270.0
 43
180.79999924
 44
260.79999924
 45
296.47199631
 46
-0.0000000000000545
 79
     2
 49
2.96400011
 49
-293.50799561
 53
198.43499756
 43
180.79999924
 44
257.99999237
 45
-592.9451390299999
 46
-296.47225602
 79
     2
 49
9.376000169999999
 49
-928.1539917000001
 53
191.30990601
 43
172.00000763
 44
255.0
 45
-1185.89011512
 46
-296.47292792
 79
     2
 49
15.11800051
 49
-1496.60202026
 53
191.30990601
 43
157.20000267
 44
252.00000763
 45
-1185.89011512
 46
-296.47292792
 79
     2
 49
15.11800051
 49
-1496.60202026
 53
180.0
 43
142.39999771
 44
248.99999619
 45
-0.0000000000000363
 46
-296.47199631
 79
     2
 49
11.85799956
 49
-284.61399078
 53
206.56500244
 43
130.39999962
 44
248.99999619
 45
-296.47335758
 46
-296.47195758
 79
     2
 49
6.629999879999999
 49
-656.3040161099999
 53
180.0
 43
124.60000038
 44
246.00000381
 45
-0.0000000000000363
 46
-296.47199631
 79
     2
 49
8.89400005
 49
-287.57799149
 53
153.43499756
 43
115.6000042
 44
246.00000381
 45
-296.4731053999999
 46
0.00064346
 79
     2
 49
6.629999879999999
 49
-656.3040161099999
 53
90.0
 43
109.60000038
 44
248.99999619
 45
-296.47199631
 46
0.0000000000000182
 79
     2
 49
5.92999995
 49
-290.5439949
 53
45.0
 43
109.60000038
 44
255.0
 45
0.0000000000000355
 46
296.47290887
 79
     2
 49
12.57799983
 49
-406.69799805
 53
26.56509972
 43
118.59999657
 44
263.79999161
 45
296.47285424
 46
296.47246092
 79
     2
 49
6.629999879999999
 49
-656.3040161099999
 53
18.43490028
 43
189.79999542
 44
257.99999237
 45
592.9456423699999
 46
296.47124934
 79
     2
 49
9.376000169999999
 49
-928.1539917000001
 53
341.56509399
 43
198.6000061
 44
260.79999924
 45
296.47174563
 46
-0.00040573
 79
     2
 49
18.75
 49
-918.7779998799999
 53
315.0
 43
216.3999939
 44
255.0
 45
296.47290887
 46
-0.0000000000000711
 79
     2
 49
12.57799983
 49
-406.69799805
 53
303.69009399
 43
225.40000916
 44
246.00000381
 45
296.47241205
 46
-296.4732464
 79
     2
 49
10.69000006
 49
-1058.25798035
 53
270.0
 43
231.20000839
 44
237.19999313
 45
296.47199631
 46
-0.0000000000000545
 79
     2
 49
11.85799956
 49
-284.61399078
 53
270.0
 43
231.20000839
 44
225.40000916
 45
296.47199631
 46
-0.0000000000000545
 79
     2
 49
5.92999995
 49
-290.5439949
 53
225.0
 43
231.20000839
 44
219.40000534
 45
-0.0000000000000533
 46
-296.47290887
 79
     2
 49
4.192000029999999
 49
-415.08201599
 53
225.0
 43
228.19999695
 44
216.3999939
 45
-0.0000000000000533
 46
-296.47290887
 79
     2
 49
8.385999799999998
 49
-410.8900070199999
 53
180.0
 43
222.39999771
 44
210.40000916
 45
-0.0000000000000363
 46
-296.47199631
 79
     2
 49
5.92999995
 49
-290.5439949
 53
170.53770447
 43
216.3999939
 44
210.40000916
 45
-296.47186526
 46
-0.00046884
 79
     2
 49
18.0340004
 49
-1785.33798218
 53
170.53770447
 43
198.6000061
 44
213.40000153
 45
-296.47186526
 46
-0.00046884
 79
     2
 49
18.0340004
 49
-1785.33798218
 53
135.0
 43
180.79999924
 44
216.3999939
 45
-296.47290887
 46
0.0000000000000355
 79
     2
 49
8.385999799999998
 49
-410.8900070199999
 53
90.0
 43
175.0
 44
222.39999771
 45
-296.47199631
 46
0.0000000000000182
 79
     2
 49
8.89400005
 49
-287.57799149
 53
68.19860077
 43
175.0
 44
231.20000839
 45
296.47174398
 46
889.4172475300001
 79
     2
 49
15.96600056
 49
-1580.58807373
 53
53.13010025
 43
180.79999924
 44
246.00000381
 45
592.9460432499999
 46
889.4179918
 79
     2
 49
14.8239994
 49
-1467.53997803
 53
104.03620148
 43
216.3999939
 44
183.79999161
 45
-296.47247163
 46
889.41668139
 79
     2
 49
12.2239995
 49
-1210.16403198
 53
71.56500244
 43
213.40000153
 44
195.59999466
 45
0.00087946
 46
296.47174563
 79
     2
 49
9.376000169999999
 49
-928.1539917000001
 53
45.0
 43
216.3999939
 44
204.59999084
 45
0.0000000000000355
 46
296.47290887
 79
     2
 49
8.385999799999998
 49
-410.8900070199999
 53
33.69010162
 43
222.39999771
 44
210.40000916
 45
296.47320692
 46
296.47245153
 79
     2
 49
10.69000006
 49
-1058.25798035
 53
0.0
 43
231.20000839
 44
216.3999939
 45
0.0
 46
296.47199631
 79
     2
 49
11.85799956
 49
-284.61399078
 53
326.30990601
 43
243.19999695
 44
216.3999939
 45
592.9449951399999
 46
-296.47367579
 79
     2
 49
10.69000006
 49
-1058.25798035
 53
315.0
 43
252.00000763
 44
210.40000916
 45
296.47290887
 46
-0.0000000000000711
 79
     2
 49
16.7719996
 49
-402.5040054299999
 53
300.9637146
 43
263.79999161
 44
198.6000061
 45
592.9444088999999
 46
-889.41922419
 79
     2
 49
17.28800058
 49
-1711.43005371
 53
284.0362854
 43
272.80000687
 44
183.79999161
 45
296.47377439
 46
-889.4162471299999
 79
     2
 49
12.2239995
 49
-1210.16403198
 53
270.0
 43
275.79999924
 44
172.00000763
 45
296.47199631
 46
-0.0000000000000545
 79
     2
 49
8.89400005
 49
-287.57799149
 53
243.43499756
 43
275.79999924
 44
162.99999237
 45
-0.00064346
 46
-296.4731053999999
 79
     2
 49
6.629999879999999
 49
-656.3040161099999
 53
206.56500244
 43
272.80000687
 44
157.20000267
 45
-296.47335758
 46
-296.47195758
 79
     2
 49
6.629999879999999
 49
-656.3040161099999
 53
180.0
 43
266.80000305
 44
154.20000076
 45
-0.0000000000000363
 46
-296.47199631
 79
     2
 49
8.89400005
 49
-287.57799149
 53
135.0
 43
257.99999237
 44
154.20000076
 45
-296.47290887
 46
0.0000000000000355
 79
     2
 49
8.385999799999998
 49
-410.8900070199999
 53
146.30990601
 43
252.00000763
 44
160.0
 45
-592.9449951399999
 46
296.47367579
 79
     2
 49
10.69000006
 49
-1058.25798035
 53
165.96380615
 43
243.19999695
 44
166.00000381
 45
-296.47214391
 46
-0.00122822
 79
     2
 49
12.2239995
 49
-1210.16403198
 53
153.43499756
 43
231.20000839
 44
168.99999619
 45
-296.4731053999999
 46
0.00064346
 79
     2
 49
6.629999879999999
 49
-656.3040161099999
 53
126.86990356
 43
225.40000916
 44
172.00000763
 45
-296.47242366
 46
296.47316064
 79
     2
 49
14.8239994
 49
-1467.53997803
 53
71.56500244
 43
263.79999161
 44
204.59999084
 45
0.00087946
 46
296.47174563
 79
     2
 49
9.376000169999999
 49
-928.1539917000001
 53
26.56509972
 43
266.80000305
 44
213.40000153
 45
296.47285424
 46
296.47246092
 79
     2
 49
6.629999879999999
 49
-656.3040161099999
 53
18.43490028
 43
272.80000687
 44
216.3999939
 45
592.9456423699999
 46
296.47124934
 79
     2
 49
9.376000169999999
 49
-928.1539917000001
 53
0.0
 43
281.59999847
 44
219.40000534
 45
0.0
 46
296.47199631
 79
     2
 49
5.92999995
 49
-290.5439949
 53
333.43490601
 43
287.60000229
 44
219.40000534
 45
296.4731053999999
 46
-0.0011172
 79
     2
 49
6.629999879999999
 49
-656.3040161099999
 53
0.0
 43
293.6000061000001
 44
216.3999939
 45
0.0
 46
296.47199631
 79
     2
 49
2.96400011
 49
-293.50799561
 53
333.43490601
 43
0.0
 44
216.3999939
 45
296.4731053999999
 46
-0.0011172
 79
     2
 49
13.25799942
 49
-649.67399597
 53
296.56509399
 43
11.79999948
 44
210.40000916
 45
296.47243131
 46
-296.47288385
 79
     2
 49
6.629999879999999
 49
-656.3040161099999
 53
251.56500244
 43
14.80000019
 44
204.59999084
 45
-0.00087946
 46
-296.47174563
 79
     2
 49
9.376000169999999
 49
-928.1539917000001
 53
251.56500244
 43
11.79999948
 44
195.59999466
 45
-0.00087946
 46
-296.47174563
 79
     2
 49
9.376000169999999
 49
-928.1539917000001
 53
243.43499756
 43
8.79999995
 44
186.80000305
 45
-0.00064346
 46
-296.4731053999999
 79
     2
 49
6.629999879999999
 49
-656.3040161099999
 53
206.56500244
 43
6.00000024
 44
180.79999924
 45
-296.47335758
 46
-296.47195758
 79
     2
 49
6.629999879999999
 49
-656.3040161099999
 53
225.0
 43
296.3999939
 44
177.80000687
 45
-0.0000000000000533
 46
-296.47290887
 79
     2
 49
4.192000029999999
 49
-415.08201599
 53
135.0
 43
281.59999847
 44
175.0
 45
-296.47290887
 46
0.0000000000000355
 79
     2
 49
8.385999799999998
 49
-410.8900070199999
 53
123.69010162
 43
275.79999924
 44
180.79999924
 45
-296.47245153
 46
296.47320692
 79
     2
 49
10.69000006
 49
-1058.25798035
 53
116.56500244
 43
269.79999542
 44
189.79999542
 45
-296.47195758
 46
296.47335758
 79
     2
 49
6.629999879999999
 49
-656.3040161099999
 53
108.43499756
 43
266.80000305
 44
195.59999466
 45
-296.47225602
 46
592.9451390299999
 79
     2
 49
9.376000169999999
 49
-928.1539917000001
 53
153.43499756
 43
243.19999695
 44
216.3999939
 45
-296.4731053999999
 46
0.00064346
 79
     2
 49
6.629999879999999
 49
-656.3040161099999
 53
123.69010162
 43
237.19999313
 44
219.40000534
 45
-296.47245153
 46
296.47320692
 79
     2
 49
10.69000006
 49
-1058.25798035
 53
90.0
 43
231.20000839
 44
228.19999695
 45
-296.47199631
 46
0.0000000000000182
 79
     2
 49
5.92999995
 49
-290.5439949
 53
45.0
 43
231.20000839
 44
234.20000076
 45
0.0000000000000355
 46
296.47290887
 79
     2
 49
4.192000029999999
 49
-415.08201599
 53
26.56509972
 43
234.20000076
 44
237.19999313
 45
296.47285424
 46
296.47246092
 79
     2
 49
6.629999879999999
 49
-656.3040161099999
 53
345.9637146
 43
240.20000458
 44
240.20000458
 45
296.47214391
 46
0.00075448
 79
     2
 49
12.2239995
 49
-1210.16403198
 53
315.0
 43
252.00000763
 44
237.19999313
 45
296.47290887
 46
-0.0000000000000711
 79
     2
 49
8.385999799999998
 49
-410.8900070199999
 53
270.0
 43
257.99999237
 44
231.20000839
 45
296.47199631
 46
-0.0000000000000545
 79
     2
 49
8.89400005
 49
-287.57799149
 53
243.43499756
 43
257.99999237
 44
222.39999771
 45
-0.00064346
 46
-296.4731053999999
 79
     2
 49
6.629999879999999
 49
-656.3040161099999
 53
206.56500244
 43
255.0
 44
216.3999939
 45
-296.47335758
 46
-296.47195758
 79
     2
 49
6.629999879999999
 49
-656.3040161099999
 53
153.43499756
 43
248.99999619
 44
213.40000153
 45
-296.4731053999999
 46
0.00064346
 79
     2
 49
6.629999879999999
 49
-656.3040161099999
 53
198.43499756
 43
14.80000019
 44
219.40000534
 45
-592.9451390299999
 46
-296.47225602
 79
     2
 49
9.376000169999999
 49
-928.1539917000001
 53
180.0
 43
6.00000024
 44
216.3999939
 45
-0.0000000000000363
 46
-296.47199631
 79
     2
 49
5.92999995
 49
-290.5439949
 53
180.0
 43
296.3999939
 44
216.3999939
 45
-0.0000000000000363
 46
-296.47199631
 79
     2
 49
2.96400011
 49
-293.50799561
 53
153.43499756
 43
293.6000061000001
 44
216.3999939
 45
-296.4731053999999
 46
0.00064346
 79
     2
 49
6.629999879999999
 49
-656.3040161099999
 53
180.0
 43
287.60000229
 44
219.40000534
 45
-0.0000000000000363
 46
-296.47199631
 79
     2
 49
5.92999995
 49
-290.5439949
 53
198.43499756
 43
281.59999847
 44
219.40000534
 45
-592.9451390299999
 46
-296.47225602
 79
     2
 49
9.376000169999999
 49
-928.1539917000001
 53
180.0
 43
272.80000687
 44
216.3999939
 45
-0.0000000000000363
 46
-296.47199631
 79
     2
 49
8.89400005
 49
-287.57799149
 53
135.0
 43
263.79999161
 44
216.3999939
 45
-296.47290887
 46
0.0000000000000355
 79
     2
 49
4.192000029999999
 49
-415.08201599
 53
135.0
 43
260.79999924
 44
219.40000534
 45
-296.47290887
 46
0.0000000000000355
 79
     2
 49
4.192000029999999
 49
-415.08201599
 53
90.0
 43
257.99999237
 44
222.39999771
 45
-296.47199631
 46
0.0000000000000182
 79
     2
 49
2.96400011
 49
-293.50799561
 53
45.0
 43
257.99999237
 44
225.40000916
 45
0.0000000000000355
 46
296.47290887
 79
     2
 49
8.385999799999998
 49
-410.8900070199999
 53
26.56509972
 43
263.79999161
 44
231.20000839
 45
296.47285424
 46
296.47246092
 79
     2
 49
6.629999879999999
 49
-656.3040161099999
 53
14.03619957
 43
269.79999542
 44
234.20000076
 45
889.4166912599999
 46
296.47244202
 79
     2
 49
12.2239995
 49
-1210.16403198
 53
0.0
 43
281.59999847
 44
237.19999313
 45
0.0
 46
296.47199631
 79
     2
 49
8.89400005
 49
-287.57799149
 53
333.43490601
 43
290.59999466
 44
237.19999313
 45
296.4731053999999
 46
-0.0011172
 79
     2
 49
6.629999879999999
 49
-656.3040161099999
 53
0.0
 43
0.0
 44
234.20000076
 45
0.0
 46
296.47199631
 79
     2
 49
2.96400011
 49
-293.50799561
 53
0.0
 43
3.00000012
 44
234.20000076
 45
0.0
 46
296.47199631
 79
     2
 49
2.96400011
 49
-293.50799561
 53
341.56509399
 43
6.00000024
 44
234.20000076
 45
296.47174563
 46
-0.00040573
 79
     2
 49
9.376000169999999
 49
-928.1539917000001
 53
315.0
 43
14.80000019
 44
231.20000839
 45
296.47290887
 46
-0.0000000000000711
 79
     2
 49
4.192000029999999
 49
-415.08201599
 53
270.0
 43
17.79999971
 44
228.19999695
 45
296.47199631
 46
-0.0000000000000545
 79
     2
 49
5.92999995
 49
-290.5439949
 53
225.0
 43
17.79999971
 44
222.39999771
 45
-0.0000000000000533
 46
-296.47290887
 79
     2
 49
4.192000029999999
 49
-415.08201599
 53
161.56500244
 43
281.59999847
 44
237.19999313
 45
-296.47174563
 46
0.00087946
 79
     2
 49
9.376000169999999
 49
-928.1539917000001
 53
135.0
 43
272.80000687
 44
240.20000458
 45
-296.47290887
 46
0.0000000000000355
 79
     2
 49
4.192000029999999
 49
-415.08201599
 53
116.56500244
 43
269.79999542
 44
243.19999695
 45
-296.47195758
 46
296.47335758
 79
     2
 49
6.629999879999999
 49
-656.3040161099999
 53
90.0
 43
266.80000305
 44
248.99999619
 45
-296.47199631
 46
0.0000000000000182
 79
     2
 49
5.92999995
 49
-290.5439949
 53
63.43489838
 43
266.80000305
 44
255.0
 45
0.00115667
 46
296.4731053999999
 79
     2
 49
6.629999879999999
 49
-656.3040161099999
 53
33.69010162
 43
269.79999542
 44
260.79999924
 45
296.47320692
 46
296.47245153
 79
     2
 49
10.69000006
 49
-1058.25798035
 53
0.0
 43
278.6000061
 44
266.80000305
 45
0.0
 46
296.47199631
 79
     2
 49
11.85799956
 49
-284.61399078
 53
333.43490601
 43
290.59999466
 44
266.80000305
 45
296.4731053999999
 46
-0.0011172
 79
     2
 49
6.629999879999999
 49
-656.3040161099999
 53
0.0
 43
0.0
 44
263.79999161
 45
0.0
 46
296.47199631
 79
     2
 49
2.96400011
 49
-293.50799561
 53
326.30990601
 43
3.00000012
 44
263.79999161
 45
592.9449951399999
 46
-296.47367579
 79
     2
 49
10.69000006
 49
-1058.25798035
 53
296.56509399
 43
11.79999948
 44
257.99999237
 45
296.47243131
 46
-296.47288385
 79
     2
 49
6.629999879999999
 49
-656.3040161099999
 53
251.56500244
 43
14.80000019
 44
252.00000763
 45
-0.00087946
 46
-296.47174563
 79
     2
 49
9.376000169999999
 49
-928.1539917000001
 53
225.0
 43
8.79999995
 44
237.19999313
 45
-0.0000000000000533
 46
-296.47290887
 79
     2
 49
4.192000029999999
 49
-415.08201599
 53
180.0
 43
6.00000024
 44
234.20000076
 45
-0.0000000000000363
 46
-296.47199631
 79
     2
 49
2.96400011
 49
-293.50799561
 53
153.43499756
 43
296.3999939
 44
234.20000076
 45
-296.4731053999999
 46
0.00064346
 79
     2
 49
6.629999879999999
 49
-656.3040161099999
 53
180.0
 43
3.00000012
 44
234.20000076
 45
-0.0000000000000363
 46
-296.47199631
 79
     2
 49
2.96400011
 49
-293.50799561
 53
180.0
 43
290.59999466
 44
237.19999313
 45
-0.0000000000000363
 46
-296.47199631
 79
     2
 49
8.89400005
 49
-287.57799149
 53
90.0
 43
228.19999695
 44
243.19999695
 45
-296.47199631
 46
0.0000000000000182
 79
     2
 49
2.96400011
 49
-293.50799561
 53
45.0
 43
228.19999695
 44
246.00000381
 45
0.0000000000000355
 46
296.47290887
 79
     2
 49
4.192000029999999
 49
-415.08201599
 53
18.43490028
 43
231.20000839
 44
248.99999619
 45
592.9456423699999
 46
296.47124934
 79
     2
 49
9.376000169999999
 49
-928.1539917000001
 53
345.9637146
 43
240.20000458
 44
252.00000763
 45
296.47214391
 46
0.00075448
 79
     2
 49
12.2239995
 49
-1210.16403198
 53
0.0
 43
252.00000763
 44
248.99999619
 45
0.0
 46
296.47199631
 79
     2
 49
14.8239994
 49
-281.64800644
 53
296.56509399
 43
266.80000305
 44
248.99999619
 45
296.47243131
 46
-296.47288385
 79
     2
 49
6.629999879999999
 49
-656.3040161099999
 53
270.0
 43
269.79999542
 44
243.19999695
 45
296.47199631
 46
-0.0000000000000545
 79
     2
 49
2.96400011
 49
-293.50799561
 53
225.0
 43
269.79999542
 44
240.20000458
 45
-0.0000000000000533
 46
-296.47290887
 79
     2
 49
4.192000029999999
 49
-415.08201599
 53
180.0
 43
266.80000305
 44
237.19999313
 45
-0.0000000000000363
 46
-296.47199631
 79
     2
 49
14.8239994
 49
-281.64800644
 53
165.96380615
 43
252.00000763
 44
237.19999313
 45
-296.47214391
 46
-0.00122822
 79
     2
 49
12.2239995
 49
-1210.16403198
 53
206.56500244
 43
240.20000458
 44
240.20000458
 45
-296.47335758
 46
-296.47195758
 79
     2
 49
6.629999879999999
 49
-656.3040161099999
 53
135.0
 43
234.20000076
 44
237.19999313
 45
-296.47290887
 46
0.0000000000000355
 79
     2
 49
4.192000029999999
 49
-415.08201599
 53
135.0
 43
231.20000839
 44
240.20000458
 45
-296.47290887
 46
0.0000000000000355
 79
     2
 49
4.192000029999999
 49
-415.08201599
 53
180.0
 43
160.0
 44
284.5999908399999
 45
-0.0000000000000363
 46
-296.47199631
 79
     2
 49
2.96400011
 49
-293.50799561
 53
225.0
 43
157.20000267
 44
284.5999908399999
 45
-0.0000000000000533
 46
-296.47290887
 79
     2
 49
4.192000029999999
 49
-415.08201599
 53
270.0
 43
154.20000076
 44
281.59999847
 45
296.47199631
 46
-0.0000000000000545
 79
     2
 49
2.96400011
 49
-293.50799561
 53
270.0
 43
154.20000076
 44
278.6000061
 45
296.47199631
 46
-0.0000000000000545
 79
     2
 49
2.96400011
 49
-293.50799561
 53
315.0
 43
154.20000076
 44
275.79999924
 45
296.47290887
 46
-0.0000000000000711
 79
     2
 49
4.192000029999999
 49
-415.08201599
 53
0.0
 43
157.20000267
 44
272.80000687
 45
0.0
 46
296.47199631
 79
     2
 49
2.96400011
 49
-293.50799561
 53
0.0
 43
160.0
 44
272.80000687
 45
0.0
 46
296.47199631
 79
     2
 49
2.96400011
 49
-293.50799561
 53
333.43490601
 43
162.99999237
 44
272.80000687
 45
296.4731053999999
 46
-0.0011172
 79
     2
 49
6.629999879999999
 49
-656.3040161099999
 53
0.0
 43
168.99999619
 44
269.79999542
 45
0.0
 46
296.47199631
 79
     2
 49
2.96400011
 49
-293.50799561
 53
0.0
 43
172.00000763
 44
269.79999542
 45
0.0
 46
296.47199631
 79
     2
 49
2.96400011
 49
-293.50799561
 53
45.0
 43
175.0
 44
269.79999542
 45
0.0000000000000355
 46
296.47290887
 79
     2
 49
4.192000029999999
 49
-415.08201599
 53
63.43489838
 43
177.80000687
 44
272.80000687
 45
0.00115667
 46
296.4731053999999
 79
     2
 49
6.629999879999999
 49
-656.3040161099999
 53
135.0
 43
180.79999924
 44
278.6000061
 45
-296.47290887
 46
0.0000000000000355
 79
     2
 49
4.192000029999999
 49
-415.08201599
 53
180.0
 43
177.80000687
 44
281.59999847
 45
-0.0000000000000363
 46
-296.47199631
 79
     2
 49
2.96400011
 49
-293.50799561
 53
90.0
 43
195.59999466
 44
287.60000229
 45
-296.47199631
 46
0.0000000000000182
 79
     2
 49
2.96400011
 49
-293.50799561
 53
135.0
 43
195.59999466
 44
290.59999466
 45
-296.47290887
 46
0.0000000000000355
 79
     2
 49
4.192000029999999
 49
-415.08201599
 53
165.96380615
 43
192.80000687
 44
293.6000061000001
 45
-296.47214391
 46
-0.00122822
 79
     2
 49
12.2239995
 49
-1210.16403198
 53
225.0
 43
160.0
 44
296.3999939
 45
-0.0000000000000533
 46
-296.47290887
 79
     2
 49
4.192000029999999
 49
-415.08201599
 53
270.0
 43
157.20000267
 44
293.6000061000001
 45
296.47199631
 46
-0.0000000000000545
 79
     2
 49
2.96400011
 49
-293.50799561
 53
270.0
 43
157.20000267
 44
290.59999466
 45
296.47199631
 46
-0.0000000000000545
 79
     2
 49
2.96400011
 49
-293.50799561
 53
315.0
 43
157.20000267
 44
287.60000229
 45
296.47290887
 46
-0.0000000000000711
 79
     2
 49
4.192000029999999
 49
-415.08201599
 53
0.0
 43
160.0
 44
284.5999908399999
 45
0.0
 46
296.47199631
 79
     2
 49
8.89400005
 49
-287.57799149
 53
341.56509399
 43
168.99999619
 44
284.5999908399999
 45
296.47174563
 46
-0.00040573
 79
     2
 49
9.376000169999999
 49
-928.1539917000001
 53
0.0
 43
177.80000687
 44
281.59999847
 45
0.0
 46
296.47199631
 79
     2
 49
5.92999995
 49
-290.5439949
 53
26.56509972
 43
183.79999161
 44
281.59999847
 45
296.47285424
 46
296.47246092
 79
     2
 49
6.629999879999999
 49
-656.3040161099999
 53
45.0
 43
263.79999161
 44
272.80000687
 45
0.0000000000000355
 46
296.47290887
 79
     2
 49
4.192000029999999
 49
-415.08201599
 53
206.56500244
 43
263.79999161
 44
272.80000687
 45
-296.47335758
 46
-296.47195758
 79
     2
 49
6.629999879999999
 49
-656.3040161099999
 53
206.56500244
 43
257.99999237
 44
269.79999542
 45
-296.47335758
 46
-296.47195758
 79
     2
 49
6.629999879999999
 49
-656.3040161099999
 53
206.56500244
 43
252.00000763
 44
266.80000305
 45
-296.47335758
 46
-296.47195758
 79
     2
 49
6.629999879999999
 49
-656.3040161099999
 53
206.56500244
 43
246.00000381
 44
263.79999161
 45
-296.47335758
 46
-296.47195758
 79
     2
 49
6.629999879999999
 49
-656.3040161099999
 53
243.43499756
 43
240.20000458
 44
260.79999924
 45
-0.00064346
 46
-296.4731053999999
 79
     2
 49
6.629999879999999
 49
-656.3040161099999
 53
225.0
 43
237.19999313
 44
255.0
 45
-0.0000000000000533
 46
-296.47290887
 79
     2
 49
4.192000029999999
 49
-415.08201599
 53
225.0
 43
234.20000076
 44
252.00000763
 45
-0.0000000000000533
 46
-296.47290887
 79
     2
 49
4.192000029999999
 49
-415.08201599
 53
180.0
 43
231.20000839
 44
248.99999619
 45
-0.0000000000000363
 46
-296.47199631
 79
     2
 49
5.92999995
 49
-290.5439949
 53
135.0
 43
225.40000916
 44
248.99999619
 45
-296.47290887
 46
0.0000000000000355
 79
     2
 49
4.192000029999999
 49
-415.08201599
 53
153.43499756
 43
222.39999771
 44
252.00000763
 45
-296.4731053999999
 46
0.00064346
 79
     2
 49
6.629999879999999
 49
-656.3040161099999
 53
161.56500244
 43
216.3999939
 44
255.0
 45
-296.47174563
 46
0.00087946
 79
     2
 49
9.376000169999999
 49
-928.1539917000001
 53
161.56500244
 43
207.60000229
 44
257.99999237
 45
-296.47174563
 46
0.00087946
 79
     2
 49
9.376000169999999
 49
-928.1539917000001
 53
198.43499756
 43
198.6000061
 44
260.79999924
 45
-592.9451390299999
 46
-296.47225602
 79
     2
 49
9.376000169999999
 49
-928.1539917000001
 53
153.43499756
 43
189.79999542
 44
257.99999237
 45
-296.4731053999999
 46
0.00064346
 79
     2
 49
6.629999879999999
 49
-656.3040161099999
 53
135.0
 43
183.79999161
 44
260.79999924
 45
-296.47290887
 46
0.0000000000000355
 79
     2
 49
4.192000029999999
 49
-415.08201599
 53
116.56500244
 43
180.79999924
 44
263.79999161
 45
-296.47195758
 46
296.47335758
 79
     2
 49
6.629999879999999
 49
-656.3040161099999
 53
90.0
 43
177.80000687
 44
269.79999542
 45
-296.47199631
 46
0.0000000000000182
 79
     2
 49
2.96400011
 49
-293.50799561
 53
63.43489838
 43
177.80000687
 44
272.80000687
 45
0.00115667
 46
296.4731053999999
 79
     2
 49
6.629999879999999
 49
-656.3040161099999
 53
45.0
 43
180.79999924
 44
278.6000061
 45
0.0000000000000355
 46
296.47290887
 79
     2
 49
4.192000029999999
 49
-415.08201599
 53
18.43490028
 43
183.79999161
 44
281.59999847
 45
592.9456423699999
 46
296.47124934
 79
     2
 49
9.376000169999999
 49
-928.1539917000001
 53
26.56509972
 43
192.80000687
 44
284.5999908399999
 45
296.47285424
 46
296.47246092
 79
     2
 49
6.629999879999999
 49
-656.3040161099999
 53
33.69010162
 43
198.6000061
 44
287.60000229
 45
296.47320692
 46
296.47245153
 79
     2
 49
10.69000006
 49
-1058.25798035
 53
45.0
 43
207.60000229
 44
293.6000061000001
 45
0.0000000000000355
 46
296.47290887
 79
     2
 49
4.192000029999999
 49
-415.08201599
 53
63.43489838
 43
210.40000916
 44
0.0
 45
0.00115667
 46
296.4731053999999
 79
     2
 49
6.629999879999999
 49
-656.3040161099999
 53
45.0
 43
213.40000153
 44
6.00000024
 45
0.0000000000000355
 46
296.47290887
 79
     2
 49
4.192000029999999
 49
-415.08201599
 53
26.56509972
 43
216.3999939
 44
8.79999995
 45
296.47285424
 46
296.47246092
 79
     2
 49
6.629999879999999
 49
-656.3040161099999
 53
26.56509972
 43
222.39999771
 44
11.79999948
 45
296.47285424
 46
296.47246092
 79
     2
 49
6.629999879999999
 49
-656.3040161099999
 53
345.9637146
 43
228.19999695
 44
14.80000019
 45
296.47214391
 46
0.00075448
 79
     2
 49
12.2239995
 49
-1210.16403198
 53
341.56509399
 43
240.20000458
 44
11.79999948
 45
296.47174563
 46
-0.00040573
 79
     2
 49
9.376000169999999
 49
-928.1539917000001
 53
326.30990601
 43
248.99999619
 44
8.79999995
 45
592.9449951399999
 46
-296.47367579
 79
     2
 49
10.69000006
 49
-1058.25798035
 53
315.0
 43
257.99999237
 44
3.00000012
 45
296.47290887
 46
-0.0000000000000711
 79
     2
 49
4.192000029999999
 49
-415.08201599
 53
315.0
 43
260.79999924
 44
296.3999939
 45
296.47290887
 46
-0.0000000000000711
 79
     2
 49
4.192000029999999
 49
-415.08201599
 53
296.56509399
 43
263.79999161
 44
293.6000061000001
 45
296.47243131
 46
-296.47288385
 79
     2
 49
6.629999879999999
 49
-656.3040161099999
 53
270.0
 43
266.80000305
 44
287.60000229
 45
296.47199631
 46
-0.0000000000000545
 79
     2
 49
5.92999995
 49
-290.5439949
 53
270.0
 43
266.80000305
 44
281.59999847
 45
296.47199631
 46
-0.0000000000000545
 79
     2
 49
5.92999995
 49
-290.5439949
 47
0.775229
 98
        1
 10
0.0
 20
0.0
  0
LWPOLYLINE
  5
C2
102
{ACAD_REACTORS
330
C3
102
}
330
5D
100
AcDbEntity
  8
Ech.1_5
  6
Continuous
 62
     9
370
    -3
100
AcDbPolyline
 90
        8
 70
     1
 43
0.0
 38
2500.0
 39
-2500.0
 10
35405.98887042
 20
10378.76630395
 10
35405.98887042
 20
10550.35481073
 10
35324.76297051
 20
10531.23201156
 10
35306.34645876
 20
10495.88630815
 10
35310.71152059999
 20
10534.64100651
 10
35306.3670237
 20
10526.89136634
 10
35205.98853355
 20
10503.19954993
 10
35205.98853355
 20
10378.76630395
  0
HATCH
  5
C3
330
5D
100
AcDbEntity
  8
Ech.1_5
  6
Continuous
 62
     9
100
AcDbHatch
 10
0.0
 20
0.0
 30
0.0
210
0.0
220
0.0
230
1.0
  2
AR-CONC
 70
     0
 71
     1
 91
        1
 92
        7
 72
     0
 73
     1
 93
        7
 10
35205.98853355
 20
10378.76630395
 10
35405.98887042
 20
10378.76630395
 10
35405.98887042
 20
10550.35481073
 10
35324.76297051
 20
10531.23201156
 10
35306.34645876
 20
10495.88630815001
 10
35309.93346563606
 20
10527.73313520362
 10
35205.98853355
 20
10503.19954993
 97
        1
330
C2
 75
     0
 76
     2
 52
45.0
 41
0.11811097
 77
     0
 78
    13
 53
50.0
 43
0.0
 44
0.0
 45
-18.84283637
 46
1.648534429999999
 79
     2
 49
1.97029307
 49
-21.67322338
 53
355.0
 43
0.0
 44
0.0
 45
-3.645077559999999
 46
19.76051824
 79
     2
 49
1.576233769999999
 49
-17.3385787
 53
100.45140076
 43
1.570235679999999
 44
-0.13737749
 45
-15.19777228
 46
-18.11197244
 79
     2
 49
1.67449124
 49
-18.41940522
 53
46.18420029
 43
0.0
 44
5.25411576
 45
-28.03703353
 46
4.34827878
 79
     2
 49
2.95543872
 49
-32.50983238
 53
96.63559723
 43
2.336418849999999
 44
4.891756919999999
 45
-24.55412615
 46
-25.59063404
 79
     2
 49
2.511736969999999
 49
-27.62910426
 53
351.1842041
 43
0.0
 44
5.25411576
 45
24.55410288
 46
25.59065715
 79
     2
 49
2.364352489999999
 49
-26.00786805
 53
21.0
 43
2.627056989999999
 44
3.94058615
 45
-15.68109068
 46
10.57702905
 79
     2
 49
1.97029307
 49
-21.67322338
 53
326.0
 43
2.627056989999999
 44
3.94058615
 45
6.392032679999999
 46
19.05010734
 79
     2
 49
1.576233769999999
 49
-17.3385787
 53
71.45140076
 43
3.933813569999999
 44
3.059165549999999
 45
-22.07312962
 46
-8.473061819999999
 79
     2
 49
1.67449124
 49
-18.41940522
 53
37.5
 43
0.0
 44
0.0
 45
0.31944534
 46
8.74531245
 79
     6
 49
0.01875
 49
-17.12841332
 49
0.01875
 49
-17.60128498
 49
0.01875
 49
-17.40425348
 53
7.499999999999999
 43
0.0
 44
0.0
 45
6.91098818
 46
10.3614222
 79
     6
 49
0.01875
 49
-10.03535807
 49
0.01875
 49
-16.7343539
 49
0.01875
 49
-6.633320599999999
 53
-32.5
 43
-5.858338329999999
 44
0.0
 45
14.02382061
 46
-0.59253003
 79
     6
 49
0.01875
 49
-6.56764314
 49
0.01875
 49
-20.49104869
 49
0.01875
 49
-27.19004452
 53
-42.5
 43
-8.485395309999999
 44
0.0
 45
15.32063571
 46
2.629815419999999
 79
     6
 49
0.01875
 49
-8.537936209999999
 49
0.01875
 49
-13.60815793
 49
0.01875
 49
-19.30887222
 47
0.775229
 98
        1
 10
0.0
 20
0.0
  0
LWPOLYLINE
  5
C4
102
{ACAD_REACTORS
330
C5
102
}
330
5D
100
AcDbEntity
  8
Ech.1_5
  6
Continuous
 62
     9
370
    -3
100
AcDbPolyline
 90
        4
 70
     1
 43
0.0
 10
35105.98853355
 20
10479.63493834
 10
35105.98853355
 20
10378.76630395
 10
35205.98853355
 20
10378.76630395
 10
35205.98853355
 20
10503.19954993
  0
HATCH
  5
C5
330
5D
100
AcDbEntity
  8
Ech.1_5
  6
Continuous
 62
     9
100
AcDbHatch
 10
0.0
 20
0.0
 30
0.0
210
0.0
220
0.0
230
1.0
  2
ANSI31
 70
     0
 71
     1
 91
        1
 92
        7
 72
     0
 73
     1
 93
        4
 10
35105.98853355
 20
10378.76630395
 10
35205.98853355
 20
10378.76630395
 10
35205.98853355
 20
10503.19954993
 10
35105.98853355
 20
10479.63493834
 97
        1
330
C4
 75
     0
 76
     2
 52
5.0
 41
6.299252099999999
 77
     0
 78
     1
 53
50.0
 43
0.0
 44
0.0
 45
15.32088886
 46
-12.85575219
 79
     0
 47
0.775229
 98
        1
 10
0.0
 20
0.0
  0
LWPOLYLINE
  5
C6
102
{ACAD_REACTORS
330
C7
102
}
330
5D
100
AcDbEntity
  8
Ech.1_5
  6
Continuous
 62
     9
370
    -3
100
AcDbPolyline
 90
        4
 70
     1
 43
0.0
 10
35505.98882285
 20
10378.7661883
 10
35505.98882285
 20
10573.89753551
 10
35405.98882285
 20
10550.35884584
 10
35405.98882285
 20
10378.76630395
  0
HATCH
  5
C7
330
5D
100
AcDbEntity
  8
Ech.1_5
  6
Continuous
 62
     9
100
AcDbHatch
 10
0.0
 20
0.0
 30
0.0
210
0.0
220
0.0
230
1.0
  2
ANSI31
 70
     0
 71
     1
 91
        1
 92
        7
 72
     0
 73
     1
 93
        4
 10
35405.98882285
 20
10378.76630395
 10
35505.98882285
 20
10378.7661883
 10
35505.98882285
 20
10573.89753551
 10
35405.98882285
 20
10550.35884584
 97
        1
330
C6
 75
     0
 76
     2
 52
5.0
 41
6.299252099999999
 77
     0
 78
     1
 53
50.0
 43
0.0
 44
0.0
 45
15.32088886
 46
-12.85575219
 79
     0
 47
0.775229
 98
        1
 10
0.0
 20
0.0
  0
LWPOLYLINE
  5
C8
330
5D
100
AcDbEntity
  8
Ech.1_5
  6
Continuous
 62
     7
370
    -3
100
AcDbPolyline
 90
        4
 70
     0
 43
0.0
 10
35353.48870199
 20
10874.04717855
 10
35258.48870199
 20
10829.04717855
 10
35258.48870199
 20
10874.04717855
 10
35353.48870199
 20
10829.04717855
  0
LWPOLYLINE
  5
C9
330
5D
100
AcDbEntity
  8
Ech.1_5
 62
     7
100
AcDbPolyline
 90
        6
 70
     0
 43
0.0
 10
35391.49011718
 20
10988.71203614
 10
35394.48870197
 20
10988.71196722
 42
-0.41421356
 10
35404.48870197001
 20
10978.71196722
 10
35404.48870197001
 20
10923.04719391
 10
35391.48870199
 20
10923.04719157
 10
35391.48870199
 20
10988.71196488
  0
LWPOLYLINE
  5
CA
330
5D
100
AcDbEntity
  8
Ech.1_5
  6
Continuous
 62
     9
370
    -3
100
AcDbPolyline
 90
        4
 70
     1
 43
0.0
 10
35721.26757799
 20
10909.04719157
 10
35721.26756628001
 20
10923.04719157
 10
35401.48873478
 20
10923.04719157
 10
35401.48873478
 20
10909.04719157
  0
HATCH
  5
CB
330
5D
100
AcDbEntity
  8
Ech.1_5
  6
Continuous
 62
     9
100
AcDbHatch
 10
0.0
 20
0.0
 30
0.0
210
0.0
220
0.0
230
1.0
  2
ANSI31
 70
     0
 71
     0
 91
        1
 92
        7
 72
     0
 73
     1
 93
        4
 10
35721.26757799
 20
10909.04719157
 10
35721.26756628001
 20
10923.04719157
 10
35401.48873478
 20
10923.04719157
 10
35401.48873478
 20
10909.04719157
 97
        0
 75
     0
 76
     2
 52
90.0
 41
3.14962605
 77
     0
 78
     1
 53
-45.0
 43
0.0
 44
0.0
 45
7.071067809999999
 46
7.071067809999999
 79
     0
 47
0.775229
 98
        1
 10
0.0
 20
0.0
  0
LWPOLYLINE
  5
CC
330
5D
100
AcDbEntity
  8
Ech.1_5
 62
     7
100
AcDbPolyline
 90
        6
 70
     0
 43
0.0
 10
35196.4872868
 20
10988.71202312
 10
35193.48870199999
 20
10988.71195419
 42
0.41421356
 10
35183.488702
 20
10978.71195419
 10
35183.488702
 20
10923.04718088
 10
35196.48870199
 20
10923.04717855
 10
35196.48870199
 20
10988.71195186
  0
LWPOLYLINE
  5
CD
330
5D
100
AcDbEntity
  8
Ech.1_5
  6
Continuous
 62
     9
370
    -3
100
AcDbPolyline
 90
        4
 70
     1
 43
0.0
 10
34881.6025757
 20
10909.04717855
 10
34881.60258742
 20
10923.04717855
 10
35186.38141892
 20
10923.04717855
 10
35186.38141892
 20
10909.04717855
  0
HATCH
  5
CE
330
5D
100
AcDbEntity
  8
Ech.1_5
  6
Continuous
 62
     9
100
AcDbHatch
 10
0.0
 20
0.0
 30
0.0
210
0.0
220
0.0
230
1.0
  2
ANSI31
 70
     0
 71
     0
 91
        1
 92
        7
 72
     0
 73
     1
 93
        4
 10
34881.6025757
 20
10909.04717855
 10
34881.60258742
 20
10923.04717855
 10
35186.38141892
 20
10923.04717855
 10
35186.38141892
 20
10909.04717855
 97
        0
 75
     0
 76
     2
 52
90.0
 41
3.14962605
 77
     0
 78
     1
 53
-45.0
 43
0.0
 44
0.0
 45
7.071067809999999
 46
7.071067809999999
 79
     0
 47
0.775229
 98
        1
 10
0.0
 20
0.0
  0
LWPOLYLINE
  5
CF
330
5D
100
AcDbEntity
  8
Ech.1_5
 62
     7
100
AcDbPolyline
 90
        5
 70
     0
 43
0.0
 10
34964.45510607001
 20
11321.19486989
 10
35098.88388505
 20
11321.19486989
 10
35098.88388505
 20
11264.47191108
 10
34964.45510607001
 20
11264.47191108
 10
34964.45510607001
 20
11321.19486989
  0
LWPOLYLINE
  5
D0
330
5D
100
AcDbEntity
  8
Ech.1_5
 62
     7
100
AcDbPolyline
 90
        5
 70
     0
 43
0.0
 10
34982.73515185
 20
11287.53805876
 10
35032.73515185
 20
11287.53805876
 10
35032.73515185
 20
11294.9531963
 10
34982.73515185
 20
11294.9531963
 10
34982.73515185
 20
11287.53805876
  0
LWPOLYLINE
  5
D1
330
5D
100
AcDbEntity
  8
Ech.1_5
 62
     7
100
AcDbPolyline
 90
        5
 70
     0
 43
0.0
 10
35032.73515185
 20
11287.53805876
 10
35082.73515185
 20
11287.53805876
 10
35082.73515185
 20
11294.9531963
 10
35032.73515185
 20
11294.9531963
 10
35032.73515185
 20
11287.53805876
  0
LWPOLYLINE
  5
D2
330
5D
100
AcDbEntity
  8
Ech.1_5
  6
Continuous
 62
     7
370
    -3
100
AcDbPolyline
 90
        4
 70
     1
 43
0.0
 10
35209.48870199
 20
11359.04695332
 10
35196.48870199
 20
11359.04695332
 10
35196.48870199
 20
10839.04716553
 10
35209.48870199
 20
10839.04716553
  0
HATCH
  5
D3
330
5D
100
AcDbEntity
  8
Ech.1_5
  6
Continuous
 62
     7
100
AcDbHatch
 10
0.0
 20
0.0
 30
0.0
210
0.0
220
0.0
230
1.0
  2
DOTS2
 70
     0
 71
     0
 91
        1
 92
        7
 72
     0
 73
     1
 93
        4
 10
35209.48870199
 20
11359.04695332
 10
35196.48870199
 20
11359.04695332
 10
35196.48870199
 20
10839.04716553
 10
35209.48870199
 20
10839.04716553
 97
        0
 75
     0
 76
     2
 52
0.0
 41
4.72440952
 77
     0
 78
     1
 53
0.0
 43
0.0
 44
0.0
 45
3.75
 46
3.535
 79
     2
 49
0.0
 49
-3.535
 47
0.775229
 98
        1
 10
0.0
 20
0.0
  0
LWPOLYLINE
  5
D4
330
5D
100
AcDbEntity
  8
Ech.1_5
  6
Continuous
 62
     7
370
    -3
100
AcDbPolyline
 90
        4
 70
     1
 43
0.0
 10
35249.48870199
 20
11359.04755803
 10
35258.48870199
 20
11359.04755803
 10
35258.48870199
 20
10839.04719157
 10
35249.48870199
 20
10839.04719157
  0
HATCH
  5
D5
330
5D
100
AcDbEntity
  8
Ech.1_5
  6
Continuous
 62
     7
100
AcDbHatch
 10
0.0
 20
0.0
 30
0.0
210
0.0
220
0.0
230
1.0
  2
CDWK10A
 70
     0
 71
     0
 91
        1
 92
        7
 72
     0
 73
     1
 93
        4
 10
35249.48870199
 20
11359.04755803
 10
35258.48870199
 20
11359.04755803
 10
35258.48870199
 20
10839.04719157
 10
35249.48870199
 20
10839.04719157
 97
        0
 75
     0
 76
     2
 52
0.0
 41
1.0
 77
     0
 78
     3
 53
45.0
 43
0.0
 44
0.0
 45
0.0
 46
42.00000167
 79
     0
 53
45.0
 43
0.0
 44
10.80000043
 45
0.0
 46
42.00000167
 79
     0
 53
45.0
 43
0.0
 44
21.60000086
 45
0.0
 46
42.00000167
 79
     0
 47
0.775229
 98
        1
 10
0.0
 20
0.0
  0
LWPOLYLINE
  5
D6
330
5D
100
AcDbEntity
  8
Ech.1_5
  6
Continuous
 62
     7
370
    -3
100
AcDbPolyline
 90
        4
 70
     1
 43
0.0
 10
35391.48870199
 20
11359.04695332
 10
35378.48870199
 20
11359.04695332
 10
35378.48870199
 20
10839.04716553
 10
35391.48870199
 20
10839.04716553
  0
HATCH
  5
D7
330
5D
100
AcDbEntity
  8
Ech.1_5
  6
Continuous
 62
     7
100
AcDbHatch
 10
0.0
 20
0.0
 30
0.0
210
0.0
220
0.0
230
1.0
  2
DOTS2
 70
     0
 71
     0
 91
        1
 92
        7
 72
     0
 73
     1
 93
        4
 10
35391.48870199
 20
11359.04695332
 10
35378.48870199
 20
11359.04695332
 10
35378.48870199
 20
10839.04716553
 10
35391.48870199
 20
10839.04716553
 97
        0
 75
     0
 76
     2
 52
0.0
 41
4.72440952
 77
     0
 78
     1
 53
0.0
 43
0.0
 44
0.0
 45
3.75
 46
3.535
 79
     2
 49
0.0
 49
-3.535
 47
0.775229
 98
        1
 10
0.0
 20
0.0
  0
LINE
  5
D8
330
5D
100
AcDbEntity
  8
Ech.1_5
  6
Continuous
 62
     7
370
    -3
100
AcDbLine
 10
35353.48870199
 20
11314.097813
 30
0.0
 11
35353.48870199
 21
10874.04649643
 31
0.0
  0
LWPOLYLINE
  5
D9
330
5D
100
AcDbEntity
  8
Ech.1_5
  6
Continuous
 62
     7
370
    -3
100
AcDbPolyline
 90
        6
 70
     0
 43
0.0
 10
35176.48870199
 20
11359.04695332
 10
35282.47262645
 20
11359.04783126
 10
35298.95812961
 20
11377.02517967
 10
35284.84818959
 20
11341.06947966
 10
35301.33454367
 20
11359.04783126
 10
35411.48870199
 20
11359.04783126
  0
3DFACE
  5
DA
102
{ACAD_REACTORS
330
DB
102
}
330
5D
100
AcDbEntity
  8
Ech.1_5
  6
Continuous
 62
     9
370
    -3
100
AcDbFace
 10
34881.46876231001
 20
10869.04719157
 30
2500.0
 11
35196.48870199
 21
10869.04719157
 31
2500.0
 12
35196.48870199
 22
10909.04717855
 32
2500.0
 13
34881.46794240001
 23
10909.04717855
 33
2500.0
  0
HATCH
  5
DB
330
5D
100
AcDbEntity
  8
Ech.1_5
  6
Continuous
 62
     9
100
AcDbHatch
 10
0.0
 20
0.0
 30
0.0
210
0.0
220
0.0
230
1.0
  2
AR-CONC
 70
     0
 71
     1
 91
        1
 92
        7
 72
     0
 73
     1
 93
        4
 10
34881.46876231001
 20
10869.04719157
 10
35196.48870199
 20
10869.04719157
 10
35196.48870199
 20
10909.04717855
 10
34881.46794240001
 20
10909.04717855
 97
        1
330
DA
 75
     0
 76
     2
 52
45.0
 41
0.06299252
 77
     0
 78
    13
 53
50.0
 43
0.0
 44
0.0
 45
-10.04951288
 46
0.87921838
 79
     2
 49
1.050822989999999
 49
-11.55905264
 53
355.0
 43
0.0
 44
0.0
 45
-1.944041389999999
 46
10.53894322
 79
     2
 49
0.84065802
 49
-9.24724211
 53
100.45140076
 43
0.83745904
 44
-0.073268
 45
-8.10547867
 46
-9.65971878
 79
     2
 49
0.8930620099999998
 49
-9.82368293
 53
46.18420029
 43
0.0
 44
2.802195109999999
 45
-14.95308477
 46
2.31908205
 79
     2
 49
1.57623401
 49
-17.33857753
 53
96.63559723
 43
1.246090069999999
 44
2.60893706
 45
-13.09553414
 46
-13.64833836
 79
     2
 49
1.33959307
 49
-14.73552249
 53
351.1842041
 43
0.0
 44
2.802195109999999
 45
13.09552173
 46
13.64835069
 79
     2
 49
1.26098802
 49
-13.87086317
 53
21.0
 43
1.401097079999999
 44
2.101645979999999
 45
-8.36324849
 46
5.64108224
 79
     2
 49
1.050822989999999
 49
-11.55905264
 53
326.0
 43
1.401097079999999
 44
2.101645979999999
 45
3.40908414
 46
10.1600574
 79
     2
 49
0.84065802
 49
-9.24724211
 53
71.45140076
 43
2.09803394
 44
1.631554989999999
 45
-11.77233597
 46
-4.51896637
 79
     2
 49
0.8930620099999998
 49
-9.82368293
 53
37.5
 43
0.0
 44
0.0
 45
0.17037085
 46
4.664166709999999
 79
     6
 49
0.01
 49
-9.135153909999999
 49
0.01
 49
-9.38735213
 49
0.01
 49
-9.282268659999999
 53
7.499999999999999
 43
0.0
 44
0.0
 45
3.68586042
 46
5.526091919999999
 79
     6
 49
0.01
 49
-5.35219105
 49
0.01
 49
-8.92498888
 49
0.01
 49
-3.537771039999999
 53
-32.5
 43
-3.124447149999999
 44
0.0
 45
7.479371099999999
 46
-0.31601602
 79
     6
 49
0.01
 49
-3.502743059999999
 49
0.01
 49
-10.92855947
 49
0.01
 49
-14.50135729
 53
-42.5
 43
-4.52554423
 44
0.0
 45
8.17100583
 46
1.402568239999999
 79
     6
 49
0.01
 49
-4.553566049999999
 49
0.01
 49
-7.257684339999999
 49
0.01
 49
-10.29806534
 47
0.775229
 98
        1
 10
0.0
 20
0.0
  0
LWPOLYLINE
  5
E8
330
5D
100
AcDbEntity
  8
Ech.1_5
  6
Continuous
 62
     9
370
    -3
100
AcDbPolyline
 90
        6
 70
     0
 43
0.0
 10
35721.26756628001
 20
10321.0881908
 10
35721.26756628001
 20
10686.41026881
 10
35703.29021787
 20
10702.89577196
 10
35739.24591788
 20
10688.78583195
 10
35721.26756628001
 20
10705.27218603
 10
35721.26742908
 20
10943.04717855
  0
LWPOLYLINE
  5
E9
330
5D
100
AcDbEntity
  8
Ech.1_5
  6
Continuous
 62
     9
370
    -3
100
AcDbPolyline
 90
        6
 70
     0
 43
0.0
 10
34881.46885104
 20
10318.95455632
 10
34881.46885104
 20
10684.27663433
 10
34863.49150263
 20
10700.76213749
 10
34899.44720264
 20
10686.65219747
 10
34881.46885104
 20
10703.13855155
 10
34881.46871384
 20
10940.91354407
  0
LWPOLYLINE
  5
EA
330
5D
100
AcDbEntity
  8
Ech.1_5
  6
Continuous
 62
     7
370
    -3
100
AcDbPolyline
 90
        5
 70
     0
 43
0.0
 10
35353.48870199
 20
10829.04717855
 10
35258.48870199
 20
10829.04717855
 10
35258.48870199
 20
10874.04717855
 10
35353.48870199
 20
10874.04717855
 10
35353.48870199
 20
10829.04717855
  0
3DFACE
  5
EB
102
{ACAD_REACTORS
330
EC
102
}
330
5D
100
AcDbEntity
  8
Ech.1_5
  6
Continuous
 62
     9
370
    -3
100
AcDbFace
 10
35721.50864167
 20
10869.04719157
 30
2500.0
 11
35391.48870199
 21
10869.04719157
 31
2500.0
 12
35391.48870199
 22
10909.04717855
 32
2500.0
 13
35721.50946158
 23
10909.04717855
 33
2500.0
  0
HATCH
  5
EC
330
5D
100
AcDbEntity
  8
Ech.1_5
  6
Continuous
 62
     9
100
AcDbHatch
 10
0.0
 20
0.0
 30
0.0
210
0.0
220
0.0
230
1.0
  2
AR-CONC
 70
     0
 71
     1
 91
        1
 92
        7
 72
     0
 73
     1
 93
        4
 10
35721.50864167
 20
10869.04719157
 10
35391.48870199
 20
10869.04719157
 10
35391.48870199
 20
10909.04717855
 10
35721.50946158
 20
10909.04717855
 97
        1
330
EB
 75
     0
 76
     2
 52
45.0
 41
0.06299252
 77
     0
 78
    13
 53
50.0
 43
0.0
 44
0.0
 45
-10.04951288
 46
0.87921838
 79
     2
 49
1.050822989999999
 49
-11.55905264
 53
355.0
 43
0.0
 44
0.0
 45
-1.944041389999999
 46
10.53894322
 79
     2
 49
0.84065802
 49
-9.24724211
 53
100.45140076
 43
0.83745904
 44
-0.073268
 45
-8.10547867
 46
-9.65971878
 79
     2
 49
0.8930620099999998
 49
-9.82368293
 53
46.18420029
 43
0.0
 44
2.802195109999999
 45
-14.95308477
 46
2.31908205
 79
     2
 49
1.57623401
 49
-17.33857753
 53
96.63559723
 43
1.246090069999999
 44
2.60893706
 45
-13.09553414
 46
-13.64833836
 79
     2
 49
1.33959307
 49
-14.73552249
 53
351.1842041
 43
0.0
 44
2.802195109999999
 45
13.09552173
 46
13.64835069
 79
     2
 49
1.26098802
 49
-13.87086317
 53
21.0
 43
1.401097079999999
 44
2.101645979999999
 45
-8.36324849
 46
5.64108224
 79
     2
 49
1.050822989999999
 49
-11.55905264
 53
326.0
 43
1.401097079999999
 44
2.101645979999999
 45
3.40908414
 46
10.1600574
 79
     2
 49
0.84065802
 49
-9.24724211
 53
71.45140076
 43
2.09803394
 44
1.631554989999999
 45
-11.77233597
 46
-4.51896637
 79
     2
 49
0.8930620099999998
 49
-9.82368293
 53
37.5
 43
0.0
 44
0.0
 45
0.17037085
 46
4.664166709999999
 79
     6
 49
0.01
 49
-9.135153909999999
 49
0.01
 49
-9.38735213
 49
0.01
 49
-9.282268659999999
 53
7.499999999999999
 43
0.0
 44
0.0
 45
3.68586042
 46
5.526091919999999
 79
     6
 49
0.01
 49
-5.35219105
 49
0.01
 49
-8.92498888
 49
0.01
 49
-3.537771039999999
 53
-32.5
 43
-3.124447149999999
 44
0.0
 45
7.479371099999999
 46
-0.31601602
 79
     6
 49
0.01
 49
-3.502743059999999
 49
0.01
 49
-10.92855947
 49
0.01
 49
-14.50135729
 53
-42.5
 43
-4.52554423
 44
0.0
 45
8.17100583
 46
1.402568239999999
 79
     6
 49
0.01
 49
-4.553566049999999
 49
0.01
 49
-7.257684339999999
 49
0.01
 49
-10.29806534
 47
0.775229
 98
        1
 10
0.0
 20
0.0
  0
LWPOLYLINE
  5
ED
330
5D
100
AcDbEntity
  8
Ech.1_5
  6
Continuous
 62
     9
370
    35
100
AcDbPolyline
 90
        4
 70
     0
 43
0.0
 38
2500.0
 10
35171.58690295
 20
10909.04717855
 10
35196.48870199
 20
10909.04717855
 10
35196.48870199
 20
10869.04719157
 10
35171.58690295
 20
10869.04719157
  0
LWPOLYLINE
  5
EE
330
5D
100
AcDbEntity
  8
Ech.1_5
  6
Continuous
 62
     9
370
    -3
100
AcDbPolyline
 90
        6
 70
     0
 43
0.0
 10
35524.36244822001
 20
10583.18144595
 10
35323.40594668001
 20
10535.82665445
 10
35312.13505357
 20
10514.19510715
 10
35316.4581891
 20
10552.57756759
 10
35305.18673371
 20
10531.53336492
 10
35084.03248047
 20
10479.41919067
  0
LWPOLYLINE
  5
EF
102
{ACAD_REACTORS
330
F0
102
}
330
5D
100
AcDbEntity
  8
Ech.1_5
  6
Continuous
 62
     9
370
    -3
100
AcDbPolyline
 90
       10
 70
     1
 43
0.0
 38
2500.0
 39
-2500.0
 10
35394.79718004
 20
10649.04687439
 10
35217.17985088
 20
10649.04687439
 10
35205.98853355
 20
10649.04687439
 10
35205.98853355
 20
10508.15767934
 10
35305.18673371
 20
10531.53336492
 10
35316.4581891
 20
10552.57756759
 10
35312.13505357
 20
10514.19510715
 10
35323.40594668001
 20
10535.82665445
 10
35405.98882285
 20
10555.31306705
 10
35405.98882285
 20
10649.04687439
  0
HATCH
  5
F0
330
5D
100
AcDbEntity
  8
Ech.1_5
  6
Continuous
 62
     9
100
AcDbHatch
 10
0.0
 20
0.0
 30
0.0
210
0.0
220
0.0
230
1.0
  2
AR-CONC
 70
     0
 71
     1
 91
        1
 92
        7
 72
     0
 73
     1
 93
        7
 10
35205.98853355
 20
10508.15767934
 10
35305.18673371
 20
10531.53336492
 10
35316.4581891
 20
10552.57756759
 10
35314.33027663565
 20
10533.68514207712
 10
35405.98882285
 20
10555.31306705
 10
35405.98882285
 20
10649.04687439
 10
35205.98853355
 20
10649.04687439
 97
        1
330
EF
 75
     0
 76
     2
 52
5.0
 41
0.11811097
 77
     0
 78
    13
 53
50.0
 43
0.0
 44
0.0
 45
-18.84283637
 46
1.648534429999999
 79
     2
 49
1.97029307
 49
-21.67322338
 53
355.0
 43
0.0
 44
0.0
 45
-3.645077559999999
 46
19.76051824
 79
     2
 49
1.576233769999999
 49
-17.3385787
 53
100.45140076
 43
1.570235679999999
 44
-0.13737749
 45
-15.19777228
 46
-18.11197244
 79
     2
 49
1.67449124
 49
-18.41940522
 53
46.18420029
 43
0.0
 44
5.25411576
 45
-28.03703353
 46
4.34827878
 79
     2
 49
2.95543872
 49
-32.50983238
 53
96.63559723
 43
2.336418849999999
 44
4.891756919999999
 45
-24.55412615
 46
-25.59063404
 79
     2
 49
2.511736969999999
 49
-27.62910426
 53
351.1842041
 43
0.0
 44
5.25411576
 45
24.55410288
 46
25.59065715
 79
     2
 49
2.364352489999999
 49
-26.00786805
 53
21.0
 43
2.627056989999999
 44
3.94058615
 45
-15.68109068
 46
10.57702905
 79
     2
 49
1.97029307
 49
-21.67322338
 53
326.0
 43
2.627056989999999
 44
3.94058615
 45
6.392032679999999
 46
19.05010734
 79
     2
 49
1.576233769999999
 49
-17.3385787
 53
71.45140076
 43
3.933813569999999
 44
3.059165549999999
 45
-22.07312962
 46
-8.473061819999999
 79
     2
 49
1.67449124
 49
-18.41940522
 53
37.5
 43
0.0
 44
0.0
 45
0.31944534
 46
8.74531245
 79
     6
 49
0.01875
 49
-17.12841332
 49
0.01875
 49
-17.60128498
 49
0.01875
 49
-17.40425348
 53
7.499999999999999
 43
0.0
 44
0.0
 45
6.91098818
 46
10.3614222
 79
     6
 49
0.01875
 49
-10.03535807
 49
0.01875
 49
-16.7343539
 49
0.01875
 49
-6.633320599999999
 53
-32.5
 43
-5.858338329999999
 44
0.0
 45
14.02382061
 46
-0.59253003
 79
     6
 49
0.01875
 49
-6.56764314
 49
0.01875
 49
-20.49104869
 49
0.01875
 49
-27.19004452
 53
-42.5
 43
-8.485395309999999
 44
0.0
 45
15.32063571
 46
2.629815419999999
 79
     6
 49
0.01875
 49
-8.537936209999999
 49
0.01875
 49
-13.60815793
 49
0.01875
 49
-19.30887222
 47
0.775229
 98
        1
 10
0.0
 20
0.0
  0
LWPOLYLINE
  5
F1
330
5D
100
AcDbEntity
  8
Ech.1_5
  6
Continuous
 62
     9
370
    -3
100
AcDbPolyline
 90
        6
 70
     0
 43
0.0
 10
35524.36244822001
 20
10578.22318962
 10
35324.76297051
 20
10531.23201156
 10
35306.34645876
 20
10495.88630815
 10
35310.71152059999
 20
10534.64100651
 10
35306.3670237
 20
10526.89136634
 10
35084.03248047
 20
10474.46107639
  0
LWPOLYLINE
  5
F2
102
{ACAD_REACTORS
330
F3
102
}
330
5D
100
AcDbEntity
  8
Ech.1_5
  6
Continuous
 62
     9
370
    -3
100
AcDbPolyline
 90
        8
 70
     1
 43
0.0
 10
35721.26756628001
 20
10705.27218604
 10
35721.26756628001
 20
10789.04499246
 10
35505.98882285
 20
10789.04661029
 10
35505.98882285
 20
10594.04676848
 10
35721.26756628001
 20
10594.04639589
 10
35721.26756628001
 20
10686.41026881
 10
35703.29021787
 20
10702.89577196
 10
35739.24591788
 20
10688.78583195
  0
HATCH
  5
F3
330
5D
100
AcDbEntity
  8
Ech.1_5
  6
Continuous
 62
     9
100
AcDbHatch
 10
0.0
 20
0.0
 30
0.0
210
0.0
220
0.0
230
1.0
  2
ANSI31
 70
     0
 71
     1
 91
        1
 92
        7
 72
     0
 73
     1
 93
        7
 10
35505.98882284999
 20
10594.04676848
 10
35721.26756628001
 20
10594.04639589
 10
35721.26756628001
 20
10686.41026880999
 10
35703.29021787
 20
10702.89577196
 10
35721.26756628001
 20
10695.84099879376
 10
35721.26756628
 20
10789.04499246
 10
35505.98882285
 20
10789.04661029
 97
        1
330
F2
 75
     0
 76
     2
 52
5.0
 41
6.299252099999999
 77
     0
 78
     1
 53
50.0
 43
0.0
 44
0.0
 45
15.32088886
 46
-12.85575219
 79
     0
 47
0.775229
 98
        1
 10
0.0
 20
0.0
  0
LWPOLYLINE
  5
F4
102
{ACAD_REACTORS
330
F5
102
}
330
5D
100
AcDbEntity
  8
Ech.1_5
  6
Continuous
 62
     9
370
    -3
100
AcDbPolyline
 90
       12
 70
     1
 43
0.0
 10
35105.98853355
 20
10594.04676848
 10
35105.98853355
 20
10484.59320716
 10
35205.98853355
 20
10508.15767934
 10
35205.98853355
 20
10649.04737654
 10
35217.18017636
 20
10649.04687439
 10
35217.18017636
 20
10694.04687439
 10
35239.18017636
 20
10694.04687439
 10
35239.18017636
 20
10739.04687439
 10
35209.18017636
 20
10739.04687439
 10
35140.18017636
 20
10781.04687439
 10
35140.18017636
 20
10789.04686724
 10
35105.98853355
 20
10789.04661029
  0
HATCH
  5
F5
330
5D
100
AcDbEntity
  8
Ech.1_5
  6
Continuous
 62
     9
100
AcDbHatch
 10
0.0
 20
0.0
 30
0.0
210
0.0
220
0.0
230
1.0
  2
ANSI31
 70
     0
 71
     1
 91
        1
 92
        7
 72
     0
 73
     1
 93
       10
 10
35105.98853355
 20
10484.59320716
 10
35205.98853355
 20
10508.15767934
 10
35205.98853355
 20
10649.04737654
 10
35217.18017636
 20
10694.04687439
 10
35239.18017636
 20
10694.04687439
 10
35239.18017636
 20
10739.04687439
 10
35209.18017636
 20
10739.04687439
 10
35127.03749322396
 20
10789.04676847281
 10
35105.98853354999
 20
10789.04661029
 10
35105.98853355
 20
10594.04676848
 97
        1
330
F4
 75
     0
 76
     2
 52
5.0
 41
6.299252099999999
 77
     0
 78
     1
 53
50.0
 43
0.0
 44
0.0
 45
15.32088886
 46
-12.85575219
 79
     0
 47
0.775229
 98
        1
 10
0.0
 20
0.0
  0
LWPOLYLINE
  5
F6
102
{ACAD_REACTORS
330
F7
102
}
330
5D
100
AcDbEntity
  8
Ech.1_5
  6
Continuous
 62
     9
370
    -3
100
AcDbPolyline
 90
        9
 70
     1
 43
0.0
 10
35105.98853355
 20
10607.73370977
 10
35105.98853355
 20
10594.04677191
 10
34881.46880269999
 20
10594.04639589
 10
34881.46880269999
 20
10686.41026881
 10
34863.49150263
 20
10702.89577196
 10
34899.44720264
 20
10688.78583195
 10
34881.46880269999
 20
10705.27223036
 10
34881.46880269999
 20
10789.04499246
 10
35105.98853355
 20
10789.04661947
  0
HATCH
  5
F7
330
5D
100
AcDbEntity
  8
Ech.1_5
  6
Continuous
 62
     9
100
AcDbHatch
 10
0.0
 20
0.0
 30
0.0
210
0.0
220
0.0
230
1.0
  2
ANSI31
 70
     0
 71
     1
 91
        1
 92
        7
 72
     0
 73
     1
 93
        8
 10
34881.46880269999
 20
10594.04639589
 10
35105.98853355
 20
10594.04677191
 10
35105.98853355
 20
10607.73370977
 10
35105.98853354999
 20
10789.04661947
 10
34881.46880269999
 20
10789.04499246
 10
34881.46880269999
 20
10705.27223036
 10
34899.44720264001
 20
10688.78583194999
 10
34881.46880269999
 20
10695.84101776361
 97
        1
330
F6
 75
     0
 76
     2
 52
5.0
 41
6.299252099999999
 77
     0
 78
     1
 53
50.0
 43
0.0
 44
0.0
 45
15.32088886
 46
-12.85575219
 79
     0
 47
0.775229
 98
        1
 10
0.0
 20
0.0
  0
LWPOLYLINE
  5
F8
102
{ACAD_REACTORS
330
F9
102
}
330
5D
100
AcDbEntity
  8
Ech.1_5
  6
Continuous
 62
     9
370
    -3
100
AcDbPolyline
 90
       11
 70
     1
 43
0.0
 10
35405.98882285
 20
10649.04737654
 10
35405.98882285
 20
10555.31306705
 10
35505.98882285
 20
10578.85175673
 10
35505.98882285
 20
10789.04661029
 10
35471.79718004
 20
10789.04686724
 10
35471.79718004
 20
10781.04687439
 10
35402.79718004
 20
10739.04687439
 10
35372.79718004
 20
10739.04687439
 10
35372.79718004
 20
10694.04687439
 10
35394.79718004
 20
10694.04687439
 10
35394.79718004
 20
10649.04687439
  0
HATCH
  5
F9
330
5D
100
AcDbEntity
  8
Ech.1_5
  6
Continuous
 62
     9
100
AcDbHatch
 10
0.0
 20
0.0
 30
0.0
210
0.0
220
0.0
230
1.0
  2
ANSI31
 70
     0
 71
     1
 91
        1
 92
        7
 72
     0
 73
     1
 93
       11
 10
35405.98882285001
 20
10555.31306705
 10
35505.98882285
 20
10578.85175673
 10
35505.98882285
 20
10789.04661029
 10
35471.79718004001
 20
10789.04686724
 10
35471.79718003999
 20
10781.04687439
 10
35402.79718004
 20
10739.04687439
 10
35372.79718004
 20
10739.04687439
 10
35372.79718004
 20
10694.04687439
 10
35394.79718004
 20
10694.04687439
 10
35394.79718004
 20
10649.04687439
 10
35405.98882285
 20
10649.04737654
 97
        1
330
F8
 75
     0
 76
     2
 52
5.0
 41
6.299252099999999
 77
     0
 78
     1
 53
50.0
 43
0.0
 44
0.0
 45
15.32088886
 46
-12.85575219
 79
     0
 47
0.775229
 98
        1
 10
0.0
 20
0.0
  0
LWPOLYLINE
  5
FA
102
{ACAD_REACTORS
330
FB
102
}
330
5D
100
AcDbEntity
  8
Ech.1_5
  6
Continuous
 62
     9
370
    -3
100
AcDbPolyline
 90
       20
 70
     1
 43
0.0
 38
2500.0
 39
-2500.0
 10
35405.98887042
 20
10829.046844
 10
35721.26756628001
 20
10829.04683872
 10
35721.26756628001
 20
10789.04466341
 10
35471.79718004
 20
10789.04686724
 10
35471.79718004
 20
10781.04687439
 10
35402.79718004
 20
10739.04687439
 10
35372.79718004
 20
10739.04687439
 10
35372.79718004
 20
10694.04687439
 10
35394.79718004
 20
10694.04687439
 10
35394.79718004
 20
10649.04687439
 10
35217.17985088
 20
10649.04687439
 10
35217.17985088
 20
10694.04687439
 10
35239.17985088
 20
10694.04687439
 10
35239.17985088
 20
10739.04687439
 10
35209.17985088
 20
10739.04687439
 10
35140.17985088
 20
10781.04687439
 10
35140.17985088
 20
10789.04686724
 10
34881.46880269999
 20
10789.04481795
 10
34881.46880269999
 20
10829.04683839
 10
35115.98834702
 20
10829.046834
  0
HATCH
  5
FB
330
5D
100
AcDbEntity
  8
Ech.1_5
  6
Continuous
 62
     9
100
AcDbHatch
 10
0.0
 20
0.0
 30
0.0
210
0.0
220
0.0
230
1.0
  2
AR-CONC
 70
     0
 71
     1
 91
        1
 92
        7
 72
     0
 73
     1
 93
       20
 10
34881.46880269999
 20
10789.04481795
 10
35140.17985088
 20
10789.04686724
 10
35140.17985088
 20
10781.04687439001
 10
35209.17985088
 20
10739.04687439
 10
35239.17985088
 20
10739.04687439
 10
35239.17985088
 20
10694.04687439
 10
35217.17985088
 20
10694.04687439
 10
35217.17985088001
 20
10649.04687439
 10
35394.79718004
 20
10649.04687439
 10
35394.79718004
 20
10694.04687439
 10
35372.79718004
 20
10694.04687439
 10
35372.79718004
 20
10739.04687439
 10
35402.79718004
 20
10739.04687439
 10
35471.79718004
 20
10781.04687439
 10
35471.79718004
 20
10789.04686724
 10
35721.26756628001
 20
10789.04466341
 10
35721.26756628001
 20
10829.04683872
 10
35405.98887042
 20
10829.046844
 10
35115.98834702
 20
10829.046834
 10
34881.4688027
 20
10829.04683839
 97
        1
330
FA
 75
     0
 76
     2
 52
5.0
 41
0.11811097
 77
     0
 78
    13
 53
50.0
 43
0.0
 44
0.0
 45
-18.84283637
 46
1.648534429999999
 79
     2
 49
1.97029307
 49
-21.67322338
 53
355.0
 43
0.0
 44
0.0
 45
-3.645077559999999
 46
19.76051824
 79
     2
 49
1.576233769999999
 49
-17.3385787
 53
100.45140076
 43
1.570235679999999
 44
-0.13737749
 45
-15.19777228
 46
-18.11197244
 79
     2
 49
1.67449124
 49
-18.41940522
 53
46.18420029
 43
0.0
 44
5.25411576
 45
-28.03703353
 46
4.34827878
 79
     2
 49
2.95543872
 49
-32.50983238
 53
96.63559723
 43
2.336418849999999
 44
4.891756919999999
 45
-24.55412615
 46
-25.59063404
 79
     2
 49
2.511736969999999
 49
-27.62910426
 53
351.1842041
 43
0.0
 44
5.25411576
 45
24.55410288
 46
25.59065715
 79
     2
 49
2.364352489999999
 49
-26.00786805
 53
21.0
 43
2.627056989999999
 44
3.94058615
 45
-15.68109068
 46
10.57702905
 79
     2
 49
1.97029307
 49
-21.67322338
 53
326.0
 43
2.627056989999999
 44
3.94058615
 45
6.392032679999999
 46
19.05010734
 79
     2
 49
1.576233769999999
 49
-17.3385787
 53
71.45140076
 43
3.933813569999999
 44
3.059165549999999
 45
-22.07312962
 46
-8.473061819999999
 79
     2
 49
1.67449124
 49
-18.41940522
 53
37.5
 43
0.0
 44
0.0
 45
0.31944534
 46
8.74531245
 79
     6
 49
0.01875
 49
-17.12841332
 49
0.01875
 49
-17.60128498
 49
0.01875
 49
-17.40425348
 53
7.499999999999999
 43
0.0
 44
0.0
 45
6.91098818
 46
10.3614222
 79
     6
 49
0.01875
 49
-10.03535807
 49
0.01875
 49
-16.7343539
 49
0.01875
 49
-6.633320599999999
 53
-32.5
 43
-5.858338329999999
 44
0.0
 45
14.02382061
 46
-0.59253003
 79
     6
 49
0.01875
 49
-6.56764314
 49
0.01875
 49
-20.49104869
 49
0.01875
 49
-27.19004452
 53
-42.5
 43
-8.485395309999999
 44
0.0
 45
15.32063571
 46
2.629815419999999
 79
     6
 49
0.01875
 49
-8.537936209999999
 49
0.01875
 49
-13.60815793
 49
0.01875
 49
-19.30887222
 47
0.775229
 98
        1
 10
0.0
 20
0.0
  0
LWPOLYLINE
  5
FC
330
5D
100
AcDbEntity
  8
Ech.1_5
  6
Continuous
 62
     9
370
    35
100
AcDbPolyline
 90
        3
 70
     0
 43
0.0
 38
2500.0
 10
35413.43403058
 20
10869.61659022
 10
35398.89327831001
 20
10869.61659022
 10
35398.89327831001
 20
10887.37516616
  0
LWPOLYLINE
  5
FD
330
5D
100
AcDbEntity
  8
Ech.1_5
  6
Continuous
 62
     9
370
    25
100
AcDbPolyline
 90
        5
 70
     0
 43
0.0
 38
2500.0
 10
35414.36813306
 20
10829.57550214
 10
35396.65987407
 20
10829.57550214
 10
35396.65987407
 20
10926.70038449
 10
35394.05507053
 20
10929.65176165
 10
35394.05507053
 20
10950.78934266
  0
LINE
  5
FE
330
5D
100
AcDbEntity
  8
Ech.1_5
  6
Continuous
 62
     9
370
    70
100
AcDbLine
 10
35392.95666088
 20
10926.30082532
 30
2500.0
 11
35392.95666088
 21
10829.374351
 31
2500.0
  0
LWPOLYLINE
  5
FF
330
5D
100
AcDbEntity
  8
Ech.1_5
  6
Continuous
 62
     9
370
    -3
100
AcDbPolyline
 90
       94
 70
     0
 43
0.0
 38
2500.0
 10
35721.50864167
 20
10862.3804661
 42
1.14028181
 10
35708.40235492
 20
10860.65498669
 10
35714.61475199
 20
10837.4390436
 42
-1.303226189999999
 10
35701.73562945
 20
10837.4390436
 10
35707.94802652001
 20
10860.65498669
 42
1.303226189999999
 10
35695.06890397
 20
10860.65498669
 10
35701.28130104
 20
10837.4390436
 42
-1.303226189999999
 10
35688.4021785
 20
10837.4390436
 10
35694.61457556
 20
10860.65498669
 42
1.303226189999999
 10
35681.73545302
 20
10860.65498669
 10
35687.94785009
 20
10837.4390436
 42
-1.303226189999999
 10
35675.06872755001
 20
10837.4390436
 10
35681.28112461
 20
10860.65498669
 42
1.303226189999999
 10
35668.40200207
 20
10860.65498669
 10
35674.61439914
 20
10837.4390436
 42
-1.303226189999999
 10
35661.73527659
 20
10837.4390436
 10
35667.94767366
 20
10860.65498669
 42
1.303226189999999
 10
35655.06855112
 20
10860.65498669
 10
35661.28094819
 20
10837.4390436
 42
-1.303226189999999
 10
35648.40182564
 20
10837.4390436
 10
35654.61422271
 20
10860.65498669
 42
1.303226189999999
 10
35641.73510017
 20
10860.65498669
 10
35647.94749724
 20
10837.4390436
 42
-1.303226189999999
 10
35635.06837469001
 20
10837.4390436
 10
35641.28077176
 20
10860.65498669
 42
1.303226189999999
 10
35628.40164922
 20
10860.65498669
 10
35634.61404629
 20
10837.4390436
 42
-1.303226189999999
 10
35621.73492374
 20
10837.4390436
 10
35627.94732081
 20
10860.65498669
 42
1.303226189999999
 10
35615.06819827
 20
10860.65498669
 10
35621.28059534
 20
10837.4390436
 42
-1.303226189999999
 10
35608.40147279
 20
10837.4390436
 10
35614.61386986
 20
10860.65498669
 42
1.303226189999999
 10
35601.73474732
 20
10860.65498669
 10
35607.94714439
 20
10837.4390436
 42
-1.303226189999999
 10
35595.06802184
 20
10837.4390436
 10
35601.28041891
 20
10860.65498669
 42
1.303226189999999
 10
35588.40129637
 20
10860.65498669
 10
35594.61369344
 20
10837.4390436
 42
-1.303226189999999
 10
35581.73457089
 20
10837.4390436
 10
35587.94696796
 20
10860.65498669
 42
1.303226189999999
 10
35575.06784542
 20
10860.65498669
 10
35581.28024249
 20
10837.4390436
 42
-1.303226189999999
 10
35568.40111994
 20
10837.4390436
 10
35574.61351701
 20
10860.65498669
 42
1.303226189999999
 10
35561.73439447
 20
10860.65498669
 10
35567.94679154
 20
10837.4390436
 42
-1.303226189999999
 10
35555.06766899
 20
10837.4390436
 10
35561.28006606
 20
10860.65498669
 42
1.303226189999999
 10
35548.40094352
 20
10860.65498669
 10
35554.61334059
 20
10837.4390436
 42
-1.303226189999999
 10
35541.73421804
 20
10837.4390436
 10
35547.94661511
 20
10860.65498669
 42
1.303226189999999
 10
35535.06749257
 20
10860.65498669
 10
35541.27988964
 20
10837.4390436
 42
-1.303226189999999
 10
35528.40076709
 20
10837.4390436
 10
35534.61316416
 20
10860.65498669
 42
1.303226189999999
 10
35521.73404162001
 20
10860.65498669
 10
35527.94643868
 20
10837.4390436
 42
-1.303226189999999
 10
35515.06731614
 20
10837.4390436
 10
35521.27971321
 20
10860.65498669
 42
1.303226189999999
 10
35508.40059066
 20
10860.65498669
 10
35514.61298773
 20
10837.4390436
 42
-1.303226189999999
 10
35501.73386519
 20
10837.4390436
 10
35507.94626226
 20
10860.65498669
 42
1.303226189999999
 10
35495.06713971
 20
10860.65498669
 10
35501.27953678
 20
10837.4390436
 42
-1.303226189999999
 10
35488.40041424
 20
10837.4390436
 10
35494.61281131
 20
10860.65498669
 42
1.303226189999999
 10
35481.73368876001
 20
10860.65498669
 10
35487.94608583
 20
10837.4390436
 42
-1.303226189999999
 10
35475.06696329
 20
10837.4390436
 10
35481.27936036
 20
10860.65498669
 42
1.303226189999999
 10
35468.40023781
 20
10860.65498669
 10
35474.61263488
 20
10837.4390436
 42
-1.303226189999999
 10
35461.73351234
 20
10837.4390436
 10
35467.94590941
 20
10860.65498669
 42
1.303226189999999
 10
35455.06678686
 20
10860.65498669
 10
35461.27918393
 20
10837.4390436
 42
-1.303226189999999
 10
35448.40006139
 20
10837.4390436
 10
35454.61245846
 20
10860.65498669
 42
1.303226189999999
 10
35441.73333591
 20
10860.65498669
 10
35447.94573298
 20
10837.4390436
 42
-1.303226189999999
 10
35435.06661044
 20
10837.4390436
 10
35441.27900751
 20
10860.65498669
 42
1.303226189999999
 10
35428.39988496
 20
10860.65498669
 10
35434.61228203
 20
10837.4390436
 42
-1.303226189999999
 10
35421.73315949
 20
10837.4390436
 10
35427.94555656
 20
10860.65498669
 42
1.303226189999999
 10
35415.06643401
 20
10860.65498669
 10
35421.27883108
 20
10837.4390436
 42
-1.303226189999999
 10
35408.39970854
 20
10837.4390436
 10
35414.61210561
 20
10860.65498669
 42
0.57519925
 10
35406.48870199
 20
10868.83103999
  0
LWPOLYLINE
  5
100
330
5D
100
AcDbEntity
  8
Ech.1_5
  6
Continuous
 62
     9
370
    -3
100
AcDbPolyline
 90
       94
 70
     0
 43
0.0
 38
2500.0
 10
35196.48870199
 20
10862.38046604
 42
1.14028181
 10
35183.38241513
 20
10860.65498662
 10
35189.59481225
 20
10837.43904334
 42
-1.303226189999999
 10
35176.71568959999
 20
10837.43904334
 10
35182.92808672
 20
10860.65498662
 42
1.303226189999999
 10
35170.04896407001
 20
10860.65498662
 10
35176.26136119
 20
10837.43904334
 42
-1.303226189999999
 10
35163.38223854
 20
10837.43904334
 10
35169.59463566001
 20
10860.65498662
 42
1.303226189999999
 10
35156.715513
 20
10860.65498662
 10
35162.92791013
 20
10837.43904334
 42
-1.303226189999999
 10
35150.04878747
 20
10837.43904334
 10
35156.26118459999
 20
10860.65498662
 42
1.303226189999999
 10
35143.38206194
 20
10860.65498662
 10
35149.59445906
 20
10837.43904334
 42
-1.303226189999999
 10
35136.71533641
 20
10837.43904334
 10
35142.92773353
 20
10860.65498662
 42
1.303226189999999
 10
35130.04861088
 20
10860.65498662
 10
35136.261008
 20
10837.43904334
 42
-1.303226189999999
 10
35123.38188535
 20
10837.43904334
 10
35129.59428247
 20
10860.65498662
 42
1.303226189999999
 10
35116.71515982
 20
10860.65498662
 10
35122.92755694
 20
10837.43904334
 42
-1.303226189999999
 10
35110.04843429
 20
10837.43904334
 10
35116.26083141
 20
10860.65498662
 42
1.303226189999999
 10
35103.38170876
 20
10860.65498662
 10
35109.59410588
 20
10837.43904334
 42
-1.303226189999999
 10
35096.71498322
 20
10837.43904334
 10
35102.92738035
 20
10860.65498662
 42
1.303226189999999
 10
35090.04825769
 20
10860.65498662
 10
35096.26065481
 20
10837.43904334
 42
-1.303226189999999
 10
35083.38153216
 20
10837.43904334
 10
35089.59392928
 20
10860.65498662
 42
1.303226189999999
 10
35076.71480663
 20
10860.65498662
 10
35082.92720375
 20
10837.43904334
 42
-1.303226189999999
 10
35070.0480811
 20
10837.43904334
 10
35076.26047822
 20
10860.65498662
 42
1.303226189999999
 10
35063.38135557001
 20
10860.65498662
 10
35069.59375269
 20
10837.43904334
 42
-1.303226189999999
 10
35056.71463004
 20
10837.43904334
 10
35062.92702716001
 20
10860.65498662
 42
1.303226189999999
 10
35050.04790451
 20
10860.65498662
 10
35056.26030163
 20
10837.43904334
 42
-1.303226189999999
 10
35043.38117897
 20
10837.43904334
 10
35049.5935761
 20
10860.65498662
 42
1.303226189999999
 10
35036.71445344
 20
10860.65498662
 10
35042.92685056
 20
10837.43904334
 42
-1.303226189999999
 10
35030.04772791
 20
10837.43904334
 10
35036.26012503
 20
10860.65498662
 42
1.303226189999999
 10
35023.38100238
 20
10860.65498662
 10
35029.5933995
 20
10837.43904334
 42
-1.303226189999999
 10
35016.71427685
 20
10837.43904334
 10
35022.92667397
 20
10860.65498662
 42
1.303226189999999
 10
35010.04755132
 20
10860.65498662
 10
35016.25994844
 20
10837.43904334
 42
-1.303226189999999
 10
35003.38082579
 20
10837.43904334
 10
35009.59322291
 20
10860.65498662
 42
1.303226189999999
 10
34996.71410026
 20
10860.65498662
 10
35002.92649738
 20
10837.43904334
 42
-1.303226189999999
 10
34990.04737472
 20
10837.43904334
 10
34996.25977185
 20
10860.65498662
 42
1.303226189999999
 10
34983.38064919
 20
10860.65498662
 10
34989.59304631
 20
10837.43904334
 42
-1.303226189999999
 10
34976.71392366
 20
10837.43904334
 10
34982.92632078
 20
10860.65498662
 42
1.303226189999999
 10
34970.04719813
 20
10860.65498662
 10
34976.25959525
 20
10837.43904334
 42
-1.303226189999999
 10
34963.3804726
 20
10837.43904334
 10
34969.59286972
 20
10860.65498662
 42
1.303226189999999
 10
34956.71374707001
 20
10860.65498662
 10
34962.92614419
 20
10837.43904334
 42
-1.303226189999999
 10
34950.04702154
 20
10837.43904334
 10
34956.25941866001
 20
10860.65498662
 42
1.303226189999999
 10
34943.38029601
 20
10860.65498662
 10
34949.59269313
 20
10837.43904334
 42
-1.303226189999999
 10
34936.71357047
 20
10837.43904334
 10
34942.9259676
 20
10860.65498662
 42
1.303226189999999
 10
34930.04684494
 20
10860.65498662
 10
34936.25924206
 20
10837.43904334
 42
-1.303226189999999
 10
34923.38011941
 20
10837.43904334
 10
34929.59251653
 20
10860.65498662
 42
1.303226189999999
 10
34916.71339388001
 20
10860.65498662
 10
34922.925791
 20
10837.43904334
 42
-1.303226189999999
 10
34910.04666835
 20
10837.43904334
 10
34916.25906547001
 20
10860.65498662
 42
1.303226189999999
 10
34903.37994282
 20
10860.65498662
 10
34909.59233994
 20
10837.43904334
 42
-1.303226189999999
 10
34896.71321729
 20
10837.43904334
 10
34902.92561441
 20
10860.65498662
 42
1.303226189999999
 10
34890.04649176
 20
10860.65498662
 10
34896.25888888
 20
10837.43904334
 42
-1.303226189999999
 10
34883.37976622
 20
10837.43904334
 10
34889.59216335
 20
10860.65498662
 42
0.57519911
 10
34881.46876231001
 20
10868.83104068
  0
LWPOLYLINE
  5
101
330
5D
100
AcDbEntity
  8
Ech.1_5
  6
Continuous
 62
     9
370
    35
100
AcDbPolyline
 90
        3
 70
     0
 43
0.0
 38
2500.0
 10
35173.65020942
 20
10869.61659022
 10
35188.19096169
 20
10869.61659022
 10
35188.19096169
 20
10887.37516616
  0
LWPOLYLINE
  5
102
330
5D
100
AcDbEntity
  8
Ech.1_5
  6
Continuous
 62
     9
370
    25
100
AcDbPolyline
 90
        5
 70
     0
 43
0.0
 38
2500.0
 10
35172.71610694
 20
10829.57550214
 10
35190.42436593
 20
10829.57550214
 10
35190.42436593
 20
10926.70038449
 10
35193.02916947
 20
10929.65176165
 10
35193.02916947
 20
10950.78934266
  0
LINE
  5
103
330
5D
100
AcDbEntity
  8
Ech.1_5
  6
Continuous
 62
     9
370
    70
100
AcDbLine
 10
35194.12757912
 20
10926.30082532
 30
2500.0
 11
35194.12757912
 21
10829.374351
 31
2500.0
  0
LINE
  5
104
330
5D
100
AcDbEntity
  8
Ech.1_5
  6
CENTER
 62
   204
370
    70
100
AcDbLine
 10
35215.83949826
 20
10828.20277364
 30
0.0
 11
35387.55966511
 21
10828.20277364
 31
0.0
  0
LWPOLYLINE
  5
105
330
5D
100
AcDbEntity
  8
Ech.1_5
  6
Continuous
 62
     7
370
    -3
100
AcDbPolyline
 90
        4
 70
     1
 43
0.0
 10
35353.48870199
 20
11334.04717855
 10
35378.48870199
 20
11334.04717855
 10
35378.48870199
 20
11289.04717855
 10
35353.48870199
 20
11289.04717855
  0
LWPOLYLINE
  5
106
330
5D
100
AcDbEntity
  8
Ech.1_5
  6
Continuous
 62
     7
370
    -3
100
AcDbPolyline
 90
        5
 70
     0
 43
0.0
 10
35353.48870199
 20
11334.04717855
 10
35378.48870199
 20
11334.04717855
 10
35378.48870199
 20
11289.04717855
 10
35353.48870199
 20
11289.04717855
 10
35353.48870199
 20
11334.04717855
  0
LWPOLYLINE
  5
107
330
5D
100
AcDbEntity
  8
Ech.1_5
  6
Continuous
 62
     7
370
    -3
100
AcDbPolyline
 90
        4
 70
     1
 43
0.0
 10
35353.48870199
 20
10893.99629585
 10
35378.48870199
 20
10893.99629585
 10
35378.48870199
 20
10848.99629585
 10
35353.48870199
 20
10848.99629585
  0
LWPOLYLINE
  5
108
330
5D
100
AcDbEntity
  8
Ech.1_5
  6
Continuous
 62
     7
370
    -3
100
AcDbPolyline
 90
        5
 70
     0
 43
0.0
 10
35353.48870199
 20
10893.99629585
 10
35378.48870199
 20
10893.99629585
 10
35378.48870199
 20
10848.99629585
 10
35353.48870199
 20
10848.99629585
 10
35353.48870199
 20
10893.99629585
  0
LWPOLYLINE
  5
109
330
5D
100
AcDbEntity
  8
Ech.1_5
  6
Continuous
 62
     7
370
    -3
100
AcDbPolyline
 90
        4
 70
     1
 43
0.0
 10
35209.48870199
 20
11334.04717855
 10
35249.48870199
 20
11334.04717855
 10
35249.48870199
 20
11289.04717855
 10
35209.48870199
 20
11289.04717855
  0
LWPOLYLINE
  5
10A
330
5D
100
AcDbEntity
  8
Ech.1_5
  6
Continuous
 62
     7
370
    -3
100
AcDbPolyline
 90
        5
 70
     0
 43
0.0
 10
35209.48870199
 20
11334.04717855
 10
35249.48870199
 20
11334.04717855
 10
35249.48870199
 20
11289.04717855
 10
35209.48870199
 20
11289.04717855
 10
35209.48870199
 20
11334.04717855
  0
LWPOLYLINE
  5
10B
330
5D
100
AcDbEntity
  8
Ech.1_5
  6
Continuous
 62
     7
370
    -3
100
AcDbPolyline
 90
        4
 70
     1
 43
0.0
 10
35209.48870199
 20
10893.99629585
 10
35249.48870199
 20
10893.99629585
 10
35249.48870199
 20
10848.99629585
 10
35209.48870199
 20
10848.99629585
  0
LWPOLYLINE
  5
10C
330
5D
100
AcDbEntity
  8
Ech.1_5
  6
Continuous
 62
     7
370
    -3
100
AcDbPolyline
 90
        5
 70
     0
 43
0.0
 10
35209.48870199
 20
10893.99629585
 10
35249.48870199
 20
10893.99629585
 10
35249.48870199
 20
10848.99629585
 10
35209.48870199
 20
10848.99629585
 10
35209.48870199
 20
10893.99629585
  0
LWPOLYLINE
  5
10D
330
5D
100
AcDbEntity
  8
Ech.1_5
  6
Continuous
 62
     7
370
    -3
100
AcDbPolyline
 90
        5
 70
     0
 43
0.0
 10
34810.62262641
 20
10145.83615323
 10
35795.62262641
 20
10145.83615323
 10
35795.62262641
 20
11500.83615323
 10
34810.62262641
 20
11500.83615323
 10
34810.62262641
 20
10145.83615323
  0
LWPOLYLINE
  5
10E
330
5D
100
AcDbEntity
  8
Ech.1_5
  6
Continuous
 62
     7
370
    -3
100
AcDbPolyline
 90
        4
 70
     0
 43
0.0
 10
35353.48870199
 20
10919.04717855
 10
35258.48870199
 20
10874.04717855
 10
35258.48870199
 20
10919.04717855
 10
35353.48870199
 20
10874.04717855
  0
LWPOLYLINE
  5
10F
330
5D
100
AcDbEntity
  8
Ech.1_5
  6
Continuous
 62
     7
370
    -3
100
AcDbPolyline
 90
        5
 70
     0
 43
0.0
 10
35353.48870199
 20
10874.04717855
 10
35258.48870199
 20
10874.04717855
 10
35258.48870199
 20
10919.04717855
 10
35353.48870199
 20
10919.04717855
 10
35353.48870199
 20
10874.04717855
  0
LWPOLYLINE
  5
110
330
5D
100
AcDbEntity
  8
Ech.1_5
  6
Continuous
 62
     7
370
    -3
100
AcDbPolyline
 90
        5
 70
     0
 43
0.0
 10
35353.48870199
 20
10829.04649643
 10
35258.48870199
 20
10829.04717855
 10
35258.48870199
 20
10874.04717855
 10
35353.48870199
 20
10874.04649643
 10
35353.48870199
 20
10829.04649643
  0
LWPOLYLINE
  5
111
330
5D
100
AcDbEntity
  8
Ech.1_5
  6
Continuous
 62
     7
370
     5
100
AcDbPolyline
 90
        5
 70
     0
 43
0.0
 10
34982.73515185
 20
11287.53805876
 10
35032.73515185
 20
11287.53805876
 10
35032.73515185
 20
11294.9531963
 10
34982.73515185
 20
11294.9531963
 10
34982.73515185
 20
11287.53805876
  0
LWPOLYLINE
  5
112
330
5D
100
AcDbEntity
  8
Ech.1_5
  6
Continuous
 62
     7
370
    15
100
AcDbPolyline
 90
        5
 70
     0
 43
0.0
 10
35391.48870199
 20
11359.04695332
 10
35378.48870199
 20
11359.04695332
 10
35378.48870199
 20
10839.04716553
 10
35391.48870199
 20
10839.04716553
 10
35391.48870199
 20
11359.04695332
  0
LWPOLYLINE
  5
113
330
5D
100
AcDbEntity
  8
Ech.1_5
  6
Continuous
 62
     7
370
    -3
100
AcDbPolyline
 90
        5
 70
     0
 43
0.0
 10
35249.48870199
 20
11359.04755803
 10
35258.48870199
 20
11359.04755803
 10
35258.48870199
 20
10839.04719157
 10
35249.48870199
 20
10839.04719157
 10
35249.48870199
 20
11359.04755803
  0
LWPOLYLINE
  5
114
330
5D
100
AcDbEntity
  8
Ech.1_5
  6
Continuous
 62
     7
370
    15
100
AcDbPolyline
 90
        5
 70
     0
 43
0.0
 10
35209.48870199
 20
11359.04695332
 10
35196.48870199
 20
11359.04695332
 10
35196.48870199
 20
10839.04716553
 10
35209.48870199
 20
10839.04716553
 10
35209.48870199
 20
11359.04695332
  0
LWPOLYLINE
  5
115
330
5D
100
AcDbEntity
  8
Ech.1_5
  6
Continuous
 62
     7
370
    -3
100
AcDbPolyline
 90
       10
 70
     0
 43
0.0
 10
35298.95812961
 20
11377.02517967
 10
35282.47262645
 20
11359.04783126
 10
35258.48870199
 20
11359.04763258
 10
35258.48870199
 20
10919.04683749
 10
35353.48870199
 20
10919.04683749
 10
35353.48870199
 20
10919.04683749
 10
35353.48870199
 20
11359.04783126
 10
35301.33454367
 20
11359.04783126
 10
35284.84818959
 20
11341.06947966
 10
35298.95812961
 20
11377.02517967
  0
LWPOLYLINE
  5
116
330
5D
100
AcDbEntity
  8
Ech.1_5
  6
Continuous
 62
     7
370
    -3
100
AcDbPolyline
 90
        5
 70
     0
 43
0.0
 10
35353.48870199
 20
11334.04717855
 10
35378.48870199
 20
11334.04717855
 10
35378.48870199
 20
11289.04717855
 10
35353.48870199
 20
11289.04717855
 10
35353.48870199
 20
11334.04717855
  0
LWPOLYLINE
  5
117
330
5D
100
AcDbEntity
  8
Ech.1_5
  6
Continuous
 62
     7
370
    -3
100
AcDbPolyline
 90
        5
 70
     0
 43
0.0
 10
35353.48870199
 20
10893.99629585
 10
35378.48870199
 20
10893.99629585
 10
35378.48870199
 20
10848.99629585
 10
35353.48870199
 20
10848.99629585
 10
35353.48870199
 20
10893.99629585
  0
LWPOLYLINE
  5
118
330
5D
100
AcDbEntity
  8
Ech.1_5
  6
Continuous
 62
     7
370
    -3
100
AcDbPolyline
 90
        5
 70
     0
 43
0.0
 10
35209.48870199
 20
11334.04717855
 10
35249.48870199
 20
11334.04717855
 10
35249.48870199
 20
11289.04717855
 10
35209.48870199
 20
11289.04717855
 10
35209.48870199
 20
11334.04717855
  0
LWPOLYLINE
  5
119
330
5D
100
AcDbEntity
  8
Ech.1_5
  6
Continuous
 62
     7
370
    -3
100
AcDbPolyline
 90
        5
 70
     0
 43
0.0
 10
35209.48870199
 20
10893.99629585
 10
35249.48870199
 20
10893.99629585
 10
35249.48870199
 20
10848.99629585
 10
35209.48870199
 20
10848.99629585
 10
35209.48870199
 20
10893.99629585
  0
LWPOLYLINE
  5
11A
330
5D
100
AcDbEntity
  8
Ech.1_5
  6
Continuous
 62
     7
370
    -3
100
AcDbPolyline
 90
        5
 70
     0
 43
0.0
 10
35353.48870199
 20
10874.04649643
 10
35258.48870199
 20
10874.04717855
 10
35258.48870199
 20
10919.04717855
 10
35353.48870199
 20
10919.04649643
 10
35353.48870199
 20
10874.04649643
  0
LWPOLYLINE
  5
11B
330
5D
100
AcDbEntity
  8
Ech.1_5
  6
Continuous
 62
     7
370
    -3
100
AcDbPolyline
 90
       54
 70
     0
 43
0.0
 10
35274.32203532
 20
11359.04763258
 42
1.14028181
 10
35278.42001276
 20
11327.92047614
 10
35333.55739121
 20
11342.67478903
 42
-1.303226189999999
 10
35333.55739121
 20
11312.08714281
 10
35278.42001276
 20
11326.8414557
 42
1.303226189999999
 10
35278.42001276
 20
11296.25380947
 10
35333.55739121
 20
11311.00812236
 42
-1.303226189999999
 10
35333.55739121
 20
11280.42047614
 10
35278.42001276
 20
11295.17478903
 42
1.303226189999999
 10
35278.42001276
 20
11264.58714281
 10
35333.55739121
 20
11279.3414557
 42
-1.303226189999999
 10
35333.55739121
 20
11248.75380947
 10
35278.42001276
 20
11263.50812236
 42
1.303226189999999
 10
35278.42001276
 20
11232.92047614
 10
35333.55739121
 20
11247.67478903
 42
-1.303226189999999
 10
35333.55739121
 20
11217.08714281
 10
35278.42001276
 20
11231.8414557
 42
1.303226189999999
 10
35278.42001276
 20
11201.25380947
 10
35333.55739121
 20
11216.00812236
 42
-1.303226189999999
 10
35333.55739121
 20
11185.42047614
 10
35278.42001276
 20
11200.17478903
 42
1.303226189999999
 10
35278.42001276
 20
11169.58714281
 10
35333.55739121
 20
11184.3414557
 42
-1.303226189999999
 10
35333.55739121
 20
11153.75380947
 10
35278.42001276
 20
11168.50812236
 42
1.303226189999999
 10
35278.42001276
 20
11137.92047614
 10
35333.55739121
 20
11152.67478903
 42
-1.303226189999999
 10
35333.55739121
 20
11122.08714281
 10
35278.42001276
 20
11136.8414557
 42
1.303226189999999
 10
35278.42001276
 20
11106.25380947
 10
35333.55739121
 20
11121.00812236
 42
-1.303226189999999
 10
35333.55739121
 20
11090.42047614
 10
35278.42001276
 20
11105.17478903
 42
1.303226189999999
 10
35278.42001276
 20
11074.58714281
 10
35333.55739121
 20
11089.3414557
 42
-1.303226189999999
 10
35333.55739121
 20
11058.75380947
 10
35278.42001276
 20
11073.50812236
 42
1.303226189999999
 10
35278.42001276
 20
11042.92047614
 10
35333.55739121
 20
11057.67478903
 42
-1.303226189999999
 10
35333.55739121
 20
11027.08714281
 10
35278.42001276
 20
11041.8414557
 42
1.303226189999999
 10
35278.42001276
 20
11011.25380947
 10
35333.55739121
 20
11026.00812236
 42
-1.303226189999999
 10
35333.55739121
 20
10995.42047614
 10
35278.42001276
 20
11010.17478903
 42
1.303226189999999
 10
35278.42001276
 20
10979.58714281
 10
35333.55739121
 20
10994.3414557
 42
-1.303226189999999
 10
35333.55739121
 20
10963.75380947
 10
35278.42001276
 20
10978.50812236
 42
1.303226189999999
 10
35278.42001276
 20
10947.92047614
 10
35333.55739121
 20
10962.67478903
 42
-1.303226189999999
 10
35333.55739121
 20
10932.08714281
 10
35278.42001276
 20
10946.8414557
 42
0.8180466199999999
 10
35264.60436619
 20
10919.04717855
  0
TEXT
  5
11C
330
5D
100
AcDbEntity
  8
Ech.1_5
 62
     7
100
AcDbText
 10
34994.02944448
 20
11304.53919938
 30
0.0
 40
8.000000119999999
  1
Echelle en mm
  7
ARIAL
100
AcDbText
  0
TEXT
  5
11D
330
5D
100
AcDbEntity
  8
Ech.1_5
 62
     7
100
AcDbText
 10
34980.04885973
 20
11276.32936385
 30
0.0
 40
8.000000119999999
  1
0
  7
ARIAL
100
AcDbText
  0
TEXT
  5
11E
330
5D
100
AcDbEntity
  8
Ech.1_5
 62
     7
100
AcDbText
 10
35066.64591762
 20
11276.32936385
 30
0.0
 40
8.000000119999999
  1
100
  7
ARIAL
100
AcDbText
  0
TEXT
  5
11F
330
5D
100
AcDbEntity
  8
Ech.1_5
 62
     7
100
AcDbText
 10
35027.90548605
 20
11276.32936385
 30
0.0
 40
8.000000119999999
  1
50
  7
ARIAL
100
AcDbText
  0
INSERT
  5
120
330
5D
100
AcDbEntity
  8
Ech.1_5
 62
     0
370
    -3
100
AcDbBlockReference
  2
*D15
 10
0.0
 20
0.0
 30
0.0
  0
INSERT
  5
121
330
5D
100
AcDbEntity
  8
Ech.1_5
 62
     0
370
    -3
100
AcDbBlockReference
  2
*D16
 10
0.0
 20
0.0
 30
0.0
  0
ENDSEC
  0
SECTION
  2
OBJECTS
  0
DICTIONARY
  5
1
330
0
100
AcDbDictionary
281
     1
  3
ACAD_COLOR
350
159
  3
ACAD_GROUP
350
2
  3
ACAD_LAYOUT
350
171
  3
ACAD_MATERIAL
350
127
  3
ACAD_MLEADERSTYLE
350
16E
  3
ACAD_MLINESTYLE
350
3
  3
ACAD_PLOTSETTINGS
350
172
  3
ACAD_PLOTSTYLENAME
350
125
  3
ACAD_SCALELIST
350
15C
  3
ACAD_TABLESTYLE
350
15A
  3
ACAD_VISUALSTYLE
350
140
  3
ACDB_RECOMPOSE_DATA
350
1D1
  3
AcDbVariableDictionary
350
1C7
  3
DWGPROPS
350
1D2
  0
DICTIONARY
  5
18B
330
37
100
AcDbDictionary
280
     1
281
     1
  3
ADSK_XREC_LAYER_RECONCILED
360
18C
  0
DICTIONARY
  5
18D
330
38
100
AcDbDictionary
280
     1
281
     1
  3
ADSK_XREC_LAYER_RECONCILED
360
18E
  0
DICTIONARY
  5
18F
330
39
100
AcDbDictionary
280
     1
281
     1
  3
ADSK_XREC_LAYER_RECONCILED
360
190
  0
DICTIONARY
  5
191
330
3A
100
AcDbDictionary
280
     1
281
     1
  3
ADSK_XREC_LAYER_RECONCILED
360
192
  0
DICTIONARY
  5
193
330
3B
100
AcDbDictionary
280
     1
281
     1
  3
ADSK_XREC_LAYER_RECONCILED
360
194
  0
DICTIONARY
  5
195
330
3C
100
AcDbDictionary
280
     1
281
     1
  3
ADSK_XREC_LAYER_RECONCILED
360
196
  0
DICTIONARY
  5
197
330
3D
100
AcDbDictionary
280
     1
281
     1
  3
ADSK_XREC_LAYER_RECONCILED
360
198
  0
DICTIONARY
  5
199
330
3E
100
AcDbDictionary
280
     1
281
     1
  3
ADSK_XREC_LAYER_RECONCILED
360
19A
  0
DICTIONARY
  5
19B
330
3F
100
AcDbDictionary
280
     1
281
     1
  3
ADSK_XREC_LAYER_RECONCILED
360
19C
  0
DICTIONARY
  5
19D
330
40
100
AcDbDictionary
280
     1
281
     1
  3
ADSK_XREC_LAYER_RECONCILED
360
19E
  0
DICTIONARY
  5
19F
330
41
100
AcDbDictionary
280
     1
281
     1
  3
ADSK_XREC_LAYER_RECONCILED
360
1A0
  0
DICTIONARY
  5
1A1
330
42
100
AcDbDictionary
280
     1
281
     1
  3
ADSK_XREC_LAYER_RECONCILED
360
1A2
  0
DICTIONARY
  5
1A3
330
43
100
AcDbDictionary
280
     1
281
     1
  3
ADSK_XREC_LAYER_RECONCILED
360
1A4
  0
DICTIONARY
  5
1A5
330
44
100
AcDbDictionary
280
     1
281
     1
  3
ADSK_XREC_LAYER_RECONCILED
360
1A6
  0
DICTIONARY
  5
1A7
330
45
100
AcDbDictionary
280
     1
281
     1
  3
ADSK_XREC_LAYER_RECONCILED
360
1A8
  0
DICTIONARY
  5
1A9
330
46
100
AcDbDictionary
280
     1
281
     1
  3
ADSK_XREC_LAYER_RECONCILED
360
1AA
  0
DICTIONARY
  5
1AB
330
47
100
AcDbDictionary
280
     1
281
     1
  3
ADSK_XREC_LAYER_RECONCILED
360
1AC
  0
DICTIONARY
  5
1AD
330
48
100
AcDbDictionary
280
     1
281
     1
  3
ADSK_XREC_LAYER_RECONCILED
360
1AE
  0
DICTIONARY
  5
1AF
330
49
100
AcDbDictionary
280
     1
281
     1
  3
ADSK_XREC_LAYER_RECONCILED
360
1B0
  0
DICTIONARY
  5
1B1
330
4A
100
AcDbDictionary
280
     1
281
     1
  3
ADSK_XREC_LAYER_RECONCILED
360
1B2
  0
DICTIONARY
  5
1B3
330
4B
100
AcDbDictionary
280
     1
281
     1
  3
ADSK_XREC_LAYER_RECONCILED
360
1B4
  0
DICTIONARY
  5
1B5
330
4D
100
AcDbDictionary
280
     1
281
     1
  3
ADSK_XREC_LAYER_RECONCILED
360
1B6
  0
DICTIONARY
  5
1B7
330
4E
100
AcDbDictionary
280
     1
281
     1
  3
ADSK_XREC_LAYER_RECONCILED
360
1B8
  0
DICTIONARY
  5
1B9
330
50
100
AcDbDictionary
280
     1
281
     1
  3
ADSK_XREC_LAYER_RECONCILED
360
1BA
  0
DICTIONARY
  5
1BB
330
51
100
AcDbDictionary
280
     1
281
     1
  3
ADSK_XREC_LAYER_RECONCILED
360
1BC
  0
DICTIONARY
  5
1BD
330
52
100
AcDbDictionary
280
     1
281
     1
  3
ADSK_XREC_LAYER_RECONCILED
360
1BE
  0
DICTIONARY
  5
1BF
330
53
100
AcDbDictionary
280
     1
281
     1
  3
ADSK_XREC_LAYER_RECONCILED
360
1C0
  0
DICTIONARY
  5
1C1
330
54
100
AcDbDictionary
280
     1
281
     1
  3
ADSK_XREC_LAYER_RECONCILED
360
1C2
  0
DICTIONARY
  5
1C3
330
55
100
AcDbDictionary
280
     1
281
     1
  3
ADSK_XREC_LAYER_RECONCILED
360
1C4
  0
DICTIONARY
  5
1C5
330
56
100
AcDbDictionary
280
     1
281
     1
  3
ADSK_XREC_LAYER_RECONCILED
360
1C6
  0
DICTIONARY
  5
159
102
{ACAD_REACTORS
330
1
102
}
330
1
100
AcDbDictionary
281
     1
  0
DICTIONARY
  5
2
330
1
100
AcDbDictionary
281
     1
  0
DICTIONARY
  5
171
102
{ACAD_REACTORS
330
1
102
}
330
1
100
AcDbDictionary
281
     1
  3
Model
350
173
  3
Présentation1
350
174
  0
DICTIONARY
  5
127
102
{ACAD_REACTORS
330
1
102
}
330
1
100
AcDbDictionary
281
     1
  3
ByBlock
350
130
  3
ByLayer
350
128
  3
Global
350
138
  0
DICTIONARY
  5
16E
102
{ACAD_REACTORS
330
1
102
}
330
1
100
AcDbDictionary
281
     1
  3
Standard
350
16F
  0
DICTIONARY
  5
3
330
1
100
AcDbDictionary
281
     1
  3
STANDARD
350
4
  0
DICTIONARY
  5
172
102
{ACAD_REACTORS
330
1
102
}
330
1
100
AcDbDictionary
281
     1
  0
ACDBDICTIONARYWDFLT
  5
125
102
{ACAD_REACTORS
330
1
102
}
330
1
100
AcDbDictionary
281
     1
  3
Normal
350
126
100
AcDbDictionaryWithDefault
340
126
  0
DICTIONARY
  5
15C
102
{ACAD_REACTORS
330
1
102
}
330
1
100
AcDbDictionary
281
     1
  3
A0
350
15D
  3
A1
350
15E
  3
A2
350
15F
  3
A3
350
160
  3
A4
350
161
  3
A5
350
162
  3
A6
350
163
  3
A7
350
164
  3
A8
350
165
  3
A9
350
166
  3
B0
350
167
  3
B1
350
168
  3
B2
350
169
  3
B3
350
16A
  3
B4
350
16B
  3
B5
350
16C
  3
B6
350
16D
  0
DICTIONARY
  5
15A
102
{ACAD_REACTORS
330
1
102
}
330
1
100
AcDbDictionary
281
     1
  3
Standard
350
15B
  0
DICTIONARY
  5
140
102
{ACAD_REACTORS
330
1
102
}
330
1
100
AcDbDictionary
281
     1
  3
2dWireframe
350
146
  3
Basic
350
145
  3
Brighten
350
14C
  3
ColorChange
350
150
  3
Conceptual
350
149
  3
Dim
350
14B
  3
EdgeColorOff
350
158
  3
Facepattern
350
14F
  3
Flat
350
141
  3
FlatWithEdges
350
142
  3
Gouraud
350
143
  3
GouraudWithEdges
350
144
  3
Hidden
350
148
  3
JitterOff
350
156
  3
Linepattern
350
14E
  3
OverhangOff
350
157
  3
Realistic
350
14A
  3
Shaded
350
155
  3
Shaded with edges
350
154
  3
Shades of Gray
350
151
  3
Sketchy
350
152
  3
Thicken
350
14D
  3
Wireframe
350
147
  3
X-Ray
350
153
  0
XRECORD
  5
1D1
102
{ACAD_REACTORS
330
1
102
}
330
1
100
AcDbXrecord
280
     1
 90
        1
330
15B
  0
DICTIONARY
  5
1C7
102
{ACAD_REACTORS
330
1
102
}
330
1
100
AcDbDictionary
281
     1
  3
CANNOSCALE
350
1CA
  3
CMLEADERSTYLE
350
1C9
  3
CTABLESTYLE
350
1C8
  3
DIMASSOC
350
1CD
  3
INDEXCTL
350
1CC
  3
SORTENTS
350
1CB
  3
XCLIPFRAME
350
1CE
  0
XRECORD
  5
1D2
102
{ACAD_REACTORS
330
1
102
}
330
1
100
AcDbXrecord
280
     1
  1
DWGPROPS COOKIE
  2

  3

  4

  6

  7

  8
cazeaux
  9

300
=
301
=
302
=
303
=
304
=
305
=
306
=
307
=
308
=
309
=
 40
0.004417962962963
 41
2456443.0
 42
2456458.458708484
  1

 90
        0
  0
XRECORD
  5
18C
102
{ACAD_REACTORS
330
18B
102
}
330
18B
100
AcDbXrecord
280
     1
290
     1
  0
XRECORD
  5
18E
102
{ACAD_REACTORS
330
18D
102
}
330
18D
100
AcDbXrecord
280
     1
290
     1
  0
XRECORD
  5
190
102
{ACAD_REACTORS
330
18F
102
}
330
18F
100
AcDbXrecord
280
     1
290
     1
  0
XRECORD
  5
192
102
{ACAD_REACTORS
330
191
102
}
330
191
100
AcDbXrecord
280
     1
290
     1
  0
XRECORD
  5
194
102
{ACAD_REACTORS
330
193
102
}
330
193
100
AcDbXrecord
280
     1
290
     1
  0
XRECORD
  5
196
102
{ACAD_REACTORS
330
195
102
}
330
195
100
AcDbXrecord
280
     1
290
     1
  0
XRECORD
  5
198
102
{ACAD_REACTORS
330
197
102
}
330
197
100
AcDbXrecord
280
     1
290
     1
  0
XRECORD
  5
19A
102
{ACAD_REACTORS
330
199
102
}
330
199
100
AcDbXrecord
280
     1
290
     1
  0
XRECORD
  5
19C
102
{ACAD_REACTORS
330
19B
102
}
330
19B
100
AcDbXrecord
280
     1
290
     1
  0
XRECORD
  5
19E
102
{ACAD_REACTORS
330
19D
102
}
330
19D
100
AcDbXrecord
280
     1
290
     1
  0
XRECORD
  5
1A0
102
{ACAD_REACTORS
330
19F
102
}
330
19F
100
AcDbXrecord
280
     1
290
     1
  0
XRECORD
  5
1A2
102
{ACAD_REACTORS
330
1A1
102
}
330
1A1
100
AcDbXrecord
280
     1
290
     1
  0
XRECORD
  5
1A4
102
{ACAD_REACTORS
330
1A3
102
}
330
1A3
100
AcDbXrecord
280
     1
290
     1
  0
XRECORD
  5
1A6
102
{ACAD_REACTORS
330
1A5
102
}
330
1A5
100
AcDbXrecord
280
     1
290
     1
  0
XRECORD
  5
1A8
102
{ACAD_REACTORS
330
1A7
102
}
330
1A7
100
AcDbXrecord
280
     1
290
     1
  0
XRECORD
  5
1AA
102
{ACAD_REACTORS
330
1A9
102
}
330
1A9
100
AcDbXrecord
280
     1
290
     1
  0
XRECORD
  5
1AC
102
{ACAD_REACTORS
330
1AB
102
}
330
1AB
100
AcDbXrecord
280
     1
290
     1
  0
XRECORD
  5
1AE
102
{ACAD_REACTORS
330
1AD
102
}
330
1AD
100
AcDbXrecord
280
     1
290
     1
  0
XRECORD
  5
1B0
102
{ACAD_REACTORS
330
1AF
102
}
330
1AF
100
AcDbXrecord
280
     1
290
     1
  0
XRECORD
  5
1B2
102
{ACAD_REACTORS
330
1B1
102
}
330
1B1
100
AcDbXrecord
280
     1
290
     1
  0
XRECORD
  5
1B4
102
{ACAD_REACTORS
330
1B3
102
}
330
1B3
100
AcDbXrecord
280
     1
290
     1
  0
XRECORD
  5
1B6
102
{ACAD_REACTORS
330
1B5
102
}
330
1B5
100
AcDbXrecord
280
     1
290
     1
  0
XRECORD
  5
1B8
102
{ACAD_REACTORS
330
1B7
102
}
330
1B7
100
AcDbXrecord
280
     1
290
     1
  0
XRECORD
  5
1BA
102
{ACAD_REACTORS
330
1B9
102
}
330
1B9
100
AcDbXrecord
280
     1
290
     1
  0
XRECORD
  5
1BC
102
{ACAD_REACTORS
330
1BB
102
}
330
1BB
100
AcDbXrecord
280
     1
290
     1
  0
XRECORD
  5
1BE
102
{ACAD_REACTORS
330
1BD
102
}
330
1BD
100
AcDbXrecord
280
     1
290
     1
  0
XRECORD
  5
1C0
102
{ACAD_REACTORS
330
1BF
102
}
330
1BF
100
AcDbXrecord
280
     1
290
     1
  0
XRECORD
  5
1C2
102
{ACAD_REACTORS
330
1C1
102
}
330
1C1
100
AcDbXrecord
280
     1
290
     1
  0
XRECORD
  5
1C4
102
{ACAD_REACTORS
330
1C3
102
}
330
1C3
100
AcDbXrecord
280
     1
290
     1
  0
XRECORD
  5
1C6
102
{ACAD_REACTORS
330
1C5
102
}
330
1C5
100
AcDbXrecord
280
     1
290
     1
  0
LAYOUT
  5
173
102
{ACAD_XDICTIONARY
360
208
102
}
102
{ACAD_REACTORS
330
171
102
}
330
171
100
AcDbPlotSettings
  1

  2
Aucun(e)
  4

  6

 40
0.0
 41
0.0
 42
0.0
 43
0.0
 44
0.0
 45
0.0
 46
0.0
 47
0.0
 48
0.0
 49
0.0
140
0.0
141
0.0
142
1.0
143
1.0
 70
  1712
 72
     0
 73
     0
 74
     0
  7
acad.ctb
 75
     0
147
1.0
148
0.0
149
0.0
100
AcDbLayout
  1
Model
 70
     1
 71
     0
 10
0.0
 20
0.0
 11
12.0
 21
9.0
 12
0.0
 22
0.0
 32
0.0
 14
0.0
 24
0.0
 34
0.0
 15
0.0
 25
0.0
 35
0.0
146
0.0
 13
0.0
 23
0.0
 33
0.0
 16
1.0
 26
0.0
 36
0.0
 17
0.0
 27
1.0
 37
0.0
 76
     0
330
5D
331
177
  0
LAYOUT
  5
174
102
{ACAD_XDICTIONARY
360
20A
102
}
102
{ACAD_REACTORS
330
171
102
}
330
171
100
AcDbPlotSettings
  1

  2
Aucun(e)
  4

  6

 40
0.0
 41
0.0
 42
0.0
 43
0.0
 44
0.0
 45
0.0
 46
0.0
 47
0.0
 48
0.0
 49
0.0
140
0.0
141
0.0
142
1.0
143
1.0
 70
   688
 72
     0
 73
     0
 74
     5
  7
acad.ctb
 75
    16
147
1.0
148
0.0
149
0.0
100
AcDbLayout
  1
Présentation1
 70
     1
 71
     1
 10
0.0
 20
0.0
 11
12.0
 21
9.0
 12
0.0
 22
0.0
 32
0.0
 14
1.000000000000000E+20
 24
1.000000000000000E+20
 34
1.000000000000000E+20
 15
-1.000000000000000E+20
 25
-1.000000000000000E+20
 35
-1.000000000000000E+20
146
0.0
 13
0.0
 23
0.0
 33
0.0
 16
1.0
 26
0.0
 36
0.0
 17
0.0
 27
1.0
 37
0.0
 76
     0
330
5E
  0
MATERIAL
  5
130
102
{ACAD_XDICTIONARY
360
131
102
}
102
{ACAD_REACTORS
330
127
102
}
330
127
100
AcDbMaterial
  1
ByBlock
 72
     0
 43
0.0208333333333333
 43
0.0
 43
0.0
 43
0.0
 43
0.0
 43
0.0208333333333333
 43
0.0
 43
0.0
 43
0.0
 43
0.0
 43
1.0
 43
0.0
 43
0.0
 43
0.0
 43
0.0
 43
1.0
 77
     0
 47
0.0208333333333333
 47
0.0
 47
0.0
 47
0.0
 47
0.0
 47
0.0208333333333333
 47
0.0
 47
0.0
 47
0.0
 47
0.0
 47
1.0
 47
0.0
 47
0.0
 47
0.0
 47
0.0
 47
1.0
171
     0
 49
0.0208333333333333
 49
0.0
 49
0.0
 49
0.0
 49
0.0
 49
0.0208333333333333
 49
0.0
 49
0.0
 49
0.0
 49
0.0
 49
1.0
 49
0.0
 49
0.0
 49
0.0
 49
0.0
 49
1.0
175
     0
142
0.0208333333333333
142
0.0
142
0.0
142
0.0
142
0.0
142
0.0208333333333333
142
0.0
142
0.0
142
0.0
142
0.0
142
1.0
142
0.0
142
0.0
142
0.0
142
0.0
142
1.0
179
     0
144
0.0208333333333333
144
0.0
144
0.0
144
0.0
144
0.0
144
0.0208333333333333
144
0.0
144
0.0
144
0.0
144
0.0
144
1.0
144
0.0
144
0.0
144
0.0
144
0.0
144
1.0
147
0.0208333333333333
147
0.0
147
0.0
147
0.0
147
0.0
147
0.0208333333333333
147
0.0
147
0.0
147
0.0
147
0.0
147
1.0
147
0.0
147
0.0
147
0.0
147
0.0
147
1.0
  0
MATERIAL
  5
128
102
{ACAD_XDICTIONARY
360
129
102
}
102
{ACAD_REACTORS
330
127
102
}
330
127
100
AcDbMaterial
  1
ByLayer
 72
     0
 43
0.0208333333333333
 43
0.0
 43
0.0
 43
0.0
 43
0.0
 43
0.0208333333333333
 43
0.0
 43
0.0
 43
0.0
 43
0.0
 43
1.0
 43
0.0
 43
0.0
 43
0.0
 43
0.0
 43
1.0
 77
     0
 47
0.0208333333333333
 47
0.0
 47
0.0
 47
0.0
 47
0.0
 47
0.0208333333333333
 47
0.0
 47
0.0
 47
0.0
 47
0.0
 47
1.0
 47
0.0
 47
0.0
 47
0.0
 47
0.0
 47
1.0
171
     0
 49
0.0208333333333333
 49
0.0
 49
0.0
 49
0.0
 49
0.0
 49
0.0208333333333333
 49
0.0
 49
0.0
 49
0.0
 49
0.0
 49
1.0
 49
0.0
 49
0.0
 49
0.0
 49
0.0
 49
1.0
175
     0
142
0.0208333333333333
142
0.0
142
0.0
142
0.0
142
0.0
142
0.0208333333333333
142
0.0
142
0.0
142
0.0
142
0.0
142
1.0
142
0.0
142
0.0
142
0.0
142
0.0
142
1.0
179
     0
144
0.0208333333333333
144
0.0
144
0.0
144
0.0
144
0.0
144
0.0208333333333333
144
0.0
144
0.0
144
0.0
144
0.0
144
1.0
144
0.0
144
0.0
144
0.0
144
0.0
144
1.0
147
0.0208333333333333
147
0.0
147
0.0
147
0.0
147
0.0
147
0.0208333333333333
147
0.0
147
0.0
147
0.0
147
0.0
147
1.0
147
0.0
147
0.0
147
0.0
147
0.0
147
1.0
  0
MATERIAL
  5
138
102
{ACAD_XDICTIONARY
360
139
102
}
102
{ACAD_REACTORS
330
127
102
}
330
127
100
AcDbMaterial
  1
Global
 72
     0
 43
0.0208333333333333
 43
0.0
 43
0.0
 43
0.0
 43
0.0
 43
0.0208333333333333
 43
0.0
 43
0.0
 43
0.0
 43
0.0
 43
1.0
 43
0.0
 43
0.0
 43
0.0
 43
0.0
 43
1.0
 77
     0
 47
0.0208333333333333
 47
0.0
 47
0.0
 47
0.0
 47
0.0
 47
0.0208333333333333
 47
0.0
 47
0.0
 47
0.0
 47
0.0
 47
1.0
 47
0.0
 47
0.0
 47
0.0
 47
0.0
 47
1.0
171
     0
 49
0.0208333333333333
 49
0.0
 49
0.0
 49
0.0
 49
0.0
 49
0.0208333333333333
 49
0.0
 49
0.0
 49
0.0
 49
0.0
 49
1.0
 49
0.0
 49
0.0
 49
0.0
 49
0.0
 49
1.0
175
     0
142
0.0208333333333333
142
0.0
142
0.0
142
0.0
142
0.0
142
0.0208333333333333
142
0.0
142
0.0
142
0.0
142
0.0
142
1.0
142
0.0
142
0.0
142
0.0
142
0.0
142
1.0
179
     0
144
0.0208333333333333
144
0.0
144
0.0
144
0.0
144
0.0
144
0.0208333333333333
144
0.0
144
0.0
144
0.0
144
0.0
144
1.0
144
0.0
144
0.0
144
0.0
144
0.0
144
1.0
147
0.0208333333333333
147
0.0
147
0.0
147
0.0
147
0.0
147
0.0208333333333333
147
0.0
147
0.0
147
0.0
147
0.0
147
1.0
147
0.0
147
0.0
147
0.0
147
0.0
147
1.0
  0
MLEADERSTYLE
  5
16F
102
{ACAD_REACTORS
330
16E
102
}
330
16E
100
AcDbMLeaderStyle
170
     2
171
     1
172
     0
 90
        2
 40
0.0
 41
0.0
173
     1
 91
-1056964608
340
29
 92
       -2
290
     1
 42
2.0
291
     1
 43
0.36
  3
Standard
 44
4.0
300

342
24
174
     1
178
     6
175
     1
176
     0
 93
-1056964608
 45
4.0
292
     0
297
     0
 46
4.0
 94
-1056964608
 47
1.0
 49
1.0
140
1.0
293
     1
141
0.0
294
     1
177
     0
142
1.0
295
     0
296
     0
143
0.125
1001
ACAD_MLEADERVER
1070
     2
  0
MLINESTYLE
  5
4
330
3
100
AcDbMlineStyle
  2
STANDARD
 70
     0
  3

 62
     0
 51
90.0
 52
90.0
 71
     2
 49
0.5
 62
   256
  6
BYLAYER
 49
-0.5
 62
   256
  6
BYLAYER
  0
ACDBPLACEHOLDER
  5
126
102
{ACAD_REACTORS
330
125
102
}
330
125
  0
SCALE
  5
15D
102
{ACAD_REACTORS
330
15C
102
}
330
15C
100
AcDbScale
 70
     0
300
1:1
140
1.0
141
1.0
290
     1
  0
SCALE
  5
15E
102
{ACAD_REACTORS
330
15C
102
}
330
15C
100
AcDbScale
 70
     0
300
1:2
140
1.0
141
2.0
290
     0
  0
SCALE
  5
15F
102
{ACAD_REACTORS
330
15C
102
}
330
15C
100
AcDbScale
 70
     0
300
1:4
140
1.0
141
4.0
290
     0
  0
SCALE
  5
160
102
{ACAD_REACTORS
330
15C
102
}
330
15C
100
AcDbScale
 70
     0
300
1:5
140
1.0
141
5.0
290
     0
  0
SCALE
  5
161
102
{ACAD_REACTORS
330
15C
102
}
330
15C
100
AcDbScale
 70
     0
300
1:8
140
1.0
141
8.0
290
     0
  0
SCALE
  5
162
102
{ACAD_REACTORS
330
15C
102
}
330
15C
100
AcDbScale
 70
     0
300
1:10
140
1.0
141
10.0
290
     0
  0
SCALE
  5
163
102
{ACAD_REACTORS
330
15C
102
}
330
15C
100
AcDbScale
 70
     0
300
1:16
140
1.0
141
16.0
290
     0
  0
SCALE
  5
164
102
{ACAD_REACTORS
330
15C
102
}
330
15C
100
AcDbScale
 70
     0
300
1:20
140
1.0
141
20.0
290
     0
  0
SCALE
  5
165
102
{ACAD_REACTORS
330
15C
102
}
330
15C
100
AcDbScale
 70
     0
300
1:30
140
1.0
141
30.0
290
     0
  0
SCALE
  5
166
102
{ACAD_REACTORS
330
15C
102
}
330
15C
100
AcDbScale
 70
     0
300
1:40
140
1.0
141
40.0
290
     0
  0
SCALE
  5
167
102
{ACAD_REACTORS
330
15C
102
}
330
15C
100
AcDbScale
 70
     0
300
1:50
140
1.0
141
50.0
290
     0
  0
SCALE
  5
168
102
{ACAD_REACTORS
330
15C
102
}
330
15C
100
AcDbScale
 70
     0
300
1:100
140
1.0
141
100.0
290
     0
  0
SCALE
  5
169
102
{ACAD_REACTORS
330
15C
102
}
330
15C
100
AcDbScale
 70
     0
300
2:1
140
2.0
141
1.0
290
     0
  0
SCALE
  5
16A
102
{ACAD_REACTORS
330
15C
102
}
330
15C
100
AcDbScale
 70
     0
300
4:1
140
4.0
141
1.0
290
     0
  0
SCALE
  5
16B
102
{ACAD_REACTORS
330
15C
102
}
330
15C
100
AcDbScale
 70
     0
300
8:1
140
8.0
141
1.0
290
     0
  0
SCALE
  5
16C
102
{ACAD_REACTORS
330
15C
102
}
330
15C
100
AcDbScale
 70
     0
300
10:1
140
10.0
141
1.0
290
     0
  0
SCALE
  5
16D
102
{ACAD_REACTORS
330
15C
102
}
330
15C
100
AcDbScale
 70
     0
300
100:1
140
100.0
141
1.0
290
     0
  0
TABLESTYLE
  5
15B
102
{ACAD_XDICTIONARY
360
1CF
102
}
102
{ACAD_REACTORS
330
15A
102
}
330
15A
100
AcDbTableStyle
  3
Standard
 70
     0
 71
     0
 40
1.5
 41
1.5
280
     0
281
     0
  7
STANDARD
140
4.5
170
     2
 62
     0
 63
     7
283
     0
274
    -2
284
     1
 64
     0
275
    -2
285
     1
 65
     0
276
    -2
286
     1
 66
     0
277
    -2
287
     1
 67
     0
278
    -2
288
     1
 68
     0
279
    -2
289
     1
 69
     0
  7
STANDARD
140
6.0
170
     5
 62
     0
 63
     7
283
     0
274
    -2
284
     1
 64
     0
275
    -2
285
     1
 65
     0
276
    -2
286
     1
 66
     0
277
    -2
287
     1
 67
     0
278
    -2
288
     1
 68
     0
279
    -2
289
     1
 69
     0
  7
STANDARD
140
4.5
170
     5
 62
     0
 63
     7
283
     0
274
    -2
284
     1
 64
     0
275
    -2
285
     1
 65
     0
276
    -2
286
     1
 66
     0
277
    -2
287
     1
 67
     0
278
    -2
288
     1
 68
     0
279
    -2
289
     1
 69
     0
  0
VISUALSTYLE
  5
146
102
{ACAD_XDICTIONARY
360
1E0
102
}
102
{ACAD_REACTORS
330
140
102
}
330
140
100
AcDbVisualStyle
  2
2dWireframe
 70
     4
 71
     0
 72
     2
 73
     0
 90
        0
 40
-0.6
 41
-30.0
 62
     5
 63
     7
 74
     1
 91
        4
 64
     7
 65
   257
 75
     1
175
     1
 42
1.0
 92
        0
 66
   257
 43
1.0
 76
     1
 77
     6
 78
     2
 67
     7
 79
     5
170
     0
171
     0
290
     0
174
     0
 93
        1
 44
0.0
173
     0
291
     0
 45
0.0
1001
ACAD
1000
AcDbSavedByObjectVersion
1070
     0
  0
VISUALSTYLE
  5
145
102
{ACAD_XDICTIONARY
360
1DE
102
}
102
{ACAD_REACTORS
330
140
102
}
330
140
100
AcDbVisualStyle
  2
Basic
 70
     7
 71
     1
 72
     0
 73
     1
 90
        0
 40
-0.6
 41
-30.0
 62
     5
 63
     7
 74
     0
 91
        4
 64
     7
 65
   257
 75
     1
175
     1
 42
1.0
 92
        8
 66
     7
 43
1.0
 76
     1
 77
     6
 78
     2
 67
     7
 79
     5
170
     0
171
     0
290
     0
174
     0
 93
        1
 44
0.0
173
     0
291
     1
 45
0.0
1001
ACAD
1000
AcDbSavedByObjectVersion
1070
     0
  0
VISUALSTYLE
  5
14C
102
{ACAD_XDICTIONARY
360
1EC
102
}
102
{ACAD_REACTORS
330
140
102
}
330
140
100
AcDbVisualStyle
  2
Brighten
 70
    12
 71
     2
 72
     2
 73
     0
 90
        0
 40
-0.6
 41
-30.0
 62
     5
 63
     7
 74
     1
 91
        4
 64
     7
 65
   257
 75
     1
175
     1
 42
1.0
 92
        8
 66
     7
 43
1.0
 76
     1
 77
     6
 78
     2
 67
     7
 79
     5
170
     0
171
     0
290
     0
174
     0
 93
        1
 44
50.0
173
     0
291
     1
 45
0.0
1001
ACAD
1000
AcDbSavedByObjectVersion
1070
     0
  0
VISUALSTYLE
  5
150
102
{ACAD_XDICTIONARY
360
1F4
102
}
102
{ACAD_REACTORS
330
140
102
}
330
140
100
AcDbVisualStyle
  2
ColorChange
 70
    16
 71
     2
 72
     2
 73
     3
 90
        0
 40
-0.6
 41
-30.0
 62
     5
 63
     8
 74
     1
 91
        4
 64
     7
 65
   257
 75
     1
175
     1
 42
1.0
 92
        8
 66
     8
 43
1.0
 76
     1
 77
     6
 78
     2
 67
     7
 79
     5
170
     0
171
     0
290
     0
174
     0
 93
        1
 44
0.0
173
     0
291
     1
 45
0.0
1001
ACAD
1000
AcDbSavedByObjectVersion
1070
     0
  0
VISUALSTYLE
  5
149
102
{ACAD_XDICTIONARY
360
1E6
102
}
102
{ACAD_REACTORS
330
140
102
}
330
140
100
AcDbVisualStyle
  2
Conceptual
 70
     9
 71
     3
 72
     2
 73
     0
 90
        0
 40
-0.6
 41
-30.0
 62
     5
 63
     7
 74
     2
 91
        2
 64
     7
 65
   257
 75
     1
175
     1
 42
179.0
 92
        8
 66
     7
 43
1.0
 76
     1
 77
     6
 78
     2
 67
     7
 79
     3
170
     0
171
     0
290
     0
174
     0
 93
        1
 44
0.0
173
     0
291
     0
 45
0.0
1001
ACAD
1000
AcDbSavedByObjectVersion
1070
     0
  0
VISUALSTYLE
  5
14B
102
{ACAD_XDICTIONARY
360
1EA
102
}
102
{ACAD_REACTORS
330
140
102
}
330
140
100
AcDbVisualStyle
  2
Dim
 70
    11
 71
     2
 72
     2
 73
     0
 90
        0
 40
-0.6
 41
-30.0
 62
     5
 63
     7
 74
     1
 91
        4
 64
     7
 65
   257
 75
     1
175
     1
 42
1.0
 92
        8
 66
     7
 43
1.0
 76
     1
 77
     6
 78
     2
 67
     7
 79
     5
170
     0
171
     0
290
     0
174
     0
 93
        1
 44
-50.0
173
     0
291
     1
 45
0.0
1001
ACAD
1000
AcDbSavedByObjectVersion
1070
     0
  0
VISUALSTYLE
  5
158
102
{ACAD_XDICTIONARY
360
204
102
}
102
{ACAD_REACTORS
330
140
102
}
330
140
100
AcDbVisualStyle
  2
EdgeColorOff
 70
    22
 71
     2
 72
     2
 73
     0
 90
        0
 40
-0.6
 41
-30.0
 62
     5
 63
     7
 74
     1
 91
        4
 64
     7
 65
   257
 75
     1
175
     1
 42
1.0
 92
        8
 66
     7
 43
1.0
 76
     1
 77
     6
 78
     2
 67
     7
 79
     5
170
     0
171
     0
290
     0
174
     0
 93
        1
 44
0.0
173
     0
291
     1
 45
0.0
1001
ACAD
1000
AcDbSavedByObjectVersion
1070
     0
  0
VISUALSTYLE
  5
14F
102
{ACAD_XDICTIONARY
360
1F2
102
}
102
{ACAD_REACTORS
330
140
102
}
330
140
100
AcDbVisualStyle
  2
Facepattern
 70
    15
 71
     2
 72
     2
 73
     0
 90
        0
 40
-0.6
 41
-30.0
 62
     5
 63
     7
 74
     1
 91
        4
 64
     7
 65
   257
 75
     1
175
     1
 42
1.0
 92
        8
 66
     7
 43
1.0
 76
     1
 77
     6
 78
     2
 67
     7
 79
     5
170
     0
171
     0
290
     0
174
     0
 93
        1
 44
0.0
173
     0
291
     1
 45
0.0
1001
ACAD
1000
AcDbSavedByObjectVersion
1070
     0
  0
VISUALSTYLE
  5
141
102
{ACAD_XDICTIONARY
360
1D6
102
}
102
{ACAD_REACTORS
330
140
102
}
330
140
100
AcDbVisualStyle
  2
Flat
 70
     0
 71
     2
 72
     1
 73
     1
 90
        2
 40
-0.6
 41
30.0
 62
     5
 63
     7
 74
     0
 91
        0
 64
     7
 65
   257
 75
     1
175
     1
 42
1.0
 92
        8
 66
     7
 43
1.0
 76
     1
 77
     6
 78
     2
 67
     7
 79
     5
170
     0
171
     0
290
     0
174
     0
 93
       13
 44
0.0
173
     0
291
     1
 45
0.0
1001
ACAD
1000
AcDbSavedByObjectVersion
1070
     0
  0
VISUALSTYLE
  5
142
102
{ACAD_XDICTIONARY
360
1D8
102
}
102
{ACAD_REACTORS
330
140
102
}
330
140
100
AcDbVisualStyle
  2
FlatWithEdges
 70
     1
 71
     2
 72
     1
 73
     1
 90
        2
 40
-0.6
 41
30.0
 62
     5
 63
     7
 74
     1
 91
        0
 64
     7
 65
   257
 75
     1
175
     1
 42
1.0
 92
        0
 66
   257
 43
1.0
 76
     1
 77
     6
 78
     2
 67
     7
 79
     5
170
     0
171
     0
290
     0
174
     0
 93
       13
 44
0.0
173
     0
291
     1
 45
0.0
1001
ACAD
1000
AcDbSavedByObjectVersion
1070
     0
  0
VISUALSTYLE
  5
143
102
{ACAD_XDICTIONARY
360
1DA
102
}
102
{ACAD_REACTORS
330
140
102
}
330
140
100
AcDbVisualStyle
  2
Gouraud
 70
     2
 71
     2
 72
     2
 73
     1
 90
        2
 40
-0.6
 41
30.0
 62
     5
 63
     7
 74
     0
 91
        0
 64
     7
 65
   257
 75
     1
175
     1
 42
1.0
 92
        0
 66
     7
 43
1.0
 76
     1
 77
     6
 78
     2
 67
     7
 79
     5
170
     0
171
     0
290
     0
174
     0
 93
       13
 44
0.0
173
     0
291
     1
 45
0.0
1001
ACAD
1000
AcDbSavedByObjectVersion
1070
     0
  0
VISUALSTYLE
  5
144
102
{ACAD_XDICTIONARY
360
1DC
102
}
102
{ACAD_REACTORS
330
140
102
}
330
140
100
AcDbVisualStyle
  2
GouraudWithEdges
 70
     3
 71
     2
 72
     2
 73
     1
 90
        2
 40
-0.6
 41
30.0
 62
     5
 63
     7
 74
     1
 91
        0
 64
     7
 65
   257
 75
     1
175
     1
 42
1.0
 92
        0
 66
   257
 43
1.0
 76
     1
 77
     6
 78
     2
 67
     7
 79
     5
170
     0
171
     0
290
     0
174
     0
 93
       13
 44
0.0
173
     0
291
     1
 45
0.0
1001
ACAD
1000
AcDbSavedByObjectVersion
1070
     0
  0
VISUALSTYLE
  5
148
102
{ACAD_XDICTIONARY
360
1E4
102
}
102
{ACAD_REACTORS
330
140
102
}
330
140
100
AcDbVisualStyle
  2
Hidden
 70
     6
 71
     1
 72
     2
 73
     2
 90
        0
 40
-0.6
 41
-30.0
 62
     5
 63
     7
 74
     2
 91
        2
 64
     7
 65
   257
 75
     2
175
     1
 42
40.0
 92
        0
 66
   257
 43
1.0
 76
     1
 77
     6
 78
     2
 67
     7
 79
     3
170
     0
171
     0
290
     0
174
     0
 93
        1
 44
0.0
173
     0
291
     0
 45
0.0
1001
ACAD
1000
AcDbSavedByObjectVersion
1070
     0
  0
VISUALSTYLE
  5
156
102
{ACAD_XDICTIONARY
360
200
102
}
102
{ACAD_REACTORS
330
140
102
}
330
140
100
AcDbVisualStyle
  2
JitterOff
 70
    20
 71
     2
 72
     2
 73
     0
 90
        0
 40
-0.6
 41
-30.0
 62
     5
 63
     7
 74
     1
 91
        4
 64
     7
 65
   257
 75
     1
175
     1
 42
1.0
 92
       10
 66
     7
 43
1.0
 76
     1
 77
     6
 78
     2
 67
     7
 79
     5
170
     0
171
     0
290
     0
174
     0
 93
        1
 44
0.0
173
     0
291
     1
 45
0.0
1001
ACAD
1000
AcDbSavedByObjectVersion
1070
     0
  0
VISUALSTYLE
  5
14E
102
{ACAD_XDICTIONARY
360
1F0
102
}
102
{ACAD_REACTORS
330
140
102
}
330
140
100
AcDbVisualStyle
  2
Linepattern
 70
    14
 71
     2
 72
     2
 73
     0
 90
        0
 40
-0.6
 41
-30.0
 62
     5
 63
     7
 74
     1
 91
        4
 64
     7
 65
   257
 75
     7
175
     7
 42
1.0
 92
        8
 66
     7
 43
1.0
 76
     1
 77
     6
 78
     2
 67
     7
 79
     5
170
     0
171
     0
290
     0
174
     0
 93
        1
 44
0.0
173
     0
291
     1
 45
0.0
1001
ACAD
1000
AcDbSavedByObjectVersion
1070
     0
  0
VISUALSTYLE
  5
157
102
{ACAD_XDICTIONARY
360
202
102
}
102
{ACAD_REACTORS
330
140
102
}
330
140
100
AcDbVisualStyle
  2
OverhangOff
 70
    21
 71
     2
 72
     2
 73
     0
 90
        0
 40
-0.6
 41
-30.0
 62
     5
 63
     7
 74
     1
 91
        4
 64
     7
 65
   257
 75
     1
175
     1
 42
1.0
 92
        9
 66
     7
 43
1.0
 76
     1
 77
     6
 78
     2
 67
     7
 79
     5
170
     0
171
     0
290
     0
174
     0
 93
        1
 44
0.0
173
     0
291
     1
 45
0.0
1001
ACAD
1000
AcDbSavedByObjectVersion
1070
     0
  0
VISUALSTYLE
  5
14A
102
{ACAD_XDICTIONARY
360
1E8
102
}
102
{ACAD_REACTORS
330
140
102
}
330
140
100
AcDbVisualStyle
  2
Realistic
 70
     8
 71
     2
 72
     3
 73
     0
 90
        2
 40
-0.6
 41
30.0
 62
     5
 63
     7
 74
     0
 91
        0
 64
     7
 65
   257
 75
     1
175
     1
 42
1.0
 92
        8
 66
   257
 43
1.0
 76
     1
 77
     6
 78
     2
 67
     7
 79
     3
170
     0
171
     0
290
     0
174
     0
 93
       13
 44
0.0
173
     0
291
     0
 45
0.0
1001
ACAD
1000
AcDbSavedByObjectVersion
1070
     0
  0
VISUALSTYLE
  5
155
102
{ACAD_XDICTIONARY
360
1FE
102
}
102
{ACAD_REACTORS
330
140
102
}
330
140
100
AcDbVisualStyle
  2
Shaded
 70
    27
 71
     2
 72
     2
 73
     1
 90
        2
 40
-0.6
 41
30.0
 62
     5
 63
     7
 74
     0
 91
        4
 64
     7
 65
   257
 75
     1
175
     1
 42
1.0
 92
        8
 66
   257
 43
1.0
 76
     1
 77
     6
 78
     2
 67
     8
 79
     3
170
     0
171
     0
290
     0
174
     0
 93
        5
 44
0.0
173
     0
291
     0
 45
0.0
1001
ACAD
1000
AcDbSavedByObjectVersion
1070
     0
  0
VISUALSTYLE
  5
154
102
{ACAD_XDICTIONARY
360
1FC
102
}
102
{ACAD_REACTORS
330
140
102
}
330
140
100
AcDbVisualStyle
  2
Shaded with edges
 70
    26
 71
     2
 72
     2
 73
     1
 90
        2
 40
-0.6
 41
30.0
 62
     5
 63
     7
 74
     1
 91
       10
 64
     7
 65
   257
 75
     2
175
     1
 42
1.0
 92
        8
 66
   257
 43
1.0
 76
     1
 77
     6
 78
     2
 67
     7
 79
     3
170
     0
171
     0
290
     0
174
     0
 93
        5
 44
0.0
173
     0
291
     0
 45
0.0
1001
ACAD
1000
AcDbSavedByObjectVersion
1070
     0
  0
VISUALSTYLE
  5
151
102
{ACAD_XDICTIONARY
360
1F6
102
}
102
{ACAD_REACTORS
330
140
102
}
330
140
100
AcDbVisualStyle
  2
Shades of Gray
 70
    23
 71
     2
 72
     2
 73
     3
 90
        0
 40
-0.6
 41
-30.0
 62
     5
 63
     7
 74
     2
 91
        2
 64
     7
 65
     7
 75
     1
175
     1
 42
40.0
 92
        8
 66
     7
 43
1.0
 76
     1
 77
     6
 78
     2
 67
     7
 79
     3
170
     0
171
     0
290
     0
174
     0
 93
        1
 44
0.0
173
     0
291
     0
 45
0.0
1001
ACAD
1000
AcDbSavedByObjectVersion
1070
     0
  0
VISUALSTYLE
  5
152
102
{ACAD_XDICTIONARY
360
1F8
102
}
102
{ACAD_REACTORS
330
140
102
}
330
140
100
AcDbVisualStyle
  2
Sketchy
 70
    24
 71
     1
 72
     2
 73
     2
 90
        0
 40
-0.6
 41
-30.0
 62
     5
 63
     7
 74
     2
 91
        2
 64
     7
 65
     7
 75
     1
175
     1
 42
40.0
 92
       11
 66
     7
 43
1.0
 76
     1
 77
     6
 78
     2
 67
     7
 79
     6
170
     0
171
     0
290
     0
174
     0
 93
        1
 44
0.0
173
     0
291
     0
 45
0.0
1001
ACAD
1000
AcDbSavedByObjectVersion
1070
     0
  0
VISUALSTYLE
  5
14D
102
{ACAD_XDICTIONARY
360
1EE
102
}
102
{ACAD_REACTORS
330
140
102
}
330
140
100
AcDbVisualStyle
  2
Thicken
 70
    13
 71
     2
 72
     2
 73
     0
 90
        0
 40
-0.6
 41
-30.0
 62
     5
 63
     7
 74
     1
 91
        4
 64
     7
 65
   257
 75
     1
175
     1
 42
1.0
 92
       12
 66
     7
 43
1.0
 76
     1
 77
     6
 78
     2
 67
     7
 79
     5
170
     0
171
     0
290
     0
174
     0
 93
        1
 44
0.0
173
     0
291
     1
 45
0.0
1001
ACAD
1000
AcDbSavedByObjectVersion
1070
     0
  0
VISUALSTYLE
  5
147
102
{ACAD_XDICTIONARY
360
1E2
102
}
102
{ACAD_REACTORS
330
140
102
}
330
140
100
AcDbVisualStyle
  2
Wireframe
 70
     5
 71
     0
 72
     2
 73
     0
 90
        0
 40
-0.6
 41
-30.0
 62
     5
 63
     7
 74
     1
 91
        4
 64
     7
 65
   257
 75
     1
175
     1
 42
1.0
 92
        0
 66
   257
 43
1.0
 76
     1
 77
     6
 78
     2
 67
     7
 79
     3
170
     0
171
     0
290
     0
174
     0
 93
        1
 44
0.0
173
     0
291
     0
 45
0.0
1001
ACAD
1000
AcDbSavedByObjectVersion
1070
     0
  0
VISUALSTYLE
  5
153
102
{ACAD_XDICTIONARY
360
1FA
102
}
102
{ACAD_REACTORS
330
140
102
}
330
140
100
AcDbVisualStyle
  2
X-Ray
 70
    25
 71
     2
 72
     2
 73
     1
 90
        1
 40
0.5
 41
-30.0
 62
     5
 63
     7
 74
     1
 91
        0
 64
     7
 65
   257
 75
     1
175
     1
 42
1.0
 92
        8
 66
     7
 43
1.0
 76
     1
 77
     6
 78
     2
 67
     7
 79
     3
170
     0
171
     0
290
     0
174
     0
 93
       13
 44
0.0
173
     0
291
     0
 45
0.0
1001
ACAD
1000
AcDbSavedByObjectVersion
1070
     0
  0
DICTIONARYVAR
  5
1CA
102
{ACAD_REACTORS
330
1C7
102
}
330
1C7
100
DictionaryVariables
280
     0
  1
1:1
  0
DICTIONARYVAR
  5
1C9
102
{ACAD_REACTORS
330
1C7
102
}
330
1C7
100
DictionaryVariables
280
     0
  1
STANDARD
  0
DICTIONARYVAR
  5
1C8
102
{ACAD_REACTORS
330
1C7
102
}
330
1C7
100
DictionaryVariables
280
     0
  1
STANDARD
  0
DICTIONARYVAR
  5
1CD
102
{ACAD_REACTORS
330
1C7
102
}
330
1C7
100
DictionaryVariables
280
     0
  1
1
  0
DICTIONARYVAR
  5
1CC
102
{ACAD_REACTORS
330
1C7
102
}
330
1C7
100
DictionaryVariables
280
     0
  1
0
  0
DICTIONARYVAR
  5
1CB
102
{ACAD_REACTORS
330
1C7
102
}
330
1C7
100
DictionaryVariables
280
     0
  1
127
  0
DICTIONARYVAR
  5
1CE
102
{ACAD_REACTORS
330
1C7
102
}
330
1C7
100
DictionaryVariables
280
     0
  1
2
  0
DICTIONARY
  5
208
330
173
100
AcDbDictionary
280
     1
281
     1
  3
ACAD_XREC_ROUNDTRIP
360
209
  0
DICTIONARY
  5
20A
330
174
100
AcDbDictionary
280
     1
281
     1
  3
ACAD_XREC_ROUNDTRIP
360
20B
  0
DICTIONARY
  5
131
330
130
100
AcDbDictionary
280
     1
281
     1
  3
ACAD_XREC_ROUNDTRIP
360
1D4
  3
BUMPTILE
360
133
  3
DIFFUSETILE
360
132
  3
OPACITYTILE
360
136
  3
REFLECTIONTILE
360
135
  3
REFRACTIONTILE
360
137
  3
SPECULARTILE
360
134
  0
DICTIONARY
  5
129
330
128
100
AcDbDictionary
280
     1
281
     1
  3
ACAD_XREC_ROUNDTRIP
360
1D3
  3
BUMPTILE
360
12B
  3
DIFFUSETILE
360
12A
  3
OPACITYTILE
360
12E
  3
REFLECTIONTILE
360
12D
  3
REFRACTIONTILE
360
12F
  3
SPECULARTILE
360
12C
  0
DICTIONARY
  5
139
330
138
100
AcDbDictionary
280
     1
281
     1
  3
ACAD_XREC_ROUNDTRIP
360
1D5
  3
BUMPTILE
360
13B
  3
DIFFUSETILE
360
13A
  3
OPACITYTILE
360
13E
  3
REFLECTIONTILE
360
13D
  3
REFRACTIONTILE
360
13F
  3
SPECULARTILE
360
13C
  0
DICTIONARY
  5
1CF
330
15B
100
AcDbDictionary
280
     1
281
     1
  3
ACAD_ROUNDTRIP_2008_TABLESTYLE_CELLSTYLEMAP
360
1D0
  3
ACAD_XREC_ROUNDTRIP
360
206
  0
DICTIONARY
  5
1E0
330
146
100
AcDbDictionary
280
     1
281
     1
  3
ACAD_XREC_ROUNDTRIP
360
1E1
  0
DICTIONARY
  5
1DE
330
145
100
AcDbDictionary
280
     1
281
     1
  3
ACAD_XREC_ROUNDTRIP
360
1DF
  0
DICTIONARY
  5
1EC
330
14C
100
AcDbDictionary
280
     1
281
     1
  3
ACAD_XREC_ROUNDTRIP
360
1ED
  0
DICTIONARY
  5
1F4
330
150
100
AcDbDictionary
280
     1
281
     1
  3
ACAD_XREC_ROUNDTRIP
360
1F5
  0
DICTIONARY
  5
1E6
330
149
100
AcDbDictionary
280
     1
281
     1
  3
ACAD_XREC_ROUNDTRIP
360
1E7
  0
DICTIONARY
  5
1EA
330
14B
100
AcDbDictionary
280
     1
281
     1
  3
ACAD_XREC_ROUNDTRIP
360
1EB
  0
DICTIONARY
  5
204
330
158
100
AcDbDictionary
280
     1
281
     1
  3
ACAD_XREC_ROUNDTRIP
360
205
  0
DICTIONARY
  5
1F2
330
14F
100
AcDbDictionary
280
     1
281
     1
  3
ACAD_XREC_ROUNDTRIP
360
1F3
  0
DICTIONARY
  5
1D6
330
141
100
AcDbDictionary
280
     1
281
     1
  3
ACAD_XREC_ROUNDTRIP
360
1D7
  0
DICTIONARY
  5
1D8
330
142
100
AcDbDictionary
280
     1
281
     1
  3
ACAD_XREC_ROUNDTRIP
360
1D9
  0
DICTIONARY
  5
1DA
330
143
100
AcDbDictionary
280
     1
281
     1
  3
ACAD_XREC_ROUNDTRIP
360
1DB
  0
DICTIONARY
  5
1DC
330
144
100
AcDbDictionary
280
     1
281
     1
  3
ACAD_XREC_ROUNDTRIP
360
1DD
  0
DICTIONARY
  5
1E4
330
148
100
AcDbDictionary
280
     1
281
     1
  3
ACAD_XREC_ROUNDTRIP
360
1E5
  0
DICTIONARY
  5
200
330
156
100
AcDbDictionary
280
     1
281
     1
  3
ACAD_XREC_ROUNDTRIP
360
201
  0
DICTIONARY
  5
1F0
330
14E
100
AcDbDictionary
280
     1
281
     1
  3
ACAD_XREC_ROUNDTRIP
360
1F1
  0
DICTIONARY
  5
202
330
157
100
AcDbDictionary
280
     1
281
     1
  3
ACAD_XREC_ROUNDTRIP
360
203
  0
DICTIONARY
  5
1E8
330
14A
100
AcDbDictionary
280
     1
281
     1
  3
ACAD_XREC_ROUNDTRIP
360
1E9
  0
DICTIONARY
  5
1FE
330
155
100
AcDbDictionary
280
     1
281
     1
  3
ACAD_XREC_ROUNDTRIP
360
1FF
  0
DICTIONARY
  5
1FC
330
154
100
AcDbDictionary
280
     1
281
     1
  3
ACAD_XREC_ROUNDTRIP
360
1FD
  0
DICTIONARY
  5
1F6
330
151
100
AcDbDictionary
280
     1
281
     1
  3
ACAD_XREC_ROUNDTRIP
360
1F7
  0
DICTIONARY
  5
1F8
330
152
100
AcDbDictionary
280
     1
281
     1
  3
ACAD_XREC_ROUNDTRIP
360
1F9
  0
DICTIONARY
  5
1EE
330
14D
100
AcDbDictionary
280
     1
281
     1
  3
ACAD_XREC_ROUNDTRIP
360
1EF
  0
DICTIONARY
  5
1E2
330
147
100
AcDbDictionary
280
     1
281
     1
  3
ACAD_XREC_ROUNDTRIP
360
1E3
  0
DICTIONARY
  5
1FA
330
153
100
AcDbDictionary
280
     1
281
     1
  3
ACAD_XREC_ROUNDTRIP
360
1FB
  0
XRECORD
  5
209
102
{ACAD_REACTORS
330
208
102
}
330
208
100
AcDbXrecord
280
     1
102
SHADEPLOT
 70
     0
102
SHADEPLOTRESLEVEL
 70
     2
102
SHADEPLOTCUSTOMDPI
 70
   300
  0
XRECORD
  5
20B
102
{ACAD_REACTORS
330
20A
102
}
330
20A
100
AcDbXrecord
280
     1
102
SHADEPLOT
 70
     0
102
SHADEPLOTRESLEVEL
 70
     2
102
SHADEPLOTCUSTOMDPI
 70
   300
  0
XRECORD
  5
1D4
102
{ACAD_REACTORS
330
131
102
}
330
131
100
AcDbXrecord
280
     1
102
MATERIAL
148
0.0
149
0.0
149
0.0
 93
        0
 94
      127
282
     0
 72
     0
 77
     0
171
     0
175
     0
179
     0
273
     0
  0
XRECORD
  5
133
102
{ACAD_REACTORS
330
131
102
}
330
131
100
AcDbXrecord
280
     1
270
     1
271
     1
  0
XRECORD
  5
132
102
{ACAD_REACTORS
330
131
102
}
330
131
100
AcDbXrecord
280
     1
270
     1
271
     1
  0
XRECORD
  5
136
102
{ACAD_REACTORS
330
131
102
}
330
131
100
AcDbXrecord
280
     1
270
     1
271
     1
  0
XRECORD
  5
135
102
{ACAD_REACTORS
330
131
102
}
330
131
100
AcDbXrecord
280
     1
270
     1
271
     1
  0
XRECORD
  5
137
102
{ACAD_REACTORS
330
131
102
}
330
131
100
AcDbXrecord
280
     1
270
     1
271
     1
  0
XRECORD
  5
134
102
{ACAD_REACTORS
330
131
102
}
330
131
100
AcDbXrecord
280
     1
270
     1
271
     1
  0
XRECORD
  5
1D3
102
{ACAD_REACTORS
330
129
102
}
330
129
100
AcDbXrecord
280
     1
102
MATERIAL
148
0.0
149
0.0
149
0.0
 93
        0
 94
      127
282
     0
 72
     0
 77
     0
171
     0
175
     0
179
     0
273
     0
  0
XRECORD
  5
12B
102
{ACAD_REACTORS
330
129
102
}
330
129
100
AcDbXrecord
280
     1
270
     1
271
     1
  0
XRECORD
  5
12A
102
{ACAD_REACTORS
330
129
102
}
330
129
100
AcDbXrecord
280
     1
270
     1
271
     1
  0
XRECORD
  5
12E
102
{ACAD_REACTORS
330
129
102
}
330
129
100
AcDbXrecord
280
     1
270
     1
271
     1
  0
XRECORD
  5
12D
102
{ACAD_REACTORS
330
129
102
}
330
129
100
AcDbXrecord
280
     1
270
     1
271
     1
  0
XRECORD
  5
12F
102
{ACAD_REACTORS
330
129
102
}
330
129
100
AcDbXrecord
280
     1
270
     1
271
     1
  0
XRECORD
  5
12C
102
{ACAD_REACTORS
330
129
102
}
330
129
100
AcDbXrecord
280
     1
270
     1
271
     1
  0
XRECORD
  5
1D5
102
{ACAD_REACTORS
330
139
102
}
330
139
100
AcDbXrecord
280
     1
102
MATERIAL
148
0.0
149
0.0
149
0.0
 93
        0
 94
      127
282
     0
 72
     0
 77
     0
171
     0
175
     0
179
     0
273
     0
  0
XRECORD
  5
13B
102
{ACAD_REACTORS
330
139
102
}
330
139
100
AcDbXrecord
280
     1
270
     1
271
     1
  0
XRECORD
  5
13A
102
{ACAD_REACTORS
330
139
102
}
330
139
100
AcDbXrecord
280
     1
270
     1
271
     1
  0
XRECORD
  5
13E
102
{ACAD_REACTORS
330
139
102
}
330
139
100
AcDbXrecord
280
     1
270
     1
271
     1
  0
XRECORD
  5
13D
102
{ACAD_REACTORS
330
139
102
}
330
139
100
AcDbXrecord
280
     1
270
     1
271
     1
  0
XRECORD
  5
13F
102
{ACAD_REACTORS
330
139
102
}
330
139
100
AcDbXrecord
280
     1
270
     1
271
     1
  0
XRECORD
  5
13C
102
{ACAD_REACTORS
330
139
102
}
330
139
100
AcDbXrecord
280
     1
270
     1
271
     1
  0
CELLSTYLEMAP
  5
1D0
102
{ACAD_REACTORS
330
1CF
102
}
330
1CF
100
AcDbCellStyleMap
 90
        3
300
CELLSTYLE
  1
TABLEFORMAT_BEGIN
 90
        5
170
     1
 91
        0
 92
    32768
 62
   257
 93
        1
300
CONTENTFORMAT
  1
CONTENTFORMAT_BEGIN
 90
        0
 91
        0
 92
      512
 93
        0
300

 40
0.0
140
1.0
 94
        5
 62
     0
340
24
144
6.0
309
CONTENTFORMAT_END
171
     1
301
MARGIN
  1
CELLMARGIN_BEGIN
 40
1.5
 40
1.5
 40
1.5
 40
1.5
 40
4.5
 40
4.5
309
CELLMARGIN_END
 94
        6
 95
        1
302
GRIDFORMAT
  1
GRIDFORMAT_BEGIN
 90
        0
 91
        1
 62
     0
 92
       -2
340
0
 93
        0
 40
1.125
309
GRIDFORMAT_END
 95
        2
302
GRIDFORMAT
  1
GRIDFORMAT_BEGIN
 90
        0
 91
        1
 62
     0
 92
       -2
340
0
 93
        0
 40
1.125
309
GRIDFORMAT_END
 95
        4
302
GRIDFORMAT
  1
GRIDFORMAT_BEGIN
 90
        0
 91
        1
 62
     0
 92
       -2
340
0
 93
        0
 40
1.125
309
GRIDFORMAT_END
 95
        8
302
GRIDFORMAT
  1
GRIDFORMAT_BEGIN
 90
        0
 91
        1
 62
     0
 92
       -2
340
0
 93
        0
 40
1.125
309
GRIDFORMAT_END
 95
       16
302
GRIDFORMAT
  1
GRIDFORMAT_BEGIN
 90
        0
 91
        1
 62
     0
 92
       -2
340
0
 93
        0
 40
1.125
309
GRIDFORMAT_END
 95
       32
302
GRIDFORMAT
  1
GRIDFORMAT_BEGIN
 90
        0
 91
        1
 62
     0
 92
       -2
340
0
 93
        0
 40
1.125
309
GRIDFORMAT_END
309
TABLEFORMAT_END
  1
CELLSTYLE_BEGIN
 90
        1
 91
        1
300
_TITLE
309
CELLSTYLE_END
300
CELLSTYLE
  1
TABLEFORMAT_BEGIN
 90
        5
170
     1
 91
        0
 92
        0
 62
   257
 93
        1
300
CONTENTFORMAT
  1
CONTENTFORMAT_BEGIN
 90
        0
 91
        0
 92
      512
 93
        0
300

 40
0.0
140
1.0
 94
        5
 62
     0
340
24
144
4.5
309
CONTENTFORMAT_END
171
     1
301
MARGIN
  1
CELLMARGIN_BEGIN
 40
1.5
 40
1.5
 40
1.5
 40
1.5
 40
4.5
 40
4.5
309
CELLMARGIN_END
 94
        6
 95
        1
302
GRIDFORMAT
  1
GRIDFORMAT_BEGIN
 90
        0
 91
        1
 62
     0
 92
       -2
340
0
 93
        0
 40
1.125
309
GRIDFORMAT_END
 95
        2
302
GRIDFORMAT
  1
GRIDFORMAT_BEGIN
 90
        0
 91
        1
 62
     0
 92
       -2
340
0
 93
        0
 40
1.125
309
GRIDFORMAT_END
 95
        4
302
GRIDFORMAT
  1
GRIDFORMAT_BEGIN
 90
        0
 91
        1
 62
     0
 92
       -2
340
0
 93
        0
 40
1.125
309
GRIDFORMAT_END
 95
        8
302
GRIDFORMAT
  1
GRIDFORMAT_BEGIN
 90
        0
 91
        1
 62
     0
 92
       -2
340
0
 93
        0
 40
1.125
309
GRIDFORMAT_END
 95
       16
302
GRIDFORMAT
  1
GRIDFORMAT_BEGIN
 90
        0
 91
        1
 62
     0
 92
       -2
340
0
 93
        0
 40
1.125
309
GRIDFORMAT_END
 95
       32
302
GRIDFORMAT
  1
GRIDFORMAT_BEGIN
 90
        0
 91
        1
 62
     0
 92
       -2
340
0
 93
        0
 40
1.125
309
GRIDFORMAT_END
309
TABLEFORMAT_END
  1
CELLSTYLE_BEGIN
 90
        2
 91
        1
300
_HEADER
309
CELLSTYLE_END
300
CELLSTYLE
  1
TABLEFORMAT_BEGIN
 90
        5
170
     1
 91
        0
 92
        0
 62
   257
 93
        1
300
CONTENTFORMAT
  1
CONTENTFORMAT_BEGIN
 90
        0
 91
        0
 92
      512
 93
        0
300

 40
0.0
140
1.0
 94
        2
 62
     0
340
24
144
4.5
309
CONTENTFORMAT_END
171
     1
301
MARGIN
  1
CELLMARGIN_BEGIN
 40
1.5
 40
1.5
 40
1.5
 40
1.5
 40
4.5
 40
4.5
309
CELLMARGIN_END
 94
        6
 95
        1
302
GRIDFORMAT
  1
GRIDFORMAT_BEGIN
 90
        0
 91
        1
 62
     0
 92
       -2
340
0
 93
        0
 40
1.125
309
GRIDFORMAT_END
 95
        2
302
GRIDFORMAT
  1
GRIDFORMAT_BEGIN
 90
        0
 91
        1
 62
     0
 92
       -2
340
0
 93
        0
 40
1.125
309
GRIDFORMAT_END
 95
        4
302
GRIDFORMAT
  1
GRIDFORMAT_BEGIN
 90
        0
 91
        1
 62
     0
 92
       -2
340
0
 93
        0
 40
1.125
309
GRIDFORMAT_END
 95
        8
302
GRIDFORMAT
  1
GRIDFORMAT_BEGIN
 90
        0
 91
        1
 62
     0
 92
       -2
340
0
 93
        0
 40
1.125
309
GRIDFORMAT_END
 95
       16
302
GRIDFORMAT
  1
GRIDFORMAT_BEGIN
 90
        0
 91
        1
 62
     0
 92
       -2
340
0
 93
        0
 40
1.125
309
GRIDFORMAT_END
 95
       32
302
GRIDFORMAT
  1
GRIDFORMAT_BEGIN
 90
        0
 91
        1
 62
     0
 92
       -2
340
0
 93
        0
 40
1.125
309
GRIDFORMAT_END
309
TABLEFORMAT_END
  1
CELLSTYLE_BEGIN
 90
        3
 91
        2
300
_DATA
309
CELLSTYLE_END
  0
XRECORD
  5
206
102
{ACAD_REACTORS
330
1CF
102
}
330
1CF
100
AcDbXrecord
280
     1
102
ACAD_ROUNDTRIP_PRE2007_TABLESTYLE
 90
      512
 91
        0
  1

 92
      512
 93
        0
  2

 94
      512
 95
        0
  3

  0
XRECORD
  5
1E1
102
{ACAD_REACTORS
330
1E0
102
}
330
1E0
100
AcDbXrecord
280
     1
102
RTVSPropertyOp0
 70
     1
102
RTVSPropertyOp1
 70
     1
102
RTVSPropertyOp2
 70
     1
102
RTVSPropertyOp3
 70
     1
102
RTVSPropertyOp4
 70
     1
102
RTVSPropertyOp5
 70
     1
102
RTVSPropertyOp6
 70
     1
102
RTVSPropertyOp7
 70
     1
102
RTVSPropertyOp8
 70
     1
102
RTVSPropertyOp9
 70
     1
102
RTVSPropertyOp10
 70
     1
102
RTVSPropertyOp11
 70
     1
102
RTVSPropertyOp12
 70
     1
102
RTVSPropertyOp13
 70
     1
102
RTVSPropertyOp14
 70
     1
102
RTVSPropertyOp15
 70
     1
102
RTVSPropertyOp16
 70
     1
102
RTVSPropertyOp17
 70
     1
102
RTVSPropertyOp18
 70
     1
102
RTVSPropertyOp19
 70
     1
102
RTVSPropertyOp20
 70
     1
102
RTVSPropertyOp21
 70
     1
102
RTVSPropertyOp22
 70
     1
102
RTVSPropertyOp23
 70
     1
102
RTVSPropertyOp24
 70
     1
102
RTVSPropertyOp25
 70
     1
102
RTVSPropertyOp26
 70
     1
102
RTVSPropertyOp27
 70
     1
102
RTVSPropertyOp28
 70
     1
102
RTVSPropertyOp29
 70
     1
102
RTVSPropertyOp30
 70
     1
102
RTVSPropertyOp31
 70
     1
102
RTVSPropertyOp32
 70
     1
  0
XRECORD
  5
1DF
102
{ACAD_REACTORS
330
1DE
102
}
330
1DE
100
AcDbXrecord
280
     1
102
RTVSPropertyOp0
 70
     1
102
RTVSPropertyOp1
 70
     1
102
RTVSPropertyOp2
 70
     1
102
RTVSPropertyOp3
 70
     1
102
RTVSPropertyOp4
 70
     1
102
RTVSPropertyOp5
 70
     1
102
RTVSPropertyOp6
 70
     1
102
RTVSPropertyOp7
 70
     1
102
RTVSPropertyOp8
 70
     1
102
RTVSPropertyOp9
 70
     1
102
RTVSPropertyOp10
 70
     1
102
RTVSPropertyOp11
 70
     1
102
RTVSPropertyOp12
 70
     1
102
RTVSPropertyOp13
 70
     1
102
RTVSPropertyOp14
 70
     1
102
RTVSPropertyOp15
 70
     1
102
RTVSPropertyOp16
 70
     1
102
RTVSPropertyOp17
 70
     1
102
RTVSPropertyOp18
 70
     1
102
RTVSPropertyOp19
 70
     1
102
RTVSPropertyOp20
 70
     1
102
RTVSPropertyOp21
 70
     1
102
RTVSPropertyOp22
 70
     1
102
RTVSPropertyOp23
 70
     1
102
RTVSPropertyOp24
 70
     1
102
RTVSPropertyOp25
 70
     1
102
RTVSPropertyOp26
 70
     1
102
RTVSPropertyOp27
 70
     1
102
RTVSPropertyOp28
 70
     1
102
RTVSPropertyOp29
 70
     1
102
RTVSPropertyOp30
 70
     1
102
RTVSPropertyOp31
 70
     1
102
RTVSPropertyOp32
 70
     1
  0
XRECORD
  5
1ED
102
{ACAD_REACTORS
330
1EC
102
}
330
1EC
100
AcDbXrecord
280
     1
102
RTVSPropertyOp0
 70
     1
102
RTVSPropertyOp1
 70
     1
102
RTVSPropertyOp2
 70
     1
102
RTVSPropertyOp3
 70
     1
102
RTVSPropertyOp4
 70
     1
102
RTVSPropertyOp5
 70
     1
102
RTVSPropertyOp6
 70
     1
102
RTVSPropertyOp7
 70
     1
102
RTVSPropertyOp8
 70
     1
102
RTVSPropertyOp9
 70
     1
102
RTVSPropertyOp10
 70
     1
102
RTVSPropertyOp11
 70
     1
102
RTVSPropertyOp12
 70
     1
102
RTVSPropertyOp13
 70
     1
102
RTVSPropertyOp14
 70
     1
102
RTVSPropertyOp15
 70
     1
102
RTVSPropertyOp16
 70
     1
102
RTVSPropertyOp17
 70
     1
102
RTVSPropertyOp18
 70
     1
102
RTVSPropertyOp19
 70
     1
102
RTVSPropertyOp20
 70
     1
102
RTVSPropertyOp21
 70
     1
102
RTVSPropertyOp22
 70
     1
102
RTVSPropertyOp23
 70
     1
102
RTVSPropertyOp24
 70
     1
102
RTVSPropertyOp25
 70
     1
102
RTVSPropertyOp26
 70
     1
102
RTVSPropertyOp27
 70
     1
102
RTVSPropertyOp28
 70
     1
102
RTVSPropertyOp29
 70
     1
102
RTVSPropertyOp30
 70
     1
102
RTVSPropertyOp31
 70
     1
102
RTVSPropertyOp32
 70
     1
  0
XRECORD
  5
1F5
102
{ACAD_REACTORS
330
1F4
102
}
330
1F4
100
AcDbXrecord
280
     1
102
RTVSPropertyOp0
 70
     1
102
RTVSPropertyOp1
 70
     1
102
RTVSPropertyOp2
 70
     1
102
RTVSPropertyOp3
 70
     1
102
RTVSPropertyOp4
 70
     1
102
RTVSPropertyOp5
 70
     1
102
RTVSPropertyOp6
 70
     1
102
RTVSPropertyOp7
 70
     1
102
RTVSPropertyOp8
 70
     1
102
RTVSPropertyOp9
 70
     1
102
RTVSPropertyOp10
 70
     1
102
RTVSPropertyOp11
 70
     1
102
RTVSPropertyOp12
 70
     1
102
RTVSPropertyOp13
 70
     1
102
RTVSPropertyOp14
 70
     1
102
RTVSPropertyOp15
 70
     1
102
RTVSPropertyOp16
 70
     1
102
RTVSPropertyOp17
 70
     1
102
RTVSPropertyOp18
 70
     1
102
RTVSPropertyOp19
 70
     1
102
RTVSPropertyOp20
 70
     1
102
RTVSPropertyOp21
 70
     1
102
RTVSPropertyOp22
 70
     1
102
RTVSPropertyOp23
 70
     1
102
RTVSPropertyOp24
 70
     1
102
RTVSPropertyOp25
 70
     1
102
RTVSPropertyOp26
 70
     1
102
RTVSPropertyOp27
 70
     1
102
RTVSPropertyOp28
 70
     1
102
RTVSPropertyOp29
 70
     1
102
RTVSPropertyOp30
 70
     1
102
RTVSPropertyOp31
 70
     1
102
RTVSPropertyOp32
 70
     1
  0
XRECORD
  5
1E7
102
{ACAD_REACTORS
330
1E6
102
}
330
1E6
100
AcDbXrecord
280
     1
102
RTVSPropertyOp0
 70
     1
102
RTVSPropertyOp1
 70
     1
102
RTVSPropertyOp2
 70
     1
102
RTVSPropertyOp3
 70
     1
102
RTVSPropertyOp4
 70
     1
102
RTVSPropertyOp5
 70
     1
102
RTVSPropertyOp6
 70
     1
102
RTVSPropertyOp7
 70
     1
102
RTVSPropertyOp8
 70
     1
102
RTVSPropertyOp9
 70
     1
102
RTVSPropertyOp10
 70
     1
102
RTVSPropertyOp11
 70
     1
102
RTVSPropertyOp12
 70
     1
102
RTVSPropertyOp13
 70
     1
102
RTVSPropertyOp14
 70
     1
102
RTVSPropertyOp15
 70
     1
102
RTVSPropertyOp16
 70
     1
102
RTVSPropertyOp17
 70
     1
102
RTVSPropertyOp18
 70
     1
102
RTVSPropertyOp19
 70
     1
102
RTVSPropertyOp20
 70
     1
102
RTVSPropertyOp21
 70
     1
102
RTVSPropertyOp22
 70
     1
102
RTVSPropertyOp23
 70
     1
102
RTVSPropertyOp24
 70
     1
102
RTVSPropertyOp25
 70
     1
102
RTVSPropertyOp26
 70
     1
102
RTVSPropertyOp27
 70
     1
102
RTVSPropertyOp28
 70
     1
102
RTVSPropertyOp29
 70
     1
102
RTVSPropertyOp30
 70
     1
102
RTVSPropertyOp31
 70
     1
102
RTVSPropertyOp32
 70
     1
  0
XRECORD
  5
1EB
102
{ACAD_REACTORS
330
1EA
102
}
330
1EA
100
AcDbXrecord
280
     1
102
RTVSPropertyOp0
 70
     1
102
RTVSPropertyOp1
 70
     1
102
RTVSPropertyOp2
 70
     1
102
RTVSPropertyOp3
 70
     1
102
RTVSPropertyOp4
 70
     1
102
RTVSPropertyOp5
 70
     1
102
RTVSPropertyOp6
 70
     1
102
RTVSPropertyOp7
 70
     1
102
RTVSPropertyOp8
 70
     1
102
RTVSPropertyOp9
 70
     1
102
RTVSPropertyOp10
 70
     1
102
RTVSPropertyOp11
 70
     1
102
RTVSPropertyOp12
 70
     1
102
RTVSPropertyOp13
 70
     1
102
RTVSPropertyOp14
 70
     1
102
RTVSPropertyOp15
 70
     1
102
RTVSPropertyOp16
 70
     1
102
RTVSPropertyOp17
 70
     1
102
RTVSPropertyOp18
 70
     1
102
RTVSPropertyOp19
 70
     1
102
RTVSPropertyOp20
 70
     1
102
RTVSPropertyOp21
 70
     1
102
RTVSPropertyOp22
 70
     1
102
RTVSPropertyOp23
 70
     1
102
RTVSPropertyOp24
 70
     1
102
RTVSPropertyOp25
 70
     1
102
RTVSPropertyOp26
 70
     1
102
RTVSPropertyOp27
 70
     1
102
RTVSPropertyOp28
 70
     1
102
RTVSPropertyOp29
 70
     1
102
RTVSPropertyOp30
 70
     1
102
RTVSPropertyOp31
 70
     1
102
RTVSPropertyOp32
 70
     1
  0
XRECORD
  5
205
102
{ACAD_REACTORS
330
204
102
}
330
204
100
AcDbXrecord
280
     1
102
RTVSPropertyOp0
 70
     0
102
RTVSPropertyOp1
 70
     0
102
RTVSPropertyOp2
 70
     0
102
RTVSPropertyOp3
 70
     0
102
RTVSPropertyOp4
 70
     0
102
RTVSPropertyOp5
 70
     0
102
RTVSPropertyOp6
 70
     0
102
RTVSPropertyOp7
 70
     0
102
RTVSPropertyOp8
 70
     0
102
RTVSPropertyOp9
 70
     0
102
RTVSPropertyOp10
 70
     0
102
RTVSPropertyOp11
 70
     0
102
RTVSPropertyOp12
 70
     0
102
RTVSPropertyOp13
 70
     0
102
RTVSPropertyOp14
 70
     2
102
RTVSPropertyOp15
 70
     0
102
RTVSPropertyOp16
 70
     0
102
RTVSPropertyOp17
 70
     0
102
RTVSPropertyOp18
 70
     0
102
RTVSPropertyOp19
 70
     0
102
RTVSPropertyOp20
 70
     0
102
RTVSPropertyOp21
 70
     0
102
RTVSPropertyOp22
 70
     0
102
RTVSPropertyOp23
 70
     0
102
RTVSPropertyOp24
 70
     0
102
RTVSPropertyOp25
 70
     0
102
RTVSPropertyOp26
 70
     0
102
RTVSPropertyOp27
 70
     0
102
RTVSPropertyOp28
 70
     0
102
RTVSPropertyOp29
 70
     0
102
RTVSPropertyOp30
 70
     0
102
RTVSPropertyOp31
 70
     0
102
RTVSPropertyOp32
 70
     0
  0
XRECORD
  5
1F3
102
{ACAD_REACTORS
330
1F2
102
}
330
1F2
100
AcDbXrecord
280
     1
102
RTVSPropertyOp0
 70
     1
102
RTVSPropertyOp1
 70
     1
102
RTVSPropertyOp2
 70
     1
102
RTVSPropertyOp3
 70
     1
102
RTVSPropertyOp4
 70
     1
102
RTVSPropertyOp5
 70
     1
102
RTVSPropertyOp6
 70
     1
102
RTVSPropertyOp7
 70
     1
102
RTVSPropertyOp8
 70
     1
102
RTVSPropertyOp9
 70
     1
102
RTVSPropertyOp10
 70
     1
102
RTVSPropertyOp11
 70
     1
102
RTVSPropertyOp12
 70
     1
102
RTVSPropertyOp13
 70
     1
102
RTVSPropertyOp14
 70
     1
102
RTVSPropertyOp15
 70
     1
102
RTVSPropertyOp16
 70
     1
102
RTVSPropertyOp17
 70
     1
102
RTVSPropertyOp18
 70
     1
102
RTVSPropertyOp19
 70
     1
102
RTVSPropertyOp20
 70
     1
102
RTVSPropertyOp21
 70
     1
102
RTVSPropertyOp22
 70
     1
102
RTVSPropertyOp23
 70
     1
102
RTVSPropertyOp24
 70
     1
102
RTVSPropertyOp25
 70
     1
102
RTVSPropertyOp26
 70
     1
102
RTVSPropertyOp27
 70
     1
102
RTVSPropertyOp28
 70
     1
102
RTVSPropertyOp29
 70
     1
102
RTVSPropertyOp30
 70
     1
102
RTVSPropertyOp31
 70
     1
102
RTVSPropertyOp32
 70
     1
  0
XRECORD
  5
1D7
102
{ACAD_REACTORS
330
1D6
102
}
330
1D6
100
AcDbXrecord
280
     1
102
RTVSPropertyOp0
 70
     1
102
RTVSPropertyOp1
 70
     1
102
RTVSPropertyOp2
 70
     1
102
RTVSPropertyOp3
 70
     1
102
RTVSPropertyOp4
 70
     1
102
RTVSPropertyOp5
 70
     1
102
RTVSPropertyOp6
 70
     1
102
RTVSPropertyOp7
 70
     1
102
RTVSPropertyOp8
 70
     1
102
RTVSPropertyOp9
 70
     1
102
RTVSPropertyOp10
 70
     1
102
RTVSPropertyOp11
 70
     1
102
RTVSPropertyOp12
 70
     1
102
RTVSPropertyOp13
 70
     1
102
RTVSPropertyOp14
 70
     1
102
RTVSPropertyOp15
 70
     1
102
RTVSPropertyOp16
 70
     1
102
RTVSPropertyOp17
 70
     1
102
RTVSPropertyOp18
 70
     1
102
RTVSPropertyOp19
 70
     1
102
RTVSPropertyOp20
 70
     1
102
RTVSPropertyOp21
 70
     1
102
RTVSPropertyOp22
 70
     1
102
RTVSPropertyOp23
 70
     1
102
RTVSPropertyOp24
 70
     1
102
RTVSPropertyOp25
 70
     1
102
RTVSPropertyOp26
 70
     1
102
RTVSPropertyOp27
 70
     1
102
RTVSPropertyOp28
 70
     1
102
RTVSPropertyOp29
 70
     1
102
RTVSPropertyOp30
 70
     1
102
RTVSPropertyOp31
 70
     1
102
RTVSPropertyOp32
 70
     1
  0
XRECORD
  5
1D9
102
{ACAD_REACTORS
330
1D8
102
}
330
1D8
100
AcDbXrecord
280
     1
102
RTVSPropertyOp0
 70
     1
102
RTVSPropertyOp1
 70
     1
102
RTVSPropertyOp2
 70
     1
102
RTVSPropertyOp3
 70
     1
102
RTVSPropertyOp4
 70
     1
102
RTVSPropertyOp5
 70
     1
102
RTVSPropertyOp6
 70
     1
102
RTVSPropertyOp7
 70
     1
102
RTVSPropertyOp8
 70
     1
102
RTVSPropertyOp9
 70
     1
102
RTVSPropertyOp10
 70
     1
102
RTVSPropertyOp11
 70
     1
102
RTVSPropertyOp12
 70
     1
102
RTVSPropertyOp13
 70
     1
102
RTVSPropertyOp14
 70
     1
102
RTVSPropertyOp15
 70
     1
102
RTVSPropertyOp16
 70
     1
102
RTVSPropertyOp17
 70
     1
102
RTVSPropertyOp18
 70
     1
102
RTVSPropertyOp19
 70
     1
102
RTVSPropertyOp20
 70
     1
102
RTVSPropertyOp21
 70
     1
102
RTVSPropertyOp22
 70
     1
102
RTVSPropertyOp23
 70
     1
102
RTVSPropertyOp24
 70
     1
102
RTVSPropertyOp25
 70
     1
102
RTVSPropertyOp26
 70
     1
102
RTVSPropertyOp27
 70
     1
102
RTVSPropertyOp28
 70
     1
102
RTVSPropertyOp29
 70
     1
102
RTVSPropertyOp30
 70
     1
102
RTVSPropertyOp31
 70
     1
102
RTVSPropertyOp32
 70
     1
  0
XRECORD
  5
1DB
102
{ACAD_REACTORS
330
1DA
102
}
330
1DA
100
AcDbXrecord
280
     1
102
RTVSPropertyOp0
 70
     1
102
RTVSPropertyOp1
 70
     1
102
RTVSPropertyOp2
 70
     1
102
RTVSPropertyOp3
 70
     1
102
RTVSPropertyOp4
 70
     1
102
RTVSPropertyOp5
 70
     1
102
RTVSPropertyOp6
 70
     1
102
RTVSPropertyOp7
 70
     1
102
RTVSPropertyOp8
 70
     1
102
RTVSPropertyOp9
 70
     1
102
RTVSPropertyOp10
 70
     1
102
RTVSPropertyOp11
 70
     1
102
RTVSPropertyOp12
 70
     1
102
RTVSPropertyOp13
 70
     1
102
RTVSPropertyOp14
 70
     1
102
RTVSPropertyOp15
 70
     1
102
RTVSPropertyOp16
 70
     1
102
RTVSPropertyOp17
 70
     1
102
RTVSPropertyOp18
 70
     1
102
RTVSPropertyOp19
 70
     1
102
RTVSPropertyOp20
 70
     1
102
RTVSPropertyOp21
 70
     1
102
RTVSPropertyOp22
 70
     1
102
RTVSPropertyOp23
 70
     1
102
RTVSPropertyOp24
 70
     1
102
RTVSPropertyOp25
 70
     1
102
RTVSPropertyOp26
 70
     1
102
RTVSPropertyOp27
 70
     1
102
RTVSPropertyOp28
 70
     1
102
RTVSPropertyOp29
 70
     1
102
RTVSPropertyOp30
 70
     1
102
RTVSPropertyOp31
 70
     1
102
RTVSPropertyOp32
 70
     1
  0
XRECORD
  5
1DD
102
{ACAD_REACTORS
330
1DC
102
}
330
1DC
100
AcDbXrecord
280
     1
102
RTVSPropertyOp0
 70
     1
102
RTVSPropertyOp1
 70
     1
102
RTVSPropertyOp2
 70
     1
102
RTVSPropertyOp3
 70
     1
102
RTVSPropertyOp4
 70
     1
102
RTVSPropertyOp5
 70
     1
102
RTVSPropertyOp6
 70
     1
102
RTVSPropertyOp7
 70
     1
102
RTVSPropertyOp8
 70
     1
102
RTVSPropertyOp9
 70
     1
102
RTVSPropertyOp10
 70
     1
102
RTVSPropertyOp11
 70
     1
102
RTVSPropertyOp12
 70
     1
102
RTVSPropertyOp13
 70
     1
102
RTVSPropertyOp14
 70
     1
102
RTVSPropertyOp15
 70
     1
102
RTVSPropertyOp16
 70
     1
102
RTVSPropertyOp17
 70
     1
102
RTVSPropertyOp18
 70
     1
102
RTVSPropertyOp19
 70
     1
102
RTVSPropertyOp20
 70
     1
102
RTVSPropertyOp21
 70
     1
102
RTVSPropertyOp22
 70
     1
102
RTVSPropertyOp23
 70
     1
102
RTVSPropertyOp24
 70
     1
102
RTVSPropertyOp25
 70
     1
102
RTVSPropertyOp26
 70
     1
102
RTVSPropertyOp27
 70
     1
102
RTVSPropertyOp28
 70
     1
102
RTVSPropertyOp29
 70
     1
102
RTVSPropertyOp30
 70
     1
102
RTVSPropertyOp31
 70
     1
102
RTVSPropertyOp32
 70
     1
  0
XRECORD
  5
1E5
102
{ACAD_REACTORS
330
1E4
102
}
330
1E4
100
AcDbXrecord
280
     1
102
RTVSPropertyOp0
 70
     1
102
RTVSPropertyOp1
 70
     1
102
RTVSPropertyOp2
 70
     1
102
RTVSPropertyOp3
 70
     1
102
RTVSPropertyOp4
 70
     1
102
RTVSPropertyOp5
 70
     1
102
RTVSPropertyOp6
 70
     1
102
RTVSPropertyOp7
 70
     1
102
RTVSPropertyOp8
 70
     1
102
RTVSPropertyOp9
 70
     1
102
RTVSPropertyOp10
 70
     1
102
RTVSPropertyOp11
 70
     1
102
RTVSPropertyOp12
 70
     1
102
RTVSPropertyOp13
 70
     1
102
RTVSPropertyOp14
 70
     1
102
RTVSPropertyOp15
 70
     1
102
RTVSPropertyOp16
 70
     1
102
RTVSPropertyOp17
 70
     1
102
RTVSPropertyOp18
 70
     1
102
RTVSPropertyOp19
 70
     1
102
RTVSPropertyOp20
 70
     1
102
RTVSPropertyOp21
 70
     1
102
RTVSPropertyOp22
 70
     1
102
RTVSPropertyOp23
 70
     1
102
RTVSPropertyOp24
 70
     1
102
RTVSPropertyOp25
 70
     1
102
RTVSPropertyOp26
 70
     1
102
RTVSPropertyOp27
 70
     1
102
RTVSPropertyOp28
 70
     1
102
RTVSPropertyOp29
 70
     1
102
RTVSPropertyOp30
 70
     1
102
RTVSPropertyOp31
 70
     1
102
RTVSPropertyOp32
 70
     1
  0
XRECORD
  5
201
102
{ACAD_REACTORS
330
200
102
}
330
200
100
AcDbXrecord
280
     1
102
RTVSPropertyOp0
 70
     0
102
RTVSPropertyOp1
 70
     0
102
RTVSPropertyOp2
 70
     0
102
RTVSPropertyOp3
 70
     0
102
RTVSPropertyOp4
 70
     0
102
RTVSPropertyOp5
 70
     0
102
RTVSPropertyOp6
 70
     0
102
RTVSPropertyOp7
 70
     0
102
RTVSPropertyOp8
 70
     0
102
RTVSPropertyOp9
 70
     0
102
RTVSPropertyOp10
 70
     0
102
RTVSPropertyOp11
 70
     0
102
RTVSPropertyOp12
 70
     0
102
RTVSPropertyOp13
 70
     0
102
RTVSPropertyOp14
 70
     2
102
RTVSPropertyOp15
 70
     0
102
RTVSPropertyOp16
 70
     0
102
RTVSPropertyOp17
 70
     0
102
RTVSPropertyOp18
 70
     0
102
RTVSPropertyOp19
 70
     0
102
RTVSPropertyOp20
 70
     0
102
RTVSPropertyOp21
 70
     0
102
RTVSPropertyOp22
 70
     0
102
RTVSPropertyOp23
 70
     0
102
RTVSPropertyOp24
 70
     0
102
RTVSPropertyOp25
 70
     0
102
RTVSPropertyOp26
 70
     0
102
RTVSPropertyOp27
 70
     0
102
RTVSPropertyOp28
 70
     0
102
RTVSPropertyOp29
 70
     0
102
RTVSPropertyOp30
 70
     0
102
RTVSPropertyOp31
 70
     0
102
RTVSPropertyOp32
 70
     0
  0
XRECORD
  5
1F1
102
{ACAD_REACTORS
330
1F0
102
}
330
1F0
100
AcDbXrecord
280
     1
102
RTVSPropertyOp0
 70
     1
102
RTVSPropertyOp1
 70
     1
102
RTVSPropertyOp2
 70
     1
102
RTVSPropertyOp3
 70
     1
102
RTVSPropertyOp4
 70
     1
102
RTVSPropertyOp5
 70
     1
102
RTVSPropertyOp6
 70
     1
102
RTVSPropertyOp7
 70
     1
102
RTVSPropertyOp8
 70
     1
102
RTVSPropertyOp9
 70
     1
102
RTVSPropertyOp10
 70
     1
102
RTVSPropertyOp11
 70
     1
102
RTVSPropertyOp12
 70
     1
102
RTVSPropertyOp13
 70
     1
102
RTVSPropertyOp14
 70
     1
102
RTVSPropertyOp15
 70
     1
102
RTVSPropertyOp16
 70
     1
102
RTVSPropertyOp17
 70
     1
102
RTVSPropertyOp18
 70
     1
102
RTVSPropertyOp19
 70
     1
102
RTVSPropertyOp20
 70
     1
102
RTVSPropertyOp21
 70
     1
102
RTVSPropertyOp22
 70
     1
102
RTVSPropertyOp23
 70
     1
102
RTVSPropertyOp24
 70
     1
102
RTVSPropertyOp25
 70
     1
102
RTVSPropertyOp26
 70
     1
102
RTVSPropertyOp27
 70
     1
102
RTVSPropertyOp28
 70
     1
102
RTVSPropertyOp29
 70
     1
102
RTVSPropertyOp30
 70
     1
102
RTVSPropertyOp31
 70
     1
102
RTVSPropertyOp32
 70
     1
  0
XRECORD
  5
203
102
{ACAD_REACTORS
330
202
102
}
330
202
100
AcDbXrecord
280
     1
102
RTVSPropertyOp0
 70
     0
102
RTVSPropertyOp1
 70
     0
102
RTVSPropertyOp2
 70
     0
102
RTVSPropertyOp3
 70
     0
102
RTVSPropertyOp4
 70
     0
102
RTVSPropertyOp5
 70
     0
102
RTVSPropertyOp6
 70
     0
102
RTVSPropertyOp7
 70
     0
102
RTVSPropertyOp8
 70
     0
102
RTVSPropertyOp9
 70
     0
102
RTVSPropertyOp10
 70
     0
102
RTVSPropertyOp11
 70
     0
102
RTVSPropertyOp12
 70
     0
102
RTVSPropertyOp13
 70
     0
102
RTVSPropertyOp14
 70
     2
102
RTVSPropertyOp15
 70
     0
102
RTVSPropertyOp16
 70
     0
102
RTVSPropertyOp17
 70
     0
102
RTVSPropertyOp18
 70
     0
102
RTVSPropertyOp19
 70
     0
102
RTVSPropertyOp20
 70
     0
102
RTVSPropertyOp21
 70
     0
102
RTVSPropertyOp22
 70
     0
102
RTVSPropertyOp23
 70
     0
102
RTVSPropertyOp24
 70
     0
102
RTVSPropertyOp25
 70
     0
102
RTVSPropertyOp26
 70
     0
102
RTVSPropertyOp27
 70
     0
102
RTVSPropertyOp28
 70
     0
102
RTVSPropertyOp29
 70
     0
102
RTVSPropertyOp30
 70
     0
102
RTVSPropertyOp31
 70
     0
102
RTVSPropertyOp32
 70
     0
  0
XRECORD
  5
1E9
102
{ACAD_REACTORS
330
1E8
102
}
330
1E8
100
AcDbXrecord
280
     1
102
RTVSPropertyOp0
 70
     1
102
RTVSPropertyOp1
 70
     1
102
RTVSPropertyOp2
 70
     1
102
RTVSPropertyOp3
 70
     1
102
RTVSPropertyOp4
 70
     1
102
RTVSPropertyOp5
 70
     1
102
RTVSPropertyOp6
 70
     1
102
RTVSPropertyOp7
 70
     1
102
RTVSPropertyOp8
 70
     1
102
RTVSPropertyOp9
 70
     1
102
RTVSPropertyOp10
 70
     1
102
RTVSPropertyOp11
 70
     1
102
RTVSPropertyOp12
 70
     1
102
RTVSPropertyOp13
 70
     1
102
RTVSPropertyOp14
 70
     1
102
RTVSPropertyOp15
 70
     1
102
RTVSPropertyOp16
 70
     1
102
RTVSPropertyOp17
 70
     1
102
RTVSPropertyOp18
 70
     1
102
RTVSPropertyOp19
 70
     1
102
RTVSPropertyOp20
 70
     1
102
RTVSPropertyOp21
 70
     1
102
RTVSPropertyOp22
 70
     1
102
RTVSPropertyOp23
 70
     1
102
RTVSPropertyOp24
 70
     1
102
RTVSPropertyOp25
 70
     1
102
RTVSPropertyOp26
 70
     1
102
RTVSPropertyOp27
 70
     1
102
RTVSPropertyOp28
 70
     1
102
RTVSPropertyOp29
 70
     1
102
RTVSPropertyOp30
 70
     1
102
RTVSPropertyOp31
 70
     1
102
RTVSPropertyOp32
 70
     1
  0
XRECORD
  5
1FF
102
{ACAD_REACTORS
330
1FE
102
}
330
1FE
100
AcDbXrecord
280
     1
102
RTVSPropertyOp0
 70
     1
102
RTVSPropertyOp1
 70
     1
102
RTVSPropertyOp2
 70
     1
102
RTVSPropertyOp3
 70
     1
102
RTVSPropertyOp4
 70
     1
102
RTVSPropertyOp5
 70
     1
102
RTVSPropertyOp6
 70
     1
102
RTVSPropertyOp7
 70
     1
102
RTVSPropertyOp8
 70
     1
102
RTVSPropertyOp9
 70
     1
102
RTVSPropertyOp10
 70
     1
102
RTVSPropertyOp11
 70
     1
102
RTVSPropertyOp12
 70
     1
102
RTVSPropertyOp13
 70
     1
102
RTVSPropertyOp14
 70
     1
102
RTVSPropertyOp15
 70
     1
102
RTVSPropertyOp16
 70
     1
102
RTVSPropertyOp17
 70
     1
102
RTVSPropertyOp18
 70
     1
102
RTVSPropertyOp19
 70
     1
102
RTVSPropertyOp20
 70
     1
102
RTVSPropertyOp21
 70
     1
102
RTVSPropertyOp22
 70
     1
102
RTVSPropertyOp23
 70
     1
102
RTVSPropertyOp24
 70
     1
102
RTVSPropertyOp25
 70
     1
102
RTVSPropertyOp26
 70
     1
102
RTVSPropertyOp27
 70
     1
102
RTVSPropertyOp28
 70
     1
102
RTVSPropertyOp29
 70
     1
102
RTVSPropertyOp30
 70
     1
102
RTVSPropertyOp31
 70
     1
102
RTVSPropertyOp32
 70
     1
  0
XRECORD
  5
1FD
102
{ACAD_REACTORS
330
1FC
102
}
330
1FC
100
AcDbXrecord
280
     1
102
RTVSPropertyOp0
 70
     1
102
RTVSPropertyOp1
 70
     1
102
RTVSPropertyOp2
 70
     1
102
RTVSPropertyOp3
 70
     1
102
RTVSPropertyOp4
 70
     1
102
RTVSPropertyOp5
 70
     1
102
RTVSPropertyOp6
 70
     1
102
RTVSPropertyOp7
 70
     1
102
RTVSPropertyOp8
 70
     1
102
RTVSPropertyOp9
 70
     1
102
RTVSPropertyOp10
 70
     1
102
RTVSPropertyOp11
 70
     1
102
RTVSPropertyOp12
 70
     1
102
RTVSPropertyOp13
 70
     1
102
RTVSPropertyOp14
 70
     1
102
RTVSPropertyOp15
 70
     1
102
RTVSPropertyOp16
 70
     1
102
RTVSPropertyOp17
 70
     1
102
RTVSPropertyOp18
 70
     1
102
RTVSPropertyOp19
 70
     1
102
RTVSPropertyOp20
 70
     1
102
RTVSPropertyOp21
 70
     1
102
RTVSPropertyOp22
 70
     1
102
RTVSPropertyOp23
 70
     1
102
RTVSPropertyOp24
 70
     1
102
RTVSPropertyOp25
 70
     1
102
RTVSPropertyOp26
 70
     1
102
RTVSPropertyOp27
 70
     1
102
RTVSPropertyOp28
 70
     1
102
RTVSPropertyOp29
 70
     1
102
RTVSPropertyOp30
 70
     1
102
RTVSPropertyOp31
 70
     1
102
RTVSPropertyOp32
 70
     1
  0
XRECORD
  5
1F7
102
{ACAD_REACTORS
330
1F6
102
}
330
1F6
100
AcDbXrecord
280
     1
102
RTVSPropertyOp0
 70
     1
102
RTVSPropertyOp1
 70
     1
102
RTVSPropertyOp2
 70
     1
102
RTVSPropertyOp3
 70
     1
102
RTVSPropertyOp4
 70
     1
102
RTVSPropertyOp5
 70
     1
102
RTVSPropertyOp6
 70
     1
102
RTVSPropertyOp7
 70
     1
102
RTVSPropertyOp8
 70
     1
102
RTVSPropertyOp9
 70
     1
102
RTVSPropertyOp10
 70
     1
102
RTVSPropertyOp11
 70
     1
102
RTVSPropertyOp12
 70
     1
102
RTVSPropertyOp13
 70
     1
102
RTVSPropertyOp14
 70
     1
102
RTVSPropertyOp15
 70
     1
102
RTVSPropertyOp16
 70
     1
102
RTVSPropertyOp17
 70
     1
102
RTVSPropertyOp18
 70
     1
102
RTVSPropertyOp19
 70
     1
102
RTVSPropertyOp20
 70
     1
102
RTVSPropertyOp21
 70
     1
102
RTVSPropertyOp22
 70
     1
102
RTVSPropertyOp23
 70
     1
102
RTVSPropertyOp24
 70
     1
102
RTVSPropertyOp25
 70
     1
102
RTVSPropertyOp26
 70
     1
102
RTVSPropertyOp27
 70
     1
102
RTVSPropertyOp28
 70
     1
102
RTVSPropertyOp29
 70
     1
102
RTVSPropertyOp30
 70
     1
102
RTVSPropertyOp31
 70
     1
102
RTVSPropertyOp32
 70
     1
  0
XRECORD
  5
1F9
102
{ACAD_REACTORS
330
1F8
102
}
330
1F8
100
AcDbXrecord
280
     1
102
RTVSPropertyOp0
 70
     1
102
RTVSPropertyOp1
 70
     1
102
RTVSPropertyOp2
 70
     1
102
RTVSPropertyOp3
 70
     1
102
RTVSPropertyOp4
 70
     1
102
RTVSPropertyOp5
 70
     1
102
RTVSPropertyOp6
 70
     1
102
RTVSPropertyOp7
 70
     1
102
RTVSPropertyOp8
 70
     1
102
RTVSPropertyOp9
 70
     1
102
RTVSPropertyOp10
 70
     1
102
RTVSPropertyOp11
 70
     1
102
RTVSPropertyOp12
 70
     1
102
RTVSPropertyOp13
 70
     1
102
RTVSPropertyOp14
 70
     1
102
RTVSPropertyOp15
 70
     1
102
RTVSPropertyOp16
 70
     1
102
RTVSPropertyOp17
 70
     1
102
RTVSPropertyOp18
 70
     1
102
RTVSPropertyOp19
 70
     1
102
RTVSPropertyOp20
 70
     1
102
RTVSPropertyOp21
 70
     1
102
RTVSPropertyOp22
 70
     1
102
RTVSPropertyOp23
 70
     1
102
RTVSPropertyOp24
 70
     1
102
RTVSPropertyOp25
 70
     1
102
RTVSPropertyOp26
 70
     1
102
RTVSPropertyOp27
 70
     1
102
RTVSPropertyOp28
 70
     1
102
RTVSPropertyOp29
 70
     1
102
RTVSPropertyOp30
 70
     1
102
RTVSPropertyOp31
 70
     1
102
RTVSPropertyOp32
 70
     1
  0
XRECORD
  5
1EF
102
{ACAD_REACTORS
330
1EE
102
}
330
1EE
100
AcDbXrecord
280
     1
102
RTVSPropertyOp0
 70
     1
102
RTVSPropertyOp1
 70
     1
102
RTVSPropertyOp2
 70
     1
102
RTVSPropertyOp3
 70
     1
102
RTVSPropertyOp4
 70
     1
102
RTVSPropertyOp5
 70
     1
102
RTVSPropertyOp6
 70
     1
102
RTVSPropertyOp7
 70
     1
102
RTVSPropertyOp8
 70
     1
102
RTVSPropertyOp9
 70
     1
102
RTVSPropertyOp10
 70
     1
102
RTVSPropertyOp11
 70
     1
102
RTVSPropertyOp12
 70
     1
102
RTVSPropertyOp13
 70
     1
102
RTVSPropertyOp14
 70
     1
102
RTVSPropertyOp15
 70
     1
102
RTVSPropertyOp16
 70
     1
102
RTVSPropertyOp17
 70
     1
102
RTVSPropertyOp18
 70
     1
102
RTVSPropertyOp19
 70
     1
102
RTVSPropertyOp20
 70
     1
102
RTVSPropertyOp21
 70
     1
102
RTVSPropertyOp22
 70
     1
102
RTVSPropertyOp23
 70
     1
102
RTVSPropertyOp24
 70
     1
102
RTVSPropertyOp25
 70
     1
102
RTVSPropertyOp26
 70
     1
102
RTVSPropertyOp27
 70
     1
102
RTVSPropertyOp28
 70
     1
102
RTVSPropertyOp29
 70
     1
102
RTVSPropertyOp30
 70
     1
102
RTVSPropertyOp31
 70
     1
102
RTVSPropertyOp32
 70
     1
  0
XRECORD
  5
1E3
102
{ACAD_REACTORS
330
1E2
102
}
330
1E2
100
AcDbXrecord
280
     1
102
RTVSPropertyOp0
 70
     1
102
RTVSPropertyOp1
 70
     1
102
RTVSPropertyOp2
 70
     1
102
RTVSPropertyOp3
 70
     1
102
RTVSPropertyOp4
 70
     1
102
RTVSPropertyOp5
 70
     1
102
RTVSPropertyOp6
 70
     1
102
RTVSPropertyOp7
 70
     1
102
RTVSPropertyOp8
 70
     1
102
RTVSPropertyOp9
 70
     1
102
RTVSPropertyOp10
 70
     1
102
RTVSPropertyOp11
 70
     1
102
RTVSPropertyOp12
 70
     1
102
RTVSPropertyOp13
 70
     1
102
RTVSPropertyOp14
 70
     1
102
RTVSPropertyOp15
 70
     1
102
RTVSPropertyOp16
 70
     1
102
RTVSPropertyOp17
 70
     1
102
RTVSPropertyOp18
 70
     1
102
RTVSPropertyOp19
 70
     1
102
RTVSPropertyOp20
 70
     1
102
RTVSPropertyOp21
 70
     1
102
RTVSPropertyOp22
 70
     1
102
RTVSPropertyOp23
 70
     1
102
RTVSPropertyOp24
 70
     1
102
RTVSPropertyOp25
 70
     1
102
RTVSPropertyOp26
 70
     1
102
RTVSPropertyOp27
 70
     1
102
RTVSPropertyOp28
 70
     1
102
RTVSPropertyOp29
 70
     1
102
RTVSPropertyOp30
 70
     1
102
RTVSPropertyOp31
 70
     1
102
RTVSPropertyOp32
 70
     1
  0
XRECORD
  5
1FB
102
{ACAD_REACTORS
330
1FA
102
}
330
1FA
100
AcDbXrecord
280
     1
102
RTVSPropertyOp0
 70
     1
102
RTVSPropertyOp1
 70
     1
102
RTVSPropertyOp2
 70
     1
102
RTVSPropertyOp3
 70
     1
102
RTVSPropertyOp4
 70
     1
102
RTVSPropertyOp5
 70
     1
102
RTVSPropertyOp6
 70
     1
102
RTVSPropertyOp7
 70
     1
102
RTVSPropertyOp8
 70
     1
102
RTVSPropertyOp9
 70
     1
102
RTVSPropertyOp10
 70
     1
102
RTVSPropertyOp11
 70
     1
102
RTVSPropertyOp12
 70
     1
102
RTVSPropertyOp13
 70
     1
102
RTVSPropertyOp14
 70
     1
102
RTVSPropertyOp15
 70
     1
102
RTVSPropertyOp16
 70
     1
102
RTVSPropertyOp17
 70
     1
102
RTVSPropertyOp18
 70
     1
102
RTVSPropertyOp19
 70
     1
102
RTVSPropertyOp20
 70
     1
102
RTVSPropertyOp21
 70
     1
102
RTVSPropertyOp22
 70
     1
102
RTVSPropertyOp23
 70
     1
102
RTVSPropertyOp24
 70
     1
102
RTVSPropertyOp25
 70
     1
102
RTVSPropertyOp26
 70
     1
102
RTVSPropertyOp27
 70
     1
102
RTVSPropertyOp28
 70
     1
102
RTVSPropertyOp29
 70
     1
102
RTVSPropertyOp30
 70
     1
102
RTVSPropertyOp31
 70
     1
102
RTVSPropertyOp32
 70
     1
  0
ENDSEC
  0
EOF
