  0
SECTION
  2
HEADER
  9
$ACADVER
  1
AC1014
  9
$DWGCODEPAGE
  3
ANSI_1252
  9
$INSBASE
 10
0.0
 20
0.0
 30
0.0
  9
$EXTMIN
 10
1033.98771282
 20
-21718.34332712
  9
$EXTMAX
 10
122326.07664696
 20
2240.3362527
  9
$LIMMIN
 10
1033.98771282
 20
-21718.34332712
  9
$LIMMAX
 10
122326.07664696
 20
2240.3362527
  9
$ORTHOMODE
 70
     0
  9
$REGENMODE
 70
     1
  9
$FILLMODE
 70
     1
  9
$QTEXTMODE
 70
     0
  9
$MIRRTEXT
 70
     1
  9
$DRAGMODE
 70
     2
  9
$LTSCALE
 40
5.0
  9
$OSMODE
 70
     0
  9
$ATTMODE
 70
     1
  9
$TEXTSIZE
 40
3.5
  9
$TRACEWID
 40
1.0
  9
$TEXTSTYLE
  7
STANDARD
  9
$CLAYER
  8
0
  9
$CELTYPE
  6
BYLAYER
  9
$CECOLOR
 62
   256
  9
$DIMSCALE
 40
1.0
  9
$DIMASZ
 40
2.0
  9
$DIMEXO
 40
5.0
  9
$DIMDLI
 40
10.0
  9
$DIMRND
 40
0.0
  9
$DIMDLE
 40
2.0
  9
$DIMEXE
 40
2.0
  9
$DIMTP
 40
0.0
  9
$DIMTM
 40
0.0
  9
$DIMTXT
 40
2.5
  9
$DIMCEN
 40
1.5
  9
$DIMTSZ
 40
0.0
  9
$DIMTOL
 70
     0
  9
$DIMLIM
 70
     0
  9
$DIMTIH
 70
     1
  9
$DIMTOH
 70
     0
  9
$DIMSE1
 70
     0
  9
$DIMSE2
 70
     0
  9
$DIMTAD
 70
     1
  9
$DIMZIN
 70
     8
  9
$DIMBLK
  1

  9
$DIMASO
 70
     1
  9
$DIMSHO
 70
     1
  9
$DIMPOST
  1

  9
$DIMAPOST
  1

  9
$DIMALT
 70
     0
  9
$DIMALTD
 70
     2
  9
$DIMALTF
 40
25.4
  9
$DIMLFAC
 40
1.0
  9
$DIMTOFL
 70
     0
  9
$DIMTVP
 40
0.0
  9
$DIMTIX
 70
     0
  9
$DIMSOXD
 70
     0
  9
$DIMSAH
 70
     0
  9
$DIMBLK1
  1

  9
$DIMBLK2
  1

  9
$DIMSTYLE
  2
*UNNAMED
  9
$DIMCLRD
 70
   190
  9
$DIMCLRE
 70
   190
  9
$DIMCLRT
 70
   190
  9
$DIMTFAC
 40
1.0
  9
$DIMGAP
 40
0.09
  9
$DIMUNIT
 70
     2
  9
$LUNITS
 70
     2
  9
$LUPREC
 70
     6
  9
$AXISMODE
 70
     0
  9
$AXISUNIT
 10
0.0
 20
0.0
  9
$SKETCHINC
 40
0.1
  9
$FILLETRAD
 40
0.0
  9
$AUNITS
 70
     0
  9
$AUPREC
 70
     0
  9
$MENU
  1
ACAD
  9
$ELEVATION
 40
0.0
  9
$PELEVATION
 40
0.0
  9
$THICKNESS
 40
0.0
  9
$LIMCHECK
 70
     0
  9
$BLIPMODE
 70
     1
  9
$CHAMFERA
 40
0.0
  9
$CHAMFERB
 40
0.0
  9
$SKPOLY
 70
     1
  9
$TDCREATE
 40
2457811.0000000000
  9
$TDUPDATE
 40
2457811.0000000000
  9
$TDINDWG
 40
0.0
  9
$TDUSRTIMER
 40
0.0
  9
$USRTIMER
 70
     1
  9
$ANGBASE
 50
0.0
  9
$ANGDIR
 70
     0
  9
$PDMODE
 70
     0
  9
$PDSIZE
 40
0.0
  9
$PLINEWID
 40
0.0
  9
$COORDS
 70
     2
  9
$SPLFRAME
 70
     0
  9
$SPLINETYPE
 70
     6
  9
$SPLINESEGS
 70
     8
  9
$ATTDIA
 70
     1
  9
$ATTREQ
 70
     1
  9
$HANDLING
 70
     1
  9
$HANDSEED
  5
     6F7
  9
$SURFTAB1
 70
     6
  9
$SURFTAB2
 70
     6
  9
$SURFTYPE
 70
     6
  9
$SURFU
 70
     6
  9
$SURFV
 70
     6
  9
$UCSNAME
  2

  9
$UCSORG
 10
0.0
 20
0.0
 30
0.0
  9
$UCSXDIR
 10
1.0
 20
0.0
 30
0.0
  9
$UCSYDIR
 10
0.0
 20
1.0
 30
0.0
  9
$PUCSNAME
  2

  9
$PUCSORG
 10
0.0
 20
0.0
 30
0.0
  9
$PUCSXDIR
 10
1.0
 20
0.0
 30
0.0
  9
$PUCSYDIR
 10
0.0
 20
1.0
 30
0.0
  9
$USERI1
 70
     0
  9
$USERI2
 70
     0
  9
$USERI3
 70
     0
  9
$USERI4
 70
     0
  9
$USERI5
 70
     0
  9
$USERR1
 40
0.0
  9
$USERR2
 40
0.0
  9
$USERR3
 40
0.0
  9
$USERR4
 40
0.0
  9
$USERR5
 40
0.0
  9
$WORLDVIEW
 70
     1
  9
$SHADEDGE
 70
     3
  9
$SHADEDIF
 70
    70
  9
$TILEMODE
 70
     1
  9
$MAXACTVP
 70
    16
  9
$PINSBASE
 10
0.0
 20
0.0
 30
0.0
  9
$PLIMCHECK
 70
     0
  9
$PEXTMIN
 10
1.0000000000000E+20
 20
1.0000000000000E+20
 30
1.0000000000000E+20
  9
$PEXTMAX
 10
-1.0000000000000E+20
 20
-1.0000000000000E+20
 30
-1.0000000000000E+20
  9
$PLIMMIN
 10
0.0
 20
0.0
  9
$UNITMODE
 70
     0
  9
$VISRETAIN
 70
     0
  9
$MEASUREMENT
 70
     1
  0
ENDSEC
  0
SECTION
  2
TABLES
  0
TABLE
  2
VPORT
  5
487
100
AcDbSymbolTable
 70
     1
  0
ENDTAB
  0
TABLE
  2
STYLE
  5
488
100
AcDbSymbolTable
 70
     3
  0
STYLE
  5
489
100
AcDbSymbolTableRecord
100
AcDbTextStyleTableRecord
  2
STANDARD
 70
     0
 40
0.0
 41
1.0
 50
0.0
 71
     0
 42
3.5
  3
MONOTXT
  4

  0
STYLE
  5
48A
100
AcDbSymbolTableRecord
100
AcDbTextStyleTableRecord
  2
SYMAP
 70
     0
 40
0.0
 41
1.0
 50
0.0
 71
     0
 42
3.5
  3
SYMAP
  4

  0
STYLE
  5
48B
100
AcDbSymbolTableRecord
100
AcDbTextStyleTableRecord
  2
CADWORK1
 70
     0
 40
0.0
 41
1.0
 50
0.0
 71
     0
 42
3.5
  3
MONOTXT
  4

  0
STYLE
  5
48C
100
AcDbSymbolTableRecord
100
AcDbTextStyleTableRecord
  2
MONOTXT
 70
     0
 40
0.0
 41
1.0
 50
0.0
 71
     0
 42
3.5
  3
MONOTXT
  4

  0
STYLE
  5
48D
100
AcDbSymbolTableRecord
100
AcDbTextStyleTableRecord
  2
ARIAL
 70
     0
 40
0.0
 41
1.0
 50
0.0
 71
     0
 42
3.5
  3

  4

1001
ACAD
1000
Arial
1071
        0
  0
ENDTAB
  0
TABLE
  2
LTYPE
  5
48E
100
AcDbSymbolTable
 70
    15
  0
LTYPE
  5
48F
100
AcDbSymbolTableRecord
100
AcDbLinetypeTableRecord
  2
BYBLOCK
 70
    64
  3

 72
    65
 73
     0
 40
0.0
  0
LTYPE
  5
490
100
AcDbSymbolTableRecord
100
AcDbLinetypeTableRecord
  2
BYLAYER
 70
    64
  3

 72
    65
 73
     0
 40
0.0
  0
LTYPE
  5
491
100
AcDbSymbolTableRecord
100
AcDbLinetypeTableRecord
  2
CONTINUOUS
 70
    64
  3
Solid line
 72
    65
 73
     0
 40
0.0
  0
LTYPE
  5
492
100
AcDbSymbolTableRecord
100
AcDbLinetypeTableRecord
  2
DOT2
 70
    64
  3
...............................................
 72
    65
 73
     2
 40
1.25
 49
0.0
 74
     0
 49
-1.25
 74
     0
  0
LTYPE
  5
493
100
AcDbSymbolTableRecord
100
AcDbLinetypeTableRecord
  2
CADWORK_13
 70
    64
  3
13 =======================================
 72
    65
 73
     2
 40
4.0
 49
2.0
 74
     0
 49
-2.0
 74
     0
  0
LTYPE
  5
494
100
AcDbSymbolTableRecord
100
AcDbLinetypeTableRecord
  2
DASHDOT
 70
    64
  3
 __ . __ . __ . __ . __ . __ . __ . __ . __ . __
 72
    65
 73
     4
 40
10.0
 49
5.0
 74
     0
 49
-2.5
 74
     0
 49
0.0
 74
     0
 49
-2.5
 74
     0
  0
LTYPE
  5
495
100
AcDbSymbolTableRecord
100
AcDbLinetypeTableRecord
  2
CENTER
 70
    64
  3
 ____ _ ____ _ ____ _ ____ _ ____ _ ____ _ ____
 72
    65
 73
     4
 40
20.0
 49
12.5
 74
     0
 49
-2.5
 74
     0
 49
2.5
 74
     0
 49
-2.5
 74
     0
  0
LTYPE
  5
496
100
AcDbSymbolTableRecord
100
AcDbLinetypeTableRecord
  2
DASHEDX2
 70
    64
  3
____  ____  ____  ____  ____  ____  ____  ____
 72
    65
 73
     2
 40
3.75
 49
2.5
 74
     0
 49
-1.25
 74
     0
  0
LTYPE
  5
497
100
AcDbSymbolTableRecord
100
AcDbLinetypeTableRecord
  2
CADWORK_22
 70
    64
  3
22 =======================================
 72
    65
 73
     0
 40
0.0
  0
LTYPE
  5
498
100
AcDbSymbolTableRecord
100
AcDbLinetypeTableRecord
  2
DAL
 70
    64
  3
Solid line (for MAPS)
 72
    65
 73
     0
 40
0.0
  0
LTYPE
  5
499
100
AcDbSymbolTableRecord
100
AcDbLinetypeTableRecord
  2
MUR
 70
    64
  3
Solid line (for MAPS)
 72
    65
 73
     0
 40
0.0
  0
LTYPE
  5
49A
100
AcDbSymbolTableRecord
100
AcDbLinetypeTableRecord
  2
SOM
 70
    64
  3
Solid line (for MAPS)
 72
    65
 73
     0
 40
0.0
  0
LTYPE
  5
49B
100
AcDbSymbolTableRecord
100
AcDbLinetypeTableRecord
  2
COL
 70
    64
  3
Solid line (for MAPS)
 72
    65
 73
     0
 40
0.0
  0
LTYPE
  5
49C
100
AcDbSymbolTableRecord
100
AcDbLinetypeTableRecord
  2
LGN
 70
    64
  3
Solid line (for MAPS)
 72
    65
 73
     0
 40
0.0
  0
LTYPE
  5
49D
100
AcDbSymbolTableRecord
100
AcDbLinetypeTableRecord
  2
PNT
 70
    64
  3
Solid line (for MAPS)
 72
    65
 73
     0
 40
0.0
  0
ENDTAB
  0
TABLE
  2
LAYER
  5
49E
100
AcDbSymbolTable
 70
    32
  0
LAYER
  5
49F
100
AcDbSymbolTableRecord
100
AcDbLayerTableRecord
  2
Standard
 70
     0
 62
     7
  6
CONTINUOUS
370
    -3
  0
LAYER
  5
4A0
100
AcDbSymbolTableRecord
100
AcDbLayerTableRecord
  2
Ech.1_1
 70
     0
 62
     7
  6
CONTINUOUS
370
    -3
  0
LAYER
  5
4A1
100
AcDbSymbolTableRecord
100
AcDbLayerTableRecord
  2
Ech.1_2
 70
     0
 62
     7
  6
CONTINUOUS
370
    -3
  0
LAYER
  5
4A2
100
AcDbSymbolTableRecord
100
AcDbLayerTableRecord
  2
Ech.1_5
 70
     0
 62
     7
  6
CONTINUOUS
370
    -3
  0
LAYER
  5
4A3
100
AcDbSymbolTableRecord
100
AcDbLayerTableRecord
  2
Ech.1_10
 70
     0
 62
     7
  6
CONTINUOUS
370
    -3
  0
LAYER
  5
4A4
100
AcDbSymbolTableRecord
100
AcDbLayerTableRecord
  2
Ech.1_20
 70
     0
 62
     7
  6
CONTINUOUS
370
    -3
  0
LAYER
  5
4A5
100
AcDbSymbolTableRecord
100
AcDbLayerTableRecord
  2
Ech.1_25
 70
     0
 62
     7
  6
CONTINUOUS
370
    -3
  0
LAYER
  5
4A6
100
AcDbSymbolTableRecord
100
AcDbLayerTableRecord
  2
Ech.1_33
 70
     0
 62
     7
  6
CONTINUOUS
370
    -3
  0
LAYER
  5
4A7
100
AcDbSymbolTableRecord
100
AcDbLayerTableRecord
  2
Ech.1_50
 70
     0
 62
     7
  6
CONTINUOUS
370
    -3
  0
LAYER
  5
4A8
100
AcDbSymbolTableRecord
100
AcDbLayerTableRecord
  2
Ech.1_75
 70
     0
 62
     7
  6
CONTINUOUS
370
    -3
  0
LAYER
  5
4A9
100
AcDbSymbolTableRecord
100
AcDbLayerTableRecord
  2
Ech.1_100
 70
     0
 62
     7
  6
CONTINUOUS
370
    -3
  0
LAYER
  5
4AA
100
AcDbSymbolTableRecord
100
AcDbLayerTableRecord
  2
Ech.1_200
 70
     0
 62
     7
  6
CONTINUOUS
370
    -3
  0
LAYER
  5
4AB
100
AcDbSymbolTableRecord
100
AcDbLayerTableRecord
  2
Ech.1_500
 70
     0
 62
     7
  6
CONTINUOUS
370
    -3
  0
LAYER
  5
4AC
100
AcDbSymbolTableRecord
100
AcDbLayerTableRecord
  2
Ech.1_1000
 70
     0
 62
     7
  6
CONTINUOUS
370
    -3
  0
LAYER
  5
4AD
100
AcDbSymbolTableRecord
100
AcDbLayerTableRecord
  2
Cadres traceur
 70
     0
 62
     7
  6
CONTINUOUS
370
    18
  0
LAYER
  5
4AE
100
AcDbSymbolTableRecord
100
AcDbLayerTableRecord
  2
Cadres laser
 70
     0
 62
     7
  6
CONTINUOUS
370
    18
  0
LAYER
  5
4AF
100
AcDbSymbolTableRecord
100
AcDbLayerTableRecord
  2
Légende d_aide
 70
     0
 62
     7
  6
CONTINUOUS
370
    18
  0
LAYER
  5
4B0
100
AcDbSymbolTableRecord
100
AcDbLayerTableRecord
  2
hachures ok
 70
     0
 62
     7
  6
CONTINUOUS
370
    18
  0
LAYER
  5
4B1
100
AcDbSymbolTableRecord
100
AcDbLayerTableRecord
  2
ossature bois
 70
     0
 62
     7
  6
CONTINUOUS
370
    18
  0
LAYER
  5
4B2
100
AcDbSymbolTableRecord
100
AcDbLayerTableRecord
  2
VR
 70
     0
 62
     7
  6
CONTINUOUS
370
    25
  0
LAYER
  5
4B3
100
AcDbSymbolTableRecord
100
AcDbLayerTableRecord
  2
Calque1
 70
     0
 62
     7
  6
CONTINUOUS
370
     9
  0
LAYER
  5
4B4
100
AcDbSymbolTableRecord
100
AcDbLayerTableRecord
  2
0
 70
     0
 62
     7
  6
CONTINUOUS
370
    -3
  0
LAYER
  5
4B5
100
AcDbSymbolTableRecord
100
AcDbLayerTableRecord
  2
menuiserie
 70
     0
 62
     7
  6
CONTINUOUS
370
    -3
  0
LAYER
  5
4B6
100
AcDbSymbolTableRecord
100
AcDbLayerTableRecord
  2
cotation
 70
     0
 62
   250
  6
CONTINUOUS
370
     9
  0
LAYER
  5
4B7
100
AcDbSymbolTableRecord
100
AcDbLayerTableRecord
  2
Defpoints
 70
     0
 62
    10
  6
CONTINUOUS
370
    -3
  0
LAYER
  5
4B8
100
AcDbSymbolTableRecord
100
AcDbLayerTableRecord
  2
HACHURE
 70
     0
 62
   254
  6
CONTINUOUS
370
    25
  0
LAYER
  5
4B9
100
AcDbSymbolTableRecord
100
AcDbLayerTableRecord
  2
mat1
 70
     0
 62
     7
  6
CONTINUOUS
370
    30
  0
LAYER
  5
4BA
100
AcDbSymbolTableRecord
100
AcDbLayerTableRecord
  2
mat2
 70
     0
 62
     7
  6
CONTINUOUS
370
     5
  0
LAYER
  5
4BB
100
AcDbSymbolTableRecord
100
AcDbLayerTableRecord
  2
hach
 70
     0
 62
     8
  6
CONTINUOUS
370
     5
  0
LAYER
  5
4BC
100
AcDbSymbolTableRecord
100
AcDbLayerTableRecord
  2
menuiseries
 70
     0
 62
     7
  6
CONTINUOUS
370
     9
  0
LAYER
  5
4BD
100
AcDbSymbolTableRecord
100
AcDbLayerTableRecord
  2
BétonMétal
 70
     0
 62
     7
  6
CONTINUOUS
370
    80
  0
LAYER
  5
4BE
100
AcDbSymbolTableRecord
100
AcDbLayerTableRecord
  2
bois
 70
     0
 62
     7
  6
CONTINUOUS
370
    60
  0
ENDTAB
  0
TABLE
  2
VIEW
  5
4BF
100
AcDbSymbolTable
 70
     0
  0
ENDTAB
  0
TABLE
  2
UCS
  5
4C0
100
AcDbSymbolTable
 70
     0
  0
ENDTAB
  0
TABLE
  2
APPID
  5
4C1
100
AcDbSymbolTable
 70
     1
  0
APPID
  5
4C2
100
AcDbSymbolTableRecord
100
AcDbRegAppTableRecord
  2
ACAD
 70
     0
  0
ENDTAB
  0
TABLE
  2
DIMSTYLE
  5
4C3
100
AcDbSymbolTable
 70
     0
  0
ENDTAB
  0
TABLE
  2
BLOCK_RECORD
  5
4C4
100
AcDbSymbolTable
 70
     0
  0
BLOCK_RECORD
  5
4C5
100
AcDbSymbolTableRecord
100
AcDbBlockTableRecord
  2
*MODEL_SPACE
  0
BLOCK_RECORD
  5
4C6
100
AcDbSymbolTableRecord
100
AcDbBlockTableRecord
  2
*PAPER_SPACE
  0
BLOCK_RECORD
  5
4C7
100
AcDbSymbolTableRecord
100
AcDbBlockTableRecord
  2
CDWK_EXTR_0
  0
BLOCK_RECORD
  5
4C8
100
AcDbSymbolTableRecord
100
AcDbBlockTableRecord
  2
CDWK_EXTR_1D
  0
BLOCK_RECORD
  5
4C9
100
AcDbSymbolTableRecord
100
AcDbBlockTableRecord
  2
CDWK_EXTR_1G
  0
BLOCK_RECORD
  5
4CA
100
AcDbSymbolTableRecord
100
AcDbBlockTableRecord
  2
CDWK_EXTR_2
  0
BLOCK_RECORD
  5
4CB
100
AcDbSymbolTableRecord
100
AcDbBlockTableRecord
  2
CDWK_EXTR_3
  0
BLOCK_RECORD
  5
4CC
100
AcDbSymbolTableRecord
100
AcDbBlockTableRecord
  2
CDWK_EXTR_4
  0
BLOCK_RECORD
  5
4CD
100
AcDbSymbolTableRecord
100
AcDbBlockTableRecord
  2
CDWK_PTTYP0
  0
BLOCK_RECORD
  5
4CE
100
AcDbSymbolTableRecord
100
AcDbBlockTableRecord
  2
CDWK_PTTYP1
  0
BLOCK_RECORD
  5
4CF
100
AcDbSymbolTableRecord
100
AcDbBlockTableRecord
  2
CDWK_PTTYP2
  0
BLOCK_RECORD
  5
4D0
100
AcDbSymbolTableRecord
100
AcDbBlockTableRecord
  2
CDWK_PTTYP3
  0
BLOCK_RECORD
  5
4D1
100
AcDbSymbolTableRecord
100
AcDbBlockTableRecord
  2
CDWK_PTTYP4
  0
BLOCK_RECORD
  5
4D2
100
AcDbSymbolTableRecord
100
AcDbBlockTableRecord
  2
CDWK_PTTYP5
  0
BLOCK_RECORD
  5
4D3
100
AcDbSymbolTableRecord
100
AcDbBlockTableRecord
  2
CDWK_PTTYP6
  0
BLOCK_RECORD
  5
4D4
100
AcDbSymbolTableRecord
100
AcDbBlockTableRecord
  2
CDWK_PTTYP7
  0
BLOCK_RECORD
  5
4D5
100
AcDbSymbolTableRecord
100
AcDbBlockTableRecord
  2
CDWK_PTTYP8
  0
BLOCK_RECORD
  5
4D6
100
AcDbSymbolTableRecord
100
AcDbBlockTableRecord
  2
CDWK_PTTYP9
  0
BLOCK_RECORD
  5
4D7
100
AcDbSymbolTableRecord
100
AcDbBlockTableRecord
  2
CDWK_PTTYP10
  0
BLOCK_RECORD
  5
4D8
100
AcDbSymbolTableRecord
100
AcDbBlockTableRecord
  2
CDWK_PTTYP11
  0
BLOCK_RECORD
  5
4D9
100
AcDbSymbolTableRecord
100
AcDbBlockTableRecord
  2
CDWK_PTTYP12
  0
BLOCK_RECORD
  5
4DA
100
AcDbSymbolTableRecord
100
AcDbBlockTableRecord
  2
CDWK_PTTYP13
  0
BLOCK_RECORD
  5
4DB
100
AcDbSymbolTableRecord
100
AcDbBlockTableRecord
  2
CDWK_PTTYP14
  0
BLOCK_RECORD
  5
4DC
100
AcDbSymbolTableRecord
100
AcDbBlockTableRecord
  2
CDWK_PTTYP15
  0
BLOCK_RECORD
  5
4DD
100
AcDbSymbolTableRecord
100
AcDbBlockTableRecord
  2
CDWK_PTTYP16
  0
BLOCK_RECORD
  5
4DE
100
AcDbSymbolTableRecord
100
AcDbBlockTableRecord
  2
CDWK_PTTYP17
  0
BLOCK_RECORD
  5
4DF
100
AcDbSymbolTableRecord
100
AcDbBlockTableRecord
  2
CDWK_PTTYP18
  0
BLOCK_RECORD
  5
4E0
100
AcDbSymbolTableRecord
100
AcDbBlockTableRecord
  2
CDWK_PTTYP19
  0
BLOCK_RECORD
  5
4E1
100
AcDbSymbolTableRecord
100
AcDbBlockTableRecord
  2
CDWK_PTTYP20
  0
BLOCK_RECORD
  5
4E2
100
AcDbSymbolTableRecord
100
AcDbBlockTableRecord
  2
CDWK_PTTYP21
  0
BLOCK_RECORD
  5
4E3
100
AcDbSymbolTableRecord
100
AcDbBlockTableRecord
  2
CDWK_PTTYP22
  0
BLOCK_RECORD
  5
4E4
100
AcDbSymbolTableRecord
100
AcDbBlockTableRecord
  2
CDWK_PTTYP23
  0
BLOCK_RECORD
  5
4E5
100
AcDbSymbolTableRecord
100
AcDbBlockTableRecord
  2
CDWK_PTTYP24
  0
BLOCK_RECORD
  5
4E6
100
AcDbSymbolTableRecord
100
AcDbBlockTableRecord
  2
CDWK_PTTYP25
  0
BLOCK_RECORD
  5
4E7
100
AcDbSymbolTableRecord
100
AcDbBlockTableRecord
  2
CDWK_PTTYP26
  0
BLOCK_RECORD
  5
4E8
100
AcDbSymbolTableRecord
100
AcDbBlockTableRecord
  2
CDWK_PTTYP27
  0
BLOCK_RECORD
  5
4E9
100
AcDbSymbolTableRecord
100
AcDbBlockTableRecord
  2
CDWK_PTTYP28
  0
BLOCK_RECORD
  5
4EA
100
AcDbSymbolTableRecord
100
AcDbBlockTableRecord
  2
CDWK_PTTYP29
  0
BLOCK_RECORD
  5
4EB
100
AcDbSymbolTableRecord
100
AcDbBlockTableRecord
  2
CDWK_PTTYP30
  0
BLOCK_RECORD
  5
4EC
100
AcDbSymbolTableRecord
100
AcDbBlockTableRecord
  2
CDWK_PTTYP31
  0
BLOCK_RECORD
  5
4ED
100
AcDbSymbolTableRecord
100
AcDbBlockTableRecord
  2
CDWK_PTTYP32
  0
BLOCK_RECORD
  5
4EE
100
AcDbSymbolTableRecord
100
AcDbBlockTableRecord
  2
CDWK_PTTYP33
  0
BLOCK_RECORD
  5
4EF
100
AcDbSymbolTableRecord
100
AcDbBlockTableRecord
  2
CDWK_PTTYP34
  0
BLOCK_RECORD
  5
4F0
100
AcDbSymbolTableRecord
100
AcDbBlockTableRecord
  2
CDWK_PTTYP35
  0
BLOCK_RECORD
  5
4F1
100
AcDbSymbolTableRecord
100
AcDbBlockTableRecord
  2
CDWK_PTTYP36
  0
BLOCK_RECORD
  5
4F2
100
AcDbSymbolTableRecord
100
AcDbBlockTableRecord
  2
CDWK_PTTYP37
  0
BLOCK_RECORD
  5
4F3
100
AcDbSymbolTableRecord
100
AcDbBlockTableRecord
  2
CDWK_PTTYP38
  0
BLOCK_RECORD
  5
4F4
100
AcDbSymbolTableRecord
100
AcDbBlockTableRecord
  2
*X1
  0
BLOCK_RECORD
  5
4F5
100
AcDbSymbolTableRecord
100
AcDbBlockTableRecord
  2
*X2
  0
BLOCK_RECORD
  5
4F6
100
AcDbSymbolTableRecord
100
AcDbBlockTableRecord
  2
*X3
  0
BLOCK_RECORD
  5
4F7
100
AcDbSymbolTableRecord
100
AcDbBlockTableRecord
  2
*X4
  0
BLOCK_RECORD
  5
4F8
100
AcDbSymbolTableRecord
100
AcDbBlockTableRecord
  2
*X5
  0
BLOCK_RECORD
  5
4F9
100
AcDbSymbolTableRecord
100
AcDbBlockTableRecord
  2
*X6
  0
BLOCK_RECORD
  5
4FA
100
AcDbSymbolTableRecord
100
AcDbBlockTableRecord
  2
*X7
  0
ENDTAB
  0
ENDSEC
  0
SECTION
  2
BLOCKS
  0
BLOCK
  5
4FB
100
AcDbEntity
  8
0
100
AcDbBlockBegin
  2
*MODEL_SPACE
 70
     0
 10
0.0
 20
0.0
 30
0.0
  3
*MODEL_SPACE
  1

  0
ENDBLK
  5
4FC
100
AcDbEntity
100
AcDbBlockEnd
  0
BLOCK
  5
4FD
100
AcDbEntity
  8
0
100
AcDbBlockBegin
  2
*PAPER_SPACE
 70
     0
 10
0.0
 20
0.0
 30
0.0
  3
*PAPER_SPACE
  1

  0
ENDBLK
  5
4FE
100
AcDbEntity
100
AcDbBlockEnd
  0
BLOCK
  5
4FF
100
AcDbEntity
  8
0
100
AcDbBlockBegin
  2
CDWK_EXTR_0
 70
     0
 10
0.0
 20
0.0
 30
0.0
  3
CDWK_EXTR_0
  1

  4
Cadwork line-extremity
  0
LINE
  5
500
100
AcDbEntity
  8
0
 62
     0
370
    -2
100
AcDbLine
 10
0.0
 20
0.0
 30
0.0
 11
2.0
 21
0.5
 31
0.0
  0
LINE
  5
501
100
AcDbEntity
  8
0
 62
     0
370
    -2
100
AcDbLine
 10
0.0
 20
0.0
 30
0.0
 11
2.0
 21
-0.5
 31
0.0
  0
LINE
  5
502
100
AcDbEntity
  8
0
 62
     0
370
    -2
100
AcDbLine
 10
2.0
 20
0.5
 30
0.0
 11
2.0
 21
-0.5
 31
0.0
  0
ENDBLK
  5
503
100
AcDbEntity
100
AcDbBlockEnd
  0
BLOCK
  5
504
100
AcDbEntity
  8
0
100
AcDbBlockBegin
  2
CDWK_EXTR_1D
 70
     0
 10
0.0
 20
0.0
 30
0.0
  3
CDWK_EXTR_1D
  1

  4
Cadwork line-extremity
  0
LINE
  5
505
100
AcDbEntity
  8
0
 62
     0
370
    -2
100
AcDbLine
 10
0.0
 20
0.0
 30
0.0
 11
0.0
 21
1.0
 31
0.0
  0
LINE
  5
506
100
AcDbEntity
  8
0
 62
     0
370
    -2
100
AcDbLine
 10
0.0
 20
1.0
 30
0.0
 11
0.5
 21
1.5
 31
0.0
  0
LINE
  5
507
100
AcDbEntity
  8
0
 62
     0
370
    -2
100
AcDbLine
 10
0.5
 20
1.5
 30
0.0
 11
1.5
 21
1.5
 31
0.0
  0
ENDBLK
  5
508
100
AcDbEntity
100
AcDbBlockEnd
  0
BLOCK
  5
509
100
AcDbEntity
  8
0
100
AcDbBlockBegin
  2
CDWK_EXTR_1G
 70
     0
 10
0.0
 20
0.0
 30
0.0
  3
CDWK_EXTR_1G
  1

  4
Cadwork line-extremity
  0
LINE
  5
50A
100
AcDbEntity
  8
0
 62
     0
370
    -2
100
AcDbLine
 10
0.0
 20
0.0
 30
0.0
 11
0.0
 21
-1.0
 31
0.0
  0
LINE
  5
50B
100
AcDbEntity
  8
0
 62
     0
370
    -2
100
AcDbLine
 10
0.0
 20
-1.0
 30
0.0
 11
0.5
 21
-1.5
 31
0.0
  0
LINE
  5
50C
100
AcDbEntity
  8
0
 62
     0
370
    -2
100
AcDbLine
 10
0.5
 20
-1.5
 30
0.0
 11
1.5
 21
-1.5
 31
0.0
  0
ENDBLK
  5
50D
100
AcDbEntity
100
AcDbBlockEnd
  0
BLOCK
  5
50E
100
AcDbEntity
  8
0
100
AcDbBlockBegin
  2
CDWK_EXTR_2
 70
     0
 10
0.0
 20
0.0
 30
0.0
  3
CDWK_EXTR_2
  1

  4
Cadwork line-extremity
  0
SOLID
  5
50F
100
AcDbEntity
  8
0
 62
     0
100
AcDbTrace
 10
0.0
 20
0.0
 11
2.0
 21
0.5
 12
2.0
 22
-0.5
 13
2.0
 23
-0.5
  0
ENDBLK
  5
510
100
AcDbEntity
100
AcDbBlockEnd
  0
BLOCK
  5
511
100
AcDbEntity
  8
0
100
AcDbBlockBegin
  2
CDWK_EXTR_3
 70
     0
 10
0.0
 20
0.0
 30
0.0
  3
CDWK_EXTR_3
  1

  4
Cadwork line-extremity
  0
SOLID
  5
512
100
AcDbEntity
  8
0
 62
     0
100
AcDbTrace
 10
0.0
 20
0.0
 11
2.0
 21
0.5
 12
2.0
 22
-0.5
 13
2.0
 23
-0.5
  0
LINE
  5
513
100
AcDbEntity
  8
0
 62
     0
370
    -2
100
AcDbLine
 10
0.0
 20
1.0
 30
0.0
 11
0.0
 21
-1.0
 31
0.0
  0
ENDBLK
  5
514
100
AcDbEntity
100
AcDbBlockEnd
  0
BLOCK
  5
515
100
AcDbEntity
  8
0
100
AcDbBlockBegin
  2
CDWK_EXTR_4
 70
     0
 10
0.0
 20
0.0
 30
0.0
  3
CDWK_EXTR_4
  1

  4
Cadwork line-extremity
  0
HATCH
  5
516
100
AcDbEntity
  8
0
 62
     0
370
    -2
100
AcDbHatch
 10
0.0
 20
0.0
 30
0.0
210
0.0
220
0.0
230
1.0
  2
SOLID
 70
     1
 71
     0
 91
        1
 92
        1
 93
        1
 72
     2
 10
0.0
 20
0.0
 40
0.5
 50
0.0
 51
360.0
 73
     1
 97
        0
 75
     0
 76
     1
 98
        1
 10
0.0
 20
0.0
  0
ENDBLK
  5
517
100
AcDbEntity
100
AcDbBlockEnd
  0
BLOCK
  5
518
100
AcDbEntity
  8
0
100
AcDbBlockBegin
  2
CDWK_PTTYP0
 70
     0
 10
0.0
 20
0.0
 30
0.0
  3
CDWK_PTTYP0
  1

  4
Cadwork point
  0
POINT
  5
519
100
AcDbEntity
  8
0
 62
     0
100
AcDbPoint
 10
0.0
 20
0.0
 30
0.0
  0
ENDBLK
  5
51A
100
AcDbEntity
100
AcDbBlockEnd
  0
BLOCK
  5
51B
100
AcDbEntity
  8
0
100
AcDbBlockBegin
  2
CDWK_PTTYP1
 70
     0
 10
0.0
 20
0.0
 30
0.0
  3
CDWK_PTTYP1
  1

  4
Cadwork node
  0
LINE
  5
51C
100
AcDbEntity
  8
0
 62
     0
370
    -2
100
AcDbLine
 10
-0.5
 20
0.5
 30
0.0
 11
0.5
 21
0.5
 31
0.0
  0
LINE
  5
51D
100
AcDbEntity
  8
0
 62
     0
370
    -2
100
AcDbLine
 10
0.5
 20
0.5
 30
0.0
 11
0.5
 21
-0.5
 31
0.0
  0
LINE
  5
51E
100
AcDbEntity
  8
0
 62
     0
370
    -2
100
AcDbLine
 10
0.5
 20
-0.5
 30
0.0
 11
-0.5
 21
-0.5
 31
0.0
  0
LINE
  5
51F
100
AcDbEntity
  8
0
 62
     0
370
    -2
100
AcDbLine
 10
-0.5
 20
-0.5
 30
0.0
 11
-0.5
 21
0.5
 31
0.0
  0
ENDBLK
  5
520
100
AcDbEntity
100
AcDbBlockEnd
  0
BLOCK
  5
521
100
AcDbEntity
  8
0
100
AcDbBlockBegin
  2
CDWK_PTTYP2
 70
     0
 10
0.0
 20
0.0
 30
0.0
  3
CDWK_PTTYP2
  1

  4
Cadwork node
  0
LINE
  5
522
100
AcDbEntity
  8
0
 62
     0
370
    -2
100
AcDbLine
 10
0.0
 20
0.5
 30
0.0
 11
0.0
 21
-0.5
 31
0.0
  0
LINE
  5
523
100
AcDbEntity
  8
0
 62
     0
370
    -2
100
AcDbLine
 10
-0.5
 20
0.0
 30
0.0
 11
0.5
 21
0.0
 31
0.0
  0
ENDBLK
  5
524
100
AcDbEntity
100
AcDbBlockEnd
  0
BLOCK
  5
525
100
AcDbEntity
  8
0
100
AcDbBlockBegin
  2
CDWK_PTTYP3
 70
     0
 10
0.0
 20
0.0
 30
0.0
  3
CDWK_PTTYP3
  1

  4
Cadwork node
  0
CIRCLE
  5
526
100
AcDbEntity
  8
0
 62
     0
370
    -2
100
AcDbCircle
 10
0.0
 20
0.0
 30
0.0
 40
0.5
  0
ENDBLK
  5
527
100
AcDbEntity
100
AcDbBlockEnd
  0
BLOCK
  5
528
100
AcDbEntity
  8
0
100
AcDbBlockBegin
  2
CDWK_PTTYP4
 70
     0
 10
0.0
 20
0.0
 30
0.0
  3
CDWK_PTTYP4
  1

  4
Cadwork node
  0
HATCH
  5
529
100
AcDbEntity
  8
0
 62
     0
370
    -2
100
AcDbHatch
 10
0.0
 20
0.0
 30
0.0
210
0.0
220
0.0
230
1.0
  2
SOLID
 70
     1
 71
     0
 91
        1
 92
        1
 93
        1
 72
     2
 10
0.0
 20
0.0
 40
0.5
 50
0.0
 51
360.0
 73
     1
 97
        0
 75
     0
 76
     1
 98
        1
 10
0.0
 20
0.0
  0
ENDBLK
  5
52A
100
AcDbEntity
100
AcDbBlockEnd
  0
BLOCK
  5
52B
100
AcDbEntity
  8
0
100
AcDbBlockBegin
  2
CDWK_PTTYP5
 70
     0
 10
0.0
 20
0.0
 30
0.0
  3
CDWK_PTTYP5
  1

  4
Cadwork node
  0
LINE
  5
52C
100
AcDbEntity
  8
0
 62
     0
370
    -2
100
AcDbLine
 10
-0.5
 20
0.5
 30
0.0
 11
0.5
 21
0.5
 31
0.0
  0
LINE
  5
52D
100
AcDbEntity
  8
0
 62
     0
370
    -2
100
AcDbLine
 10
0.5
 20
0.5
 30
0.0
 11
0.5
 21
-0.5
 31
0.0
  0
LINE
  5
52E
100
AcDbEntity
  8
0
 62
     0
370
    -2
100
AcDbLine
 10
0.5
 20
-0.5
 30
0.0
 11
-0.5
 21
-0.5
 31
0.0
  0
LINE
  5
52F
100
AcDbEntity
  8
0
 62
     0
370
    -2
100
AcDbLine
 10
-0.5
 20
-0.5
 30
0.0
 11
-0.5
 21
0.5
 31
0.0
  0
SOLID
  5
530
100
AcDbEntity
  8
0
 62
     0
100
AcDbTrace
 10
-0.5
 20
-0.5
 11
-0.5
 21
0.0
 12
0.0
 22
-0.5
 13
0.0
 23
0.0
  0
SOLID
  5
531
100
AcDbEntity
  8
0
 62
     0
100
AcDbTrace
 10
0.0
 20
0.0
 11
0.0
 21
0.5
 12
0.5
 22
0.0
 13
0.5
 23
0.5
  0
ENDBLK
  5
532
100
AcDbEntity
100
AcDbBlockEnd
  0
BLOCK
  5
533
100
AcDbEntity
  8
0
100
AcDbBlockBegin
  2
CDWK_PTTYP6
 70
     0
 10
0.0
 20
0.0
 30
0.0
  3
CDWK_PTTYP6
  1

  4
Cadwork node
  0
LINE
  5
534
100
AcDbEntity
  8
0
 62
     0
370
    -2
100
AcDbLine
 10
-0.5
 20
0.5
 30
0.0
 11
0.5
 21
0.5
 31
0.0
  0
LINE
  5
535
100
AcDbEntity
  8
0
 62
     0
370
    -2
100
AcDbLine
 10
0.5
 20
0.5
 30
0.0
 11
0.5
 21
-0.5
 31
0.0
  0
LINE
  5
536
100
AcDbEntity
  8
0
 62
     0
370
    -2
100
AcDbLine
 10
0.5
 20
-0.5
 30
0.0
 11
-0.5
 21
-0.5
 31
0.0
  0
LINE
  5
537
100
AcDbEntity
  8
0
 62
     0
370
    -2
100
AcDbLine
 10
-0.5
 20
-0.5
 30
0.0
 11
-0.5
 21
0.5
 31
0.0
  0
SOLID
  5
538
100
AcDbEntity
  8
0
 62
     0
100
AcDbTrace
 10
-0.5
 20
-0.5
 11
-0.5
 21
0.5
 12
0.5
 22
0.5
 13
0.5
 23
0.5
  0
ENDBLK
  5
539
100
AcDbEntity
100
AcDbBlockEnd
  0
BLOCK
  5
53A
100
AcDbEntity
  8
0
100
AcDbBlockBegin
  2
CDWK_PTTYP7
 70
     0
 10
0.0
 20
0.0
 30
0.0
  3
CDWK_PTTYP7
  1

  4
Cadwork node
  0
LINE
  5
53B
100
AcDbEntity
  8
0
 62
     0
370
    -2
100
AcDbLine
 10
-0.5
 20
0.5
 30
0.0
 11
0.5
 21
0.5
 31
0.0
  0
LINE
  5
53C
100
AcDbEntity
  8
0
 62
     0
370
    -2
100
AcDbLine
 10
0.5
 20
0.5
 30
0.0
 11
0.5
 21
-0.5
 31
0.0
  0
LINE
  5
53D
100
AcDbEntity
  8
0
 62
     0
370
    -2
100
AcDbLine
 10
0.5
 20
-0.5
 30
0.0
 11
-0.5
 21
-0.5
 31
0.0
  0
LINE
  5
53E
100
AcDbEntity
  8
0
 62
     0
370
    -2
100
AcDbLine
 10
-0.5
 20
-0.5
 30
0.0
 11
-0.5
 21
0.5
 31
0.0
  0
LINE
  5
53F
100
AcDbEntity
  8
0
 62
     0
370
    -2
100
AcDbLine
 10
0.0
 20
0.5
 30
0.0
 11
0.0
 21
-0.5
 31
0.0
  0
LINE
  5
540
100
AcDbEntity
  8
0
 62
     0
370
    -2
100
AcDbLine
 10
-0.5
 20
0.0
 30
0.0
 11
0.5
 21
0.0
 31
0.0
  0
ENDBLK
  5
541
100
AcDbEntity
100
AcDbBlockEnd
  0
BLOCK
  5
542
100
AcDbEntity
  8
0
100
AcDbBlockBegin
  2
CDWK_PTTYP8
 70
     0
 10
0.0
 20
0.0
 30
0.0
  3
CDWK_PTTYP8
  1

  4
Cadwork node
  0
SOLID
  5
543
100
AcDbEntity
  8
0
 62
     0
100
AcDbTrace
 10
-0.5
 20
0.5
 11
0.5
 21
0.5
 12
-0.5
 22
-0.5
 13
0.5
 23
-0.5
  0
ENDBLK
  5
544
100
AcDbEntity
100
AcDbBlockEnd
  0
BLOCK
  5
545
100
AcDbEntity
  8
0
100
AcDbBlockBegin
  2
CDWK_PTTYP9
 70
     0
 10
0.0
 20
0.0
 30
0.0
  3
CDWK_PTTYP9
  1

  4
Cadwork node
  0
CIRCLE
  5
546
100
AcDbEntity
  8
0
 62
     0
370
    -2
100
AcDbCircle
 10
0.0
 20
0.0
 30
0.0
 40
0.5
  0
CIRCLE
  5
547
100
AcDbEntity
  8
0
 62
     0
370
    -2
100
AcDbCircle
 10
0.0
 20
0.0
 30
0.0
 40
0.16666667
  0
ENDBLK
  5
548
100
AcDbEntity
100
AcDbBlockEnd
  0
BLOCK
  5
549
100
AcDbEntity
  8
0
100
AcDbBlockBegin
  2
CDWK_PTTYP10
 70
     0
 10
0.0
 20
0.0
 30
0.0
  3
CDWK_PTTYP10
  1

  4
Cadwork node
  0
CIRCLE
  5
54A
100
AcDbEntity
  8
0
 62
     0
370
    -2
100
AcDbCircle
 10
0.0
 20
0.0
 30
0.0
 40
0.5
  0
ENDBLK
  5
54B
100
AcDbEntity
100
AcDbBlockEnd
  0
BLOCK
  5
54C
100
AcDbEntity
  8
0
100
AcDbBlockBegin
  2
CDWK_PTTYP11
 70
     0
 10
0.0
 20
0.0
 30
0.0
  3
CDWK_PTTYP11
  1

  4
Cadwork node
  0
CIRCLE
  5
54D
100
AcDbEntity
  8
0
 62
     0
370
    -2
100
AcDbCircle
 10
0.0
 20
0.0
 30
0.0
 40
0.5
  0
CIRCLE
  5
54E
100
AcDbEntity
  8
0
 62
     0
370
    -2
100
AcDbCircle
 10
0.0
 20
0.0
 30
0.0
 40
0.25
  0
ENDBLK
  5
54F
100
AcDbEntity
100
AcDbBlockEnd
  0
BLOCK
  5
550
100
AcDbEntity
  8
0
100
AcDbBlockBegin
  2
CDWK_PTTYP12
 70
     0
 10
0.0
 20
0.0
 30
0.0
  3
CDWK_PTTYP12
  1

  4
Cadwork node
  0
CIRCLE
  5
551
100
AcDbEntity
  8
0
 62
     0
370
    -2
100
AcDbCircle
 10
0.0
 20
0.0
 30
0.0
 40
0.5
  0
CIRCLE
  5
552
100
AcDbEntity
  8
0
 62
     0
370
    -2
100
AcDbCircle
 10
0.25
 20
0.0
 30
0.0
 40
0.25
  0
ENDBLK
  5
553
100
AcDbEntity
100
AcDbBlockEnd
  0
BLOCK
  5
554
100
AcDbEntity
  8
0
100
AcDbBlockBegin
  2
CDWK_PTTYP13
 70
     0
 10
0.0
 20
0.0
 30
0.0
  3
CDWK_PTTYP13
  1

  4
Cadwork node
  0
CIRCLE
  5
555
100
AcDbEntity
  8
0
 62
     0
370
    -2
100
AcDbCircle
 10
0.0
 20
0.0
 30
0.0
 40
0.5
  0
CIRCLE
  5
556
100
AcDbEntity
  8
0
 62
     0
370
    -2
100
AcDbCircle
 10
0.25
 20
0.0
 30
0.0
 40
0.25
  0
CIRCLE
  5
557
100
AcDbEntity
  8
0
 62
     0
370
    -2
100
AcDbCircle
 10
-0.25
 20
0.0
 30
0.0
 40
0.25
  0
ENDBLK
  5
558
100
AcDbEntity
100
AcDbBlockEnd
  0
BLOCK
  5
559
100
AcDbEntity
  8
0
100
AcDbBlockBegin
  2
CDWK_PTTYP14
 70
     0
 10
0.0
 20
0.0
 30
0.0
  3
CDWK_PTTYP14
  1

  4
Cadwork node
  0
POINT
  5
55A
100
AcDbEntity
  8
0
 62
     0
100
AcDbPoint
 10
0.0
 20
0.0
 30
0.0
  0
ENDBLK
  5
55B
100
AcDbEntity
100
AcDbBlockEnd
  0
BLOCK
  5
55C
100
AcDbEntity
  8
0
100
AcDbBlockBegin
  2
CDWK_PTTYP15
 70
     0
 10
0.0
 20
0.0
 30
0.0
  3
CDWK_PTTYP15
  1

  4
Cadwork node
  0
POINT
  5
55D
100
AcDbEntity
  8
0
 62
     0
100
AcDbPoint
 10
0.0
 20
0.0
 30
0.0
  0
ENDBLK
  5
55E
100
AcDbEntity
100
AcDbBlockEnd
  0
BLOCK
  5
55F
100
AcDbEntity
  8
0
100
AcDbBlockBegin
  2
CDWK_PTTYP16
 70
     0
 10
0.0
 20
0.0
 30
0.0
  3
CDWK_PTTYP16
  1

  4
Cadwork node
  0
LINE
  5
560
100
AcDbEntity
  8
0
 62
     0
370
    -2
100
AcDbLine
 10
-0.5
 20
-0.28867513
 30
0.0
 11
0.5
 21
-0.28867513
 31
0.0
  0
LINE
  5
561
100
AcDbEntity
  8
0
 62
     0
370
    -2
100
AcDbLine
 10
0.5
 20
-0.28867513
 30
0.0
 11
0.0
 21
0.57735027
 31
0.0
  0
LINE
  5
562
100
AcDbEntity
  8
0
 62
     0
370
    -2
100
AcDbLine
 10
0.0
 20
0.57735027
 30
0.0
 11
-0.5
 21
-0.28867513
 31
0.0
  0
CIRCLE
  5
563
100
AcDbEntity
  8
0
 62
     0
370
    -2
100
AcDbCircle
 10
0.0
 20
0.0
 30
0.0
 40
0.28867513
  0
ENDBLK
  5
564
100
AcDbEntity
100
AcDbBlockEnd
  0
BLOCK
  5
565
100
AcDbEntity
  8
0
100
AcDbBlockBegin
  2
CDWK_PTTYP17
 70
     0
 10
0.0
 20
0.0
 30
0.0
  3
CDWK_PTTYP17
  1

  4
Cadwork node
  0
CIRCLE
  5
566
100
AcDbEntity
  8
0
 62
     0
370
    -2
100
AcDbCircle
 10
0.0
 20
0.0
 30
0.0
 40
0.5
  0
HATCH
  5
567
100
AcDbEntity
  8
0
 62
     0
370
    -2
100
AcDbHatch
 10
0.0
 20
0.0
 30
0.0
210
0.0
220
0.0
230
1.0
  2
SOLID
 70
     1
 71
     0
 91
        1
 92
        1
 93
        1
 72
     2
 10
0.0
 20
0.0
 40
0.25
 50
0.0
 51
360.0
 73
     1
 97
        0
 75
     0
 76
     1
 98
        1
 10
0.0
 20
0.0
  0
ENDBLK
  5
568
100
AcDbEntity
100
AcDbBlockEnd
  0
BLOCK
  5
569
100
AcDbEntity
  8
0
100
AcDbBlockBegin
  2
CDWK_PTTYP18
 70
     0
 10
0.0
 20
0.0
 30
0.0
  3
CDWK_PTTYP18
  1

  4
Cadwork node
  0
CIRCLE
  5
56A
100
AcDbEntity
  8
0
 62
     0
370
    -2
100
AcDbCircle
 10
0.0
 20
0.0
 30
0.0
 40
0.5
  0
CIRCLE
  5
56B
100
AcDbEntity
  8
0
 62
     0
370
    -2
100
AcDbCircle
 10
0.0
 20
0.0
 30
0.0
 40
0.2
  0
ENDBLK
  5
56C
100
AcDbEntity
100
AcDbBlockEnd
  0
BLOCK
  5
56D
100
AcDbEntity
  8
0
100
AcDbBlockBegin
  2
CDWK_PTTYP19
 70
     0
 10
0.0
 20
0.0
 30
0.0
  3
CDWK_PTTYP19
  1

  4
Cadwork node
  0
CIRCLE
  5
56E
100
AcDbEntity
  8
0
 62
     0
370
    -2
100
AcDbCircle
 10
0.0
 20
0.0
 30
0.0
 40
0.4
  0
CIRCLE
  5
56F
100
AcDbEntity
  8
0
 62
     0
370
    -2
100
AcDbCircle
 10
0.0
 20
0.0
 30
0.0
 40
0.25
  0
LINE
  5
570
100
AcDbEntity
  8
0
 62
     0
370
    -2
100
AcDbLine
 10
-0.25
 20
0.0
 30
0.0
 11
0.25
 21
0.0
 31
0.0
  0
ENDBLK
  5
571
100
AcDbEntity
100
AcDbBlockEnd
  0
BLOCK
  5
572
100
AcDbEntity
  8
0
100
AcDbBlockBegin
  2
CDWK_PTTYP20
 70
     0
 10
0.0
 20
0.0
 30
0.0
  3
CDWK_PTTYP20
  1

  4
Cadwork node
  0
CIRCLE
  5
573
100
AcDbEntity
  8
0
 62
     0
370
    -2
100
AcDbCircle
 10
0.0
 20
0.0
 30
0.0
 40
0.5
  0
CIRCLE
  5
574
100
AcDbEntity
  8
0
 62
     0
370
    -2
100
AcDbCircle
 10
0.0
 20
0.0
 30
0.0
 40
0.3
  0
ENDBLK
  5
575
100
AcDbEntity
100
AcDbBlockEnd
  0
BLOCK
  5
576
100
AcDbEntity
  8
0
100
AcDbBlockBegin
  2
CDWK_PTTYP21
 70
     0
 10
0.0
 20
0.0
 30
0.0
  3
CDWK_PTTYP21
  1

  4
Cadwork node
  0
CIRCLE
  5
577
100
AcDbEntity
  8
0
 62
     0
370
    -2
100
AcDbCircle
 10
0.0
 20
0.0
 30
0.0
 40
0.5
  0
LINE
  5
578
100
AcDbEntity
  8
0
 62
     0
370
    -2
100
AcDbLine
 10
-0.5
 20
0.0
 30
0.0
 11
0.5
 21
0.0
 31
0.0
  0
ENDBLK
  5
579
100
AcDbEntity
100
AcDbBlockEnd
  0
BLOCK
  5
57A
100
AcDbEntity
  8
0
100
AcDbBlockBegin
  2
CDWK_PTTYP22
 70
     0
 10
0.0
 20
0.0
 30
0.0
  3
CDWK_PTTYP22
  1

  4
Cadwork node
  0
POINT
  5
57B
100
AcDbEntity
  8
0
 62
     0
100
AcDbPoint
 10
0.0
 20
0.0
 30
0.0
  0
ENDBLK
  5
57C
100
AcDbEntity
100
AcDbBlockEnd
  0
BLOCK
  5
57D
100
AcDbEntity
  8
0
100
AcDbBlockBegin
  2
CDWK_PTTYP23
 70
     0
 10
0.0
 20
0.0
 30
0.0
  3
CDWK_PTTYP23
  1

  4
Cadwork node
  0
POINT
  5
57E
100
AcDbEntity
  8
0
 62
     0
100
AcDbPoint
 10
0.0
 20
0.0
 30
0.0
  0
ENDBLK
  5
57F
100
AcDbEntity
100
AcDbBlockEnd
  0
BLOCK
  5
580
100
AcDbEntity
  8
0
100
AcDbBlockBegin
  2
CDWK_PTTYP24
 70
     0
 10
0.0
 20
0.0
 30
0.0
  3
CDWK_PTTYP24
  1

  4
Cadwork node
  0
POINT
  5
581
100
AcDbEntity
  8
0
 62
     0
100
AcDbPoint
 10
0.0
 20
0.0
 30
0.0
  0
ENDBLK
  5
582
100
AcDbEntity
100
AcDbBlockEnd
  0
BLOCK
  5
583
100
AcDbEntity
  8
0
100
AcDbBlockBegin
  2
CDWK_PTTYP25
 70
     0
 10
0.0
 20
0.0
 30
0.0
  3
CDWK_PTTYP25
  1

  4
Cadwork node
  0
LINE
  5
584
100
AcDbEntity
  8
0
 62
     0
370
    -2
100
AcDbLine
 10
-0.43290044
 20
-0.25
 30
0.0
 11
0.43290044
 21
-0.25
 31
0.0
  0
LINE
  5
585
100
AcDbEntity
  8
0
 62
     0
370
    -2
100
AcDbLine
 10
-0.43290044
 20
-0.25
 30
0.0
 11
0.0
 21
0.5
 31
0.0
  0
LINE
  5
586
100
AcDbEntity
  8
0
 62
     0
370
    -2
100
AcDbLine
 10
0.43290044
 20
-0.25
 30
0.0
 11
0.0
 21
0.5
 31
0.0
  0
CIRCLE
  5
587
100
AcDbEntity
  8
0
 62
     0
370
    -2
100
AcDbCircle
 10
0.0
 20
0.0
 30
0.0
 40
0.5
  0
ENDBLK
  5
588
100
AcDbEntity
100
AcDbBlockEnd
  0
BLOCK
  5
589
100
AcDbEntity
  8
0
100
AcDbBlockBegin
  2
CDWK_PTTYP26
 70
     0
 10
0.0
 20
0.0
 30
0.0
  3
CDWK_PTTYP26
  1

  4
Cadwork node
  0
LINE
  5
58A
100
AcDbEntity
  8
0
 62
     0
370
    -2
100
AcDbLine
 10
-0.5
 20
-0.28850001
 30
0.0
 11
0.5
 21
-0.28850001
 31
0.0
  0
LINE
  5
58B
100
AcDbEntity
  8
0
 62
     0
370
    -2
100
AcDbLine
 10
-0.5
 20
-0.28850001
 30
0.0
 11
0.0
 21
0.57736721
 31
0.0
  0
LINE
  5
58C
100
AcDbEntity
  8
0
 62
     0
370
    -2
100
AcDbLine
 10
0.5
 20
-0.28850001
 30
0.0
 11
0.0
 21
0.57736721
 31
0.0
  0
CIRCLE
  5
58D
100
AcDbEntity
  8
0
 62
     0
370
    -2
100
AcDbCircle
 10
0.0
 20
0.0
 30
0.0
 40
0.1312336
  0
ENDBLK
  5
58E
100
AcDbEntity
100
AcDbBlockEnd
  0
BLOCK
  5
58F
100
AcDbEntity
  8
0
100
AcDbBlockBegin
  2
CDWK_PTTYP27
 70
     0
 10
0.0
 20
0.0
 30
0.0
  3
CDWK_PTTYP27
  1

  4
Cadwork node
  0
LINE
  5
590
100
AcDbEntity
  8
0
 62
     0
370
    -2
100
AcDbLine
 10
-0.43290044
 20
-0.25
 30
0.0
 11
0.43290044
 21
-0.25
 31
0.0
  0
LINE
  5
591
100
AcDbEntity
  8
0
 62
     0
370
    -2
100
AcDbLine
 10
-0.43290044
 20
-0.25
 30
0.0
 11
0.0
 21
0.5
 31
0.0
  0
LINE
  5
592
100
AcDbEntity
  8
0
 62
     0
370
    -2
100
AcDbLine
 10
0.43290044
 20
-0.25
 30
0.0
 11
0.0
 21
0.5
 31
0.0
  0
CIRCLE
  5
593
100
AcDbEntity
  8
0
 62
     0
370
    -2
100
AcDbCircle
 10
0.0
 20
0.0
 30
0.0
 40
0.5
  0
CIRCLE
  5
594
100
AcDbEntity
  8
0
 62
     0
370
    -2
100
AcDbCircle
 10
0.0
 20
0.0
 30
0.0
 40
0.1312336
  0
ENDBLK
  5
595
100
AcDbEntity
100
AcDbBlockEnd
  0
BLOCK
  5
596
100
AcDbEntity
  8
0
100
AcDbBlockBegin
  2
CDWK_PTTYP28
 70
     0
 10
0.0
 20
0.0
 30
0.0
  3
CDWK_PTTYP28
  1

  4
Cadwork node
  0
POINT
  5
597
100
AcDbEntity
  8
0
 62
     0
100
AcDbPoint
 10
0.0
 20
0.0
 30
0.0
  0
ENDBLK
  5
598
100
AcDbEntity
100
AcDbBlockEnd
  0
BLOCK
  5
599
100
AcDbEntity
  8
0
100
AcDbBlockBegin
  2
CDWK_PTTYP29
 70
     0
 10
0.0
 20
0.0
 30
0.0
  3
CDWK_PTTYP29
  1

  4
Cadwork node
  0
CIRCLE
  5
59A
100
AcDbEntity
  8
0
 62
     0
370
    -2
100
AcDbCircle
 10
0.0
 20
0.0
 30
0.0
 40
0.5
  0
CIRCLE
  5
59B
100
AcDbEntity
  8
0
 62
     0
370
    -2
100
AcDbCircle
 10
0.0
 20
0.0
 30
0.0
 40
0.375
  0
CIRCLE
  5
59C
100
AcDbEntity
  8
0
 62
     0
370
    -2
100
AcDbCircle
 10
0.0
 20
0.0
 30
0.0
 40
0.21875
  0
ENDBLK
  5
59D
100
AcDbEntity
100
AcDbBlockEnd
  0
BLOCK
  5
59E
100
AcDbEntity
  8
0
100
AcDbBlockBegin
  2
CDWK_PTTYP30
 70
     0
 10
0.0
 20
0.0
 30
0.0
  3
CDWK_PTTYP30
  1

  4
Cadwork node
  0
LINE
  5
59F
100
AcDbEntity
  8
0
 62
     0
370
    -2
100
AcDbLine
 10
0.17680339
 20
0.17680339
 30
0.0
 11
0.5
 21
0.5
 31
0.0
  0
LINE
  5
5A0
100
AcDbEntity
  8
0
 62
     0
370
    -2
100
AcDbLine
 10
-0.17680339
 20
0.17680339
 30
0.0
 11
-0.5
 21
0.5
 31
0.0
  0
LINE
  5
5A1
100
AcDbEntity
  8
0
 62
     0
370
    -2
100
AcDbLine
 10
0.17680339
 20
-0.17680339
 30
0.0
 11
0.5
 21
-0.5
 31
0.0
  0
LINE
  5
5A2
100
AcDbEntity
  8
0
 62
     0
370
    -2
100
AcDbLine
 10
-0.17680339
 20
-0.17680339
 30
0.0
 11
-0.5
 21
-0.5
 31
0.0
  0
ENDBLK
  5
5A3
100
AcDbEntity
100
AcDbBlockEnd
  0
BLOCK
  5
5A4
100
AcDbEntity
  8
0
100
AcDbBlockBegin
  2
CDWK_PTTYP31
 70
     0
 10
0.0
 20
0.0
 30
0.0
  3
CDWK_PTTYP31
  1

  4
Cadwork node
  0
CIRCLE
  5
5A5
100
AcDbEntity
  8
0
 62
     0
370
    -2
100
AcDbCircle
 10
0.0
 20
0.0
 30
0.0
 40
0.075
  0
LINE
  5
5A6
100
AcDbEntity
  8
0
 62
     0
370
    -2
100
AcDbLine
 10
0.075
 20
0.0
 30
0.0
 11
0.5
 21
0.0
 31
0.0
  0
LINE
  5
5A7
100
AcDbEntity
  8
0
 62
     0
370
    -2
100
AcDbLine
 10
-0.075
 20
0.0
 30
0.0
 11
-0.5
 21
0.0
 31
0.0
  0
LINE
  5
5A8
100
AcDbEntity
  8
0
 62
     0
370
    -2
100
AcDbLine
 10
0.0
 20
0.075
 30
0.0
 11
0.0
 21
0.5
 31
0.0
  0
LINE
  5
5A9
100
AcDbEntity
  8
0
 62
     0
370
    -2
100
AcDbLine
 10
0.0
 20
-0.075
 30
0.0
 11
0.0
 21
-0.5
 31
0.0
  0
ENDBLK
  5
5AA
100
AcDbEntity
100
AcDbBlockEnd
  0
BLOCK
  5
5AB
100
AcDbEntity
  8
0
100
AcDbBlockBegin
  2
CDWK_PTTYP32
 70
     0
 10
0.0
 20
0.0
 30
0.0
  3
CDWK_PTTYP32
  1

  4
Cadwork node
  0
CIRCLE
  5
5AC
100
AcDbEntity
  8
0
 62
     0
370
    -2
100
AcDbCircle
 10
0.0
 20
0.0
 30
0.0
 40
0.5
  0
CIRCLE
  5
5AD
100
AcDbEntity
  8
0
 62
     0
370
    -2
100
AcDbCircle
 10
0.0
 20
0.0
 30
0.0
 40
0.16666667
  0
LINE
  5
5AE
100
AcDbEntity
  8
0
 62
     0
370
    -2
100
AcDbLine
 10
0.11786893
 20
0.11786893
 30
0.0
 11
0.35360678
 21
0.35360678
 31
0.0
  0
LINE
  5
5AF
100
AcDbEntity
  8
0
 62
     0
370
    -2
100
AcDbLine
 10
-0.11786893
 20
0.11786893
 30
0.0
 11
-0.35360678
 21
0.35360678
 31
0.0
  0
LINE
  5
5B0
100
AcDbEntity
  8
0
 62
     0
370
    -2
100
AcDbLine
 10
0.11786893
 20
-0.11786893
 30
0.0
 11
0.35360678
 21
-0.35360678
 31
0.0
  0
LINE
  5
5B1
100
AcDbEntity
  8
0
 62
     0
370
    -2
100
AcDbLine
 10
-0.11786893
 20
-0.11786893
 30
0.0
 11
-0.35360678
 21
-0.35360678
 31
0.0
  0
ENDBLK
  5
5B2
100
AcDbEntity
100
AcDbBlockEnd
  0
BLOCK
  5
5B3
100
AcDbEntity
  8
0
100
AcDbBlockBegin
  2
CDWK_PTTYP33
 70
     0
 10
0.0
 20
0.0
 30
0.0
  3
CDWK_PTTYP33
  1

  4
Cadwork node
  0
CIRCLE
  5
5B4
100
AcDbEntity
  8
0
 62
     0
370
    -2
100
AcDbCircle
 10
0.0
 20
0.0
 30
0.0
 40
0.5
  0
LINE
  5
5B5
100
AcDbEntity
  8
0
 62
     0
370
    -2
100
AcDbLine
 10
0.0
 20
0.5
 30
0.0
 11
0.0
 21
-0.5
 31
0.0
  0
LINE
  5
5B6
100
AcDbEntity
  8
0
 62
     0
370
    -2
100
AcDbLine
 10
-0.5
 20
0.0
 30
0.0
 11
0.5
 21
0.0
 31
0.0
  0
ENDBLK
  5
5B7
100
AcDbEntity
100
AcDbBlockEnd
  0
BLOCK
  5
5B8
100
AcDbEntity
  8
0
100
AcDbBlockBegin
  2
CDWK_PTTYP34
 70
     0
 10
0.0
 20
0.0
 30
0.0
  3
CDWK_PTTYP34
  1

  4
Cadwork node
  0
CIRCLE
  5
5B9
100
AcDbEntity
  8
0
 62
     0
370
    -2
100
AcDbCircle
 10
0.0
 20
0.0
 30
0.0
 40
0.5
  0
LINE
  5
5BA
100
AcDbEntity
  8
0
 62
     0
370
    -2
100
AcDbLine
 10
-0.30360678
 20
-0.40360678
 30
0.0
 11
0.40360678
 21
0.30360678
 31
0.0
  0
LINE
  5
5BB
100
AcDbEntity
  8
0
 62
     0
370
    -2
100
AcDbLine
 10
-0.40360678
 20
-0.30360678
 30
0.0
 11
0.30360678
 21
0.40360678
 31
0.0
  0
ENDBLK
  5
5BC
100
AcDbEntity
100
AcDbBlockEnd
  0
BLOCK
  5
5BD
100
AcDbEntity
  8
0
100
AcDbBlockBegin
  2
CDWK_PTTYP35
 70
     0
 10
0.0
 20
0.0
 30
0.0
  3
CDWK_PTTYP35
  1

  4
Cadwork node
  0
CIRCLE
  5
5BE
100
AcDbEntity
  8
0
 62
     0
370
    -2
100
AcDbCircle
 10
0.0
 20
0.0
 30
0.0
 40
0.21431634
  0
LINE
  5
5BF
100
AcDbEntity
  8
0
 62
     0
370
    -2
100
AcDbLine
 10
0.0
 20
0.21431634
 30
0.0
 11
0.0
 21
0.5
 31
0.0
  0
LINE
  5
5C0
100
AcDbEntity
  8
0
 62
     0
370
    -2
100
AcDbLine
 10
0.0
 20
-0.21431634
 30
0.0
 11
0.0
 21
-0.5
 31
0.0
  0
ENDBLK
  5
5C1
100
AcDbEntity
100
AcDbBlockEnd
  0
BLOCK
  5
5C2
100
AcDbEntity
  8
0
100
AcDbBlockBegin
  2
CDWK_PTTYP36
 70
     0
 10
0.0
 20
0.0
 30
0.0
  3
CDWK_PTTYP36
  1

  4
Cadwork node
  0
LINE
  5
5C3
100
AcDbEntity
  8
0
 62
     0
370
    -2
100
AcDbLine
 10
-0.5
 20
-0.16666667
 30
0.0
 11
0.5
 21
-0.16666667
 31
0.0
  0
LINE
  5
5C4
100
AcDbEntity
  8
0
 62
     0
370
    -2
100
AcDbLine
 10
0.5
 20
-0.16666667
 30
0.0
 11
0.5
 21
0.16666667
 31
0.0
  0
LINE
  5
5C5
100
AcDbEntity
  8
0
 62
     0
370
    -2
100
AcDbLine
 10
0.5
 20
0.16666667
 30
0.0
 11
-0.5
 21
0.16666667
 31
0.0
  0
LINE
  5
5C6
100
AcDbEntity
  8
0
 62
     0
370
    -2
100
AcDbLine
 10
-0.5
 20
0.16666667
 30
0.0
 11
-0.5
 21
-0.16666667
 31
0.0
  0
SOLID
  5
5C7
100
AcDbEntity
  8
0
 62
     0
100
AcDbTrace
 10
-0.5
 20
-0.16666667
 11
0.5
 21
0.16666667
 12
0.5
 22
-0.16666667
 13
0.5
 23
-0.16666667
  0
ENDBLK
  5
5C8
100
AcDbEntity
100
AcDbBlockEnd
  0
BLOCK
  5
5C9
100
AcDbEntity
  8
0
100
AcDbBlockBegin
  2
CDWK_PTTYP37
 70
     0
 10
0.0
 20
0.0
 30
0.0
  3
CDWK_PTTYP37
  1

  4
Cadwork node
  0
CIRCLE
  5
5CA
100
AcDbEntity
  8
0
 62
     0
370
    -2
100
AcDbCircle
 10
0.0
 20
0.0
 30
0.0
 40
0.5
  0
SOLID
  5
5CB
100
AcDbEntity
  8
0
 62
     0
100
AcDbTrace
 10
0.0
 20
0.0
 11
0.35350001
 21
0.35350001
 12
0.5
 22
0.0
 13
0.46200001
 23
0.19149999
  0
SOLID
  5
5CC
100
AcDbEntity
  8
0
 62
     0
100
AcDbTrace
 10
0.0
 20
0.0
 11
0.35350001
 21
-0.35350001
 12
0.5
 22
0.0
 13
0.46200001
 23
-0.19149999
  0
SOLID
  5
5CD
100
AcDbEntity
  8
0
 62
     0
100
AcDbTrace
 10
0.0
 20
0.0
 11
0.0
 21
-0.5
 12
0.35350001
 22
-0.35350001
 13
0.19149999
 23
-0.46200001
  0
SOLID
  5
5CE
100
AcDbEntity
  8
0
 62
     0
100
AcDbTrace
 10
0.0
 20
0.0
 11
0.0
 21
-0.5
 12
-0.35350001
 22
-0.35350001
 13
-0.19149999
 23
-0.46200001
  0
ENDBLK
  5
5CF
100
AcDbEntity
100
AcDbBlockEnd
  0
BLOCK
  5
5D0
100
AcDbEntity
  8
0
100
AcDbBlockBegin
  2
CDWK_PTTYP38
 70
     0
 10
0.0
 20
0.0
 30
0.0
  3
CDWK_PTTYP38
  1

  4
Cadwork node
  0
CIRCLE
  5
5D1
100
AcDbEntity
  8
0
 62
     0
370
    -2
100
AcDbCircle
 10
0.0
 20
0.0
 30
0.0
 40
0.5
  0
SOLID
  5
5D2
100
AcDbEntity
  8
0
 62
     0
100
AcDbTrace
 10
0.0
 20
0.0
 11
0.35350001
 21
0.35350001
 12
0.0
 22
0.5
 13
0.19149999
 23
0.46200001
  0
SOLID
  5
5D3
100
AcDbEntity
  8
0
 62
     0
100
AcDbTrace
 10
0.0
 20
0.0
 11
0.5
 21
0.0
 12
0.35350001
 22
0.35350001
 13
0.46200001
 23
0.19149999
  0
SOLID
  5
5D4
100
AcDbEntity
  8
0
 62
     0
100
AcDbTrace
 10
0.0
 20
0.0
 11
0.0
 21
-0.5
 12
-0.35350001
 22
-0.35350001
 13
-0.19149999
 23
-0.46200001
  0
SOLID
  5
5D5
100
AcDbEntity
  8
0
 62
     0
100
AcDbTrace
 10
0.0
 20
0.0
 11
-0.5
 21
0.0
 12
-0.35350001
 22
-0.35350001
 13
-0.46200001
 23
-0.19149999
  0
ENDBLK
  5
5D6
100
AcDbEntity
100
AcDbBlockEnd
  0
BLOCK
  5
5D7
100
AcDbEntity
  8
Ech.1_5
100
AcDbBlockBegin
  2
*X1
 70
     1
 10
0.0
 20
0.0
 30
0.0
  3
*X1
  1

  4
Cadwork hatch
  0
ENDBLK
  5
5D8
100
AcDbEntity
100
AcDbBlockEnd
  0
BLOCK
  5
5D9
100
AcDbEntity
  8
Ech.1_5
100
AcDbBlockBegin
  2
*X2
 70
     1
 10
0.0
 20
0.0
 30
0.0
  3
*X2
  1

  4
Cadwork hatch
  0
ENDBLK
  5
5DA
100
AcDbEntity
100
AcDbBlockEnd
  0
BLOCK
  5
5DB
100
AcDbEntity
  8
Ech.1_5
100
AcDbBlockBegin
  2
*X3
 70
     1
 10
0.0
 20
0.0
 30
0.0
  3
*X3
  1

  4
Cadwork hatch
  0
ENDBLK
  5
5DC
100
AcDbEntity
100
AcDbBlockEnd
  0
BLOCK
  5
5DD
100
AcDbEntity
  8
Ech.1_5
100
AcDbBlockBegin
  2
*X4
 70
     1
 10
0.0
 20
0.0
 30
0.0
  3
*X4
  1

  4
Cadwork hatch
  0
ENDBLK
  5
5DE
100
AcDbEntity
100
AcDbBlockEnd
  0
BLOCK
  5
5DF
100
AcDbEntity
  8
Ech.1_5
100
AcDbBlockBegin
  2
*X5
 70
     1
 10
0.0
 20
0.0
 30
0.0
  3
*X5
  1

  4
Cadwork hatch
  0
ENDBLK
  5
5E0
100
AcDbEntity
100
AcDbBlockEnd
  0
BLOCK
  5
5E1
100
AcDbEntity
  8
Ech.1_5
100
AcDbBlockBegin
  2
*X6
 70
     1
 10
0.0
 20
0.0
 30
0.0
  3
*X6
  1

  4
Cadwork hatch
  0
ENDBLK
  5
5E2
100
AcDbEntity
100
AcDbBlockEnd
  0
BLOCK
  5
5E3
100
AcDbEntity
  8
Ech.1_5
100
AcDbBlockBegin
  2
*X7
 70
     1
 10
0.0
 20
0.0
 30
0.0
  3
*X7
  1

  4
Cadwork hatch
  0
LINE
  5
5E4
100
AcDbEntity
  8
Ech.1_5
 62
     9
  6
CONTINUOUS
370
    -2
100
AcDbLine
 10
42023.1278496
 20
-16229.00944683
 30
0.0
 11
42011.17404127
 21
-16232.17411043
 31
0.0
  0
LINE
  5
5E5
100
AcDbEntity
  8
Ech.1_5
 62
     9
  6
CONTINUOUS
370
    -2
100
AcDbLine
 10
42023.1278496
 20
-16232.17411043
 30
0.0
 11
42011.17404127
 21
-16229.00944683
 31
0.0
  0
ENDBLK
  5
5E6
100
AcDbEntity
100
AcDbBlockEnd
  0
ENDSEC
  0
SECTION
  2
ENTITIES
  0
INSERT
  5
5E7
100
AcDbEntity
  8
Ech.1_5
 62
     0
100
AcDbBlockReference
  2
*X1
 10
0.0
 20
0.0
 30
0.0
  0
INSERT
  5
5E8
100
AcDbEntity
  8
Ech.1_5
 62
     0
100
AcDbBlockReference
  2
*X2
 10
0.0
 20
0.0
 30
0.0
  0
INSERT
  5
5E9
100
AcDbEntity
  8
Ech.1_5
 62
     0
100
AcDbBlockReference
  2
*X3
 10
0.0
 20
0.0
 30
0.0
  0
INSERT
  5
5EA
100
AcDbEntity
  8
Ech.1_5
 62
     0
100
AcDbBlockReference
  2
*X4
 10
0.0
 20
0.0
 30
0.0
  0
INSERT
  5
5EB
100
AcDbEntity
  8
Ech.1_5
 62
     0
100
AcDbBlockReference
  2
*X5
 10
0.0
 20
0.0
 30
0.0
  0
INSERT
  5
5EC
100
AcDbEntity
  8
Ech.1_5
 62
     0
100
AcDbBlockReference
  2
*X6
 10
0.0
 20
0.0
 30
0.0
  0
INSERT
  5
5ED
100
AcDbEntity
  8
Ech.1_5
 62
     0
100
AcDbBlockReference
  2
*X7
 10
0.0
 20
0.0
 30
0.0
  0
LWPOLYLINE
  5
5EE
100
AcDbEntity
  8
Ech.1_5
 62
     7
  6
CONTINUOUS
370
    -3
100
AcDbPolyline
 90
        4
 70
     1
 43
0.0
 10
41594.10392737
 20
-16112.7979316
 10
41631.6916322
 20
-16099.11712586
 10
41640.92617607
 20
-16124.48882662
 10
41603.33847124
 20
-16138.16963236
  0
LWPOLYLINE
  5
5EF
100
AcDbEntity
  8
Ech.1_5
 62
    43
  6
CONTINUOUS
370
    -3
100
AcDbPolyline
 90
        4
 70
     1
 43
0.0
 10
41982.14887661
 20
-16227.42525027
 10
41982.14887661
 20
-16588.92510267
 10
42052.1505594
 20
-16588.92510267
 10
42052.14887661
 20
-16227.42525027
  0
LWPOLYLINE
  5
5F0
100
AcDbEntity
  8
Ech.1_5
 62
   190
  6
CONTINUOUS
370
    -3
100
AcDbPolyline
 90
        4
 70
     0
 43
0.0
 10
41981.68994144
 20
-16419.47498179
 10
42005.29594989
 20
-16433.65088081
 10
42001.11672185
 20
-16426.96302421
 10
42052.14907494
 20
-16457.60901357
  0
LWPOLYLINE
  5
5F1
100
AcDbEntity
  8
Ech.1_5
 62
   190
  6
CONTINUOUS
370
    -3
100
AcDbPolyline
 90
       26
 70
     0
 43
0.0
 10
42052.36859451
 20
-16588.92510267
 42
0.50591383
 10
42037.58920302
 20
-16577.13914417
 10
41996.75294282
 20
-16588.14300642
 42
-1.30322619
 10
41996.71338552
 20
-16565.47836845
 10
42037.58780758
 20
-16576.33961851
 42
1.30322619
 10
42037.54825029
 20
-16553.67498055
 10
41996.71199008
 20
-16564.6788428
 42
-1.30322619
 10
41996.67243279
 20
-16542.01420484
 10
42037.54685485
 20
-16552.8754549
 42
1.30322619
 10
42037.50729756
 20
-16530.21081694
 10
41996.67103735
 20
-16541.21467919
 42
-1.30322619
 10
41996.63148006
 20
-16518.55004122
 10
42037.50590212
 20
-16529.41129129
 42
1.30322619
 10
42037.46634482
 20
-16506.74665332
 10
41996.63008462
 20
-16517.75051557
 42
-1.30322619
 10
41996.59052732
 20
-16495.08587761
 10
42037.46494939
 20
-16505.94712767
 42
1.30322619
 10
42037.42539209
 20
-16483.28248971
 10
41996.58913189
 20
-16494.28635196
 42
-1.30322619
 10
41996.54957459
 20
-16471.62171399
 10
42037.42399665
 20
-16482.48296406
 42
1.30322619
 10
42037.38443936
 20
-16459.81832609
 10
41996.54817915
 20
-16470.82218834
 42
-1.30322619
 10
41996.50862186
 20
-16448.15755038
 10
42037.38304392
 20
-16459.01880044
 42
0.22783945
 10
42047.36848426
 20
-16457.11935011
  0
ARC
  5
5F2
100
AcDbEntity
  8
Ech.1_5
 62
   190
  6
CONTINUOUS
370
    -3
100
AcDbCircle
 10
41993.73762385
 20
-16600.28015073
 30
0.0
 40
11.73209968
100
AcDbArc
 50
75.43467416
 51
104.56532584
  0
LWPOLYLINE
  5
5F3
100
AcDbEntity
  8
Ech.1_5
 62
   190
  6
CONTINUOUS
370
    -3
100
AcDbPolyline
 90
        6
 70
     1
 43
0.0
 10
42011.8480284
 20
-16439.72018826
 10
41982.14887661
 20
-16421.61186952
 10
41982.14887661
 20
-16588.92510267
 10
42052.1505594
 20
-16588.92510267
 10
42052.15288432
 20
-16459.74594922
 10
42007.66880036
 20
-16433.03233166
  0
LWPOLYLINE
  5
5F4
100
AcDbEntity
  8
Ech.1_5
 62
   190
  6
CONTINUOUS
370
    -3
100
AcDbPolyline
 90
        4
 70
     0
 43
0.0
 10
41981.69367101
 20
-16421.26828515
 10
42011.8480284
 20
-16439.72018826
 10
42007.66880036
 20
-16433.03233166
 10
42052.15288432
 20
-16459.74594922
  0
LWPOLYLINE
  5
5F5
100
AcDbEntity
  8
Ech.1_5
 62
   190
  6
CONTINUOUS
370
    -3
100
AcDbPolyline
 90
       13
 70
     1
 43
0.0
 10
42205.07265078
 20
-15784.00581467
 10
41368.12170612
 20
-16088.63104607
 10
41368.12170612
 20
-16195.04882332
 10
41405.70941095
 20
-16181.36801758
 10
41405.98184001
 20
-16182.11651029
 10
41594.37638527
 20
-16113.54650351
 10
41594.10392737
 20
-16112.7979316
 10
41631.6916322
 20
-16099.11712586
 10
41631.9640901
 20
-16099.86569778
 10
41662.02312812
 20
-16088.92510267
 10
41662.14918014
 20
-16088.92510267
 10
41662.02312812
 20
-16088.92510267
 10
42205.07265078
 20
-15891.31937858
  0
LWPOLYLINE
  5
5F6
102
{ACAD_REACTORS
330
5F7
102
}
100
AcDbEntity
  8
Ech.1_5
 62
   190
  6
CONTINUOUS
370
    -3
100
AcDbPolyline
 90
        4
 70
     1
 43
0.0
 10
42052.15207246
 20
-16182.42519975
 10
42052.15207246
 20
-16588.92510267
 10
42065.15207246
 20
-16588.92510267
 10
42065.15207246
 20
-16182.42519975
  0
HATCH
  5
5F7
100
AcDbEntity
  8
Ech.1_5
 62
   190
  6
CONTINUOUS
100
AcDbHatch
 10
0.0
 20
0.0
 30
0.0
210
0.0
220
0.0
230
1.0
  2
DOTS2
 70
     0
 71
     1
 91
        1
 92
        7
 72
     0
 73
     1
 93
        4
 10
42052.15207246
 20
-16182.42519975
 10
42052.15207246
 20
-16588.92510267
 10
42065.15207246
 20
-16588.92510267
 10
42065.15207246
 20
-16182.42519975
 97
        1
330
5F6
 75
     0
 76
     2
 52
0.0
 41
4.72440952
 77
     0
 78
     1
 53
0.0
 43
0.0
 44
0.0
 45
3.75
 46
3.535
 79
     2
 49
0.0
 49
-3.535
 47
0.775229
 98
        1
 10
0.0
 20
0.0
  0
LWPOLYLINE
  5
5F8
100
AcDbEntity
  8
Ech.1_5
 62
   190
  6
CONTINUOUS
370
    -3
100
AcDbPolyline
 90
        5
 70
     1
 43
0.0
 10
42205.07265078
 20
-15989.01337976
 10
41936.89662886
 20
-15989.01337976
 10
41662.02312812
 20
-16088.92510267
 10
42205.07265078
 20
-16088.92510267
 10
42205.07265078
 20
-15988.92510267
  0
LWPOLYLINE
  5
5F9
100
AcDbEntity
  8
Ech.1_5
 62
   190
  6
CONTINUOUS
370
    -3
100
AcDbPolyline
 90
        9
 70
     1
 43
0.0
 10
41912.14888909
 20
-15997.93254411
 10
41912.14887931
 20
-16168.97640077
 10
42154.6781199
 20
-16169.38523944
 10
42119.99492612
 20
-16075.14851116
 10
42130.95588153
 20
-16064.42077302
 10
42104.36973613
 20
-16075.38172844
 10
42116.03032256
 20
-16064.42077302
 10
42088.10224727
 20
-15988.92510267
 10
41936.89662886
 20
-15988.92510267
  0
LWPOLYLINE
  5
5FA
100
AcDbEntity
  8
Ech.1_5
 62
   190
  6
CONTINUOUS
370
    -3
100
AcDbPolyline
 90
        6
 70
     0
 43
0.0
 10
42085.0584562
 20
-15981.16744534
 10
42116.03032256
 20
-16064.42077302
 10
42104.36973613
 20
-16075.38172844
 10
42130.95588153
 20
-16064.42077302
 10
42119.99492612
 20
-16075.14851116
 10
42157.21806683
 20
-16176.16159949
  0
LWPOLYLINE
  5
5FB
100
AcDbEntity
  8
Ech.1_5
 62
   190
  6
CONTINUOUS
370
    -3
100
AcDbPolyline
 90
        4
 70
     1
 43
0.0
 10
41912.14887661
 20
-16182.42519975
 10
41912.14887661
 20
-16588.92514545
 10
41982.14887661
 20
-16588.92510267
 10
41982.14887661
 20
-16182.42519975
  0
LWPOLYLINE
  5
5FC
102
{ACAD_REACTORS
330
5FD
102
}
100
AcDbEntity
  8
Ech.1_5
 62
    32
  6
CONTINUOUS
370
    15
100
AcDbPolyline
 90
        4
 70
     1
 43
0.0
 10
41364.75836273
 20
-16235.6456995
 10
41659.72003128
 20
-16128.29075601
 10
41659.72002849
 20
-16117.64842376
 10
41361.27513817
 20
-16226.27174453
  0
HATCH
  5
5FD
100
AcDbEntity
  8
Ech.1_5
 62
    32
  6
CONTINUOUS
100
AcDbHatch
 10
0.0
 20
0.0
 30
0.0
210
0.0
220
0.0
230
1.0
  2
SOLID
 70
     1
 71
     1
 91
        1
 92
        7
 72
     0
 73
     1
 93
        4
 10
41364.75836273
 20
-16235.6456995
 10
41659.72003128
 20
-16128.29075601
 10
41659.72002849
 20
-16117.64842376
 10
41361.27513817
 20
-16226.27174453
 97
        1
330
5FC
 75
     0
 76
     2
 47
0.775229
 98
        1
 10
0.0
 20
0.0
  0
LWPOLYLINE
  5
5FE
102
{ACAD_REACTORS
330
5FF
102
}
100
AcDbEntity
  8
Ech.1_5
 62
     7
  6
CONTINUOUS
370
    -3
100
AcDbPolyline
 90
        4
 70
     1
 43
0.0
 10
41364.75836273
 20
-16235.6456995
 10
41659.72003128
 20
-16128.29075601
 10
41659.72002849
 20
-16117.64842376
 10
41361.27513817
 20
-16226.27174453
  0
HATCH
  5
5FF
100
AcDbEntity
  8
Ech.1_5
 62
   190
  6
CONTINUOUS
100
AcDbHatch
 10
0.0
 20
0.0
 30
0.0
210
0.0
220
0.0
230
1.0
  2
ANSI37
 70
     0
 71
     1
 91
        1
 92
        7
 72
     0
 73
     1
 93
        4
 10
41364.75836273
 20
-16235.6456995
 10
41659.72003128
 20
-16128.29075601
 10
41659.72002849
 20
-16117.64842376
 10
41361.27513817
 20
-16226.27174453
 97
        1
330
5FE
 75
     0
 76
     2
 52
0.0
 41
1.88976388
 77
     0
 78
     2
 53
45.0
 43
0.0
 44
0.0
 45
4.24264086
 46
-4.24264086
 79
     0
 53
-45.0
 43
0.0
 44
0.0
 45
4.24264086
 46
4.24264086
 79
     0
 47
0.775229
 98
        1
 10
0.0
 20
0.0
  0
LWPOLYLINE
  5
600
100
AcDbEntity
  8
Ech.1_5
 62
     7
  6
CONTINUOUS
370
    -3
100
AcDbPolyline
 90
        4
 70
     1
 43
0.0
 10
41383.17727792
 20
-16083.15126607
 10
42205.07265078
 20
-15784.00581467
 10
42205.07265078
 20
-15755.27298632
 10
41373.94273405
 20
-16057.77956531
  0
LWPOLYLINE
  5
601
100
AcDbEntity
  8
Ech.1_5
 62
   190
  6
CONTINUOUS
370
    -3
100
AcDbPolyline
 90
       23
 70
     1
 43
0.0
 10
41698.13393907
 20
-15910.81208871
 10
41704.24285383
 20
-15933.58727199
 10
41727.97551813
 20
-15927.22153515
 10
41715.37125947
 20
-15875.0257282
 10
41705.926841
 20
-15877.30636912
 10
41708.50454053
 20
-15887.98094433
 10
41691.5520202
 20
-15892.07464387
 10
41688.97432067
 20
-15881.40006866
 10
41679.52990221
 20
-15883.68070958
 10
41682.10760174
 20
-15894.35528479
 10
41658.99330335
 20
-15899.93693229
 10
41649.52951537
 20
-15860.74620605
 10
41645.86280351
 20
-15845.56189499
 10
41319.47536909
 20
-15924.37802768
 42
0.41421356
 10
41303.02754619
 20
-15951.29841977
 10
41310.92176144
 20
-15983.98934958
 10
41319.96409415
 20
-16021.43477699
 10
41340.26664749
 20
-16016.5321105
 10
41337.73339482
 20
-16006.04159527
 10
41353.51805189
 20
-16001.8707772
 10
41356.01346901
 20
-16012.20461069
 10
41366.47266684
 20
-16009.39917342
 10
41364.28943432
 20
-16000.35813531
  0
LWPOLYLINE
  5
602
100
AcDbEntity
  8
Ech.1_5
 62
   190
  6
CONTINUOUS
370
    -3
100
AcDbPolyline
 90
       25
 70
     1
 43
0.0
 10
42036.741693
 20
-15787.56894518
 10
42042.85060776
 20
-15810.34412847
 10
42066.58327206
 20
-15803.97839163
 10
42053.9790134
 20
-15751.78258467
 10
42044.53459494
 20
-15754.06322559
 10
42047.11229447
 20
-15764.7378008
 10
42030.15977413
 20
-15768.83150035
 10
42027.5820746
 20
-15758.15692514
 10
42018.13765614
 20
-15760.43756606
 10
42020.71535567
 20
-15771.11214127
 10
41997.64900689
 20
-15776.68220989
 10
41997.21216311
 20
-15774.87318531
 10
41997.15703838
 20
-15774.88649685
 10
41988.11470566
 20
-15737.44106943
 10
41984.46338232
 20
-15722.32048412
 10
41658.08312303
 20
-15801.13488416
 42
0.41421356
 10
41641.63530012
 20
-15828.05527624
 10
41645.86280351
 20
-15845.56189499
 10
41658.57184808
 20
-15898.19163347
 10
41678.87440142
 20
-15893.28896698
 10
41676.34114875
 20
-15882.79845175
 10
41692.12580582
 20
-15878.62763367
 10
41694.62122294
 20
-15888.96146716
 10
41705.08042077
 20
-15886.1560299
 10
41702.89718825
 20
-15877.11499178
  0
LWPOLYLINE
  5
603
100
AcDbEntity
  8
Ech.1_5
 62
   190
  6
CONTINUOUS
370
    -3
100
AcDbPolyline
 90
       13
 70
     1
 43
0.0
 10
41980.22049041
 20
-15704.75013962
 10
41984.46338232
 20
-15722.32048412
 10
41984.51850705
 20
-15722.30717258
 10
41997.21216311
 20
-15774.87318531
 10
42017.45959172
 20
-15769.98383035
 10
42014.92633904
 20
-15759.49331513
 10
42030.71099612
 20
-15755.32249705
 10
42033.20641324
 20
-15765.65633054
 10
42043.66561106
 20
-15762.85089327
 10
42041.48237855
 20
-15753.80985516
 10
42205.07265078
 20
-15709.93055826
 10
42205.07265078
 20
-15627.50420745
 10
41996.66831332
 20
-15677.82974753
 42
0.41421356
  0
LWPOLYLINE
  5
604
100
AcDbEntity
  8
Ech.1_5
 62
     7
100
AcDbPolyline
 90
       57
 70
     0
 43
0.0
 10
41279.81419843
 20
-16178.61213316
 10
41281.20928559
 20
-16178.40940694
 10
41282.60548015
 20
-16178.20476685
 10
41284.00388953
 20
-16177.99629902
 10
41285.40562112
 20
-16177.78208959
 10
41286.81178233
 20
-16177.56022468
 10
41288.22348056
 20
-16177.32879043
 10
41289.64182322
 20
-16177.08587296
 10
41291.06791772
 20
-16176.82955842
 10
41292.50287145
 20
-16176.55793292
 10
41293.94779183
 20
-16176.2690826
 10
41295.40378626
 20
-16175.9610936
 10
41296.87196214
 20
-16175.63205203
 10
41298.35342688
 20
-16175.28004405
 10
41299.84928788
 20
-16174.90315576
 10
41301.36063311
 20
-16174.49951797
 10
41302.88669683
 20
-16174.07152202
 10
41304.42335363
 20
-16173.62928087
 10
41305.9661237
 20
-16173.18372208
 10
41307.51052724
 20
-16172.7457732
 10
41309.05208445
 20
-16172.32636178
 10
41310.58631551
 20
-16171.93641536
 10
41312.10874061
 20
-16171.58686149
 10
41313.61487996
 20
-16171.28862773
 10
41315.10025374
 20
-16171.05264161
 10
41316.56038214
 20
-16170.8898307
 10
41317.99078537
 20
-16170.81112254
 10
41319.3869836
 20
-16170.82744467
 10
41320.74449704
 20
-16170.94972465
 10
41322.05884588
 20
-16171.18889003
 10
41323.32555031
 20
-16171.55586835
 10
41324.54013139
 20
-16172.06158343
 10
41325.69930555
 20
-16172.71183519
 10
41326.80335398
 20
-16173.49714315
 10
41327.85321946
 20
-16174.40519102
 10
41328.84984475
 20
-16175.4236625
 10
41329.79417264
 20
-16176.54024129
 10
41330.68714588
 20
-16177.74261111
 10
41331.52970726
 20
-16179.01845565
 10
41332.32279954
 20
-16180.35545861
 10
41333.06736549
 20
-16181.74130371
 10
41333.76434788
 20
-16183.16367464
 10
41334.41468949
 20
-16184.61025511
 10
41335.01933309
 20
-16186.06872882
 10
41335.57922145
 20
-16187.52677947
 10
41336.09533358
 20
-16188.97235759
 10
41336.56966262
 20
-16190.40087861
 10
41337.00532755
 20
-16191.81604516
 10
41337.40550598
 20
-16193.2219917
 10
41337.77337556
 20
-16194.62285268
 10
41338.11211391
 20
-16196.02276254
 10
41338.42489866
 20
-16197.42585573
 10
41338.71490744
 20
-16198.83626672
 10
41338.98533653
 20
-16200.25805412
 10
41339.24020043
 20
-16201.69195168
 10
41339.4846336
 20
-16203.13414179
 10
41339.72385142
 20
-16204.5804782
  0
ARC
  5
605
100
AcDbEntity
  8
Ech.1_5
 62
     7
100
AcDbCircle
 10
41271.1133636
 20
-16111.3829394
 30
0.0
 40
67.78988877
100
AcDbArc
 50
176.81519387
 51
17.9333216
  0
LINE
  5
606
100
AcDbEntity
  8
Ech.1_5
 62
     7
100
AcDbLine
 10
41334.31520524
 20
-16090.50975569
 30
0.0
 11
41346.12170612
 21
-16090.50975569
 31
0.0
  0
LINE
  5
607
100
AcDbEntity
  8
Ech.1_5
 62
     7
100
AcDbLine
 10
41368.12170612
 20
-16195.04882332
 30
0.0
 11
41368.12170612
 21
-16195.04882332
 31
0.0
  0
ARC
  5
608
100
AcDbEntity
  8
Ech.1_5
 62
     7
100
AcDbCircle
 10
41343.10217708
 20
-16203.96610075
 30
0.0
 40
3.43373615
100
AcDbArc
 50
190.3070861
 51
331.56661712
  0
LWPOLYLINE
  5
609
100
AcDbEntity
  8
Ech.1_5
 62
     1
  6
CADWORK_22
 48
-5.0
370
    35
100
AcDbPolyline
 90
        3
 70
     0
 43
0.0
 10
42088.23058937
 20
-16182.42519975
 10
42065.15207246
 20
-16182.42519975
 10
42065.15207246
 20
-16208.28738427
  0
LWPOLYLINE
  5
60A
100
AcDbEntity
  8
Ech.1_5
 62
     7
  6
CONTINUOUS
370
    -3
100
AcDbPolyline
 90
       10
 70
     0
 43
0.0
 10
41346.12170612
 20
-16246.31227435
 42
-0.41421356
 10
41358.98573122
 20
-16259.17629945
 10
41368.12170612
 20
-16259.17629945
 10
41368.12170612
 20
-16236.64740719
 10
41358.69576691
 20
-16236.64740719
 10
41358.69576691
 20
-16222.56612135
 10
41368.12170612
 20
-16222.56612135
 10
41368.12170612
 20
-16088.63104607
 10
41346.12170612
 20
-16088.63104607
 10
41346.12170612
 20
-16246.31227435
  0
LWPOLYLINE
  5
60B
100
AcDbEntity
  8
Ech.1_5
 62
     7
  6
CONTINUOUS
370
    -3
100
AcDbPolyline
 90
        9
 70
     1
 43
0.0
 10
41346.12170612
 20
-16246.31227435
 42
-0.41421356
 10
41358.98573122
 20
-16259.17629945
 10
41368.12170612
 20
-16259.17629945
 10
41368.12170612
 20
-16236.64740719
 10
41358.69576691
 20
-16236.64740719
 10
41358.69576691
 20
-16222.56612135
 10
41368.12170612
 20
-16222.56612135
 10
41368.12170612
 20
-16088.63104607
 10
41346.12170612
 20
-16088.63104607
  0
LWPOLYLINE
  5
60C
100
AcDbEntity
  8
Ech.1_5
100
AcDbPolyline
 90
       10
 70
     0
 43
0.0
 10
41433.87788646
 20
-16064.69775371
 10
41433.19384617
 20
-16062.81836846
 10
41382.10497341
 20
-16081.41319745
 10
41324.84126437
 20
-16088.94222991
 10
41324.84126437
 20
-16117.55004951
 10
41329.55799041
 20
-16112.2889527
 10
41326.84126437
 20
-16112.2889527
 10
41326.84126437
 20
-16090.69648283
 10
41382.58302629
 20
-16083.36755598
 10
41433.87788646
 20
-16064.69775371
  0
LWPOLYLINE
  5
60D
102
{ACAD_REACTORS
330
60E
102
}
100
AcDbEntity
  8
Ech.1_5
 62
   190
  6
CONTINUOUS
370
    -3
100
AcDbPolyline
 90
        9
 70
     1
 43
0.0
 10
41433.87788646
 20
-16064.69775371
 10
41433.19384617
 20
-16062.81836846
 10
41382.10497341
 20
-16081.41319745
 10
41324.84126437
 20
-16088.94222991
 10
41324.84126437
 20
-16117.55004951
 10
41329.55799041
 20
-16112.2889527
 10
41326.84126437
 20
-16112.2889527
 10
41326.84126437
 20
-16090.69648283
 10
41382.58302629
 20
-16083.36755598
  0
HATCH
  5
60E
100
AcDbEntity
  8
Ech.1_5
 62
   177
  6
CONTINUOUS
100
AcDbHatch
 10
0.0
 20
0.0
 30
0.0
210
0.0
220
0.0
230
1.0
  2
SOLID
 70
     1
 71
     1
 91
        1
 92
        7
 72
     0
 73
     1
 93
        9
 10
41433.87788646
 20
-16064.69775371
 10
41433.19384617
 20
-16062.81836846
 10
41382.10497341
 20
-16081.41319745
 10
41324.84126437
 20
-16088.94222991
 10
41324.84126437
 20
-16117.55004951
 10
41329.55799041
 20
-16112.2889527
 10
41326.84126437
 20
-16112.2889527
 10
41326.84126437
 20
-16090.69648283
 10
41382.58302629
 20
-16083.36755598
 97
        1
330
60D
 75
     0
 76
     2
 47
0.775229
 98
        1
 10
0.0
 20
0.0
  0
LWPOLYLINE
  5
60F
100
AcDbEntity
  8
Ech.1_5
 62
     7
  6
CONTINUOUS
370
    -3
100
AcDbPolyline
 90
        4
 70
     1
 43
0.0
 10
41368.12170612
 20
-16195.04882332
 10
41405.70941095
 20
-16181.36801758
 10
41414.94395482
 20
-16206.73971834
 10
41377.35624999
 20
-16220.42052408
  0
LWPOLYLINE
  5
610
100
AcDbEntity
  8
Ech.1_5
 62
   190
  6
CONTINUOUS
370
    -3
100
AcDbPolyline
 90
        4
 70
     0
 43
0.0
 10
41405.70941095
 20
-16181.36801758
 10
41377.35624999
 20
-16220.42052408
 10
41414.94395482
 20
-16206.73971834
 10
41368.12170612
 20
-16195.04882332
  0
ARC
  5
611
100
AcDbEntity
  8
Ech.1_5
 62
     7
100
AcDbCircle
 10
41270.30718835
 20
-16103.52357633
 30
0.0
 40
65.31757614
100
AcDbArc
 50
182.93511954
 51
11.68289665
  0
ARC
  5
612
100
AcDbEntity
  8
Ech.1_5
 62
     7
100
AcDbCircle
 10
41270.30718835
 20
-16103.52357633
 30
0.0
 40
62.81757614
100
AcDbArc
 50
180.12287567
 51
11.68289665
  0
CIRCLE
  5
613
100
AcDbEntity
  8
Ech.1_5
 62
     7
100
AcDbCircle
 10
41201.83012217
 20
-16101.9141461
 30
0.0
 40
5.9222896
  0
LINE
  5
614
100
AcDbEntity
  8
Ech.1_5
 62
     7
100
AcDbLine
 10
41331.82339168
 20
-16090.80333258
 30
0.0
 11
41334.27159993
 21
-16090.29709514
 31
0.0
  0
LINE
  5
615
100
AcDbEntity
  8
Ech.1_5
 62
   190
  6
CONTINUOUS
370
    -3
100
AcDbLine
 10
41310.92176144
 20
-15983.98934958
 30
0.0
 11
41658.99330335
 21
-15899.93693229
 31
0.0
  0
LWPOLYLINE
  5
616
100
AcDbEntity
  8
Ech.1_5
 62
   190
  6
CONTINUOUS
370
    -3
100
AcDbPolyline
 90
       23
 70
     0
 43
0.0
 10
41705.926841
 20
-15877.30636912
 10
41715.37125947
 20
-15875.0257282
 10
41727.97551813
 20
-15927.22153515
 10
41704.24285383
 20
-15933.58727199
 10
41698.13393907
 20
-15910.81208871
 10
41364.28943432
 20
-16000.35813531
 10
41366.47266684
 20
-16009.39917342
 10
41356.01346901
 20
-16012.20461069
 10
41353.51805189
 20
-16001.8707772
 10
41337.73339482
 20
-16006.04159527
 10
41340.26664749
 20
-16016.5321105
 10
41319.96409415
 20
-16021.43477699
 10
41310.92176144
 20
-15983.98934958
 10
41303.02754619
 20
-15951.29841977
 42
-0.41421356
 10
41319.47536909
 20
-15924.37802768
 10
41645.86280351
 20
-15845.56189499
 10
41658.99330335
 20
-15899.93693229
 10
41682.10760174
 20
-15894.35528479
 10
41679.52990221
 20
-15883.68070958
 10
41688.97432067
 20
-15881.40006866
 10
41691.5520202
 20
-15892.07464387
 10
41708.50454053
 20
-15887.98094433
 10
41705.926841
 20
-15877.30636912
  0
LINE
  5
617
100
AcDbEntity
  8
Ech.1_5
 62
   190
  6
CONTINUOUS
370
    -3
100
AcDbLine
 10
41649.52951537
 20
-15860.74620605
 30
0.0
 11
41997.60105729
 21
-15776.69378877
 31
0.0
  0
LWPOLYLINE
  5
618
100
AcDbEntity
  8
Ech.1_5
 62
   190
  6
CONTINUOUS
370
    -3
100
AcDbPolyline
 90
       23
 70
     0
 43
0.0
 10
42044.53459494
 20
-15754.06322559
 10
42053.9790134
 20
-15751.78258467
 10
42066.58327206
 20
-15803.97839163
 10
42042.85060776
 20
-15810.34412847
 10
42036.741693
 20
-15787.56894518
 10
41702.89718825
 20
-15877.11499178
 10
41705.08042077
 20
-15886.1560299
 10
41694.62122294
 20
-15888.96146716
 10
41692.12580582
 20
-15878.62763367
 10
41676.34114875
 20
-15882.79845175
 10
41678.87440142
 20
-15893.28896698
 10
41658.57184808
 20
-15898.19163347
 10
41649.52951537
 20
-15860.74620605
 10
41641.63530012
 20
-15828.05527624
 42
-0.41421356
 10
41658.08312303
 20
-15801.13488416
 10
41984.51850705
 20
-15722.30717258
 10
41997.64900689
 20
-15776.68220989
 10
42020.71535567
 20
-15771.11214127
 10
42018.13765614
 20
-15760.43756606
 10
42027.5820746
 20
-15758.15692514
 10
42030.15977413
 20
-15768.83150035
 10
42047.11229447
 20
-15764.7378008
 10
42044.53459494
 20
-15754.06322559
  0
LINE
  5
619
100
AcDbEntity
  8
Ech.1_5
 62
   190
  6
CONTINUOUS
370
    -3
100
AcDbLine
 10
41988.11470566
 20
-15737.44106943
 30
0.0
 11
42205.07265078
 21
-15685.05000168
 31
0.0
  0
LWPOLYLINE
  5
61A
100
AcDbEntity
  8
Ech.1_5
 62
   190
  6
CONTINUOUS
370
    -3
100
AcDbPolyline
 90
       12
 70
     0
 43
0.0
 10
42205.07265078
 20
-15709.93055826
 10
42041.48237855
 20
-15753.80985516
 10
42043.66561106
 20
-15762.85089327
 10
42033.20641324
 20
-15765.65633054
 10
42030.71099612
 20
-15755.32249705
 10
42014.92633904
 20
-15759.49331513
 10
42017.45959172
 20
-15769.98383035
 10
41997.15703838
 20
-15774.88649685
 10
41988.11470566
 20
-15737.44106943
 10
41980.22049041
 20
-15704.75013962
 42
-0.41421356
 10
41996.66831332
 20
-15677.82974753
 10
42205.07265078
 20
-15627.50420745
  0
LWPOLYLINE
  5
61B
100
AcDbEntity
  8
Ech.1_5
 62
     7
100
AcDbPolyline
 90
        5
 70
     0
 43
0.0
 10
41995.40300758
 20
-15802.85372411
 10
42032.99071241
 20
-15789.17291838
 10
42042.22525628
 20
-15814.54461914
 10
42004.63755145
 20
-15828.22542487
 10
41995.40300758
 20
-15802.85372411
  0
LINE
  5
61C
100
AcDbEntity
  8
Ech.1_5
 62
     7
100
AcDbLine
 10
41375.92869681
 20
-16000.50140127
 30
0.0
 11
41375.79151898
 21
-16000.52495436
 31
0.0
  0
LWPOLYLINE
  5
61D
100
AcDbEntity
  8
Ech.1_5
 62
   190
  6
CONTINUOUS
370
    -3
100
AcDbPolyline
 90
        4
 70
     1
 43
0.0
 10
42032.99071241
 20
-15789.17291838
 10
41995.45349019
 20
-15802.83534994
 10
42004.66546857
 20
-15828.14505253
 10
42042.20131607
 20
-15814.47884397
  0
LWPOLYLINE
  5
61E
100
AcDbEntity
  8
Ech.1_5
 62
   190
  6
CONTINUOUS
370
    -3
100
AcDbPolyline
 90
        4
 70
     1
 43
0.0
 10
41694.38295847
 20
-15912.4160619
 10
41656.79525364
 20
-15926.09686764
 10
41666.01963458
 20
-15951.44064598
 10
41703.60596285
 20
-15937.75605818
  0
LWPOLYLINE
  5
61F
100
AcDbEntity
  8
Ech.1_5
 62
   190
  6
CONTINUOUS
370
    -3
100
AcDbPolyline
 90
        4
 70
     1
 43
0.0
 10
41410.79276393
 20
-15991.14992375
 10
41374.71622726
 20
-16000.82661811
 10
41374.73335166
 20
-16057.49171394
 10
41427.46431947
 20
-16038.29320235
  0
LWPOLYLINE
  5
620
100
AcDbEntity
  8
Ech.1_5
 62
   190
  6
CONTINUOUS
370
    -3
100
AcDbPolyline
 90
        4
 70
     0
 43
0.0
 10
41410.79276393
 20
-15991.14992375
 10
41374.73335169
 20
-16057.49180402
 10
41427.46181012
 20
-16038.30021465
 10
41374.71622726
 20
-16000.82661811
  0
LWPOLYLINE
  5
621
100
AcDbEntity
  8
Ech.1_5
 62
   190
  6
CONTINUOUS
370
    -3
100
AcDbPolyline
 90
        4
 70
     0
 43
0.0
 10
41694.38295847
 20
-15912.4160619
 10
41666.02979751
 20
-15951.4685684
 10
41703.61750234
 20
-15937.78776266
 10
41656.79525364
 20
-15926.09686764
  0
LWPOLYLINE
  5
622
100
AcDbEntity
  8
Ech.1_5
 62
   190
  6
CONTINUOUS
370
    -3
100
AcDbPolyline
 90
        4
 70
     0
 43
0.0
 10
42032.99071241
 20
-15789.17291838
 10
42004.63755145
 20
-15828.22542487
 10
42042.22525628
 20
-15814.54461914
 10
41995.40300758
 20
-15802.85372411
  0
LWPOLYLINE
  5
623
100
AcDbEntity
  8
Ech.1_5
 62
     5
  6
CONTINUOUS
370
    -3
100
AcDbPolyline
 90
        5
 70
     0
 43
0.0
 10
41656.79525364
 20
-15926.09686764
 10
41694.38295847
 20
-15912.4160619
 10
41703.61750234
 20
-15937.78776266
 10
41666.02979751
 20
-15951.4685684
 10
41656.79525364
 20
-15926.09686764
  0
LWPOLYLINE
  5
624
100
AcDbEntity
  8
Ech.1_5
 62
     5
  6
CONTINUOUS
370
    -3
100
AcDbPolyline
 90
        5
 70
     0
 43
0.0
 10
41374.71622726
 20
-16000.82661811
 10
41410.79276393
 20
-15991.14992375
 10
41427.46623034
 20
-16038.29860583
 10
41374.73335169
 20
-16057.49180402
 10
41374.71622726
 20
-16000.82661811
  0
LWPOLYLINE
  5
625
100
AcDbEntity
  8
Ech.1_5
 62
     5
  6
CONTINUOUS
370
    -3
100
AcDbPolyline
 90
        5
 70
     0
 43
0.0
 10
41995.44108762
 20
-15802.80127418
 10
42033.02879246
 20
-15789.12046845
 10
42042.26333633
 20
-15814.49216921
 10
42004.67563149
 20
-15828.17297494
 10
41995.44108762
 20
-15802.80127418
  0
LWPOLYLINE
  5
626
100
AcDbEntity
  8
Ech.1_5
 62
     5
  6
CONTINUOUS
370
    -3
100
AcDbPolyline
 90
        5
 70
     0
 43
0.0
 10
41368.12170612
 20
-16195.04882332
 10
41405.70941095
 20
-16181.36801758
 10
41414.94395482
 20
-16206.73971834
 10
41377.35624999
 20
-16220.42052408
 10
41368.12170612
 20
-16195.04882332
  0
LWPOLYLINE
  5
627
102
{ACAD_REACTORS
330
628
102
}
100
AcDbEntity
  8
Ech.1_5
 62
     9
  6
CONTINUOUS
370
    -3
100
AcDbPolyline
 90
       12
 70
     1
 43
0.0
 38
2500.0
 39
-2500.0
 10
41787.14888692
 20
-16088.92510267
 10
41662.14888692
 20
-16088.92510267
 10
41662.14888692
 20
-16160.98007268
 10
41662.14888692
 20
-16163.35648674
 10
41662.14938248
 20
-16218.92510267
 10
41662.14888692
 20
-16588.92510267
 10
41764.47413067
 20
-16588.92510267
 10
41780.95963382
 20
-16570.94775426
 10
41766.84969381
 20
-16606.90345428
 10
41783.33604789
 20
-16588.92510267
 10
41912.14888692
 20
-16588.92510267
 10
41912.14888692
 20
-16088.92510267
  0
HATCH
  5
628
100
AcDbEntity
  8
Ech.1_5
 62
     9
  6
CONTINUOUS
100
AcDbHatch
 10
0.0
 20
0.0
 30
0.0
210
0.0
220
0.0
230
1.0
  2
AR-CONC
 70
     0
 71
     1
 91
        1
 92
        7
 72
     0
 73
     1
 93
       12
 10
41787.14888692
 20
-16088.92510267
 10
41662.14888692
 20
-16088.92510267
 10
41662.14888692
 20
-16160.98007268
 10
41662.14888692
 20
-16163.35648674
 10
41662.14938248
 20
-16218.92510267
 10
41662.14888692
 20
-16588.92510267
 10
41764.47413067
 20
-16588.92510267
 10
41780.95963382
 20
-16570.94775426
 10
41766.84969381
 20
-16606.90345428
 10
41783.33604789
 20
-16588.92510267
 10
41912.14888692
 20
-16588.92510267
 10
41912.14888692
 20
-16088.92510267
 97
        1
330
627
 75
     0
 76
     2
 52
0.0
 41
0.11811097
 77
     0
 78
    13
 53
50.0
 43
0.0
 44
0.0
 45
-18.84283637
 46
1.64853443
 79
     2
 49
1.97029307
 49
-21.67322338
 53
355.0
 43
0.0
 44
0.0
 45
-3.64507756
 46
19.76051824
 79
     2
 49
1.57623377
 49
-17.3385787
 53
100.45140076
 43
1.57023568
 44
-0.13737749
 45
-15.19777228
 46
-18.11197244
 79
     2
 49
1.67449124
 49
-18.41940522
 53
46.18420029
 43
0.0
 44
5.25411576
 45
-28.03703353
 46
4.34827878
 79
     2
 49
2.95543872
 49
-32.50983238
 53
96.63559723
 43
2.33641885
 44
4.89175692
 45
-24.55412615
 46
-25.59063404
 79
     2
 49
2.51173697
 49
-27.62910426
 53
351.1842041
 43
0.0
 44
5.25411576
 45
24.55410288
 46
25.59065715
 79
     2
 49
2.36435249
 49
-26.00786805
 53
21.0
 43
2.62705699
 44
3.94058615
 45
-15.68109068
 46
10.57702905
 79
     2
 49
1.97029307
 49
-21.67322338
 53
326.0
 43
2.62705699
 44
3.94058615
 45
6.39203268
 46
19.05010734
 79
     2
 49
1.57623377
 49
-17.3385787
 53
71.45140076
 43
3.93381357
 44
3.05916555
 45
-22.07312962
 46
-8.47306182
 79
     2
 49
1.67449124
 49
-18.41940522
 53
37.5
 43
0.0
 44
0.0
 45
0.31944534
 46
8.74531245
 79
     6
 49
0.01875
 49
-17.12841332
 49
0.01875
 49
-17.60128498
 49
0.01875
 49
-17.40425348
 53
7.5
 43
0.0
 44
0.0
 45
6.91098818
 46
10.3614222
 79
     6
 49
0.01875
 49
-10.03535807
 49
0.01875
 49
-16.7343539
 49
0.01875
 49
-6.6333206
 53
-32.5
 43
-5.85833833
 44
0.0
 45
14.02382061
 46
-0.59253003
 79
     6
 49
0.01875
 49
-6.56764314
 49
0.01875
 49
-20.49104869
 49
0.01875
 49
-27.19004452
 53
-42.5
 43
-8.48539531
 44
0.0
 45
15.32063571
 46
2.62981542
 79
     6
 49
0.01875
 49
-8.53793621
 49
0.01875
 49
-13.60815793
 49
0.01875
 49
-19.30887222
 47
0.775229
 98
        1
 10
0.0
 20
0.0
  0
LWPOLYLINE
  5
629
100
AcDbEntity
  8
Ech.1_5
 62
     9
  6
CONTINUOUS
370
    -3
100
AcDbPolyline
 90
        6
 70
     0
 43
0.0
 10
41662.14888692
 20
-16588.92510267
 10
41764.47413067
 20
-16588.92510267
 10
41780.95963382
 20
-16570.94775426
 10
41766.84969381
 20
-16606.90345428
 10
41783.33604789
 20
-16588.92510267
 10
41959.52196058
 20
-16588.92510267
  0
LWPOLYLINE
  5
62A
100
AcDbEntity
  8
Ech.1_5
 62
   190
  6
CONTINUOUS
370
    -3
100
AcDbPolyline
 90
        4
 70
     0
 43
0.0
 10
41631.6916322
 20
-16099.11712586
 10
41603.33847124
 20
-16138.16963236
 10
41640.92617607
 20
-16124.48882662
 10
41594.10392737
 20
-16112.7979316
  0
LWPOLYLINE
  5
62B
100
AcDbEntity
  8
Ech.1_5
 62
     5
  6
CONTINUOUS
370
    -3
100
AcDbPolyline
 90
        5
 70
     0
 43
0.0
 10
41594.10392737
 20
-16112.7979316
 10
41631.6916322
 20
-16099.11712586
 10
41640.92617607
 20
-16124.48882662
 10
41603.33847124
 20
-16138.16963236
 10
41594.10392737
 20
-16112.7979316
  0
LWPOLYLINE
  5
62C
100
AcDbEntity
  8
Ech.1_5
 62
   190
  6
CONTINUOUS
370
    -3
100
AcDbPolyline
 90
        3
 70
     1
 43
0.0
 10
41368.12170612
 20
-16195.04882332
 10
41368.39413518
 20
-16195.79731602
 10
41369.50301326
 20
-16195.3937174
  0
LWPOLYLINE
  5
62D
100
AcDbEntity
  8
Ech.1_5
 62
   254
  6
CONTINUOUS
370
    -3
100
AcDbPolyline
 90
        4
 70
     1
 43
0.0
 10
41996.1502933
 20
-16283.02598172
 10
42038.1502933
 20
-16283.02598172
 10
42038.1502933
 20
-16227.42525027
 10
41996.1502933
 20
-16227.42525027
  0
LWPOLYLINE
  5
62E
100
AcDbEntity
  8
Ech.1_5
 62
     7
  6
CONTINUOUS
370
    -3
100
AcDbPolyline
 90
        4
 70
     1
 43
0.0
 10
42052.15151413
 20
-16182.42456815
 10
42052.15151413
 20
-16227.42456815
 10
41982.14887661
 20
-16227.42525027
 10
41982.14887661
 20
-16182.42519975
  0
LWPOLYLINE
  5
62F
100
AcDbEntity
  8
Ech.1_5
 62
   190
  6
CONTINUOUS
370
    -3
100
AcDbPolyline
 90
        4
 70
     0
 43
0.0
 10
42052.15207246
 20
-16227.42525027
 10
41982.14887661
 20
-16182.42519975
 10
41982.14887661
 20
-16227.42525027
 10
42052.15207246
 20
-16182.42525027
  0
LWPOLYLINE
  5
630
100
AcDbEntity
  8
Ech.1_5
 62
     5
  6
CONTINUOUS
370
    -3
100
AcDbPolyline
 90
        5
 70
     0
 43
0.0
 10
42052.14887661
 20
-16182.42525027
 10
41982.14887661
 20
-16182.42519975
 10
41982.14887661
 20
-16227.42525027
 10
42052.14887661
 20
-16227.42525027
 10
42052.14887661
 20
-16182.42525027
  0
LWPOLYLINE
  5
631
100
AcDbEntity
  8
Ech.1_5
 62
   190
  6
CONTINUOUS
370
    -3
100
AcDbPolyline
 90
        2
 70
     1
 43
0.0
 10
42028.26172464
 20
-16272.30876456
 42
-1.0
 10
42028.26172464
 20
-16273.92456402
 42
-1.0
  0
LWPOLYLINE
  5
632
100
AcDbEntity
  8
Ech.1_5
 62
   190
  6
CONTINUOUS
370
    -3
100
AcDbPolyline
 90
        2
 70
     1
 43
0.0
 10
42028.26172464
 20
-16256.98192503
 42
-1.0
 10
42028.26172464
 20
-16258.59772449
 42
-1.0
  0
LWPOLYLINE
  5
633
100
AcDbEntity
  8
Ech.1_5
 62
   190
  6
CONTINUOUS
370
    -3
100
AcDbPolyline
 90
        2
 70
     1
 43
0.0
 10
42006.03886195
 20
-16256.98192503
 42
-1.0
 10
42006.03886195
 20
-16258.59772449
 42
-1.0
  0
LWPOLYLINE
  5
634
100
AcDbEntity
  8
Ech.1_5
 62
   190
  6
CONTINUOUS
370
    -3
100
AcDbPolyline
 90
        2
 70
     1
 43
0.0
 10
42006.03886195
 20
-16272.30876456
 42
-1.0
 10
42006.03886195
 20
-16273.92456402
 42
-1.0
  0
LWPOLYLINE
  5
635
100
AcDbEntity
  8
Ech.1_5
 62
   190
  6
CONTINUOUS
370
    -3
100
AcDbPolyline
 90
        2
 70
     1
 43
0.0
 10
42017.65008181
 20
-16248.85017932
 42
-1.0
 10
42017.65008181
 20
-16250.46597877
 42
-1.0
  0
LWPOLYLINE
  5
636
100
AcDbEntity
  8
Ech.1_5
 62
   190
  6
CONTINUOUS
370
    -3
100
AcDbPolyline
 90
        2
 70
     1
 43
0.0
 10
42017.65008181
 20
-16264.17701884
 42
-1.0
 10
42017.65008181
 20
-16265.7928183
 42
-1.0
  0
LWPOLYLINE
  5
637
100
AcDbEntity
  8
Ech.1_5
 62
   190
  6
CONTINUOUS
370
    -3
100
AcDbPolyline
 90
        5
 70
     0
 43
0.0
 10
41996.1502933
 20
-16283.02598172
 10
42038.1502933
 20
-16283.0259764
 10
42038.1502933
 20
-16227.42525027
 10
41996.1502933
 20
-16227.42526966
 10
41996.1502933
 20
-16283.0259764
  0
LWPOLYLINE
  5
638
100
AcDbEntity
  8
Ech.1_5
 62
   190
  6
CONTINUOUS
370
    -3
100
AcDbPolyline
 90
        5
 70
     0
 43
0.0
 10
42003.40994145
 20
-16229.92563287
 42
1.0
 10
42008.7667679
 20
-16229.92563287
 10
42008.7667679
 20
-16248.50711601
 42
-1.0
 10
42003.40994145
 20
-16248.50711601
 10
42003.40994145
 20
-16229.92563287
  0
LWPOLYLINE
  5
639
100
AcDbEntity
  8
Ech.1_5
 62
   190
  6
CONTINUOUS
370
    -3
100
AcDbPolyline
 90
        5
 70
     0
 43
0.0
 10
42030.89064514
 20
-16229.92563287
 10
42030.89064514
 20
-16248.50711601
 42
-1.0
 10
42025.5338187
 20
-16248.50711601
 10
42025.5338187
 20
-16229.92563287
 42
1.0
 10
42030.89064514
 20
-16229.92563287
  0
LINE
  5
63A
100
AcDbEntity
  8
Ech.1_5
 62
   190
  6
CONTINUOUS
370
    -3
100
AcDbLine
 10
41982.14887661
 20
-16227.42525027
 30
0.0
 11
41982.14887661
 21
-16419.47498179
 31
0.0
  0
LWPOLYLINE
  5
63B
100
AcDbEntity
  8
Ech.1_5
 62
   190
  6
CONTINUOUS
370
    -3
100
AcDbPolyline
 90
       68
 70
     0
 43
0.0
 10
41923.81554328
 20
-16182.42519975
 42
1.14028181
 10
41926.8351056
 20
-16205.36099924
 10
41967.46264762
 20
-16194.48940027
 42
-1.30322619
 10
41967.46264762
 20
-16217.0276659
 10
41926.8351056
 20
-16206.15606693
 42
1.30322619
 10
41926.8351056
 20
-16228.69433257
 10
41967.46264762
 20
-16217.8227336
 42
-1.30322619
 10
41967.46264762
 20
-16240.36099924
 10
41926.8351056
 20
-16229.48940027
 42
1.30322619
 10
41926.8351056
 20
-16252.0276659
 10
41967.46264762
 20
-16241.15606693
 42
-1.30322619
 10
41967.46264762
 20
-16263.69433257
 10
41926.8351056
 20
-16252.8227336
 42
1.30322619
 10
41926.8351056
 20
-16275.36099924
 10
41967.46264762
 20
-16264.48940027
 42
-1.30322619
 10
41967.46264762
 20
-16287.0276659
 10
41926.8351056
 20
-16276.15606693
 42
1.30322619
 10
41926.8351056
 20
-16298.69433257
 10
41967.46264762
 20
-16287.8227336
 42
-1.30322619
 10
41967.46264762
 20
-16310.36099924
 10
41926.8351056
 20
-16299.48940027
 42
1.30322619
 10
41926.8351056
 20
-16322.0276659
 10
41967.46264762
 20
-16311.15606693
 42
-1.30322619
 10
41967.46264762
 20
-16333.69433257
 10
41926.8351056
 20
-16322.8227336
 42
1.30322619
 10
41926.8351056
 20
-16345.36099924
 10
41967.46264762
 20
-16334.48940027
 42
-1.30322619
 10
41967.46264762
 20
-16357.0276659
 10
41926.8351056
 20
-16346.15606693
 42
1.30322619
 10
41926.8351056
 20
-16368.69433257
 10
41967.46264762
 20
-16357.8227336
 42
-1.30322619
 10
41967.46264762
 20
-16380.36099924
 10
41926.8351056
 20
-16369.48940027
 42
1.30322619
 10
41926.8351056
 20
-16392.0276659
 10
41967.46264762
 20
-16381.15606693
 42
-1.30322619
 10
41967.46264762
 20
-16403.69433257
 10
41926.8351056
 20
-16392.8227336
 42
1.30322619
 10
41926.8351056
 20
-16415.36099924
 10
41967.46264762
 20
-16404.48940027
 42
-1.30322619
 10
41967.46264762
 20
-16427.0276659
 10
41926.8351056
 20
-16416.15606693
 42
1.30322619
 10
41926.8351056
 20
-16438.69433257
 10
41967.46264762
 20
-16427.8227336
 42
-1.30322619
 10
41967.46264762
 20
-16450.36099924
 10
41926.8351056
 20
-16439.48940027
 42
1.30322619
 10
41926.8351056
 20
-16462.0276659
 10
41967.46264762
 20
-16451.15606693
 42
-1.30322619
 10
41967.46264762
 20
-16473.69433257
 10
41926.8351056
 20
-16462.8227336
 42
1.30322619
 10
41926.8351056
 20
-16485.36099924
 10
41967.46264762
 20
-16474.48940027
 42
-1.30322619
 10
41967.46264762
 20
-16497.0276659
 10
41926.8351056
 20
-16486.15606693
 42
1.30322619
 10
41926.8351056
 20
-16508.69433257
 10
41967.46264762
 20
-16497.8227336
 42
-1.30322619
 10
41967.46264762
 20
-16520.36099924
 10
41926.8351056
 20
-16509.48940027
 42
1.30322619
 10
41926.8351056
 20
-16532.0276659
 10
41967.46264762
 20
-16521.15606693
 42
-1.30322619
 10
41967.46264762
 20
-16543.69433257
 10
41926.8351056
 20
-16532.8227336
 42
1.30322619
 10
41926.8351056
 20
-16555.36099924
 10
41967.46264762
 20
-16544.48940027
 42
-1.30322619
 10
41967.46264762
 20
-16567.0276659
 10
41926.8351056
 20
-16556.15606693
 42
1.30322619
 10
41926.8351056
 20
-16578.69433257
 10
41967.46264762
 20
-16567.8227336
 42
-0.85742324
 10
41976.76063139
 20
-16588.92510267
  0
LWPOLYLINE
  5
63C
100
AcDbEntity
  8
Ech.1_5
 62
   190
  6
CONTINUOUS
370
    -3
100
AcDbPolyline
 90
        3
 70
     0
 43
0.0
 10
41962.09665241
 20
-16588.92510267
 10
41926.8351056
 20
-16579.48940027
 42
0.4450115
 10
41912.2938401
 20
-16588.92510267
  0
LWPOLYLINE
  5
63D
100
AcDbEntity
  8
Ech.1_5
 62
   190
  6
CONTINUOUS
370
    -3
100
AcDbPolyline
 90
       27
 70
     0
 43
0.0
 10
41932.15086972
 20
-15990.65241774
 42
-0.34240088
 10
41938.52510233
 20
-16005.81429837
 10
41926.02273502
 20
-16152.53605694
 42
1.30322619
 10
41951.94178774
 20
-16152.53606011
 10
41939.43943185
 20
-16005.81429848
 42
-1.30322619
 10
41965.35848456
 20
-16005.81430165
 10
41952.85611725
 20
-16152.53606022
 42
1.30322619
 10
41978.77516997
 20
-16152.53606338
 10
41966.27281408
 20
-16005.81430176
 42
-1.30322619
 10
41992.19186679
 20
-16005.81430493
 10
41979.68949949
 20
-16152.5360635
 42
1.30322619
 10
42005.6085522
 20
-16152.53606666
 10
41993.10619631
 20
-16005.81430504
 42
-1.30322619
 10
42019.02524902
 20
-16005.8143082
 10
42006.52288172
 20
-16152.53606677
 42
1.30322619
 10
42032.44193443
 20
-16152.53606994
 10
42019.93957854
 20
-16005.81430831
 42
-1.30322619
 10
42045.85863125
 20
-16005.81431148
 10
42033.35626395
 20
-16152.53607005
 42
1.30322619
 10
42059.27531666
 20
-16152.53607322
 10
42046.77296077
 20
-16005.81431159
 42
-1.30322619
 10
42072.69201348
 20
-16005.81431476
 10
42060.18964618
 20
-16152.53607333
 42
1.30322619
 10
42086.10869889
 20
-16152.53607649
 10
42073.606343
 20
-16005.81431487
 42
-0.52933605
 10
42088.10224727
 20
-15989.01337976
 10
42088.13572099
 20
-15989.0172809
  0
LWPOLYLINE
  5
63E
100
AcDbEntity
  8
Ech.1_5
 62
   190
  6
CONTINUOUS
370
    -3
100
AcDbPolyline
 90
        4
 70
     0
 43
0.0
 10
42098.52001237
 20
-16017.61301257
 10
42087.02302841
 20
-16152.5360766
 42
1.30322619
 10
42112.94208112
 20
-16152.53607977
 10
42102.34192073
 20
-16028.13758878
  0
LWPOLYLINE
  5
63F
100
AcDbEntity
  8
Ech.1_5
 62
   190
  6
CONTINUOUS
370
    -3
100
AcDbPolyline
 90
        4
 70
     0
 43
0.0
 10
42120.25359247
 20
-16077.46183638
 10
42113.85641064
 20
-16152.53607988
 42
1.30322619
 10
42139.77546335
 20
-16152.53608305
 10
42137.40222392
 20
-16124.68486258
  0
LWPOLYLINE
  5
640
100
AcDbEntity
  8
Ech.1_5
 62
   190
  6
CONTINUOUS
370
    -3
100
AcDbPolyline
 90
        3
 70
     0
 43
0.0
 10
42141.98717257
 20
-16137.31066018
 10
42140.68979287
 20
-16152.53608316
 42
0.49314561
 10
42153.64931717
 20
-16169.42527886
  0
CIRCLE
  5
641
100
AcDbEntity
  8
Ech.1_5
 62
     7
  6
CONTINUOUS
370
    -3
100
AcDbCircle
 10
42017.15028261
 20
-16123.48593959
 30
0.0
 40
2.51802373
  0
LINE
  5
642
100
AcDbEntity
  8
Ech.1_5
 62
     7
  6
CONTINUOUS
370
    -3
100
AcDbLine
 10
42030.6502933
 20
-16036.00396497
 30
0.0
 11
42030.6502803
 21
-16142.42511168
 31
0.0
  0
CIRCLE
  5
643
100
AcDbEntity
  8
Ech.1_5
 62
     7
  6
CONTINUOUS
370
    -3
100
AcDbCircle
 10
42017.15028811
 20
-16078.48593959
 30
0.0
 40
2.51802373
  0
ARC
  5
644
100
AcDbEntity
  8
Ech.1_5
 62
     7
  6
CONTINUOUS
370
    -3
100
AcDbCircle
 10
41998.6502803
 20
-16142.42510777
 30
0.0
 40
5.0
100
AcDbArc
 50
269.999993
 51
359.999993
  0
LINE
  5
645
100
AcDbEntity
  8
Ech.1_5
 62
     7
  6
CONTINUOUS
370
    -3
100
AcDbLine
 10
41998.42017746
 20
-16146.74293765
 30
0.0
 11
41998.42017771
 21
-16144.74293765
 31
0.0
  0
LINE
  5
646
100
AcDbEntity
  8
Ech.1_5
 62
     7
  6
CONTINUOUS
370
    -3
100
AcDbLine
 10
41994.65027969
 20
-16147.42510728
 30
0.0
 11
41998.65027969
 21
-16147.42510777
 31
0.0
  0
ARC
  5
647
100
AcDbEntity
  8
Ech.1_5
 62
     7
  6
CONTINUOUS
370
    -3
100
AcDbCircle
 10
42008.41655966
 20
-16141.92061456
 30
0.0
 40
14.82598747
100
AcDbArc
 50
201.79416408
 51
238.13515136
  0
ARC
  5
648
100
AcDbEntity
  8
Ech.1_5
 62
     7
  6
CONTINUOUS
370
    -3
100
AcDbCircle
 10
42006.96105951
 20
-16155.39540607
 30
0.0
 40
12.47697948
100
AcDbArc
 50
189.36223696
 51
254.61217404
  0
LINE
  5
649
100
AcDbEntity
  8
Ech.1_5
 62
     7
  6
CONTINUOUS
370
    -3
100
AcDbLine
 10
41998.42017746
 20
-16146.74293765
 30
0.0
 11
41994.28976353
 21
-16146.74293714
 31
0.0
  0
LINE
  5
64A
100
AcDbEntity
  8
Ech.1_5
 62
     7
  6
CONTINUOUS
370
    -3
100
AcDbLine
 10
41994.28976353
 20
-16146.74293714
 30
0.0
 11
41994.289761
 21
-16167.42510724
 31
0.0
  0
LINE
  5
64B
100
AcDbEntity
  8
Ech.1_5
 62
     7
  6
CONTINUOUS
370
    -3
100
AcDbLine
 10
41998.42017771
 20
-16144.74293765
 30
0.0
 11
41992.28976377
 21
-16144.7429369
 31
0.0
  0
LINE
  5
64C
100
AcDbEntity
  8
Ech.1_5
 62
     7
  6
CONTINUOUS
370
    -3
100
AcDbLine
 10
41992.28976377
 20
-16144.7429369
 30
0.0
 11
41992.28976076
 21
-16169.425107
 31
0.0
  0
CIRCLE
  5
64D
100
AcDbEntity
  8
Ech.1_5
 62
     7
  6
CONTINUOUS
370
    -3
100
AcDbCircle
 10
42017.15028444
 20
-16108.48593959
 30
0.0
 40
2.51802373
  0
CIRCLE
  5
64E
100
AcDbEntity
  8
Ech.1_5
 62
     7
  6
CONTINUOUS
370
    -3
100
AcDbCircle
 10
42017.15028078
 20
-16138.48593959
 30
0.0
 40
2.51802373
  0
CIRCLE
  5
64F
100
AcDbEntity
  8
Ech.1_5
 62
     7
  6
CONTINUOUS
370
    -3
100
AcDbCircle
 10
42017.15028628
 20
-16093.48593959
 30
0.0
 40
2.51802373
  0
ARC
  5
650
100
AcDbEntity
  8
Ech.1_5
 62
     7
  6
CONTINUOUS
370
    -3
100
AcDbCircle
 10
42025.88400106
 20
-16141.92061669
 30
0.0
 40
14.82598747
100
AcDbArc
 50
301.86483465
 51
338.20582192
  0
ARC
  5
651
100
AcDbEntity
  8
Ech.1_5
 62
     7
  6
CONTINUOUS
370
    -3
100
AcDbCircle
 10
42037.5086708
 20
-16154.28020007
 30
0.0
 40
3.80485997
100
AcDbArc
 50
183.49675961
 51
304.2538938
  0
ARC
  5
652
100
AcDbEntity
  8
Ech.1_5
 62
     7
  6
CONTINUOUS
370
    -3
100
AcDbCircle
 10
42027.33949792
 20
-16155.39540856
 30
0.0
 40
12.47697948
100
AcDbArc
 50
285.38781197
 51
350.63774905
  0
LINE
  5
653
100
AcDbEntity
  8
Ech.1_5
 62
     7
  6
CONTINUOUS
370
    -3
100
AcDbLine
 10
42039.65027969
 20
-16147.42511278
 30
0.0
 11
42035.65027969
 21
-16147.42511229
 31
0.0
  0
ARC
  5
654
100
AcDbEntity
  8
Ech.1_5
 62
     7
  6
CONTINUOUS
370
    -3
100
AcDbCircle
 10
42035.6502803
 20
-16142.42511229
 30
0.0
 40
5.0
100
AcDbArc
 50
179.999993
 51
269.999993
  0
LINE
  5
655
100
AcDbEntity
  8
Ech.1_5
 62
     7
  6
CONTINUOUS
370
    -3
100
AcDbLine
 10
42035.88038208
 20
-16146.74294222
 30
0.0
 11
42035.88038232
 21
-16144.74294222
 31
0.0
  0
LINE
  5
656
100
AcDbEntity
  8
Ech.1_5
 62
     7
  6
CONTINUOUS
370
    -3
100
AcDbLine
 10
42035.88038208
 20
-16146.74294222
 30
0.0
 11
42040.01079602
 21
-16146.74294273
 31
0.0
  0
LINE
  5
657
100
AcDbEntity
  8
Ech.1_5
 62
     7
  6
CONTINUOUS
370
    -3
100
AcDbLine
 10
42040.01079602
 20
-16146.74294273
 30
0.0
 11
42040.01079349
 21
-16167.42511282
 31
0.0
  0
LINE
  5
658
100
AcDbEntity
  8
Ech.1_5
 62
     7
  6
CONTINUOUS
370
    -3
100
AcDbLine
 10
42035.88038232
 20
-16144.74294222
 30
0.0
 11
42042.01079626
 21
-16144.74294297
 31
0.0
  0
LINE
  5
659
100
AcDbEntity
  8
Ech.1_5
 62
     7
  6
CONTINUOUS
370
    -3
100
AcDbLine
 10
42042.01079626
 20
-16144.74294297
 30
0.0
 11
42042.01079325
 21
-16169.42511307
 31
0.0
  0
CIRCLE
  5
65A
100
AcDbEntity
  8
Ech.1_5
 62
     7
  6
CONTINUOUS
370
    -3
100
AcDbCircle
 10
42017.15028994
 20
-16063.48593959
 30
0.0
 40
2.51802373
  0
LINE
  5
65B
100
AcDbEntity
  8
Ech.1_5
 62
     7
  6
CONTINUOUS
370
    -3
100
AcDbLine
 10
42003.6502933
 20
-16036.00396167
 30
0.0
 11
42003.6502803
 21
-16142.42510838
 31
0.0
  0
CIRCLE
  5
65C
100
AcDbEntity
  8
Ech.1_5
 62
     7
  6
CONTINUOUS
370
    -3
100
AcDbCircle
 10
42017.15029177
 20
-16048.48593959
 30
0.0
 40
2.51802373
  0
LINE
  5
65D
100
AcDbEntity
  8
Ech.1_5
 62
     7
  6
CONTINUOUS
370
    -3
100
AcDbLine
 10
42003.6502933
 20
-16036.00396167
 30
0.0
 11
42030.6502933
 21
-16036.00396497
 31
0.0
  0
LINE
  5
65E
100
AcDbEntity
  8
Ech.1_5
 62
     7
  6
CONTINUOUS
370
    -3
100
AcDbLine
 10
42040.01079349
 20
-16167.42511282
 30
0.0
 11
41994.289761
 21
-16167.42510724
 31
0.0
  0
LINE
  5
65F
100
AcDbEntity
  8
Ech.1_5
 62
     7
  6
CONTINUOUS
370
    -3
100
AcDbLine
 10
41992.28976076
 20
-16169.425107
 30
0.0
 11
42042.01079325
 21
-16169.42511307
 31
0.0
  0
ARC
  5
660
100
AcDbEntity
  8
Ech.1_5
 62
     7
  6
CONTINUOUS
370
    -3
100
AcDbCircle
 10
41996.79188691
 20
-16154.2801951
 30
0.0
 40
3.80485997
100
AcDbArc
 50
235.7460922
 51
356.5032264
  0
LINE
  5
661
100
AcDbEntity
  8
Ech.1_5
 62
     9
  6
CONTINUOUS
370
    -3
100
AcDbLine
 10
42015.94579185
 20
-16145.02061242
 30
0.0
 11
42015.15169613
 21
-16145.02061242
 31
0.0
  0
LINE
  5
662
100
AcDbEntity
  8
Ech.1_5
 62
     9
  6
CONTINUOUS
370
    -3
100
AcDbLine
 10
42015.94579185
 20
-16144.62931888
 30
0.0
 11
42017.14419087
 21
-16141.50197279
 31
0.0
  0
LINE
  5
663
100
AcDbEntity
  8
Ech.1_5
 62
     9
  6
CONTINUOUS
370
    -3
100
AcDbLine
 10
42014.65082038
 20
-16229.01094363
 30
0.0
 11
42014.65082038
 21
-16187.63062782
 31
0.0
  0
LINE
  5
664
100
AcDbEntity
  8
Ech.1_5
 62
     9
  6
CONTINUOUS
370
    -3
100
AcDbLine
 10
42019.64957037
 20
-16229.01094363
 30
0.0
 11
42019.64957037
 21
-16186.65334468
 31
0.0
  0
LINE
  5
665
100
AcDbEntity
  8
Ech.1_5
 62
     9
  6
CONTINUOUS
370
    -3
100
AcDbLine
 10
42019.64957037
 20
-16174.73030019
 30
0.0
 11
42018.64781887
 21
-16175.12119343
 31
0.0
  0
LINE
  5
666
100
AcDbEntity
  8
Ech.1_5
 62
     9
  6
CONTINUOUS
370
    -3
100
AcDbLine
 10
42018.64781887
 20
-16175.12119343
 30
0.0
 11
42015.65257188
 21
-16175.90302995
 31
0.0
  0
LINE
  5
667
100
AcDbEntity
  8
Ech.1_5
 62
     9
  6
CONTINUOUS
370
    -3
100
AcDbLine
 10
42015.65257188
 20
-16175.90302995
 30
0.0
 11
42014.65082038
 21
-16175.70758333
 31
0.0
  0
LINE
  5
668
100
AcDbEntity
  8
Ech.1_5
 62
     9
  6
CONTINUOUS
370
    -3
100
AcDbLine
 10
42014.65082038
 20
-16175.70758333
 30
0.0
 11
42015.64056287
 21
-16175.12119343
 31
0.0
  0
LINE
  5
669
100
AcDbEntity
  8
Ech.1_5
 62
     9
  6
CONTINUOUS
370
    -3
100
AcDbLine
 10
42015.64056287
 20
-16175.12119343
 30
0.0
 11
42018.64781887
 21
-16174.53480353
 31
0.0
  0
LINE
  5
66A
100
AcDbEntity
  8
Ech.1_5
 62
     9
  6
CONTINUOUS
370
    -3
100
AcDbLine
 10
42018.64781887
 20
-16174.53480353
 30
0.0
 11
42019.64957037
 21
-16174.73030019
 31
0.0
  0
LINE
  5
66B
100
AcDbEntity
  8
Ech.1_5
 62
     9
  6
CONTINUOUS
370
    -3
100
AcDbLine
 10
42019.64957037
 20
-16174.73030019
 30
0.0
 11
42014.65082038
 21
-16175.70758333
 31
0.0
  0
LINE
  5
66C
100
AcDbEntity
  8
Ech.1_5
 62
     9
  6
CONTINUOUS
370
    -3
100
AcDbLine
 10
42019.64957037
 20
-16162.8072557
 30
0.0
 11
42018.64781887
 21
-16163.19814894
 31
0.0
  0
LINE
  5
66D
100
AcDbEntity
  8
Ech.1_5
 62
     9
  6
CONTINUOUS
370
    -3
100
AcDbLine
 10
42018.64781887
 20
-16163.19814894
 30
0.0
 11
42015.65257188
 21
-16163.97998546
 31
0.0
  0
LINE
  5
66E
100
AcDbEntity
  8
Ech.1_5
 62
     9
  6
CONTINUOUS
370
    -3
100
AcDbLine
 10
42015.65257188
 20
-16163.97998546
 30
0.0
 11
42014.65082038
 21
-16163.78453884
 31
0.0
  0
LINE
  5
66F
100
AcDbEntity
  8
Ech.1_5
 62
     9
  6
CONTINUOUS
370
    -3
100
AcDbLine
 10
42014.65082038
 20
-16163.78453884
 30
0.0
 11
42015.64056287
 21
-16163.19814894
 31
0.0
  0
LINE
  5
670
100
AcDbEntity
  8
Ech.1_5
 62
     9
  6
CONTINUOUS
370
    -3
100
AcDbLine
 10
42015.64056287
 20
-16163.19814894
 30
0.0
 11
42018.64781887
 21
-16162.61175904
 31
0.0
  0
LINE
  5
671
100
AcDbEntity
  8
Ech.1_5
 62
     9
  6
CONTINUOUS
370
    -3
100
AcDbLine
 10
42018.64781887
 20
-16162.61175904
 30
0.0
 11
42019.64957037
 21
-16162.8072557
 31
0.0
  0
LINE
  5
672
100
AcDbEntity
  8
Ech.1_5
 62
     9
  6
CONTINUOUS
370
    -3
100
AcDbLine
 10
42019.64957037
 20
-16162.8072557
 30
0.0
 11
42014.65082038
 21
-16163.78453884
 31
0.0
  0
LINE
  5
673
100
AcDbEntity
  8
Ech.1_5
 62
     9
  6
CONTINUOUS
370
    -3
100
AcDbLine
 10
42019.64957037
 20
-16158.70257643
 30
0.0
 11
42018.64781887
 21
-16159.28896633
 31
0.0
  0
LINE
  5
674
100
AcDbEntity
  8
Ech.1_5
 62
     9
  6
CONTINUOUS
370
    -3
100
AcDbLine
 10
42018.64781887
 20
-16159.28896633
 30
0.0
 11
42015.65257188
 21
-16160.07080285
 31
0.0
  0
LINE
  5
675
100
AcDbEntity
  8
Ech.1_5
 62
     9
  6
CONTINUOUS
370
    -3
100
AcDbLine
 10
42015.65257188
 20
-16160.07080285
 30
0.0
 11
42014.65082038
 21
-16159.87535623
 31
0.0
  0
LINE
  5
676
100
AcDbEntity
  8
Ech.1_5
 62
     9
  6
CONTINUOUS
370
    -3
100
AcDbLine
 10
42014.65082038
 20
-16159.87535623
 30
0.0
 11
42015.64056287
 21
-16159.28896633
 31
0.0
  0
LINE
  5
677
100
AcDbEntity
  8
Ech.1_5
 62
     9
  6
CONTINUOUS
370
    -3
100
AcDbLine
 10
42015.64056287
 20
-16159.28896633
 30
0.0
 11
42018.64781887
 21
-16158.70257643
 31
0.0
  0
LINE
  5
678
100
AcDbEntity
  8
Ech.1_5
 62
     9
  6
CONTINUOUS
370
    -3
100
AcDbLine
 10
42018.64781887
 20
-16158.70257643
 30
0.0
 11
42019.64957037
 21
-16158.70257643
 31
0.0
  0
LINE
  5
679
100
AcDbEntity
  8
Ech.1_5
 62
     9
  6
CONTINUOUS
370
    -3
100
AcDbLine
 10
42019.64957037
 20
-16158.70257643
 30
0.0
 11
42014.65082038
 21
-16159.87535623
 31
0.0
  0
LINE
  5
67A
100
AcDbEntity
  8
Ech.1_5
 62
     9
  6
CONTINUOUS
370
    -3
100
AcDbLine
 10
42019.64957037
 20
-16154.79339382
 30
0.0
 11
42018.64781887
 21
-16155.37978372
 31
0.0
  0
LINE
  5
67B
100
AcDbEntity
  8
Ech.1_5
 62
     9
  6
CONTINUOUS
370
    -3
100
AcDbLine
 10
42015.65257188
 20
-16155.96617362
 30
0.0
 11
42014.65082038
 21
-16155.96617362
 31
0.0
  0
LINE
  5
67C
100
AcDbEntity
  8
Ech.1_5
 62
     9
  6
CONTINUOUS
370
    -3
100
AcDbLine
 10
42014.65082038
 20
-16155.96617362
 30
0.0
 11
42015.64056287
 21
-16155.37978372
 31
0.0
  0
LINE
  5
67D
100
AcDbEntity
  8
Ech.1_5
 62
     9
  6
CONTINUOUS
370
    -3
100
AcDbLine
 10
42015.64056287
 20
-16155.37978372
 30
0.0
 11
42018.64781887
 21
-16154.5979472
 31
0.0
  0
LINE
  5
67E
100
AcDbEntity
  8
Ech.1_5
 62
     9
  6
CONTINUOUS
370
    -3
100
AcDbLine
 10
42018.64781887
 20
-16154.5979472
 30
0.0
 11
42019.64957037
 21
-16154.79339382
 31
0.0
  0
LINE
  5
67F
100
AcDbEntity
  8
Ech.1_5
 62
     9
  6
CONTINUOUS
370
    -3
100
AcDbLine
 10
42019.64957037
 20
-16154.79339382
 30
0.0
 11
42014.65082038
 21
-16155.96617362
 31
0.0
  0
LINE
  5
680
100
AcDbEntity
  8
Ech.1_5
 62
     9
  6
CONTINUOUS
370
    -3
100
AcDbLine
 10
42019.64957037
 20
-16150.88421121
 30
0.0
 11
42018.64781887
 21
-16151.47060111
 31
0.0
  0
LINE
  5
681
100
AcDbEntity
  8
Ech.1_5
 62
     9
  6
CONTINUOUS
370
    -3
100
AcDbLine
 10
42018.64781887
 20
-16151.47060111
 30
0.0
 11
42015.65257188
 21
-16152.05699101
 31
0.0
  0
LINE
  5
682
100
AcDbEntity
  8
Ech.1_5
 62
     9
  6
CONTINUOUS
370
    -3
100
AcDbLine
 10
42015.65257188
 20
-16152.05699101
 30
0.0
 11
42014.65082038
 21
-16152.05699101
 31
0.0
  0
LINE
  5
683
100
AcDbEntity
  8
Ech.1_5
 62
     9
  6
CONTINUOUS
370
    -3
100
AcDbLine
 10
42014.65082038
 20
-16152.05699101
 30
0.0
 11
42015.64056287
 21
-16151.47060111
 31
0.0
  0
LINE
  5
684
100
AcDbEntity
  8
Ech.1_5
 62
     9
  6
CONTINUOUS
370
    -3
100
AcDbLine
 10
42015.64056287
 20
-16151.47060111
 30
0.0
 11
42018.64781887
 21
-16150.68876459
 31
0.0
  0
LINE
  5
685
100
AcDbEntity
  8
Ech.1_5
 62
     9
  6
CONTINUOUS
370
    -3
100
AcDbLine
 10
42018.64781887
 20
-16150.68876459
 30
0.0
 11
42019.64957037
 21
-16150.88421121
 31
0.0
  0
LINE
  5
686
100
AcDbEntity
  8
Ech.1_5
 62
     9
  6
CONTINUOUS
370
    -3
100
AcDbLine
 10
42019.64957037
 20
-16150.88421121
 30
0.0
 11
42014.65082038
 21
-16152.05699101
 31
0.0
  0
LINE
  5
687
100
AcDbEntity
  8
Ech.1_5
 62
     9
  6
CONTINUOUS
370
    -3
100
AcDbLine
 10
42019.64957037
 20
-16146.9750286
 30
0.0
 11
42018.64781887
 21
-16147.5614185
 31
0.0
  0
LINE
  5
688
100
AcDbEntity
  8
Ech.1_5
 62
     9
  6
CONTINUOUS
370
    -3
100
AcDbLine
 10
42018.64781887
 20
-16147.5614185
 30
0.0
 11
42015.65257188
 21
-16148.1478084
 31
0.0
  0
LINE
  5
689
100
AcDbEntity
  8
Ech.1_5
 62
     9
  6
CONTINUOUS
370
    -3
100
AcDbLine
 10
42015.65257188
 20
-16148.1478084
 30
0.0
 11
42014.65082038
 21
-16148.1478084
 31
0.0
  0
LINE
  5
68A
100
AcDbEntity
  8
Ech.1_5
 62
     9
  6
CONTINUOUS
370
    -3
100
AcDbLine
 10
42014.65082038
 20
-16148.1478084
 30
0.0
 11
42015.64056287
 21
-16147.5614185
 31
0.0
  0
LINE
  5
68B
100
AcDbEntity
  8
Ech.1_5
 62
     9
  6
CONTINUOUS
370
    -3
100
AcDbLine
 10
42015.64056287
 20
-16147.5614185
 30
0.0
 11
42018.64781887
 21
-16146.77958197
 31
0.0
  0
LINE
  5
68C
100
AcDbEntity
  8
Ech.1_5
 62
     9
  6
CONTINUOUS
370
    -3
100
AcDbLine
 10
42018.64781887
 20
-16146.77958197
 30
0.0
 11
42019.64957037
 21
-16146.9750286
 31
0.0
  0
LINE
  5
68D
100
AcDbEntity
  8
Ech.1_5
 62
     9
  6
CONTINUOUS
370
    -3
100
AcDbLine
 10
42019.64957037
 20
-16146.9750286
 30
0.0
 11
42014.65082038
 21
-16148.1478084
 31
0.0
  0
LINE
  5
68E
100
AcDbEntity
  8
Ech.1_5
 62
     9
  6
CONTINUOUS
370
    -3
100
AcDbLine
 10
42014.65082038
 20
-16187.63062782
 30
0.0
 11
42015.64056287
 21
-16187.04423792
 31
0.0
  0
LINE
  5
68F
100
AcDbEntity
  8
Ech.1_5
 62
     9
  6
CONTINUOUS
370
    -3
100
AcDbLine
 10
42015.64056287
 20
-16187.04423792
 30
0.0
 11
42018.64781887
 21
-16186.45784802
 31
0.0
  0
LINE
  5
690
100
AcDbEntity
  8
Ech.1_5
 62
     9
  6
CONTINUOUS
370
    -3
100
AcDbLine
 10
42018.64781887
 20
-16186.45784802
 30
0.0
 11
42019.64957037
 21
-16186.65334468
 31
0.0
  0
LINE
  5
691
100
AcDbEntity
  8
Ech.1_5
 62
     9
  6
CONTINUOUS
370
    -3
100
AcDbLine
 10
42019.64957037
 20
-16186.65334468
 30
0.0
 11
42014.65082038
 21
-16187.63062782
 31
0.0
  0
LINE
  5
692
100
AcDbEntity
  8
Ech.1_5
 62
     9
  6
CONTINUOUS
370
    -3
100
AcDbLine
 10
42015.65257188
 20
-16179.03037604
 30
0.0
 11
42015.65257188
 21
-16175.90302995
 31
0.0
  0
LINE
  5
693
100
AcDbEntity
  8
Ech.1_5
 62
     9
  6
CONTINUOUS
370
    -3
100
AcDbLine
 10
42018.64781887
 20
-16178.44398614
 30
0.0
 11
42018.64781887
 21
-16175.12119343
 31
0.0
  0
LINE
  5
694
100
AcDbEntity
  8
Ech.1_5
 62
     9
  6
CONTINUOUS
370
    -3
100
AcDbLine
 10
42015.65257188
 20
-16167.30282821
 30
0.0
 11
42015.65257188
 21
-16163.97998546
 31
0.0
  0
LINE
  5
695
100
AcDbEntity
  8
Ech.1_5
 62
     9
  6
CONTINUOUS
370
    -3
100
AcDbLine
 10
42018.64781887
 20
-16166.71643831
 30
0.0
 11
42018.64781887
 21
-16163.19814894
 31
0.0
  0
LINE
  5
696
100
AcDbEntity
  8
Ech.1_5
 62
     9
  6
CONTINUOUS
370
    -3
100
AcDbLine
 10
42015.65257188
 20
-16163.19814894
 30
0.0
 11
42015.65257188
 21
-16160.07080285
 31
0.0
  0
LINE
  5
697
100
AcDbEntity
  8
Ech.1_5
 62
     9
  6
CONTINUOUS
370
    -3
100
AcDbLine
 10
42018.64781887
 20
-16159.28896633
 30
0.0
 11
42018.64781887
 21
-16162.61175904
 31
0.0
  0
LINE
  5
698
100
AcDbEntity
  8
Ech.1_5
 62
     9
  6
CONTINUOUS
370
    -3
100
AcDbLine
 10
42015.65257188
 20
-16159.28896633
 30
0.0
 11
42015.65257188
 21
-16155.96617362
 31
0.0
  0
LINE
  5
699
100
AcDbEntity
  8
Ech.1_5
 62
     9
  6
CONTINUOUS
370
    -3
100
AcDbLine
 10
42015.65257188
 20
-16155.96617362
 30
0.0
 11
42018.64781887
 21
-16155.37978372
 31
0.0
  0
LINE
  5
69A
100
AcDbEntity
  8
Ech.1_5
 62
     9
  6
CONTINUOUS
370
    -3
100
AcDbLine
 10
42018.64781887
 20
-16155.37978372
 30
0.0
 11
42018.64781887
 21
-16158.70257643
 31
0.0
  0
LINE
  5
69B
100
AcDbEntity
  8
Ech.1_5
 62
     9
  6
CONTINUOUS
370
    -3
100
AcDbLine
 10
42015.65257188
 20
-16155.37978372
 30
0.0
 11
42015.65257188
 21
-16152.05699101
 31
0.0
  0
LINE
  5
69C
100
AcDbEntity
  8
Ech.1_5
 62
     9
  6
CONTINUOUS
370
    -3
100
AcDbLine
 10
42018.64781887
 20
-16151.47060111
 30
0.0
 11
42018.64781887
 21
-16154.5979472
 31
0.0
  0
LINE
  5
69D
100
AcDbEntity
  8
Ech.1_5
 62
     9
  6
CONTINUOUS
370
    -3
100
AcDbLine
 10
42015.65257188
 20
-16151.47060111
 30
0.0
 11
42015.65257188
 21
-16148.1478084
 31
0.0
  0
LINE
  5
69E
100
AcDbEntity
  8
Ech.1_5
 62
     9
  6
CONTINUOUS
370
    -3
100
AcDbLine
 10
42018.64781887
 20
-16150.68876459
 30
0.0
 11
42018.64781887
 21
-16147.5614185
 31
0.0
  0
LINE
  5
69F
100
AcDbEntity
  8
Ech.1_5
 62
     9
  6
CONTINUOUS
370
    -3
100
AcDbLine
 10
42019.14869462
 20
-16144.23852571
 30
0.0
 11
42018.3545989
 21
-16144.62931888
 31
0.0
  0
LINE
  5
6A0
100
AcDbEntity
  8
Ech.1_5
 62
     9
  6
CONTINUOUS
370
    -3
100
AcDbLine
 10
42018.3545989
 20
-16144.62931888
 30
0.0
 11
42015.94579185
 21
-16145.02061242
 31
0.0
  0
LINE
  5
6A1
100
AcDbEntity
  8
Ech.1_5
 62
     9
  6
CONTINUOUS
370
    -3
100
AcDbLine
 10
42015.15169613
 20
-16145.02061242
 30
0.0
 11
42015.94579185
 21
-16144.62931888
 31
0.0
  0
LINE
  5
6A2
100
AcDbEntity
  8
Ech.1_5
 62
     9
  6
CONTINUOUS
370
    -3
100
AcDbLine
 10
42015.94579185
 20
-16144.62931888
 30
0.0
 11
42018.3545989
 21
-16144.04337932
 31
0.0
  0
LINE
  5
6A3
100
AcDbEntity
  8
Ech.1_5
 62
     9
  6
CONTINUOUS
370
    -3
100
AcDbLine
 10
42018.3545989
 20
-16144.04337932
 30
0.0
 11
42019.14869462
 21
-16144.23852571
 31
0.0
  0
LINE
  5
6A4
100
AcDbEntity
  8
Ech.1_5
 62
     9
  6
CONTINUOUS
370
    -3
100
AcDbLine
 10
42019.14869462
 20
-16144.23852571
 30
0.0
 11
42015.15169613
 21
-16145.02061242
 31
0.0
  0
LINE
  5
6A5
100
AcDbEntity
  8
Ech.1_5
 62
     9
  6
CONTINUOUS
370
    -3
100
AcDbLine
 10
42015.65257188
 20
-16147.5614185
 30
0.0
 11
42015.94579185
 21
-16145.02061242
 31
0.0
  0
LINE
  5
6A6
100
AcDbEntity
  8
Ech.1_5
 62
     9
  6
CONTINUOUS
370
    -3
100
AcDbLine
 10
42018.3545989
 20
-16144.62931888
 30
0.0
 11
42018.64781887
 21
-16146.77958197
 31
0.0
  0
LINE
  5
6A7
100
AcDbEntity
  8
Ech.1_5
 62
     9
  6
CONTINUOUS
370
    -3
100
AcDbLine
 10
42018.3545989
 20
-16144.04337932
 30
0.0
 11
42017.14419087
 21
-16141.50197279
 31
0.0
  0
LINE
  5
6A8
100
AcDbEntity
  8
Ech.1_5
 62
     9
  6
CONTINUOUS
370
    -3
100
AcDbLine
 10
42019.64957037
 20
-16170.82111758
 30
0.0
 11
42018.64781887
 21
-16171.21201082
 31
0.0
  0
LINE
  5
6A9
100
AcDbEntity
  8
Ech.1_5
 62
     9
  6
CONTINUOUS
370
    -3
100
AcDbLine
 10
42018.64781887
 20
-16171.21201082
 30
0.0
 11
42015.65257188
 21
-16171.99384734
 31
0.0
  0
LINE
  5
6AA
100
AcDbEntity
  8
Ech.1_5
 62
     9
  6
CONTINUOUS
370
    -3
100
AcDbLine
 10
42015.65257188
 20
-16171.99384734
 30
0.0
 11
42014.65082038
 21
-16171.79840072
 31
0.0
  0
LINE
  5
6AB
100
AcDbEntity
  8
Ech.1_5
 62
     9
  6
CONTINUOUS
370
    -3
100
AcDbLine
 10
42014.65082038
 20
-16171.79840072
 30
0.0
 11
42015.64056287
 21
-16171.21201082
 31
0.0
  0
LINE
  5
6AC
100
AcDbEntity
  8
Ech.1_5
 62
     9
  6
CONTINUOUS
370
    -3
100
AcDbLine
 10
42015.64056287
 20
-16171.21201082
 30
0.0
 11
42018.64781887
 21
-16170.62562092
 31
0.0
  0
LINE
  5
6AD
100
AcDbEntity
  8
Ech.1_5
 62
     9
  6
CONTINUOUS
370
    -3
100
AcDbLine
 10
42018.64781887
 20
-16170.62562092
 30
0.0
 11
42019.64957037
 21
-16170.82111758
 31
0.0
  0
LINE
  5
6AE
100
AcDbEntity
  8
Ech.1_5
 62
     9
  6
CONTINUOUS
370
    -3
100
AcDbLine
 10
42019.64957037
 20
-16170.82111758
 30
0.0
 11
42014.65082038
 21
-16171.79840072
 31
0.0
  0
LINE
  5
6AF
100
AcDbEntity
  8
Ech.1_5
 62
     9
  6
CONTINUOUS
370
    -3
100
AcDbLine
 10
42019.64957037
 20
-16166.71643831
 30
0.0
 11
42018.64781887
 21
-16167.30282821
 31
0.0
  0
LINE
  5
6B0
100
AcDbEntity
  8
Ech.1_5
 62
     9
  6
CONTINUOUS
370
    -3
100
AcDbLine
 10
42018.64781887
 20
-16167.30282821
 30
0.0
 11
42015.65257188
 21
-16168.08466473
 31
0.0
  0
LINE
  5
6B1
100
AcDbEntity
  8
Ech.1_5
 62
     9
  6
CONTINUOUS
370
    -3
100
AcDbLine
 10
42015.65257188
 20
-16168.08466473
 30
0.0
 11
42014.65082038
 21
-16167.88921811
 31
0.0
  0
LINE
  5
6B2
100
AcDbEntity
  8
Ech.1_5
 62
     9
  6
CONTINUOUS
370
    -3
100
AcDbLine
 10
42014.65082038
 20
-16167.88921811
 30
0.0
 11
42015.64056287
 21
-16167.30282821
 31
0.0
  0
LINE
  5
6B3
100
AcDbEntity
  8
Ech.1_5
 62
     9
  6
CONTINUOUS
370
    -3
100
AcDbLine
 10
42015.64056287
 20
-16167.30282821
 30
0.0
 11
42018.64781887
 21
-16166.71643831
 31
0.0
  0
LINE
  5
6B4
100
AcDbEntity
  8
Ech.1_5
 62
     9
  6
CONTINUOUS
370
    -3
100
AcDbLine
 10
42018.64781887
 20
-16166.71643831
 30
0.0
 11
42019.64957037
 21
-16166.71643831
 31
0.0
  0
LINE
  5
6B5
100
AcDbEntity
  8
Ech.1_5
 62
     9
  6
CONTINUOUS
370
    -3
100
AcDbLine
 10
42019.64957037
 20
-16166.71643831
 30
0.0
 11
42014.65082038
 21
-16167.88921811
 31
0.0
  0
LINE
  5
6B6
100
AcDbEntity
  8
Ech.1_5
 62
     9
  6
CONTINUOUS
370
    -3
100
AcDbLine
 10
42015.65257188
 20
-16175.12119343
 30
0.0
 11
42015.65257188
 21
-16171.99384734
 31
0.0
  0
LINE
  5
6B7
100
AcDbEntity
  8
Ech.1_5
 62
     9
  6
CONTINUOUS
370
    -3
100
AcDbLine
 10
42018.64781887
 20
-16174.53480353
 30
0.0
 11
42018.64781887
 21
-16171.21201082
 31
0.0
  0
LINE
  5
6B8
100
AcDbEntity
  8
Ech.1_5
 62
     9
  6
CONTINUOUS
370
    -3
100
AcDbLine
 10
42015.65257188
 20
-16171.21201082
 30
0.0
 11
42015.65257188
 21
-16168.08466473
 31
0.0
  0
LINE
  5
6B9
100
AcDbEntity
  8
Ech.1_5
 62
     9
  6
CONTINUOUS
370
    -3
100
AcDbLine
 10
42018.64781887
 20
-16167.30282821
 30
0.0
 11
42018.64781887
 21
-16170.62562092
 31
0.0
  0
LINE
  5
6BA
100
AcDbEntity
  8
Ech.1_5
 62
     9
  6
CONTINUOUS
370
    -3
100
AcDbLine
 10
42019.64957037
 20
-16182.74416207
 30
0.0
 11
42018.64781887
 21
-16183.13505531
 31
0.0
  0
LINE
  5
6BB
100
AcDbEntity
  8
Ech.1_5
 62
     9
  6
CONTINUOUS
370
    -3
100
AcDbLine
 10
42018.64781887
 20
-16183.13505531
 30
0.0
 11
42015.65257188
 21
-16183.91689183
 31
0.0
  0
LINE
  5
6BC
100
AcDbEntity
  8
Ech.1_5
 62
     9
  6
CONTINUOUS
370
    -3
100
AcDbLine
 10
42015.65257188
 20
-16183.91689183
 30
0.0
 11
42014.65082038
 21
-16183.72144521
 31
0.0
  0
LINE
  5
6BD
100
AcDbEntity
  8
Ech.1_5
 62
     9
  6
CONTINUOUS
370
    -3
100
AcDbLine
 10
42014.65082038
 20
-16183.72144521
 30
0.0
 11
42015.64056287
 21
-16183.13505531
 31
0.0
  0
LINE
  5
6BE
100
AcDbEntity
  8
Ech.1_5
 62
     9
  6
CONTINUOUS
370
    -3
100
AcDbLine
 10
42015.64056287
 20
-16183.13505531
 30
0.0
 11
42018.64781887
 21
-16182.54866541
 31
0.0
  0
LINE
  5
6BF
100
AcDbEntity
  8
Ech.1_5
 62
     9
  6
CONTINUOUS
370
    -3
100
AcDbLine
 10
42018.64781887
 20
-16182.54866541
 30
0.0
 11
42019.64957037
 21
-16182.74416207
 31
0.0
  0
LINE
  5
6C0
100
AcDbEntity
  8
Ech.1_5
 62
     9
  6
CONTINUOUS
370
    -3
100
AcDbLine
 10
42019.64957037
 20
-16182.74416207
 30
0.0
 11
42014.65082038
 21
-16183.72144521
 31
0.0
  0
LINE
  5
6C1
100
AcDbEntity
  8
Ech.1_5
 62
     9
  6
CONTINUOUS
370
    -3
100
AcDbLine
 10
42015.65257188
 20
-16187.04423792
 30
0.0
 11
42015.65257188
 21
-16183.91689183
 31
0.0
  0
LINE
  5
6C2
100
AcDbEntity
  8
Ech.1_5
 62
     9
  6
CONTINUOUS
370
    -3
100
AcDbLine
 10
42018.64781887
 20
-16186.45784802
 30
0.0
 11
42018.64781887
 21
-16183.13505531
 31
0.0
  0
LINE
  5
6C3
100
AcDbEntity
  8
Ech.1_5
 62
     9
  6
CONTINUOUS
370
    -3
100
AcDbLine
 10
42019.64957037
 20
-16178.83497946
 30
0.0
 11
42018.64781887
 21
-16179.2258727
 31
0.0
  0
LINE
  5
6C4
100
AcDbEntity
  8
Ech.1_5
 62
     9
  6
CONTINUOUS
370
    -3
100
AcDbLine
 10
42018.64781887
 20
-16179.2258727
 30
0.0
 11
42015.65257188
 21
-16180.00770922
 31
0.0
  0
LINE
  5
6C5
100
AcDbEntity
  8
Ech.1_5
 62
     9
  6
CONTINUOUS
370
    -3
100
AcDbLine
 10
42015.65257188
 20
-16180.00770922
 30
0.0
 11
42014.65082038
 21
-16179.8122626
 31
0.0
  0
LINE
  5
6C6
100
AcDbEntity
  8
Ech.1_5
 62
     9
  6
CONTINUOUS
370
    -3
100
AcDbLine
 10
42014.65082038
 20
-16179.8122626
 30
0.0
 11
42015.64056287
 21
-16179.2258727
 31
0.0
  0
LINE
  5
6C7
100
AcDbEntity
  8
Ech.1_5
 62
     9
  6
CONTINUOUS
370
    -3
100
AcDbLine
 10
42015.64056287
 20
-16179.2258727
 30
0.0
 11
42018.64781887
 21
-16178.6394828
 31
0.0
  0
LINE
  5
6C8
100
AcDbEntity
  8
Ech.1_5
 62
     9
  6
CONTINUOUS
370
    -3
100
AcDbLine
 10
42018.64781887
 20
-16178.6394828
 30
0.0
 11
42019.64957037
 21
-16178.83497946
 31
0.0
  0
LINE
  5
6C9
100
AcDbEntity
  8
Ech.1_5
 62
     9
  6
CONTINUOUS
370
    -3
100
AcDbLine
 10
42019.64957037
 20
-16178.83497946
 30
0.0
 11
42014.65082038
 21
-16179.8122626
 31
0.0
  0
LINE
  5
6CA
100
AcDbEntity
  8
Ech.1_5
 62
     9
  6
CONTINUOUS
370
    -3
100
AcDbLine
 10
42015.65257188
 20
-16183.13505531
 30
0.0
 11
42015.65257188
 21
-16180.00770922
 31
0.0
  0
LINE
  5
6CB
100
AcDbEntity
  8
Ech.1_5
 62
     9
  6
CONTINUOUS
370
    -3
100
AcDbLine
 10
42018.64781887
 20
-16182.54866541
 30
0.0
 11
42018.64781887
 21
-16179.2258727
 31
0.0
  0
LINE
  5
6CC
100
AcDbEntity
  8
Ech.1_5
 62
     9
  6
CONTINUOUS
370
    -3
100
AcDbLine
 10
42022.28591111
 20
-16232.7600061
 30
0.0
 11
42017.15019537
 21
-16232.7600061
 31
0.0
  0
LINE
  5
6CD
100
AcDbEntity
  8
Ech.1_5
 62
     9
  6
CONTINUOUS
370
    -3
100
AcDbLine
 10
42017.15019537
 20
-16229.01094363
 30
0.0
 11
42023.12520124
 21
-16229.01094363
 31
0.0
  0
LINE
  5
6CE
100
AcDbEntity
  8
Ech.1_5
 62
     9
  6
CONTINUOUS
370
    -3
100
AcDbLine
 10
42022.28591111
 20
-16232.7600061
 30
0.0
 11
42023.12520124
 21
-16232.17420259
 31
0.0
  0
LINE
  5
6CF
100
AcDbEntity
  8
Ech.1_5
 62
     9
  6
CONTINUOUS
370
    -3
100
AcDbLine
 10
42020.19643362
 20
-16232.17420259
 30
0.0
 11
42021.03622361
 21
-16232.7600061
 31
0.0
  0
LINE
  5
6D0
100
AcDbEntity
  8
Ech.1_5
 62
     9
  6
CONTINUOUS
370
    -3
100
AcDbLine
 10
42019.35664362
 20
-16232.7600061
 30
0.0
 11
42020.19643362
 21
-16232.17420259
 31
0.0
  0
LINE
  5
6D1
100
AcDbEntity
  8
Ech.1_5
 62
     9
  6
CONTINUOUS
370
    -3
100
AcDbLine
 10
42020.19643362
 20
-16229.01094363
 30
0.0
 11
42020.19643362
 21
-16232.17420259
 31
0.0
  0
LINE
  5
6D2
100
AcDbEntity
  8
Ech.1_5
 62
     9
  6
CONTINUOUS
370
    -3
100
AcDbLine
 10
42023.12520124
 20
-16232.17420259
 30
0.0
 11
42023.12520124
 21
-16229.01094363
 31
0.0
  0
LINE
  5
6D3
100
AcDbEntity
  8
Ech.1_5
 62
     9
  6
CONTINUOUS
370
    -3
100
AcDbLine
 10
42012.01497951
 20
-16232.7600061
 30
0.0
 11
42011.17518951
 21
-16232.17420259
 31
0.0
  0
LINE
  5
6D4
100
AcDbEntity
  8
Ech.1_5
 62
     9
  6
CONTINUOUS
370
    -3
100
AcDbLine
 10
42014.104457
 20
-16232.17420259
 30
0.0
 11
42013.264667
 21
-16232.7600061
 31
0.0
  0
LINE
  5
6D5
100
AcDbEntity
  8
Ech.1_5
 62
     9
  6
CONTINUOUS
370
    -3
100
AcDbLine
 10
42014.94374713
 20
-16232.7600061
 30
0.0
 11
42014.104457
 21
-16232.17420259
 31
0.0
  0
LINE
  5
6D6
100
AcDbEntity
  8
Ech.1_5
 62
     9
  6
CONTINUOUS
370
    -3
100
AcDbLine
 10
42014.104457
 20
-16229.01094363
 30
0.0
 11
42014.104457
 21
-16232.17420259
 31
0.0
  0
LINE
  5
6D7
100
AcDbEntity
  8
Ech.1_5
 62
     9
  6
CONTINUOUS
370
    -3
100
AcDbLine
 10
42011.17518951
 20
-16232.17420259
 30
0.0
 11
42011.17518951
 21
-16229.01094363
 31
0.0
  0
LINE
  5
6D8
100
AcDbEntity
  8
Ech.1_5
 62
     9
  6
CONTINUOUS
370
    -3
100
AcDbLine
 10
42012.01497951
 20
-16232.7600061
 30
0.0
 11
42017.15019537
 21
-16232.7600061
 31
0.0
  0
LINE
  5
6D9
100
AcDbEntity
  8
Ech.1_5
 62
     9
  6
CONTINUOUS
370
    -3
100
AcDbLine
 10
42017.15019537
 20
-16229.01094363
 30
0.0
 11
42011.17518951
 21
-16229.01094363
 31
0.0
  0
LWPOLYLINE
  5
6DA
100
AcDbEntity
  8
Ech.1_5
 62
     9
  6
CONTINUOUS
370
    -3
100
AcDbPolyline
 90
        7
 70
     0
 43
0.0
 10
42026.11736563
 20
-16228.98775027
 10
42026.11736563
 20
-16227.42525027
 10
42017.15019537
 20
-16227.42525027
 10
42007.99236563
 20
-16227.42525027
 10
42007.99236563
 20
-16228.98775027
 10
42017.05486609
 20
-16228.98775027
 10
42026.11736563
 20
-16228.98775027
  0
LWPOLYLINE
  5
6DB
100
AcDbEntity
  8
Ech.1_5
 62
     9
  6
DASHEDX2
370
    -3
100
AcDbPolyline
 90
        8
 70
     1
 43
0.0
 10
42011.17518951
 20
-16229.01094363
 10
42011.17518951
 20
-16232.17420259
 10
42012.01497951
 20
-16232.7600061
 10
42017.15019537
 20
-16232.7600061
 10
42022.28591111
 20
-16232.7600061
 10
42023.12520124
 20
-16232.17420259
 10
42023.12520124
 20
-16229.01094363
 10
42017.15019537
 20
-16229.01094363
  0
LWPOLYLINE
  5
6DC
100
AcDbEntity
  8
Ech.1_5
 62
   190
  6
CONTINUOUS
370
    -3
100
AcDbPolyline
 90
        5
 70
     0
 43
0.0
 10
42035.88763806
 20
-16449.97833057
 10
41996.69014211
 20
-16439.48940027
 42
1.30322619
 10
41996.69014211
 20
-16462.0276659
 10
42037.31768413
 20
-16451.15606693
 42
-0.00828194
 10
42037.69258531
 20
-16451.06223893
  0
LWPOLYLINE
  5
6DD
100
AcDbEntity
  8
Ech.1_5
 62
   190
  6
CONTINUOUS
370
    -3
100
AcDbPolyline
 90
       22
 70
     0
 43
0.0
 10
42051.6102391
 20
-16459.42007948
 42
-0.57692364
 10
42037.31768413
 20
-16473.69433257
 10
41996.69014211
 20
-16462.8227336
 42
1.30322619
 10
41996.69014211
 20
-16485.36099924
 10
42037.31768413
 20
-16474.48940027
 42
-1.30322619
 10
42037.31768413
 20
-16497.0276659
 10
41996.69014211
 20
-16486.15606693
 42
1.30322619
 10
41996.69014211
 20
-16508.69433257
 10
42037.31768413
 20
-16497.8227336
 42
-1.30322619
 10
42037.31768413
 20
-16520.36099924
 10
41996.69014211
 20
-16509.48940027
 42
1.30322619
 10
41996.69014211
 20
-16532.0276659
 10
42037.31768413
 20
-16521.15606693
 42
-1.30322619
 10
42037.31768413
 20
-16543.69433257
 10
41996.69014211
 20
-16532.8227336
 42
1.30322619
 10
41996.69014211
 20
-16555.36099924
 10
42037.31768413
 20
-16544.48940027
 42
-1.30322619
 10
42037.31768413
 20
-16567.0276659
 10
41996.69014211
 20
-16556.15606693
 42
1.30322619
 10
41996.69014211
 20
-16578.69433257
 10
42037.31768413
 20
-16567.8227336
 42
-0.85742324
 10
42046.6156679
 20
-16588.92510267
  0
ARC
  5
6DE
100
AcDbEntity
  8
Ech.1_5
 62
   190
  6
CONTINUOUS
370
    -3
100
AcDbCircle
 10
41993.67057979
 20
-16194.09186642
 30
0.0
 40
11.66666667
100
AcDbArc
 50
170.95842109
 51
189.04157891
  0
ARC
  5
6DF
100
AcDbEntity
  8
Ech.1_5
 62
   190
  6
CONTINUOUS
370
    -3
100
AcDbCircle
 10
41993.67057979
 20
-16217.42519975
 30
0.0
 40
11.66666667
100
AcDbArc
 50
170.95842109
 51
189.04157891
  0
ARC
  5
6E0
100
AcDbEntity
  8
Ech.1_5
 62
   190
  6
CONTINUOUS
370
    -3
100
AcDbCircle
 10
41993.67057979
 20
-16240.75853308
 30
0.0
 40
11.66666667
100
AcDbArc
 50
170.95842109
 51
189.04157891
  0
ARC
  5
6E1
100
AcDbEntity
  8
Ech.1_5
 62
   190
  6
CONTINUOUS
370
    -3
100
AcDbCircle
 10
41993.67057979
 20
-16264.09186642
 30
0.0
 40
11.66666667
100
AcDbArc
 50
170.95842109
 51
189.04157891
  0
ARC
  5
6E2
100
AcDbEntity
  8
Ech.1_5
 62
   190
  6
CONTINUOUS
370
    -3
100
AcDbCircle
 10
41993.67057979
 20
-16287.42519975
 30
0.0
 40
11.66666667
100
AcDbArc
 50
170.95842109
 51
189.04157891
  0
ARC
  5
6E3
100
AcDbEntity
  8
Ech.1_5
 62
   190
  6
CONTINUOUS
370
    -3
100
AcDbCircle
 10
41993.67057979
 20
-16310.75853308
 30
0.0
 40
11.66666667
100
AcDbArc
 50
170.95842109
 51
189.04157891
  0
ARC
  5
6E4
100
AcDbEntity
  8
Ech.1_5
 62
   190
  6
CONTINUOUS
370
    -3
100
AcDbCircle
 10
41993.67057979
 20
-16334.09186642
 30
0.0
 40
11.66666667
100
AcDbArc
 50
170.95842109
 51
189.04157891
  0
ARC
  5
6E5
100
AcDbEntity
  8
Ech.1_5
 62
   190
  6
CONTINUOUS
370
    -3
100
AcDbCircle
 10
41993.67057979
 20
-16357.42519975
 30
0.0
 40
11.66666667
100
AcDbArc
 50
170.95842109
 51
189.04157891
  0
ARC
  5
6E6
100
AcDbEntity
  8
Ech.1_5
 62
   190
  6
CONTINUOUS
370
    -3
100
AcDbCircle
 10
41993.67057979
 20
-16380.75853308
 30
0.0
 40
11.66666667
100
AcDbArc
 50
170.95842109
 51
189.04157891
  0
ARC
  5
6E7
100
AcDbEntity
  8
Ech.1_5
 62
   190
  6
CONTINUOUS
370
    -3
100
AcDbCircle
 10
41993.67057979
 20
-16404.09186642
 30
0.0
 40
11.66666667
100
AcDbArc
 50
170.95842109
 51
189.04157891
  0
LWPOLYLINE
  5
6E8
100
AcDbEntity
  8
Ech.1_5
 62
   190
  6
CONTINUOUS
370
    -3
100
AcDbPolyline
 90
        3
 70
     0
 43
0.0
 10
41983.21013419
 20
-16422.25894492
 42
0.6449755
 10
41996.69014211
 20
-16438.69433257
 10
42006.0553871
 20
-16436.18826937
  0
LINE
  5
6E9
100
AcDbEntity
  8
Ech.1_5
 62
   190
  6
CONTINUOUS
370
    -3
100
AcDbLine
 10
42009.12726705
 20
-16435.36625935
 30
0.0
 11
42010.80687409
 21
-16434.9168102
 31
0.0
  0
LWPOLYLINE
  5
6EA
100
AcDbEntity
  8
Ech.1_5
 62
   190
  6
CONTINUOUS
370
    -3
100
AcDbPolyline
 90
        3
 70
     0
 43
0.0
 10
42031.95168892
 20
-16588.92510267
 10
41996.69014211
 20
-16579.48940027
 42
0.4450115
 10
41982.14887661
 20
-16588.92510267
  0
LWPOLYLINE
  5
6EB
100
AcDbEntity
  8
Ech.1_5
 62
   190
  6
CONTINUOUS
370
    -3
100
AcDbPolyline
 90
        6
 70
     0
 43
0.0
 10
42086.9329449
 20
-15980.47009888
 10
42118.36793108
 20
-16064.96830683
 10
42113.67049814
 20
-16069.38389547
 10
42139.71548096
 20
-16058.64605096
 10
42122.31932532
 20
-16075.67206696
 10
42159.0947061
 20
-16175.47006131
  0
LWPOLYLINE
  5
6EC
100
AcDbEntity
  8
Ech.1_5
370
    50
100
AcDbPolyline
 90
        3
 70
     0
 43
0.0
 10
41913.15749899
 20
-16144.74302966
 10
41913.15749899
 20
-16167.82154656
 10
41939.0196835
 20
-16167.82154656
  0
LWPOLYLINE
  5
6ED
102
{ACAD_REACTORS
330
6EE
102
}
100
AcDbEntity
  8
Ech.1_5
 62
     7
  6
CONTINUOUS
370
    -3
100
AcDbPolyline
 90
        4
 70
     1
 43
0.0
 10
42183.11511984
 20
-16169.42520783
 10
42183.11511825
 20
-16182.42520783
 10
41912.14887661
 20
-16182.42519975
 10
41912.14887931
 20
-16169.42519975
  0
HATCH
  5
6EE
100
AcDbEntity
  8
Ech.1_5
 62
   190
  6
CONTINUOUS
100
AcDbHatch
 10
0.0
 20
0.0
 30
0.0
210
0.0
220
0.0
230
1.0
  2
DOTS2
 70
     0
 71
     1
 91
        1
 92
        7
 72
     0
 73
     1
 93
        4
 10
42183.11511984
 20
-16169.42520783
 10
42183.11511825
 20
-16182.42520783
 10
41912.14887661
 20
-16182.42519975
 10
41912.14887931
 20
-16169.42519975
 97
        1
330
6ED
 75
     0
 76
     2
 52
0.0
 41
4.72440952
 77
     0
 78
     1
 53
0.0
 43
0.0
 44
0.0
 45
3.75
 46
3.535
 79
     2
 49
0.0
 49
-3.535
 47
0.775229
 98
        1
 10
0.0
 20
0.0
  0
LWPOLYLINE
  5
6EF
100
AcDbEntity
  8
Ech.1_5
 62
   190
100
AcDbPolyline
 90
        5
 70
     0
 43
0.0
 10
41249.26919562
 20
-15577.93311392
 10
41383.6979746
 20
-15577.93311392
 10
41383.6979746
 20
-15634.65607273
 10
41249.26919562
 20
-15634.65607273
 10
41249.26919562
 20
-15577.93311392
  0
HATCH
  5
6F0
100
AcDbEntity
  8
Ech.1_5
 62
   190
100
AcDbHatch
 10
0.0
 20
0.0
 30
0.0
210
0.0
220
0.0
230
1.0
  2
SOLID
 70
     1
 71
     0
 91
        1
 92
        7
 72
     0
 73
     1
 93
        4
 10
41267.5492414
 20
-15611.58992504
 10
41317.5492414
 20
-15611.58992504
 10
41317.5492414
 20
-15604.17478751
 10
41267.5492414
 20
-15604.17478751
 97
        0
 75
     0
 76
     2
 47
0.775229
 98
        1
 10
0.0
 20
0.0
  0
LWPOLYLINE
  5
6F1
100
AcDbEntity
  8
Ech.1_5
 62
   190
100
AcDbPolyline
 90
        5
 70
     0
 43
0.0
 10
41267.5492414
 20
-15611.58992504
 10
41317.5492414
 20
-15611.58992504
 10
41317.5492414
 20
-15604.17478751
 10
41267.5492414
 20
-15604.17478751
 10
41267.5492414
 20
-15611.58992504
  0
LWPOLYLINE
  5
6F2
100
AcDbEntity
  8
Ech.1_5
 62
   190
100
AcDbPolyline
 90
        5
 70
     0
 43
0.0
 10
41317.5492414
 20
-15611.58992504
 10
41367.5492414
 20
-15611.58992504
 10
41367.5492414
 20
-15604.17478751
 10
41317.5492414
 20
-15604.17478751
 10
41317.5492414
 20
-15611.58992504
  0
TEXT
  5
6F3
100
AcDbEntity
  8
Ech.1_5
 62
   190
100
AcDbText
 10
41278.84353403
 20
-15594.58878443
 30
0.0
 40
8.00000012
  1
Echelle en mm
  7
ARIAL
 50
0.0
 41
1.0
 51
0.0
100
AcDbText
  0
TEXT
  5
6F4
100
AcDbEntity
  8
Ech.1_5
 62
   190
100
AcDbText
 10
41264.86294928
 20
-15622.79861996
 30
0.0
 40
8.00000012
  1
0
  7
ARIAL
 50
0.0
 41
1.0
 51
0.0
100
AcDbText
  0
TEXT
  5
6F5
100
AcDbEntity
  8
Ech.1_5
 62
   190
100
AcDbText
 10
41351.46000717
 20
-15622.79861996
 30
0.0
 40
8.00000012
  1
100
  7
ARIAL
 50
0.0
 41
1.0
 51
0.0
100
AcDbText
  0
TEXT
  5
6F6
100
AcDbEntity
  8
Ech.1_5
 62
   190
100
AcDbText
 10
41312.71957561
 20
-15622.79861996
 30
0.0
 40
8.00000012
  1
50
  7
ARIAL
 50
0.0
 41
1.0
 51
0.0
100
AcDbText
  0
ENDSEC
  0
SECTION
  2
OBJECTS
  0
DICTIONARY
  5
1
100
AcDbDictionary
  3
ACAD_GROUP
350
2
  3
ACAD_MLINESTYLE
350
3
  0
DICTIONARY
  5
2
102
{CDWK_REACTORS
330
1
102
}
100
AcDbDictionary
  0
DICTIONARY
  5
3
102
{CDWK_REACTORS
330
1
102
}
100
AcDbDictionary
  3
STANDARD
350
4
  0
MLINESTYLE
  5
4
102
{CDWK_REACTORS
330
3
102
}
100
AcDbMlineStyle
  2
STANDARD
 70
     0
  3

 62
     0
 51
90.0
 52
90.0
 71
     2
 49
0.5
 62
   256
  6
BYLAYER
 49
-0.5
 62
   256
  6
BYLAYER
  0
ENDSEC
  0
EOF
