  0
SECTION
  2
HEADER
  9
$ACADVER
  1
AC1014
  9
$DWGCODEPAGE
  3
ANSI_1252
  9
$INSBASE
 10
0.0
 20
0.0
 30
0.0
  9
$EXTMIN
 10
1033.98771282
 20
-21718.34332712
  9
$EXTMAX
 10
122326.07664696
 20
2240.3362527
  9
$LIMMIN
 10
1033.98771282
 20
-21718.34332712
  9
$LIMMAX
 10
122326.07664696
 20
2240.3362527
  9
$ORTHOMODE
 70
     0
  9
$REGENMODE
 70
     1
  9
$FILLMODE
 70
     1
  9
$QTEXTMODE
 70
     0
  9
$MIRRTEXT
 70
     1
  9
$DRAGMODE
 70
     2
  9
$LTSCALE
 40
5.0
  9
$OSMODE
 70
     0
  9
$ATTMODE
 70
     1
  9
$TEXTSIZE
 40
3.5
  9
$TRACEWID
 40
1.0
  9
$TEXTSTYLE
  7
STANDARD
  9
$CLAYER
  8
0
  9
$CELTYPE
  6
BYLAYER
  9
$CECOLOR
 62
   256
  9
$DIMSCALE
 40
1.0
  9
$DIMASZ
 40
2.0
  9
$DIMEXO
 40
5.0
  9
$DIMDLI
 40
10.0
  9
$DIMRND
 40
0.0
  9
$DIMDLE
 40
2.0
  9
$DIMEXE
 40
2.0
  9
$DIMTP
 40
0.0
  9
$DIMTM
 40
0.0
  9
$DIMTXT
 40
2.5
  9
$DIMCEN
 40
1.5
  9
$DIMTSZ
 40
0.0
  9
$DIMTOL
 70
     0
  9
$DIMLIM
 70
     0
  9
$DIMTIH
 70
     1
  9
$DIMTOH
 70
     0
  9
$DIMSE1
 70
     0
  9
$DIMSE2
 70
     0
  9
$DIMTAD
 70
     1
  9
$DIMZIN
 70
     8
  9
$DIMBLK
  1

  9
$DIMASO
 70
     1
  9
$DIMSHO
 70
     1
  9
$DIMPOST
  1

  9
$DIMAPOST
  1

  9
$DIMALT
 70
     0
  9
$DIMALTD
 70
     2
  9
$DIMALTF
 40
25.4
  9
$DIMLFAC
 40
1.0
  9
$DIMTOFL
 70
     0
  9
$DIMTVP
 40
0.0
  9
$DIMTIX
 70
     0
  9
$DIMSOXD
 70
     0
  9
$DIMSAH
 70
     0
  9
$DIMBLK1
  1

  9
$DIMBLK2
  1

  9
$DIMSTYLE
  2
*UNNAMED
  9
$DIMCLRD
 70
   190
  9
$DIMCLRE
 70
   190
  9
$DIMCLRT
 70
   190
  9
$DIMTFAC
 40
1.0
  9
$DIMGAP
 40
0.09
  9
$DIMUNIT
 70
     2
  9
$LUNITS
 70
     2
  9
$LUPREC
 70
     6
  9
$AXISMODE
 70
     0
  9
$AXISUNIT
 10
0.0
 20
0.0
  9
$SKETCHINC
 40
0.1
  9
$FILLETRAD
 40
0.0
  9
$AUNITS
 70
     0
  9
$AUPREC
 70
     0
  9
$MENU
  1
ACAD
  9
$ELEVATION
 40
0.0
  9
$PELEVATION
 40
0.0
  9
$THICKNESS
 40
0.0
  9
$LIMCHECK
 70
     0
  9
$BLIPMODE
 70
     1
  9
$CHAMFERA
 40
0.0
  9
$CHAMFERB
 40
0.0
  9
$SKPOLY
 70
     1
  9
$TDCREATE
 40
2457811.0000000000
  9
$TDUPDATE
 40
2457811.0000000000
  9
$TDINDWG
 40
0.0
  9
$TDUSRTIMER
 40
0.0
  9
$USRTIMER
 70
     1
  9
$ANGBASE
 50
0.0
  9
$ANGDIR
 70
     0
  9
$PDMODE
 70
     0
  9
$PDSIZE
 40
0.0
  9
$PLINEWID
 40
0.0
  9
$COORDS
 70
     2
  9
$SPLFRAME
 70
     0
  9
$SPLINETYPE
 70
     6
  9
$SPLINESEGS
 70
     8
  9
$ATTDIA
 70
     1
  9
$ATTREQ
 70
     1
  9
$HANDLING
 70
     1
  9
$HANDSEED
  5
     6AB
  9
$SURFTAB1
 70
     6
  9
$SURFTAB2
 70
     6
  9
$SURFTYPE
 70
     6
  9
$SURFU
 70
     6
  9
$SURFV
 70
     6
  9
$UCSNAME
  2

  9
$UCSORG
 10
0.0
 20
0.0
 30
0.0
  9
$UCSXDIR
 10
1.0
 20
0.0
 30
0.0
  9
$UCSYDIR
 10
0.0
 20
1.0
 30
0.0
  9
$PUCSNAME
  2

  9
$PUCSORG
 10
0.0
 20
0.0
 30
0.0
  9
$PUCSXDIR
 10
1.0
 20
0.0
 30
0.0
  9
$PUCSYDIR
 10
0.0
 20
1.0
 30
0.0
  9
$USERI1
 70
     0
  9
$USERI2
 70
     0
  9
$USERI3
 70
     0
  9
$USERI4
 70
     0
  9
$USERI5
 70
     0
  9
$USERR1
 40
0.0
  9
$USERR2
 40
0.0
  9
$USERR3
 40
0.0
  9
$USERR4
 40
0.0
  9
$USERR5
 40
0.0
  9
$WORLDVIEW
 70
     1
  9
$SHADEDGE
 70
     3
  9
$SHADEDIF
 70
    70
  9
$TILEMODE
 70
     1
  9
$MAXACTVP
 70
    16
  9
$PINSBASE
 10
0.0
 20
0.0
 30
0.0
  9
$PLIMCHECK
 70
     0
  9
$PEXTMIN
 10
1.0000000000000E+20
 20
1.0000000000000E+20
 30
1.0000000000000E+20
  9
$PEXTMAX
 10
-1.0000000000000E+20
 20
-1.0000000000000E+20
 30
-1.0000000000000E+20
  9
$PLIMMIN
 10
0.0
 20
0.0
  9
$UNITMODE
 70
     0
  9
$VISRETAIN
 70
     0
  9
$MEASUREMENT
 70
     1
  0
ENDSEC
  0
SECTION
  2
TABLES
  0
TABLE
  2
VPORT
  5
487
100
AcDbSymbolTable
 70
     1
  0
ENDTAB
  0
TABLE
  2
STYLE
  5
488
100
AcDbSymbolTable
 70
     3
  0
STYLE
  5
489
100
AcDbSymbolTableRecord
100
AcDbTextStyleTableRecord
  2
STANDARD
 70
     0
 40
0.0
 41
1.0
 50
0.0
 71
     0
 42
3.5
  3
MONOTXT
  4

  0
STYLE
  5
48A
100
AcDbSymbolTableRecord
100
AcDbTextStyleTableRecord
  2
SYMAP
 70
     0
 40
0.0
 41
1.0
 50
0.0
 71
     0
 42
3.5
  3
SYMAP
  4

  0
STYLE
  5
48B
100
AcDbSymbolTableRecord
100
AcDbTextStyleTableRecord
  2
CADWORK1
 70
     0
 40
0.0
 41
1.0
 50
0.0
 71
     0
 42
3.5
  3
MONOTXT
  4

  0
STYLE
  5
48C
100
AcDbSymbolTableRecord
100
AcDbTextStyleTableRecord
  2
MONOTXT
 70
     0
 40
0.0
 41
1.0
 50
0.0
 71
     0
 42
3.5
  3
MONOTXT
  4

  0
STYLE
  5
48D
100
AcDbSymbolTableRecord
100
AcDbTextStyleTableRecord
  2
ARIAL
 70
     0
 40
0.0
 41
1.0
 50
0.0
 71
     0
 42
3.5
  3

  4

1001
ACAD
1000
Arial
1071
        0
  0
ENDTAB
  0
TABLE
  2
LTYPE
  5
48E
100
AcDbSymbolTable
 70
    15
  0
LTYPE
  5
48F
100
AcDbSymbolTableRecord
100
AcDbLinetypeTableRecord
  2
BYBLOCK
 70
    64
  3

 72
    65
 73
     0
 40
0.0
  0
LTYPE
  5
490
100
AcDbSymbolTableRecord
100
AcDbLinetypeTableRecord
  2
BYLAYER
 70
    64
  3

 72
    65
 73
     0
 40
0.0
  0
LTYPE
  5
491
100
AcDbSymbolTableRecord
100
AcDbLinetypeTableRecord
  2
CONTINUOUS
 70
    64
  3
Solid line
 72
    65
 73
     0
 40
0.0
  0
LTYPE
  5
492
100
AcDbSymbolTableRecord
100
AcDbLinetypeTableRecord
  2
DOT2
 70
    64
  3
...............................................
 72
    65
 73
     2
 40
1.25
 49
0.0
 74
     0
 49
-1.25
 74
     0
  0
LTYPE
  5
493
100
AcDbSymbolTableRecord
100
AcDbLinetypeTableRecord
  2
CADWORK_13
 70
    64
  3
13 =======================================
 72
    65
 73
     2
 40
4.0
 49
2.0
 74
     0
 49
-2.0
 74
     0
  0
LTYPE
  5
494
100
AcDbSymbolTableRecord
100
AcDbLinetypeTableRecord
  2
DASHDOT
 70
    64
  3
 __ . __ . __ . __ . __ . __ . __ . __ . __ . __
 72
    65
 73
     4
 40
10.0
 49
5.0
 74
     0
 49
-2.5
 74
     0
 49
0.0
 74
     0
 49
-2.5
 74
     0
  0
LTYPE
  5
495
100
AcDbSymbolTableRecord
100
AcDbLinetypeTableRecord
  2
CENTER
 70
    64
  3
 ____ _ ____ _ ____ _ ____ _ ____ _ ____ _ ____
 72
    65
 73
     4
 40
20.0
 49
12.5
 74
     0
 49
-2.5
 74
     0
 49
2.5
 74
     0
 49
-2.5
 74
     0
  0
LTYPE
  5
496
100
AcDbSymbolTableRecord
100
AcDbLinetypeTableRecord
  2
DASHEDX2
 70
    64
  3
____  ____  ____  ____  ____  ____  ____  ____
 72
    65
 73
     2
 40
3.75
 49
2.5
 74
     0
 49
-1.25
 74
     0
  0
LTYPE
  5
497
100
AcDbSymbolTableRecord
100
AcDbLinetypeTableRecord
  2
CADWORK_22
 70
    64
  3
22 =======================================
 72
    65
 73
     0
 40
0.0
  0
LTYPE
  5
498
100
AcDbSymbolTableRecord
100
AcDbLinetypeTableRecord
  2
DAL
 70
    64
  3
Solid line (for MAPS)
 72
    65
 73
     0
 40
0.0
  0
LTYPE
  5
499
100
AcDbSymbolTableRecord
100
AcDbLinetypeTableRecord
  2
MUR
 70
    64
  3
Solid line (for MAPS)
 72
    65
 73
     0
 40
0.0
  0
LTYPE
  5
49A
100
AcDbSymbolTableRecord
100
AcDbLinetypeTableRecord
  2
SOM
 70
    64
  3
Solid line (for MAPS)
 72
    65
 73
     0
 40
0.0
  0
LTYPE
  5
49B
100
AcDbSymbolTableRecord
100
AcDbLinetypeTableRecord
  2
COL
 70
    64
  3
Solid line (for MAPS)
 72
    65
 73
     0
 40
0.0
  0
LTYPE
  5
49C
100
AcDbSymbolTableRecord
100
AcDbLinetypeTableRecord
  2
LGN
 70
    64
  3
Solid line (for MAPS)
 72
    65
 73
     0
 40
0.0
  0
LTYPE
  5
49D
100
AcDbSymbolTableRecord
100
AcDbLinetypeTableRecord
  2
PNT
 70
    64
  3
Solid line (for MAPS)
 72
    65
 73
     0
 40
0.0
  0
ENDTAB
  0
TABLE
  2
LAYER
  5
49E
100
AcDbSymbolTable
 70
    32
  0
LAYER
  5
49F
100
AcDbSymbolTableRecord
100
AcDbLayerTableRecord
  2
Standard
 70
     0
 62
     7
  6
CONTINUOUS
370
    -3
  0
LAYER
  5
4A0
100
AcDbSymbolTableRecord
100
AcDbLayerTableRecord
  2
Ech.1_1
 70
     0
 62
     7
  6
CONTINUOUS
370
    -3
  0
LAYER
  5
4A1
100
AcDbSymbolTableRecord
100
AcDbLayerTableRecord
  2
Ech.1_2
 70
     0
 62
     7
  6
CONTINUOUS
370
    -3
  0
LAYER
  5
4A2
100
AcDbSymbolTableRecord
100
AcDbLayerTableRecord
  2
Ech.1_5
 70
     0
 62
     7
  6
CONTINUOUS
370
    -3
  0
LAYER
  5
4A3
100
AcDbSymbolTableRecord
100
AcDbLayerTableRecord
  2
Ech.1_10
 70
     0
 62
     7
  6
CONTINUOUS
370
    -3
  0
LAYER
  5
4A4
100
AcDbSymbolTableRecord
100
AcDbLayerTableRecord
  2
Ech.1_20
 70
     0
 62
     7
  6
CONTINUOUS
370
    -3
  0
LAYER
  5
4A5
100
AcDbSymbolTableRecord
100
AcDbLayerTableRecord
  2
Ech.1_25
 70
     0
 62
     7
  6
CONTINUOUS
370
    -3
  0
LAYER
  5
4A6
100
AcDbSymbolTableRecord
100
AcDbLayerTableRecord
  2
Ech.1_33
 70
     0
 62
     7
  6
CONTINUOUS
370
    -3
  0
LAYER
  5
4A7
100
AcDbSymbolTableRecord
100
AcDbLayerTableRecord
  2
Ech.1_50
 70
     0
 62
     7
  6
CONTINUOUS
370
    -3
  0
LAYER
  5
4A8
100
AcDbSymbolTableRecord
100
AcDbLayerTableRecord
  2
Ech.1_75
 70
     0
 62
     7
  6
CONTINUOUS
370
    -3
  0
LAYER
  5
4A9
100
AcDbSymbolTableRecord
100
AcDbLayerTableRecord
  2
Ech.1_100
 70
     0
 62
     7
  6
CONTINUOUS
370
    -3
  0
LAYER
  5
4AA
100
AcDbSymbolTableRecord
100
AcDbLayerTableRecord
  2
Ech.1_200
 70
     0
 62
     7
  6
CONTINUOUS
370
    -3
  0
LAYER
  5
4AB
100
AcDbSymbolTableRecord
100
AcDbLayerTableRecord
  2
Ech.1_500
 70
     0
 62
     7
  6
CONTINUOUS
370
    -3
  0
LAYER
  5
4AC
100
AcDbSymbolTableRecord
100
AcDbLayerTableRecord
  2
Ech.1_1000
 70
     0
 62
     7
  6
CONTINUOUS
370
    -3
  0
LAYER
  5
4AD
100
AcDbSymbolTableRecord
100
AcDbLayerTableRecord
  2
Cadres traceur
 70
     0
 62
     7
  6
CONTINUOUS
370
    18
  0
LAYER
  5
4AE
100
AcDbSymbolTableRecord
100
AcDbLayerTableRecord
  2
Cadres laser
 70
     0
 62
     7
  6
CONTINUOUS
370
    18
  0
LAYER
  5
4AF
100
AcDbSymbolTableRecord
100
AcDbLayerTableRecord
  2
Légende d_aide
 70
     0
 62
     7
  6
CONTINUOUS
370
    18
  0
LAYER
  5
4B0
100
AcDbSymbolTableRecord
100
AcDbLayerTableRecord
  2
hachures ok
 70
     0
 62
     7
  6
CONTINUOUS
370
    18
  0
LAYER
  5
4B1
100
AcDbSymbolTableRecord
100
AcDbLayerTableRecord
  2
ossature bois
 70
     0
 62
     7
  6
CONTINUOUS
370
    18
  0
LAYER
  5
4B2
100
AcDbSymbolTableRecord
100
AcDbLayerTableRecord
  2
VR
 70
     0
 62
     7
  6
CONTINUOUS
370
    25
  0
LAYER
  5
4B3
100
AcDbSymbolTableRecord
100
AcDbLayerTableRecord
  2
Calque1
 70
     0
 62
     7
  6
CONTINUOUS
370
     9
  0
LAYER
  5
4B4
100
AcDbSymbolTableRecord
100
AcDbLayerTableRecord
  2
0
 70
     0
 62
     7
  6
CONTINUOUS
370
    -3
  0
LAYER
  5
4B5
100
AcDbSymbolTableRecord
100
AcDbLayerTableRecord
  2
menuiserie
 70
     0
 62
     7
  6
CONTINUOUS
370
    -3
  0
LAYER
  5
4B6
100
AcDbSymbolTableRecord
100
AcDbLayerTableRecord
  2
cotation
 70
     0
 62
   250
  6
CONTINUOUS
370
     9
  0
LAYER
  5
4B7
100
AcDbSymbolTableRecord
100
AcDbLayerTableRecord
  2
Defpoints
 70
     0
 62
    10
  6
CONTINUOUS
370
    -3
  0
LAYER
  5
4B8
100
AcDbSymbolTableRecord
100
AcDbLayerTableRecord
  2
HACHURE
 70
     0
 62
   254
  6
CONTINUOUS
370
    25
  0
LAYER
  5
4B9
100
AcDbSymbolTableRecord
100
AcDbLayerTableRecord
  2
mat1
 70
     0
 62
     7
  6
CONTINUOUS
370
    30
  0
LAYER
  5
4BA
100
AcDbSymbolTableRecord
100
AcDbLayerTableRecord
  2
mat2
 70
     0
 62
     7
  6
CONTINUOUS
370
     5
  0
LAYER
  5
4BB
100
AcDbSymbolTableRecord
100
AcDbLayerTableRecord
  2
hach
 70
     0
 62
     8
  6
CONTINUOUS
370
     5
  0
LAYER
  5
4BC
100
AcDbSymbolTableRecord
100
AcDbLayerTableRecord
  2
menuiseries
 70
     0
 62
     7
  6
CONTINUOUS
370
     9
  0
LAYER
  5
4BD
100
AcDbSymbolTableRecord
100
AcDbLayerTableRecord
  2
BétonMétal
 70
     0
 62
     7
  6
CONTINUOUS
370
    80
  0
LAYER
  5
4BE
100
AcDbSymbolTableRecord
100
AcDbLayerTableRecord
  2
bois
 70
     0
 62
     7
  6
CONTINUOUS
370
    60
  0
ENDTAB
  0
TABLE
  2
VIEW
  5
4BF
100
AcDbSymbolTable
 70
     0
  0
ENDTAB
  0
TABLE
  2
UCS
  5
4C0
100
AcDbSymbolTable
 70
     0
  0
ENDTAB
  0
TABLE
  2
APPID
  5
4C1
100
AcDbSymbolTable
 70
     1
  0
APPID
  5
4C2
100
AcDbSymbolTableRecord
100
AcDbRegAppTableRecord
  2
ACAD
 70
     0
  0
ENDTAB
  0
TABLE
  2
DIMSTYLE
  5
4C3
100
AcDbSymbolTable
 70
     0
  0
ENDTAB
  0
TABLE
  2
BLOCK_RECORD
  5
4C4
100
AcDbSymbolTable
 70
     0
  0
BLOCK_RECORD
  5
4C5
100
AcDbSymbolTableRecord
100
AcDbBlockTableRecord
  2
*MODEL_SPACE
  0
BLOCK_RECORD
  5
4C6
100
AcDbSymbolTableRecord
100
AcDbBlockTableRecord
  2
*PAPER_SPACE
  0
BLOCK_RECORD
  5
4C7
100
AcDbSymbolTableRecord
100
AcDbBlockTableRecord
  2
CDWK_EXTR_0
  0
BLOCK_RECORD
  5
4C8
100
AcDbSymbolTableRecord
100
AcDbBlockTableRecord
  2
CDWK_EXTR_1D
  0
BLOCK_RECORD
  5
4C9
100
AcDbSymbolTableRecord
100
AcDbBlockTableRecord
  2
CDWK_EXTR_1G
  0
BLOCK_RECORD
  5
4CA
100
AcDbSymbolTableRecord
100
AcDbBlockTableRecord
  2
CDWK_EXTR_2
  0
BLOCK_RECORD
  5
4CB
100
AcDbSymbolTableRecord
100
AcDbBlockTableRecord
  2
CDWK_EXTR_3
  0
BLOCK_RECORD
  5
4CC
100
AcDbSymbolTableRecord
100
AcDbBlockTableRecord
  2
CDWK_EXTR_4
  0
BLOCK_RECORD
  5
4CD
100
AcDbSymbolTableRecord
100
AcDbBlockTableRecord
  2
CDWK_PTTYP0
  0
BLOCK_RECORD
  5
4CE
100
AcDbSymbolTableRecord
100
AcDbBlockTableRecord
  2
CDWK_PTTYP1
  0
BLOCK_RECORD
  5
4CF
100
AcDbSymbolTableRecord
100
AcDbBlockTableRecord
  2
CDWK_PTTYP2
  0
BLOCK_RECORD
  5
4D0
100
AcDbSymbolTableRecord
100
AcDbBlockTableRecord
  2
CDWK_PTTYP3
  0
BLOCK_RECORD
  5
4D1
100
AcDbSymbolTableRecord
100
AcDbBlockTableRecord
  2
CDWK_PTTYP4
  0
BLOCK_RECORD
  5
4D2
100
AcDbSymbolTableRecord
100
AcDbBlockTableRecord
  2
CDWK_PTTYP5
  0
BLOCK_RECORD
  5
4D3
100
AcDbSymbolTableRecord
100
AcDbBlockTableRecord
  2
CDWK_PTTYP6
  0
BLOCK_RECORD
  5
4D4
100
AcDbSymbolTableRecord
100
AcDbBlockTableRecord
  2
CDWK_PTTYP7
  0
BLOCK_RECORD
  5
4D5
100
AcDbSymbolTableRecord
100
AcDbBlockTableRecord
  2
CDWK_PTTYP8
  0
BLOCK_RECORD
  5
4D6
100
AcDbSymbolTableRecord
100
AcDbBlockTableRecord
  2
CDWK_PTTYP9
  0
BLOCK_RECORD
  5
4D7
100
AcDbSymbolTableRecord
100
AcDbBlockTableRecord
  2
CDWK_PTTYP10
  0
BLOCK_RECORD
  5
4D8
100
AcDbSymbolTableRecord
100
AcDbBlockTableRecord
  2
CDWK_PTTYP11
  0
BLOCK_RECORD
  5
4D9
100
AcDbSymbolTableRecord
100
AcDbBlockTableRecord
  2
CDWK_PTTYP12
  0
BLOCK_RECORD
  5
4DA
100
AcDbSymbolTableRecord
100
AcDbBlockTableRecord
  2
CDWK_PTTYP13
  0
BLOCK_RECORD
  5
4DB
100
AcDbSymbolTableRecord
100
AcDbBlockTableRecord
  2
CDWK_PTTYP14
  0
BLOCK_RECORD
  5
4DC
100
AcDbSymbolTableRecord
100
AcDbBlockTableRecord
  2
CDWK_PTTYP15
  0
BLOCK_RECORD
  5
4DD
100
AcDbSymbolTableRecord
100
AcDbBlockTableRecord
  2
CDWK_PTTYP16
  0
BLOCK_RECORD
  5
4DE
100
AcDbSymbolTableRecord
100
AcDbBlockTableRecord
  2
CDWK_PTTYP17
  0
BLOCK_RECORD
  5
4DF
100
AcDbSymbolTableRecord
100
AcDbBlockTableRecord
  2
CDWK_PTTYP18
  0
BLOCK_RECORD
  5
4E0
100
AcDbSymbolTableRecord
100
AcDbBlockTableRecord
  2
CDWK_PTTYP19
  0
BLOCK_RECORD
  5
4E1
100
AcDbSymbolTableRecord
100
AcDbBlockTableRecord
  2
CDWK_PTTYP20
  0
BLOCK_RECORD
  5
4E2
100
AcDbSymbolTableRecord
100
AcDbBlockTableRecord
  2
CDWK_PTTYP21
  0
BLOCK_RECORD
  5
4E3
100
AcDbSymbolTableRecord
100
AcDbBlockTableRecord
  2
CDWK_PTTYP22
  0
BLOCK_RECORD
  5
4E4
100
AcDbSymbolTableRecord
100
AcDbBlockTableRecord
  2
CDWK_PTTYP23
  0
BLOCK_RECORD
  5
4E5
100
AcDbSymbolTableRecord
100
AcDbBlockTableRecord
  2
CDWK_PTTYP24
  0
BLOCK_RECORD
  5
4E6
100
AcDbSymbolTableRecord
100
AcDbBlockTableRecord
  2
CDWK_PTTYP25
  0
BLOCK_RECORD
  5
4E7
100
AcDbSymbolTableRecord
100
AcDbBlockTableRecord
  2
CDWK_PTTYP26
  0
BLOCK_RECORD
  5
4E8
100
AcDbSymbolTableRecord
100
AcDbBlockTableRecord
  2
CDWK_PTTYP27
  0
BLOCK_RECORD
  5
4E9
100
AcDbSymbolTableRecord
100
AcDbBlockTableRecord
  2
CDWK_PTTYP28
  0
BLOCK_RECORD
  5
4EA
100
AcDbSymbolTableRecord
100
AcDbBlockTableRecord
  2
CDWK_PTTYP29
  0
BLOCK_RECORD
  5
4EB
100
AcDbSymbolTableRecord
100
AcDbBlockTableRecord
  2
CDWK_PTTYP30
  0
BLOCK_RECORD
  5
4EC
100
AcDbSymbolTableRecord
100
AcDbBlockTableRecord
  2
CDWK_PTTYP31
  0
BLOCK_RECORD
  5
4ED
100
AcDbSymbolTableRecord
100
AcDbBlockTableRecord
  2
CDWK_PTTYP32
  0
BLOCK_RECORD
  5
4EE
100
AcDbSymbolTableRecord
100
AcDbBlockTableRecord
  2
CDWK_PTTYP33
  0
BLOCK_RECORD
  5
4EF
100
AcDbSymbolTableRecord
100
AcDbBlockTableRecord
  2
CDWK_PTTYP34
  0
BLOCK_RECORD
  5
4F0
100
AcDbSymbolTableRecord
100
AcDbBlockTableRecord
  2
CDWK_PTTYP35
  0
BLOCK_RECORD
  5
4F1
100
AcDbSymbolTableRecord
100
AcDbBlockTableRecord
  2
CDWK_PTTYP36
  0
BLOCK_RECORD
  5
4F2
100
AcDbSymbolTableRecord
100
AcDbBlockTableRecord
  2
CDWK_PTTYP37
  0
BLOCK_RECORD
  5
4F3
100
AcDbSymbolTableRecord
100
AcDbBlockTableRecord
  2
CDWK_PTTYP38
  0
BLOCK_RECORD
  5
4F4
100
AcDbSymbolTableRecord
100
AcDbBlockTableRecord
  2
*D17
  0
BLOCK_RECORD
  5
4F5
100
AcDbSymbolTableRecord
100
AcDbBlockTableRecord
  2
*D18
  0
ENDTAB
  0
ENDSEC
  0
SECTION
  2
BLOCKS
  0
BLOCK
  5
4F6
100
AcDbEntity
  8
0
100
AcDbBlockBegin
  2
*MODEL_SPACE
 70
     0
 10
0.0
 20
0.0
 30
0.0
  3
*MODEL_SPACE
  1

  0
ENDBLK
  5
4F7
100
AcDbEntity
100
AcDbBlockEnd
  0
BLOCK
  5
4F8
100
AcDbEntity
  8
0
100
AcDbBlockBegin
  2
*PAPER_SPACE
 70
     0
 10
0.0
 20
0.0
 30
0.0
  3
*PAPER_SPACE
  1

  0
ENDBLK
  5
4F9
100
AcDbEntity
100
AcDbBlockEnd
  0
BLOCK
  5
4FA
100
AcDbEntity
  8
0
100
AcDbBlockBegin
  2
CDWK_EXTR_0
 70
     0
 10
0.0
 20
0.0
 30
0.0
  3
CDWK_EXTR_0
  1

  4
Cadwork line-extremity
  0
LINE
  5
4FB
100
AcDbEntity
  8
0
 62
     0
370
    -2
100
AcDbLine
 10
0.0
 20
0.0
 30
0.0
 11
2.0
 21
0.5
 31
0.0
  0
LINE
  5
4FC
100
AcDbEntity
  8
0
 62
     0
370
    -2
100
AcDbLine
 10
0.0
 20
0.0
 30
0.0
 11
2.0
 21
-0.5
 31
0.0
  0
LINE
  5
4FD
100
AcDbEntity
  8
0
 62
     0
370
    -2
100
AcDbLine
 10
2.0
 20
0.5
 30
0.0
 11
2.0
 21
-0.5
 31
0.0
  0
ENDBLK
  5
4FE
100
AcDbEntity
100
AcDbBlockEnd
  0
BLOCK
  5
4FF
100
AcDbEntity
  8
0
100
AcDbBlockBegin
  2
CDWK_EXTR_1D
 70
     0
 10
0.0
 20
0.0
 30
0.0
  3
CDWK_EXTR_1D
  1

  4
Cadwork line-extremity
  0
LINE
  5
500
100
AcDbEntity
  8
0
 62
     0
370
    -2
100
AcDbLine
 10
0.0
 20
0.0
 30
0.0
 11
0.0
 21
1.0
 31
0.0
  0
LINE
  5
501
100
AcDbEntity
  8
0
 62
     0
370
    -2
100
AcDbLine
 10
0.0
 20
1.0
 30
0.0
 11
0.5
 21
1.5
 31
0.0
  0
LINE
  5
502
100
AcDbEntity
  8
0
 62
     0
370
    -2
100
AcDbLine
 10
0.5
 20
1.5
 30
0.0
 11
1.5
 21
1.5
 31
0.0
  0
ENDBLK
  5
503
100
AcDbEntity
100
AcDbBlockEnd
  0
BLOCK
  5
504
100
AcDbEntity
  8
0
100
AcDbBlockBegin
  2
CDWK_EXTR_1G
 70
     0
 10
0.0
 20
0.0
 30
0.0
  3
CDWK_EXTR_1G
  1

  4
Cadwork line-extremity
  0
LINE
  5
505
100
AcDbEntity
  8
0
 62
     0
370
    -2
100
AcDbLine
 10
0.0
 20
0.0
 30
0.0
 11
0.0
 21
-1.0
 31
0.0
  0
LINE
  5
506
100
AcDbEntity
  8
0
 62
     0
370
    -2
100
AcDbLine
 10
0.0
 20
-1.0
 30
0.0
 11
0.5
 21
-1.5
 31
0.0
  0
LINE
  5
507
100
AcDbEntity
  8
0
 62
     0
370
    -2
100
AcDbLine
 10
0.5
 20
-1.5
 30
0.0
 11
1.5
 21
-1.5
 31
0.0
  0
ENDBLK
  5
508
100
AcDbEntity
100
AcDbBlockEnd
  0
BLOCK
  5
509
100
AcDbEntity
  8
0
100
AcDbBlockBegin
  2
CDWK_EXTR_2
 70
     0
 10
0.0
 20
0.0
 30
0.0
  3
CDWK_EXTR_2
  1

  4
Cadwork line-extremity
  0
SOLID
  5
50A
100
AcDbEntity
  8
0
 62
     0
100
AcDbTrace
 10
0.0
 20
0.0
 11
2.0
 21
0.5
 12
2.0
 22
-0.5
 13
2.0
 23
-0.5
  0
ENDBLK
  5
50B
100
AcDbEntity
100
AcDbBlockEnd
  0
BLOCK
  5
50C
100
AcDbEntity
  8
0
100
AcDbBlockBegin
  2
CDWK_EXTR_3
 70
     0
 10
0.0
 20
0.0
 30
0.0
  3
CDWK_EXTR_3
  1

  4
Cadwork line-extremity
  0
SOLID
  5
50D
100
AcDbEntity
  8
0
 62
     0
100
AcDbTrace
 10
0.0
 20
0.0
 11
2.0
 21
0.5
 12
2.0
 22
-0.5
 13
2.0
 23
-0.5
  0
LINE
  5
50E
100
AcDbEntity
  8
0
 62
     0
370
    -2
100
AcDbLine
 10
0.0
 20
1.0
 30
0.0
 11
0.0
 21
-1.0
 31
0.0
  0
ENDBLK
  5
50F
100
AcDbEntity
100
AcDbBlockEnd
  0
BLOCK
  5
510
100
AcDbEntity
  8
0
100
AcDbBlockBegin
  2
CDWK_EXTR_4
 70
     0
 10
0.0
 20
0.0
 30
0.0
  3
CDWK_EXTR_4
  1

  4
Cadwork line-extremity
  0
HATCH
  5
511
100
AcDbEntity
  8
0
 62
     0
370
    -2
100
AcDbHatch
 10
0.0
 20
0.0
 30
0.0
210
0.0
220
0.0
230
1.0
  2
SOLID
 70
     1
 71
     0
 91
        1
 92
        1
 93
        1
 72
     2
 10
0.0
 20
0.0
 40
0.5
 50
0.0
 51
360.0
 73
     1
 97
        0
 75
     0
 76
     1
 98
        1
 10
0.0
 20
0.0
  0
ENDBLK
  5
512
100
AcDbEntity
100
AcDbBlockEnd
  0
BLOCK
  5
513
100
AcDbEntity
  8
0
100
AcDbBlockBegin
  2
CDWK_PTTYP0
 70
     0
 10
0.0
 20
0.0
 30
0.0
  3
CDWK_PTTYP0
  1

  4
Cadwork point
  0
POINT
  5
514
100
AcDbEntity
  8
0
 62
     0
100
AcDbPoint
 10
0.0
 20
0.0
 30
0.0
  0
ENDBLK
  5
515
100
AcDbEntity
100
AcDbBlockEnd
  0
BLOCK
  5
516
100
AcDbEntity
  8
0
100
AcDbBlockBegin
  2
CDWK_PTTYP1
 70
     0
 10
0.0
 20
0.0
 30
0.0
  3
CDWK_PTTYP1
  1

  4
Cadwork node
  0
LINE
  5
517
100
AcDbEntity
  8
0
 62
     0
370
    -2
100
AcDbLine
 10
-0.5
 20
0.5
 30
0.0
 11
0.5
 21
0.5
 31
0.0
  0
LINE
  5
518
100
AcDbEntity
  8
0
 62
     0
370
    -2
100
AcDbLine
 10
0.5
 20
0.5
 30
0.0
 11
0.5
 21
-0.5
 31
0.0
  0
LINE
  5
519
100
AcDbEntity
  8
0
 62
     0
370
    -2
100
AcDbLine
 10
0.5
 20
-0.5
 30
0.0
 11
-0.5
 21
-0.5
 31
0.0
  0
LINE
  5
51A
100
AcDbEntity
  8
0
 62
     0
370
    -2
100
AcDbLine
 10
-0.5
 20
-0.5
 30
0.0
 11
-0.5
 21
0.5
 31
0.0
  0
ENDBLK
  5
51B
100
AcDbEntity
100
AcDbBlockEnd
  0
BLOCK
  5
51C
100
AcDbEntity
  8
0
100
AcDbBlockBegin
  2
CDWK_PTTYP2
 70
     0
 10
0.0
 20
0.0
 30
0.0
  3
CDWK_PTTYP2
  1

  4
Cadwork node
  0
LINE
  5
51D
100
AcDbEntity
  8
0
 62
     0
370
    -2
100
AcDbLine
 10
0.0
 20
0.5
 30
0.0
 11
0.0
 21
-0.5
 31
0.0
  0
LINE
  5
51E
100
AcDbEntity
  8
0
 62
     0
370
    -2
100
AcDbLine
 10
-0.5
 20
0.0
 30
0.0
 11
0.5
 21
0.0
 31
0.0
  0
ENDBLK
  5
51F
100
AcDbEntity
100
AcDbBlockEnd
  0
BLOCK
  5
520
100
AcDbEntity
  8
0
100
AcDbBlockBegin
  2
CDWK_PTTYP3
 70
     0
 10
0.0
 20
0.0
 30
0.0
  3
CDWK_PTTYP3
  1

  4
Cadwork node
  0
CIRCLE
  5
521
100
AcDbEntity
  8
0
 62
     0
370
    -2
100
AcDbCircle
 10
0.0
 20
0.0
 30
0.0
 40
0.5
  0
ENDBLK
  5
522
100
AcDbEntity
100
AcDbBlockEnd
  0
BLOCK
  5
523
100
AcDbEntity
  8
0
100
AcDbBlockBegin
  2
CDWK_PTTYP4
 70
     0
 10
0.0
 20
0.0
 30
0.0
  3
CDWK_PTTYP4
  1

  4
Cadwork node
  0
HATCH
  5
524
100
AcDbEntity
  8
0
 62
     0
370
    -2
100
AcDbHatch
 10
0.0
 20
0.0
 30
0.0
210
0.0
220
0.0
230
1.0
  2
SOLID
 70
     1
 71
     0
 91
        1
 92
        1
 93
        1
 72
     2
 10
0.0
 20
0.0
 40
0.5
 50
0.0
 51
360.0
 73
     1
 97
        0
 75
     0
 76
     1
 98
        1
 10
0.0
 20
0.0
  0
ENDBLK
  5
525
100
AcDbEntity
100
AcDbBlockEnd
  0
BLOCK
  5
526
100
AcDbEntity
  8
0
100
AcDbBlockBegin
  2
CDWK_PTTYP5
 70
     0
 10
0.0
 20
0.0
 30
0.0
  3
CDWK_PTTYP5
  1

  4
Cadwork node
  0
LINE
  5
527
100
AcDbEntity
  8
0
 62
     0
370
    -2
100
AcDbLine
 10
-0.5
 20
0.5
 30
0.0
 11
0.5
 21
0.5
 31
0.0
  0
LINE
  5
528
100
AcDbEntity
  8
0
 62
     0
370
    -2
100
AcDbLine
 10
0.5
 20
0.5
 30
0.0
 11
0.5
 21
-0.5
 31
0.0
  0
LINE
  5
529
100
AcDbEntity
  8
0
 62
     0
370
    -2
100
AcDbLine
 10
0.5
 20
-0.5
 30
0.0
 11
-0.5
 21
-0.5
 31
0.0
  0
LINE
  5
52A
100
AcDbEntity
  8
0
 62
     0
370
    -2
100
AcDbLine
 10
-0.5
 20
-0.5
 30
0.0
 11
-0.5
 21
0.5
 31
0.0
  0
SOLID
  5
52B
100
AcDbEntity
  8
0
 62
     0
100
AcDbTrace
 10
-0.5
 20
-0.5
 11
-0.5
 21
0.0
 12
0.0
 22
-0.5
 13
0.0
 23
0.0
  0
SOLID
  5
52C
100
AcDbEntity
  8
0
 62
     0
100
AcDbTrace
 10
0.0
 20
0.0
 11
0.0
 21
0.5
 12
0.5
 22
0.0
 13
0.5
 23
0.5
  0
ENDBLK
  5
52D
100
AcDbEntity
100
AcDbBlockEnd
  0
BLOCK
  5
52E
100
AcDbEntity
  8
0
100
AcDbBlockBegin
  2
CDWK_PTTYP6
 70
     0
 10
0.0
 20
0.0
 30
0.0
  3
CDWK_PTTYP6
  1

  4
Cadwork node
  0
LINE
  5
52F
100
AcDbEntity
  8
0
 62
     0
370
    -2
100
AcDbLine
 10
-0.5
 20
0.5
 30
0.0
 11
0.5
 21
0.5
 31
0.0
  0
LINE
  5
530
100
AcDbEntity
  8
0
 62
     0
370
    -2
100
AcDbLine
 10
0.5
 20
0.5
 30
0.0
 11
0.5
 21
-0.5
 31
0.0
  0
LINE
  5
531
100
AcDbEntity
  8
0
 62
     0
370
    -2
100
AcDbLine
 10
0.5
 20
-0.5
 30
0.0
 11
-0.5
 21
-0.5
 31
0.0
  0
LINE
  5
532
100
AcDbEntity
  8
0
 62
     0
370
    -2
100
AcDbLine
 10
-0.5
 20
-0.5
 30
0.0
 11
-0.5
 21
0.5
 31
0.0
  0
SOLID
  5
533
100
AcDbEntity
  8
0
 62
     0
100
AcDbTrace
 10
-0.5
 20
-0.5
 11
-0.5
 21
0.5
 12
0.5
 22
0.5
 13
0.5
 23
0.5
  0
ENDBLK
  5
534
100
AcDbEntity
100
AcDbBlockEnd
  0
BLOCK
  5
535
100
AcDbEntity
  8
0
100
AcDbBlockBegin
  2
CDWK_PTTYP7
 70
     0
 10
0.0
 20
0.0
 30
0.0
  3
CDWK_PTTYP7
  1

  4
Cadwork node
  0
LINE
  5
536
100
AcDbEntity
  8
0
 62
     0
370
    -2
100
AcDbLine
 10
-0.5
 20
0.5
 30
0.0
 11
0.5
 21
0.5
 31
0.0
  0
LINE
  5
537
100
AcDbEntity
  8
0
 62
     0
370
    -2
100
AcDbLine
 10
0.5
 20
0.5
 30
0.0
 11
0.5
 21
-0.5
 31
0.0
  0
LINE
  5
538
100
AcDbEntity
  8
0
 62
     0
370
    -2
100
AcDbLine
 10
0.5
 20
-0.5
 30
0.0
 11
-0.5
 21
-0.5
 31
0.0
  0
LINE
  5
539
100
AcDbEntity
  8
0
 62
     0
370
    -2
100
AcDbLine
 10
-0.5
 20
-0.5
 30
0.0
 11
-0.5
 21
0.5
 31
0.0
  0
LINE
  5
53A
100
AcDbEntity
  8
0
 62
     0
370
    -2
100
AcDbLine
 10
0.0
 20
0.5
 30
0.0
 11
0.0
 21
-0.5
 31
0.0
  0
LINE
  5
53B
100
AcDbEntity
  8
0
 62
     0
370
    -2
100
AcDbLine
 10
-0.5
 20
0.0
 30
0.0
 11
0.5
 21
0.0
 31
0.0
  0
ENDBLK
  5
53C
100
AcDbEntity
100
AcDbBlockEnd
  0
BLOCK
  5
53D
100
AcDbEntity
  8
0
100
AcDbBlockBegin
  2
CDWK_PTTYP8
 70
     0
 10
0.0
 20
0.0
 30
0.0
  3
CDWK_PTTYP8
  1

  4
Cadwork node
  0
SOLID
  5
53E
100
AcDbEntity
  8
0
 62
     0
100
AcDbTrace
 10
-0.5
 20
0.5
 11
0.5
 21
0.5
 12
-0.5
 22
-0.5
 13
0.5
 23
-0.5
  0
ENDBLK
  5
53F
100
AcDbEntity
100
AcDbBlockEnd
  0
BLOCK
  5
540
100
AcDbEntity
  8
0
100
AcDbBlockBegin
  2
CDWK_PTTYP9
 70
     0
 10
0.0
 20
0.0
 30
0.0
  3
CDWK_PTTYP9
  1

  4
Cadwork node
  0
CIRCLE
  5
541
100
AcDbEntity
  8
0
 62
     0
370
    -2
100
AcDbCircle
 10
0.0
 20
0.0
 30
0.0
 40
0.5
  0
CIRCLE
  5
542
100
AcDbEntity
  8
0
 62
     0
370
    -2
100
AcDbCircle
 10
0.0
 20
0.0
 30
0.0
 40
0.16666667
  0
ENDBLK
  5
543
100
AcDbEntity
100
AcDbBlockEnd
  0
BLOCK
  5
544
100
AcDbEntity
  8
0
100
AcDbBlockBegin
  2
CDWK_PTTYP10
 70
     0
 10
0.0
 20
0.0
 30
0.0
  3
CDWK_PTTYP10
  1

  4
Cadwork node
  0
CIRCLE
  5
545
100
AcDbEntity
  8
0
 62
     0
370
    -2
100
AcDbCircle
 10
0.0
 20
0.0
 30
0.0
 40
0.5
  0
ENDBLK
  5
546
100
AcDbEntity
100
AcDbBlockEnd
  0
BLOCK
  5
547
100
AcDbEntity
  8
0
100
AcDbBlockBegin
  2
CDWK_PTTYP11
 70
     0
 10
0.0
 20
0.0
 30
0.0
  3
CDWK_PTTYP11
  1

  4
Cadwork node
  0
CIRCLE
  5
548
100
AcDbEntity
  8
0
 62
     0
370
    -2
100
AcDbCircle
 10
0.0
 20
0.0
 30
0.0
 40
0.5
  0
CIRCLE
  5
549
100
AcDbEntity
  8
0
 62
     0
370
    -2
100
AcDbCircle
 10
0.0
 20
0.0
 30
0.0
 40
0.25
  0
ENDBLK
  5
54A
100
AcDbEntity
100
AcDbBlockEnd
  0
BLOCK
  5
54B
100
AcDbEntity
  8
0
100
AcDbBlockBegin
  2
CDWK_PTTYP12
 70
     0
 10
0.0
 20
0.0
 30
0.0
  3
CDWK_PTTYP12
  1

  4
Cadwork node
  0
CIRCLE
  5
54C
100
AcDbEntity
  8
0
 62
     0
370
    -2
100
AcDbCircle
 10
0.0
 20
0.0
 30
0.0
 40
0.5
  0
CIRCLE
  5
54D
100
AcDbEntity
  8
0
 62
     0
370
    -2
100
AcDbCircle
 10
0.25
 20
0.0
 30
0.0
 40
0.25
  0
ENDBLK
  5
54E
100
AcDbEntity
100
AcDbBlockEnd
  0
BLOCK
  5
54F
100
AcDbEntity
  8
0
100
AcDbBlockBegin
  2
CDWK_PTTYP13
 70
     0
 10
0.0
 20
0.0
 30
0.0
  3
CDWK_PTTYP13
  1

  4
Cadwork node
  0
CIRCLE
  5
550
100
AcDbEntity
  8
0
 62
     0
370
    -2
100
AcDbCircle
 10
0.0
 20
0.0
 30
0.0
 40
0.5
  0
CIRCLE
  5
551
100
AcDbEntity
  8
0
 62
     0
370
    -2
100
AcDbCircle
 10
0.25
 20
0.0
 30
0.0
 40
0.25
  0
CIRCLE
  5
552
100
AcDbEntity
  8
0
 62
     0
370
    -2
100
AcDbCircle
 10
-0.25
 20
0.0
 30
0.0
 40
0.25
  0
ENDBLK
  5
553
100
AcDbEntity
100
AcDbBlockEnd
  0
BLOCK
  5
554
100
AcDbEntity
  8
0
100
AcDbBlockBegin
  2
CDWK_PTTYP14
 70
     0
 10
0.0
 20
0.0
 30
0.0
  3
CDWK_PTTYP14
  1

  4
Cadwork node
  0
POINT
  5
555
100
AcDbEntity
  8
0
 62
     0
100
AcDbPoint
 10
0.0
 20
0.0
 30
0.0
  0
ENDBLK
  5
556
100
AcDbEntity
100
AcDbBlockEnd
  0
BLOCK
  5
557
100
AcDbEntity
  8
0
100
AcDbBlockBegin
  2
CDWK_PTTYP15
 70
     0
 10
0.0
 20
0.0
 30
0.0
  3
CDWK_PTTYP15
  1

  4
Cadwork node
  0
POINT
  5
558
100
AcDbEntity
  8
0
 62
     0
100
AcDbPoint
 10
0.0
 20
0.0
 30
0.0
  0
ENDBLK
  5
559
100
AcDbEntity
100
AcDbBlockEnd
  0
BLOCK
  5
55A
100
AcDbEntity
  8
0
100
AcDbBlockBegin
  2
CDWK_PTTYP16
 70
     0
 10
0.0
 20
0.0
 30
0.0
  3
CDWK_PTTYP16
  1

  4
Cadwork node
  0
LINE
  5
55B
100
AcDbEntity
  8
0
 62
     0
370
    -2
100
AcDbLine
 10
-0.5
 20
-0.28867513
 30
0.0
 11
0.5
 21
-0.28867513
 31
0.0
  0
LINE
  5
55C
100
AcDbEntity
  8
0
 62
     0
370
    -2
100
AcDbLine
 10
0.5
 20
-0.28867513
 30
0.0
 11
0.0
 21
0.57735027
 31
0.0
  0
LINE
  5
55D
100
AcDbEntity
  8
0
 62
     0
370
    -2
100
AcDbLine
 10
0.0
 20
0.57735027
 30
0.0
 11
-0.5
 21
-0.28867513
 31
0.0
  0
CIRCLE
  5
55E
100
AcDbEntity
  8
0
 62
     0
370
    -2
100
AcDbCircle
 10
0.0
 20
0.0
 30
0.0
 40
0.28867513
  0
ENDBLK
  5
55F
100
AcDbEntity
100
AcDbBlockEnd
  0
BLOCK
  5
560
100
AcDbEntity
  8
0
100
AcDbBlockBegin
  2
CDWK_PTTYP17
 70
     0
 10
0.0
 20
0.0
 30
0.0
  3
CDWK_PTTYP17
  1

  4
Cadwork node
  0
CIRCLE
  5
561
100
AcDbEntity
  8
0
 62
     0
370
    -2
100
AcDbCircle
 10
0.0
 20
0.0
 30
0.0
 40
0.5
  0
HATCH
  5
562
100
AcDbEntity
  8
0
 62
     0
370
    -2
100
AcDbHatch
 10
0.0
 20
0.0
 30
0.0
210
0.0
220
0.0
230
1.0
  2
SOLID
 70
     1
 71
     0
 91
        1
 92
        1
 93
        1
 72
     2
 10
0.0
 20
0.0
 40
0.25
 50
0.0
 51
360.0
 73
     1
 97
        0
 75
     0
 76
     1
 98
        1
 10
0.0
 20
0.0
  0
ENDBLK
  5
563
100
AcDbEntity
100
AcDbBlockEnd
  0
BLOCK
  5
564
100
AcDbEntity
  8
0
100
AcDbBlockBegin
  2
CDWK_PTTYP18
 70
     0
 10
0.0
 20
0.0
 30
0.0
  3
CDWK_PTTYP18
  1

  4
Cadwork node
  0
CIRCLE
  5
565
100
AcDbEntity
  8
0
 62
     0
370
    -2
100
AcDbCircle
 10
0.0
 20
0.0
 30
0.0
 40
0.5
  0
CIRCLE
  5
566
100
AcDbEntity
  8
0
 62
     0
370
    -2
100
AcDbCircle
 10
0.0
 20
0.0
 30
0.0
 40
0.2
  0
ENDBLK
  5
567
100
AcDbEntity
100
AcDbBlockEnd
  0
BLOCK
  5
568
100
AcDbEntity
  8
0
100
AcDbBlockBegin
  2
CDWK_PTTYP19
 70
     0
 10
0.0
 20
0.0
 30
0.0
  3
CDWK_PTTYP19
  1

  4
Cadwork node
  0
CIRCLE
  5
569
100
AcDbEntity
  8
0
 62
     0
370
    -2
100
AcDbCircle
 10
0.0
 20
0.0
 30
0.0
 40
0.4
  0
CIRCLE
  5
56A
100
AcDbEntity
  8
0
 62
     0
370
    -2
100
AcDbCircle
 10
0.0
 20
0.0
 30
0.0
 40
0.25
  0
LINE
  5
56B
100
AcDbEntity
  8
0
 62
     0
370
    -2
100
AcDbLine
 10
-0.25
 20
0.0
 30
0.0
 11
0.25
 21
0.0
 31
0.0
  0
ENDBLK
  5
56C
100
AcDbEntity
100
AcDbBlockEnd
  0
BLOCK
  5
56D
100
AcDbEntity
  8
0
100
AcDbBlockBegin
  2
CDWK_PTTYP20
 70
     0
 10
0.0
 20
0.0
 30
0.0
  3
CDWK_PTTYP20
  1

  4
Cadwork node
  0
CIRCLE
  5
56E
100
AcDbEntity
  8
0
 62
     0
370
    -2
100
AcDbCircle
 10
0.0
 20
0.0
 30
0.0
 40
0.5
  0
CIRCLE
  5
56F
100
AcDbEntity
  8
0
 62
     0
370
    -2
100
AcDbCircle
 10
0.0
 20
0.0
 30
0.0
 40
0.3
  0
ENDBLK
  5
570
100
AcDbEntity
100
AcDbBlockEnd
  0
BLOCK
  5
571
100
AcDbEntity
  8
0
100
AcDbBlockBegin
  2
CDWK_PTTYP21
 70
     0
 10
0.0
 20
0.0
 30
0.0
  3
CDWK_PTTYP21
  1

  4
Cadwork node
  0
CIRCLE
  5
572
100
AcDbEntity
  8
0
 62
     0
370
    -2
100
AcDbCircle
 10
0.0
 20
0.0
 30
0.0
 40
0.5
  0
LINE
  5
573
100
AcDbEntity
  8
0
 62
     0
370
    -2
100
AcDbLine
 10
-0.5
 20
0.0
 30
0.0
 11
0.5
 21
0.0
 31
0.0
  0
ENDBLK
  5
574
100
AcDbEntity
100
AcDbBlockEnd
  0
BLOCK
  5
575
100
AcDbEntity
  8
0
100
AcDbBlockBegin
  2
CDWK_PTTYP22
 70
     0
 10
0.0
 20
0.0
 30
0.0
  3
CDWK_PTTYP22
  1

  4
Cadwork node
  0
POINT
  5
576
100
AcDbEntity
  8
0
 62
     0
100
AcDbPoint
 10
0.0
 20
0.0
 30
0.0
  0
ENDBLK
  5
577
100
AcDbEntity
100
AcDbBlockEnd
  0
BLOCK
  5
578
100
AcDbEntity
  8
0
100
AcDbBlockBegin
  2
CDWK_PTTYP23
 70
     0
 10
0.0
 20
0.0
 30
0.0
  3
CDWK_PTTYP23
  1

  4
Cadwork node
  0
POINT
  5
579
100
AcDbEntity
  8
0
 62
     0
100
AcDbPoint
 10
0.0
 20
0.0
 30
0.0
  0
ENDBLK
  5
57A
100
AcDbEntity
100
AcDbBlockEnd
  0
BLOCK
  5
57B
100
AcDbEntity
  8
0
100
AcDbBlockBegin
  2
CDWK_PTTYP24
 70
     0
 10
0.0
 20
0.0
 30
0.0
  3
CDWK_PTTYP24
  1

  4
Cadwork node
  0
POINT
  5
57C
100
AcDbEntity
  8
0
 62
     0
100
AcDbPoint
 10
0.0
 20
0.0
 30
0.0
  0
ENDBLK
  5
57D
100
AcDbEntity
100
AcDbBlockEnd
  0
BLOCK
  5
57E
100
AcDbEntity
  8
0
100
AcDbBlockBegin
  2
CDWK_PTTYP25
 70
     0
 10
0.0
 20
0.0
 30
0.0
  3
CDWK_PTTYP25
  1

  4
Cadwork node
  0
LINE
  5
57F
100
AcDbEntity
  8
0
 62
     0
370
    -2
100
AcDbLine
 10
-0.43290044
 20
-0.25
 30
0.0
 11
0.43290044
 21
-0.25
 31
0.0
  0
LINE
  5
580
100
AcDbEntity
  8
0
 62
     0
370
    -2
100
AcDbLine
 10
-0.43290044
 20
-0.25
 30
0.0
 11
0.0
 21
0.5
 31
0.0
  0
LINE
  5
581
100
AcDbEntity
  8
0
 62
     0
370
    -2
100
AcDbLine
 10
0.43290044
 20
-0.25
 30
0.0
 11
0.0
 21
0.5
 31
0.0
  0
CIRCLE
  5
582
100
AcDbEntity
  8
0
 62
     0
370
    -2
100
AcDbCircle
 10
0.0
 20
0.0
 30
0.0
 40
0.5
  0
ENDBLK
  5
583
100
AcDbEntity
100
AcDbBlockEnd
  0
BLOCK
  5
584
100
AcDbEntity
  8
0
100
AcDbBlockBegin
  2
CDWK_PTTYP26
 70
     0
 10
0.0
 20
0.0
 30
0.0
  3
CDWK_PTTYP26
  1

  4
Cadwork node
  0
LINE
  5
585
100
AcDbEntity
  8
0
 62
     0
370
    -2
100
AcDbLine
 10
-0.5
 20
-0.28850001
 30
0.0
 11
0.5
 21
-0.28850001
 31
0.0
  0
LINE
  5
586
100
AcDbEntity
  8
0
 62
     0
370
    -2
100
AcDbLine
 10
-0.5
 20
-0.28850001
 30
0.0
 11
0.0
 21
0.57736721
 31
0.0
  0
LINE
  5
587
100
AcDbEntity
  8
0
 62
     0
370
    -2
100
AcDbLine
 10
0.5
 20
-0.28850001
 30
0.0
 11
0.0
 21
0.57736721
 31
0.0
  0
CIRCLE
  5
588
100
AcDbEntity
  8
0
 62
     0
370
    -2
100
AcDbCircle
 10
0.0
 20
0.0
 30
0.0
 40
0.1312336
  0
ENDBLK
  5
589
100
AcDbEntity
100
AcDbBlockEnd
  0
BLOCK
  5
58A
100
AcDbEntity
  8
0
100
AcDbBlockBegin
  2
CDWK_PTTYP27
 70
     0
 10
0.0
 20
0.0
 30
0.0
  3
CDWK_PTTYP27
  1

  4
Cadwork node
  0
LINE
  5
58B
100
AcDbEntity
  8
0
 62
     0
370
    -2
100
AcDbLine
 10
-0.43290044
 20
-0.25
 30
0.0
 11
0.43290044
 21
-0.25
 31
0.0
  0
LINE
  5
58C
100
AcDbEntity
  8
0
 62
     0
370
    -2
100
AcDbLine
 10
-0.43290044
 20
-0.25
 30
0.0
 11
0.0
 21
0.5
 31
0.0
  0
LINE
  5
58D
100
AcDbEntity
  8
0
 62
     0
370
    -2
100
AcDbLine
 10
0.43290044
 20
-0.25
 30
0.0
 11
0.0
 21
0.5
 31
0.0
  0
CIRCLE
  5
58E
100
AcDbEntity
  8
0
 62
     0
370
    -2
100
AcDbCircle
 10
0.0
 20
0.0
 30
0.0
 40
0.5
  0
CIRCLE
  5
58F
100
AcDbEntity
  8
0
 62
     0
370
    -2
100
AcDbCircle
 10
0.0
 20
0.0
 30
0.0
 40
0.1312336
  0
ENDBLK
  5
590
100
AcDbEntity
100
AcDbBlockEnd
  0
BLOCK
  5
591
100
AcDbEntity
  8
0
100
AcDbBlockBegin
  2
CDWK_PTTYP28
 70
     0
 10
0.0
 20
0.0
 30
0.0
  3
CDWK_PTTYP28
  1

  4
Cadwork node
  0
POINT
  5
592
100
AcDbEntity
  8
0
 62
     0
100
AcDbPoint
 10
0.0
 20
0.0
 30
0.0
  0
ENDBLK
  5
593
100
AcDbEntity
100
AcDbBlockEnd
  0
BLOCK
  5
594
100
AcDbEntity
  8
0
100
AcDbBlockBegin
  2
CDWK_PTTYP29
 70
     0
 10
0.0
 20
0.0
 30
0.0
  3
CDWK_PTTYP29
  1

  4
Cadwork node
  0
CIRCLE
  5
595
100
AcDbEntity
  8
0
 62
     0
370
    -2
100
AcDbCircle
 10
0.0
 20
0.0
 30
0.0
 40
0.5
  0
CIRCLE
  5
596
100
AcDbEntity
  8
0
 62
     0
370
    -2
100
AcDbCircle
 10
0.0
 20
0.0
 30
0.0
 40
0.375
  0
CIRCLE
  5
597
100
AcDbEntity
  8
0
 62
     0
370
    -2
100
AcDbCircle
 10
0.0
 20
0.0
 30
0.0
 40
0.21875
  0
ENDBLK
  5
598
100
AcDbEntity
100
AcDbBlockEnd
  0
BLOCK
  5
599
100
AcDbEntity
  8
0
100
AcDbBlockBegin
  2
CDWK_PTTYP30
 70
     0
 10
0.0
 20
0.0
 30
0.0
  3
CDWK_PTTYP30
  1

  4
Cadwork node
  0
LINE
  5
59A
100
AcDbEntity
  8
0
 62
     0
370
    -2
100
AcDbLine
 10
0.17680339
 20
0.17680339
 30
0.0
 11
0.5
 21
0.5
 31
0.0
  0
LINE
  5
59B
100
AcDbEntity
  8
0
 62
     0
370
    -2
100
AcDbLine
 10
-0.17680339
 20
0.17680339
 30
0.0
 11
-0.5
 21
0.5
 31
0.0
  0
LINE
  5
59C
100
AcDbEntity
  8
0
 62
     0
370
    -2
100
AcDbLine
 10
0.17680339
 20
-0.17680339
 30
0.0
 11
0.5
 21
-0.5
 31
0.0
  0
LINE
  5
59D
100
AcDbEntity
  8
0
 62
     0
370
    -2
100
AcDbLine
 10
-0.17680339
 20
-0.17680339
 30
0.0
 11
-0.5
 21
-0.5
 31
0.0
  0
ENDBLK
  5
59E
100
AcDbEntity
100
AcDbBlockEnd
  0
BLOCK
  5
59F
100
AcDbEntity
  8
0
100
AcDbBlockBegin
  2
CDWK_PTTYP31
 70
     0
 10
0.0
 20
0.0
 30
0.0
  3
CDWK_PTTYP31
  1

  4
Cadwork node
  0
CIRCLE
  5
5A0
100
AcDbEntity
  8
0
 62
     0
370
    -2
100
AcDbCircle
 10
0.0
 20
0.0
 30
0.0
 40
0.075
  0
LINE
  5
5A1
100
AcDbEntity
  8
0
 62
     0
370
    -2
100
AcDbLine
 10
0.075
 20
0.0
 30
0.0
 11
0.5
 21
0.0
 31
0.0
  0
LINE
  5
5A2
100
AcDbEntity
  8
0
 62
     0
370
    -2
100
AcDbLine
 10
-0.075
 20
0.0
 30
0.0
 11
-0.5
 21
0.0
 31
0.0
  0
LINE
  5
5A3
100
AcDbEntity
  8
0
 62
     0
370
    -2
100
AcDbLine
 10
0.0
 20
0.075
 30
0.0
 11
0.0
 21
0.5
 31
0.0
  0
LINE
  5
5A4
100
AcDbEntity
  8
0
 62
     0
370
    -2
100
AcDbLine
 10
0.0
 20
-0.075
 30
0.0
 11
0.0
 21
-0.5
 31
0.0
  0
ENDBLK
  5
5A5
100
AcDbEntity
100
AcDbBlockEnd
  0
BLOCK
  5
5A6
100
AcDbEntity
  8
0
100
AcDbBlockBegin
  2
CDWK_PTTYP32
 70
     0
 10
0.0
 20
0.0
 30
0.0
  3
CDWK_PTTYP32
  1

  4
Cadwork node
  0
CIRCLE
  5
5A7
100
AcDbEntity
  8
0
 62
     0
370
    -2
100
AcDbCircle
 10
0.0
 20
0.0
 30
0.0
 40
0.5
  0
CIRCLE
  5
5A8
100
AcDbEntity
  8
0
 62
     0
370
    -2
100
AcDbCircle
 10
0.0
 20
0.0
 30
0.0
 40
0.16666667
  0
LINE
  5
5A9
100
AcDbEntity
  8
0
 62
     0
370
    -2
100
AcDbLine
 10
0.11786893
 20
0.11786893
 30
0.0
 11
0.35360678
 21
0.35360678
 31
0.0
  0
LINE
  5
5AA
100
AcDbEntity
  8
0
 62
     0
370
    -2
100
AcDbLine
 10
-0.11786893
 20
0.11786893
 30
0.0
 11
-0.35360678
 21
0.35360678
 31
0.0
  0
LINE
  5
5AB
100
AcDbEntity
  8
0
 62
     0
370
    -2
100
AcDbLine
 10
0.11786893
 20
-0.11786893
 30
0.0
 11
0.35360678
 21
-0.35360678
 31
0.0
  0
LINE
  5
5AC
100
AcDbEntity
  8
0
 62
     0
370
    -2
100
AcDbLine
 10
-0.11786893
 20
-0.11786893
 30
0.0
 11
-0.35360678
 21
-0.35360678
 31
0.0
  0
ENDBLK
  5
5AD
100
AcDbEntity
100
AcDbBlockEnd
  0
BLOCK
  5
5AE
100
AcDbEntity
  8
0
100
AcDbBlockBegin
  2
CDWK_PTTYP33
 70
     0
 10
0.0
 20
0.0
 30
0.0
  3
CDWK_PTTYP33
  1

  4
Cadwork node
  0
CIRCLE
  5
5AF
100
AcDbEntity
  8
0
 62
     0
370
    -2
100
AcDbCircle
 10
0.0
 20
0.0
 30
0.0
 40
0.5
  0
LINE
  5
5B0
100
AcDbEntity
  8
0
 62
     0
370
    -2
100
AcDbLine
 10
0.0
 20
0.5
 30
0.0
 11
0.0
 21
-0.5
 31
0.0
  0
LINE
  5
5B1
100
AcDbEntity
  8
0
 62
     0
370
    -2
100
AcDbLine
 10
-0.5
 20
0.0
 30
0.0
 11
0.5
 21
0.0
 31
0.0
  0
ENDBLK
  5
5B2
100
AcDbEntity
100
AcDbBlockEnd
  0
BLOCK
  5
5B3
100
AcDbEntity
  8
0
100
AcDbBlockBegin
  2
CDWK_PTTYP34
 70
     0
 10
0.0
 20
0.0
 30
0.0
  3
CDWK_PTTYP34
  1

  4
Cadwork node
  0
CIRCLE
  5
5B4
100
AcDbEntity
  8
0
 62
     0
370
    -2
100
AcDbCircle
 10
0.0
 20
0.0
 30
0.0
 40
0.5
  0
LINE
  5
5B5
100
AcDbEntity
  8
0
 62
     0
370
    -2
100
AcDbLine
 10
-0.30360678
 20
-0.40360678
 30
0.0
 11
0.40360678
 21
0.30360678
 31
0.0
  0
LINE
  5
5B6
100
AcDbEntity
  8
0
 62
     0
370
    -2
100
AcDbLine
 10
-0.40360678
 20
-0.30360678
 30
0.0
 11
0.30360678
 21
0.40360678
 31
0.0
  0
ENDBLK
  5
5B7
100
AcDbEntity
100
AcDbBlockEnd
  0
BLOCK
  5
5B8
100
AcDbEntity
  8
0
100
AcDbBlockBegin
  2
CDWK_PTTYP35
 70
     0
 10
0.0
 20
0.0
 30
0.0
  3
CDWK_PTTYP35
  1

  4
Cadwork node
  0
CIRCLE
  5
5B9
100
AcDbEntity
  8
0
 62
     0
370
    -2
100
AcDbCircle
 10
0.0
 20
0.0
 30
0.0
 40
0.21431634
  0
LINE
  5
5BA
100
AcDbEntity
  8
0
 62
     0
370
    -2
100
AcDbLine
 10
0.0
 20
0.21431634
 30
0.0
 11
0.0
 21
0.5
 31
0.0
  0
LINE
  5
5BB
100
AcDbEntity
  8
0
 62
     0
370
    -2
100
AcDbLine
 10
0.0
 20
-0.21431634
 30
0.0
 11
0.0
 21
-0.5
 31
0.0
  0
ENDBLK
  5
5BC
100
AcDbEntity
100
AcDbBlockEnd
  0
BLOCK
  5
5BD
100
AcDbEntity
  8
0
100
AcDbBlockBegin
  2
CDWK_PTTYP36
 70
     0
 10
0.0
 20
0.0
 30
0.0
  3
CDWK_PTTYP36
  1

  4
Cadwork node
  0
LINE
  5
5BE
100
AcDbEntity
  8
0
 62
     0
370
    -2
100
AcDbLine
 10
-0.5
 20
-0.16666667
 30
0.0
 11
0.5
 21
-0.16666667
 31
0.0
  0
LINE
  5
5BF
100
AcDbEntity
  8
0
 62
     0
370
    -2
100
AcDbLine
 10
0.5
 20
-0.16666667
 30
0.0
 11
0.5
 21
0.16666667
 31
0.0
  0
LINE
  5
5C0
100
AcDbEntity
  8
0
 62
     0
370
    -2
100
AcDbLine
 10
0.5
 20
0.16666667
 30
0.0
 11
-0.5
 21
0.16666667
 31
0.0
  0
LINE
  5
5C1
100
AcDbEntity
  8
0
 62
     0
370
    -2
100
AcDbLine
 10
-0.5
 20
0.16666667
 30
0.0
 11
-0.5
 21
-0.16666667
 31
0.0
  0
SOLID
  5
5C2
100
AcDbEntity
  8
0
 62
     0
100
AcDbTrace
 10
-0.5
 20
-0.16666667
 11
0.5
 21
0.16666667
 12
0.5
 22
-0.16666667
 13
0.5
 23
-0.16666667
  0
ENDBLK
  5
5C3
100
AcDbEntity
100
AcDbBlockEnd
  0
BLOCK
  5
5C4
100
AcDbEntity
  8
0
100
AcDbBlockBegin
  2
CDWK_PTTYP37
 70
     0
 10
0.0
 20
0.0
 30
0.0
  3
CDWK_PTTYP37
  1

  4
Cadwork node
  0
CIRCLE
  5
5C5
100
AcDbEntity
  8
0
 62
     0
370
    -2
100
AcDbCircle
 10
0.0
 20
0.0
 30
0.0
 40
0.5
  0
SOLID
  5
5C6
100
AcDbEntity
  8
0
 62
     0
100
AcDbTrace
 10
0.0
 20
0.0
 11
0.35350001
 21
0.35350001
 12
0.5
 22
0.0
 13
0.46200001
 23
0.19149999
  0
SOLID
  5
5C7
100
AcDbEntity
  8
0
 62
     0
100
AcDbTrace
 10
0.0
 20
0.0
 11
0.35350001
 21
-0.35350001
 12
0.5
 22
0.0
 13
0.46200001
 23
-0.19149999
  0
SOLID
  5
5C8
100
AcDbEntity
  8
0
 62
     0
100
AcDbTrace
 10
0.0
 20
0.0
 11
0.0
 21
-0.5
 12
0.35350001
 22
-0.35350001
 13
0.19149999
 23
-0.46200001
  0
SOLID
  5
5C9
100
AcDbEntity
  8
0
 62
     0
100
AcDbTrace
 10
0.0
 20
0.0
 11
0.0
 21
-0.5
 12
-0.35350001
 22
-0.35350001
 13
-0.19149999
 23
-0.46200001
  0
ENDBLK
  5
5CA
100
AcDbEntity
100
AcDbBlockEnd
  0
BLOCK
  5
5CB
100
AcDbEntity
  8
0
100
AcDbBlockBegin
  2
CDWK_PTTYP38
 70
     0
 10
0.0
 20
0.0
 30
0.0
  3
CDWK_PTTYP38
  1

  4
Cadwork node
  0
CIRCLE
  5
5CC
100
AcDbEntity
  8
0
 62
     0
370
    -2
100
AcDbCircle
 10
0.0
 20
0.0
 30
0.0
 40
0.5
  0
SOLID
  5
5CD
100
AcDbEntity
  8
0
 62
     0
100
AcDbTrace
 10
0.0
 20
0.0
 11
0.35350001
 21
0.35350001
 12
0.0
 22
0.5
 13
0.19149999
 23
0.46200001
  0
SOLID
  5
5CE
100
AcDbEntity
  8
0
 62
     0
100
AcDbTrace
 10
0.0
 20
0.0
 11
0.5
 21
0.0
 12
0.35350001
 22
0.35350001
 13
0.46200001
 23
0.19149999
  0
SOLID
  5
5CF
100
AcDbEntity
  8
0
 62
     0
100
AcDbTrace
 10
0.0
 20
0.0
 11
0.0
 21
-0.5
 12
-0.35350001
 22
-0.35350001
 13
-0.19149999
 23
-0.46200001
  0
SOLID
  5
5D0
100
AcDbEntity
  8
0
 62
     0
100
AcDbTrace
 10
0.0
 20
0.0
 11
-0.5
 21
0.0
 12
-0.35350001
 22
-0.35350001
 13
-0.46200001
 23
-0.19149999
  0
ENDBLK
  5
5D1
100
AcDbEntity
100
AcDbBlockEnd
  0
BLOCK
  5
5D2
100
AcDbEntity
  8
Ech.1_5
100
AcDbBlockBegin
  2
*D17
 70
     1
 10
0.0
 20
0.0
 30
0.0
  3
*D17
  1

  4
Cadwork dimension
  0
TEXT
  5
5D3
100
AcDbEntity
  8
Ech.1_5
 62
   190
370
    18
100
AcDbText
 10
39643.72349404
 20
-13665.08988262
 30
0.0
 40
25.0
  1
1/3 *
  7
ARIAL
 50
89.9999975
 41
1.0
 51
0.0
100
AcDbText
  0
LINE
  5
5D4
100
AcDbEntity
  8
Ech.1_5
 62
   190
370
    -2
100
AcDbLine
 10
39648.6946565
 20
-13731.83474837
 30
0.0
 11
39655.61373788
 21
-13731.83474837
 31
0.0
  0
LINE
  5
5D5
100
AcDbEntity
  8
Ech.1_5
 62
   190
370
    -2
100
AcDbLine
 10
39648.6946565
 20
-13569.83474197
 30
0.0
 11
39652.91917786
 21
-13569.83474197
 31
0.0
  0
LINE
  5
5D6
100
AcDbEntity
  8
Ech.1_5
 62
   190
370
    -2
100
AcDbLine
 10
39653.6946565
 20
-13736.83474837
 30
0.0
 11
39653.6946565
 21
-13564.83474197
 31
0.0
  0
LINE
  5
5D7
100
AcDbEntity
  8
Ech.1_5
 62
   190
370
    -2
100
AcDbLine
 10
39656.1946565
 20
-13734.33474837
 30
0.0
 11
39651.1946565
 21
-13729.33474837
 31
0.0
  0
LINE
  5
5D8
100
AcDbEntity
  8
Ech.1_5
 62
   190
370
    -2
100
AcDbLine
 10
39656.1946565
 20
-13572.33474197
 30
0.0
 11
39651.1946565
 21
-13567.33474197
 31
0.0
  0
ENDBLK
  5
5D9
100
AcDbEntity
100
AcDbBlockEnd
  0
BLOCK
  5
5DA
100
AcDbEntity
  8
Ech.1_5
100
AcDbBlockBegin
  2
*D18
 70
     1
 10
0.0
 20
0.0
 30
0.0
  3
*D18
  1

  4
Cadwork dimension
  0
TEXT
  5
5DB
100
AcDbEntity
  8
Ech.1_5
 62
   190
370
    18
100
AcDbText
 10
39643.72349404
 20
-13484.08986907
 30
0.0
 40
25.0
  1
2/3 *
  7
ARIAL
 50
89.9999975
 41
1.0
 51
0.0
100
AcDbText
  0
LINE
  5
5DC
100
AcDbEntity
  8
Ech.1_5
 62
   190
370
    -2
100
AcDbLine
 10
39658.6946565
 20
-13569.83474197
 30
0.0
 11
39652.91917786
 21
-13569.83474197
 31
0.0
  0
LINE
  5
5DD
100
AcDbEntity
  8
Ech.1_5
 62
   190
370
    -2
100
AcDbLine
 10
39658.6946565
 20
-13369.83472128
 30
0.0
 11
39629.48403332
 21
-13369.83472128
 31
0.0
  0
LINE
  5
5DE
100
AcDbEntity
  8
Ech.1_5
 62
   190
370
    -2
100
AcDbLine
 10
39653.6946565
 20
-13574.83474197
 30
0.0
 11
39653.6946565
 21
-13364.83472128
 31
0.0
  0
LINE
  5
5DF
100
AcDbEntity
  8
Ech.1_5
 62
   190
370
    -2
100
AcDbLine
 10
39656.1946565
 20
-13572.33474197
 30
0.0
 11
39651.1946565
 21
-13567.33474197
 31
0.0
  0
LINE
  5
5E0
100
AcDbEntity
  8
Ech.1_5
 62
   190
370
    -2
100
AcDbLine
 10
39656.1946565
 20
-13372.33472128
 30
0.0
 11
39651.1946565
 21
-13367.33472128
 31
0.0
  0
ENDBLK
  5
5E1
100
AcDbEntity
100
AcDbBlockEnd
  0
ENDSEC
  0
SECTION
  2
ENTITIES
  0
LWPOLYLINE
  5
5E2
102
{ACAD_REACTORS
330
5E3
102
}
100
AcDbEntity
  8
Ech.1_5
 62
   190
  6
CONTINUOUS
370
    -3
100
AcDbPolyline
 90
        4
 70
     1
 43
0.0
 10
38818.41649766
 20
-13596.83474837
 10
38818.41649766
 20
-13606.83474837
 10
39016.37250045
 20
-13606.83474837
 10
39016.37250045
 20
-13596.83474837
  0
HATCH
  5
5E3
100
AcDbEntity
  8
Ech.1_5
 62
    15
  6
CONTINUOUS
100
AcDbHatch
 10
0.0
 20
0.0
 30
0.0
210
0.0
220
0.0
230
1.0
  2
SOLID
 70
     1
 71
     1
 91
        1
 92
        7
 72
     0
 73
     1
 93
        4
 10
38818.41649766
 20
-13596.83474837
 10
38818.41649766
 20
-13606.83474837
 10
39016.37250045
 20
-13606.83474837
 10
39016.37250045
 20
-13596.83474837
 97
        1
330
5E2
 75
     0
 76
     2
 47
0.775229
 98
        1
 10
0.0
 20
0.0
  0
LWPOLYLINE
  5
5E4
100
AcDbEntity
  8
Ech.1_5
 62
     9
100
AcDbPolyline
 90
       16
 70
     0
 43
0.0
 10
38996.37250045
 20
-13621.83474837
 10
38996.37250045
 20
-13684.0759376
 10
38997.33282284
 20
-13685.70580611
 10
39002.0689437
 20
-13688.67715583
 10
39002.48094507
 20
-13688.91812549
 10
39002.79476256
 20
-13688.91812549
 10
39003.24588333
 20
-13688.63606296
 10
39003.37250045
 20
-13688.30158935
 10
39003.37250045
 20
-13660.91812549
 10
39010.37250045
 20
-13660.91812549
 10
39010.37250045
 20
-13669.91812549
 10
39016.37250045
 20
-13669.91812549
 10
39016.37250045
 20
-13642.91812549
 10
39012.37250045
 20
-13638.91812549
 10
39016.37250045
 20
-13634.91812549
 10
39016.37250045
 20
-13621.83474837
  0
LWPOLYLINE
  5
5E5
100
AcDbEntity
  8
Ech.1_5
 62
   190
  6
CONTINUOUS
370
    -3
100
AcDbPolyline
 90
        4
 70
     1
 43
0.0
 10
39554.45477222
 20
-13629.83474837
 10
39554.45477222
 20
-13569.83474837
 10
39512.45477222
 20
-13569.83474837
 10
39512.45477222
 20
-13629.83474837
  0
LWPOLYLINE
  5
5E6
100
AcDbEntity
  8
Ech.1_5
 62
   190
  6
CONTINUOUS
370
    -3
100
AcDbPolyline
 90
        4
 70
     0
 43
0.0
 10
39512.45477222
 20
-13629.83474837
 10
39554.45477222
 20
-13569.83474837
 10
39554.45477222
 20
-13629.83474837
 10
39512.45477222
 20
-13569.83474837
  0
LWPOLYLINE
  5
5E7
100
AcDbEntity
  8
Ech.1_5
 62
     5
  6
CONTINUOUS
370
    -3
100
AcDbPolyline
 90
        5
 70
     0
 43
0.0
 10
39554.45477222
 20
-13629.83474837
 10
39554.45477222
 20
-13569.83474837
 10
39512.45477222
 20
-13569.83474837
 10
39512.45477222
 20
-13629.83474837
 10
39554.45477222
 20
-13629.83474837
  0
LWPOLYLINE
  5
5E8
102
{ACAD_REACTORS
330
5E9
102
}
100
AcDbEntity
  8
Ech.1_5
 62
   190
  6
CONTINUOUS
370
    -3
100
AcDbPolyline
 90
        4
 70
     1
 43
0.0
 10
38818.41649766
 20
-13596.83474837
 10
38759.65393071
 20
-13596.83474837
 10
38759.65393071
 20
-13606.83475739
 10
38818.41649766
 20
-13606.83475557
  0
HATCH
  5
5E9
100
AcDbEntity
  8
Ech.1_5
 62
   190
  6
CONTINUOUS
100
AcDbHatch
 10
0.0
 20
0.0
 30
0.0
210
0.0
220
0.0
230
1.0
  2
ANSI37
 70
     0
 71
     1
 91
        1
 92
        7
 72
     0
 73
     1
 93
        4
 10
38818.41649766
 20
-13596.83474837
 10
38759.65393071
 20
-13596.83474837
 10
38759.65393071
 20
-13606.83475739
 10
38818.41649766
 20
-13606.83475557
 97
        1
330
5E8
 75
     0
 76
     2
 52
45.0
 41
1.57480317
 77
     0
 78
     2
 53
0.0
 43
0.0
 44
2.5
 45
0.0
 46
5.0
 79
     0
 53
90.0
 43
2.5
 44
0.0
 45
5.0
 46
3.0616169978684E-16
 79
     0
 47
0.775229
 98
        1
 10
0.0
 20
0.0
  0
LWPOLYLINE
  5
5EA
102
{ACAD_REACTORS
330
5EB
102
}
100
AcDbEntity
  8
Ech.1_5
 62
   190
  6
CONTINUOUS
370
    -3
100
AcDbPolyline
 90
        4
 70
     1
 43
0.0
 10
38759.65393071
 20
-13606.83474837
 10
38759.65393071
 20
-13596.83474837
 10
38632.14488906
 20
-13596.83474837
 10
38632.14488906
 20
-13606.83474837
  0
HATCH
  5
5EB
100
AcDbEntity
  8
Ech.1_5
 62
    15
  6
CONTINUOUS
100
AcDbHatch
 10
0.0
 20
0.0
 30
0.0
210
0.0
220
0.0
230
1.0
  2
SOLID
 70
     1
 71
     1
 91
        1
 92
        7
 72
     0
 73
     1
 93
        4
 10
38759.65393071
 20
-13606.83474837
 10
38759.65393071
 20
-13596.83474837
 10
38632.14488906
 20
-13596.83474837
 10
38632.14488906
 20
-13606.83474837
 97
        1
330
5EA
 75
     0
 76
     2
 47
0.775229
 98
        1
 10
0.0
 20
0.0
  0
LWPOLYLINE
  5
5EC
100
AcDbEntity
  8
Ech.1_5
 62
   190
  6
CONTINUOUS
370
    -3
100
AcDbPolyline
 90
        4
 70
     1
 43
0.0
 10
39504.37250045
 20
-13631.83474837
 10
40526.97388044
 20
-13631.83474837
 10
40526.97388044
 20
-13731.83474837
 10
39504.37250045
 20
-13731.83474837
  0
LWPOLYLINE
  5
5ED
100
AcDbEntity
  8
Ech.1_5
 62
   190
  6
CONTINUOUS
370
    -3
100
AcDbPolyline
 90
        4
 70
     1
 43
0.0
 10
40294.29904512
 20
-13569.83474837
 10
40294.29904512
 20
-13469.83474837
 10
38635.37224048
 20
-13469.83474837
 10
38635.37224048
 20
-13569.83474837
  0
LWPOLYLINE
  5
5EE
100
AcDbEntity
  8
Ech.1_5
 62
   190
  6
CONTINUOUS
370
    -3
100
AcDbPolyline
 90
        4
 70
     1
 43
0.0
 10
39376.51867471
 20
-13300.07950708
 10
39276.51867471
 20
-13336.47653051
 10
39276.51867471
 20
-13469.83474837
 10
39376.51867471
 20
-13469.83474837
  0
LWPOLYLINE
  5
5EF
100
AcDbEntity
  8
Ech.1_5
 62
   190
  6
CONTINUOUS
370
    -3
100
AcDbPolyline
 90
        9
 70
     1
 43
0.0
 10
38984.47485952
 20
-13336.35400909
 10
38635.37224048
 20
-13463.41697113
 10
38635.37224048
 20
-13469.83474837
 10
38910.11998242
 20
-13469.83474837
 10
38984.47485952
 20
-13442.77178634
 10
39784.57747856
 20
-13151.55824865
 10
40294.29904512
 20
-12966.03477066
 10
40294.29904512
 20
-12859.61699341
 10
39784.57747856
 20
-13045.1404714
  0
LWPOLYLINE
  5
5F0
100
AcDbEntity
  8
Ech.1_5
 62
   190
  6
CONTINUOUS
370
    -3
100
AcDbPolyline
 90
        4
 70
     1
 43
0.0
 10
39290.57409085
 20
-13469.83474489
 10
39290.57409085
 20
-13569.83474489
 10
40294.29904512
 20
-13569.83474489
 10
40294.29904512
 20
-13469.83474489
  0
LWPOLYLINE
  5
5F1
100
AcDbEntity
  8
Ech.1_5
 62
     7
  6
CONTINUOUS
370
    -3
100
AcDbPolyline
 90
        4
 70
     1
 43
0.0
 10
40294.29904512
 20
-12859.42857452
 10
40294.29904512
 20
-12830.69577466
 10
38641.19326841
 20
-13432.56549037
 10
38650.42781228
 20
-13457.93719113
  0
LWPOLYLINE
  5
5F2
100
AcDbEntity
  8
Ech.1_5
 62
     7
100
AcDbPolyline
 90
       57
 70
     0
 43
0.0
 10
38547.06473279
 20
-13553.01934859
 10
38548.45981995
 20
-13552.81662237
 10
38549.85601451
 20
-13552.61198229
 10
38551.25442389
 20
-13552.40351446
 10
38552.65615548
 20
-13552.18930503
 10
38554.06231669
 20
-13551.96744012
 10
38555.47401492
 20
-13551.73600587
 10
38556.89235758
 20
-13551.4930884
 10
38558.31845208
 20
-13551.23677386
 10
38559.75340581
 20
-13550.96514836
 10
38561.19832619
 20
-13550.67629804
 10
38562.65432062
 20
-13550.36830904
 10
38564.1224965
 20
-13550.03926747
 10
38565.60396124
 20
-13549.68725949
 10
38567.09982224
 20
-13549.3103712
 10
38568.61116747
 20
-13548.90673341
 10
38570.13723119
 20
-13548.47873746
 10
38571.67388799
 20
-13548.03649631
 10
38573.21665806
 20
-13547.59093752
 10
38574.7610616
 20
-13547.15298864
 10
38576.30261881
 20
-13546.73357722
 10
38577.83684986
 20
-13546.34363079
 10
38579.35927497
 20
-13545.99407693
 10
38580.86541432
 20
-13545.69584316
 10
38582.3507881
 20
-13545.45985705
 10
38583.8109165
 20
-13545.29704614
 10
38585.24131973
 20
-13545.21833798
 10
38586.63751796
 20
-13545.23466011
 10
38587.9950314
 20
-13545.35694009
 10
38589.30938024
 20
-13545.59610547
 10
38590.57608467
 20
-13545.96308379
 10
38591.79066575
 20
-13546.46879887
 10
38592.94983991
 20
-13547.11905063
 10
38594.05388834
 20
-13547.90435859
 10
38595.10375382
 20
-13548.81240646
 10
38596.10037911
 20
-13549.83087794
 10
38597.044707
 20
-13550.94745673
 10
38597.93768024
 20
-13552.14982655
 10
38598.78024162
 20
-13553.42567109
 10
38599.5733339
 20
-13554.76267405
 10
38600.31789985
 20
-13556.14851915
 10
38601.01488224
 20
-13557.57089008
 10
38601.66522385
 20
-13559.01747055
 10
38602.26986745
 20
-13560.47594426
 10
38602.82975581
 20
-13561.93399491
 10
38603.34586794
 20
-13563.37957303
 10
38603.82019698
 20
-13564.80809405
 10
38604.25586191
 20
-13566.2232606
 10
38604.65604034
 20
-13567.62920714
 10
38605.02390992
 20
-13569.03006812
 10
38605.36264827
 20
-13570.42997798
 10
38605.67543302
 20
-13571.83307117
 10
38605.9654418
 20
-13573.24348216
 10
38606.23587089
 20
-13574.66526956
 10
38606.49073479
 20
-13576.09916711
 10
38606.73516796
 20
-13577.54135723
 10
38606.97438578
 20
-13578.98769364
  0
ARC
  5
5F3
100
AcDbEntity
  8
Ech.1_5
 62
     7
100
AcDbCircle
 10
38538.36389796
 20
-13485.79015484
 30
0.0
 40
67.78988877
100
AcDbArc
 50
176.81519387
 51
17.9333216
  0
LINE
  5
5F4
100
AcDbEntity
  8
Ech.1_5
 62
     7
100
AcDbLine
 10
38635.37224048
 20
-13569.83474837
 30
0.0
 11
38719.3034547
 21
-13569.83474837
 31
0.0
  0
LINE
  5
5F5
100
AcDbEntity
  8
Ech.1_5
 62
     7
100
AcDbLine
 10
38649.35550777
 20
-13455.82041289
 30
0.0
 11
38592.09179873
 21
-13463.34944535
 31
0.0
  0
LINE
  5
5F6
100
AcDbEntity
  8
Ech.1_5
 62
     7
100
AcDbLine
 10
38649.83356065
 20
-13457.77477142
 30
0.0
 11
38594.09179873
 21
-13465.10369827
 31
0.0
  0
LINE
  5
5F7
100
AcDbEntity
  8
Ech.1_5
 62
     7
100
AcDbLine
 10
38592.09179873
 20
-13463.34944535
 30
0.0
 11
38592.09179873
 21
-13491.95726495
 31
0.0
  0
LINE
  5
5F8
100
AcDbEntity
  8
Ech.1_5
 62
     7
100
AcDbLine
 10
38594.09179873
 20
-13465.10369827
 30
0.0
 11
38594.09179873
 21
-13486.69616814
 31
0.0
  0
LINE
  5
5F9
100
AcDbEntity
  8
Ech.1_5
 62
     7
100
AcDbLine
 10
38601.5657396
 20
-13464.91697113
 30
0.0
 11
38613.37224048
 21
-13464.91697113
 31
0.0
  0
ARC
  5
5FA
100
AcDbEntity
  8
Ech.1_5
 62
     7
100
AcDbCircle
 10
38610.35271144
 20
-13578.37331618
 30
0.0
 40
3.43373615
100
AcDbArc
 50
190.3070861
 51
331.56661712
  0
LINE
  5
5FB
100
AcDbEntity
  8
Ech.1_5
 62
     7
100
AcDbLine
 10
38700.44438053
 20
-13437.2255839
 30
0.0
 11
38701.12842082
 21
-13439.10496914
 31
0.0
  0
LINE
  5
5FC
100
AcDbEntity
  8
Ech.1_5
 62
     7
100
AcDbLine
 10
38649.35550777
 20
-13455.82041289
 30
0.0
 11
38700.44438053
 21
-13437.2255839
 31
0.0
  0
LINE
  5
5FD
100
AcDbEntity
  8
Ech.1_5
 62
     7
100
AcDbLine
 10
39265.48846098
 20
-13568.23404163
 30
0.0
 11
39307.48846098
 21
-13568.23404163
 31
0.0
  0
LINE
  5
5FE
100
AcDbEntity
  8
Ech.1_5
 62
     7
100
AcDbLine
 10
39160.85156638
 20
-13569.83474837
 30
0.0
 11
39318.05957824
 21
-13569.83474837
 31
0.0
  0
LWPOLYLINE
  5
5FF
100
AcDbEntity
  8
Ech.1_5
100
AcDbPolyline
 90
        5
 70
     0
 43
0.0
 10
40294.29904512
 20
-12859.42857452
 10
40294.29904512
 20
-12830.69577466
 10
38641.19326841
 20
-13432.56549037
 10
38650.42781228
 20
-13457.93719113
 10
40294.29904512
 20
-12859.42857452
  0
LWPOLYLINE
  5
600
102
{ACAD_REACTORS
330
601
102
}
100
AcDbEntity
  8
Ech.1_5
 62
     7
  6
CONTINUOUS
100
AcDbPolyline
 90
        3
 70
     1
 43
0.0
 10
38711.01706566
 20
-13410.0016604
 10
38732.79254118
 20
-13405.17743919
 10
38713.75873068
 20
-13416.80320807
  0
HATCH
  5
601
100
AcDbEntity
  8
Ech.1_5
 62
     7
  6
CONTINUOUS
100
AcDbHatch
 10
0.0
 20
0.0
 30
0.0
210
0.0
220
0.0
230
1.0
  2
SOLID
 70
     1
 71
     1
 91
        1
 92
        7
 72
     0
 73
     1
 93
        3
 10
38711.01706566
 20
-13410.0016604
 10
38732.79254118
 20
-13405.17743919
 10
38713.75873068
 20
-13416.80320807
 97
        1
330
600
 75
     0
 76
     2
 47
0.775229
 98
        1
 10
0.0
 20
0.0
  0
ARC
  5
602
100
AcDbEntity
  8
Ech.1_5
 62
     7
100
AcDbCircle
 10
39080.76562706
 20
-14236.43117695
 30
0.0
 40
901.70863502
100
AcDbArc
 50
114.11271308
 51
118.22750414
  0
ARC
  5
603
100
AcDbEntity
  8
Ech.1_5
 62
     7
100
AcDbCircle
 10
38606.16913233
 20
-13348.33678293
 30
0.0
 40
105.25912681
100
AcDbArc
 50
263.48671375
 51
297.1989192
  0
LINE
  5
604
100
AcDbEntity
  8
Ech.1_5
 62
     0
  6
BYBLOCK
370
    -3
100
AcDbLine
 10
39101.67778651
 20
-13297.04203563
 30
0.0
 11
39092.70583817
 21
-13292.85824035
 31
0.0
  0
LWPOLYLINE
  5
605
102
{ACAD_REACTORS
330
606
102
}
100
AcDbEntity
  8
Ech.1_5
 62
     7
  6
CONTINUOUS
370
    -3
100
AcDbPolyline
 90
        4
 70
     1
 43
0.0
 10
39504.37250045
 20
-13731.83474837
 10
39504.37250045
 20
-13744.83474837
 10
40526.97388044
 20
-13744.83458587
 10
40526.97388044
 20
-13731.83458587
  0
HATCH
  5
606
100
AcDbEntity
  8
Ech.1_5
 62
   190
  6
CONTINUOUS
100
AcDbHatch
 10
0.0
 20
0.0
 30
0.0
210
0.0
220
0.0
230
1.0
  2
DOTS2
 70
     0
 71
     1
 91
        1
 92
        7
 72
     0
 73
     1
 93
        4
 10
39504.37250045
 20
-13731.83474837
 10
39504.37250045
 20
-13744.83474837
 10
40526.97388044
 20
-13744.83458587
 10
40526.97388044
 20
-13731.83458587
 97
        1
330
605
 75
     0
 76
     2
 52
0.0
 41
4.72440952
 77
     0
 78
     1
 53
0.0
 43
0.0
 44
0.0
 45
3.75
 46
3.535
 79
     2
 49
0.0
 49
-3.535
 47
0.775229
 98
        1
 10
0.0
 20
0.0
  0
LWPOLYLINE
  5
607
102
{ACAD_REACTORS
330
608
102
}
100
AcDbEntity
  8
Ech.1_5
 62
     7
  6
CONTINUOUS
370
    -3
100
AcDbPolyline
 90
        4
 70
     1
 43
0.0
 10
38759.65393071
 20
-13606.83474837
 10
38759.65393071
 20
-13596.83474837
 10
38632.14488906
 20
-13596.83474837
 10
38632.14488906
 20
-13606.83474837
  0
HATCH
  5
608
100
AcDbEntity
  8
Ech.1_5
 62
   190
  6
CONTINUOUS
100
AcDbHatch
 10
0.0
 20
0.0
 30
0.0
210
0.0
220
0.0
230
1.0
  2
ANSI37
 70
     0
 71
     1
 91
        1
 92
        7
 72
     0
 73
     1
 93
        4
 10
38759.65393071
 20
-13606.83474837
 10
38759.65393071
 20
-13596.83474837
 10
38632.14488906
 20
-13596.83474837
 10
38632.14488906
 20
-13606.83474837
 97
        1
330
607
 75
     0
 76
     2
 52
0.0
 41
1.88976388
 77
     0
 78
     2
 53
45.0
 43
0.0
 44
0.0
 45
4.24264086
 46
-4.24264086
 79
     0
 53
-45.0
 43
0.0
 44
0.0
 45
4.24264086
 46
4.24264086
 79
     0
 47
0.775229
 98
        1
 10
0.0
 20
0.0
  0
LWPOLYLINE
  5
609
100
AcDbEntity
  8
Ech.1_5
100
AcDbPolyline
 90
        4
 70
     0
 43
0.0
 10
38759.65393071
 20
-13596.83474837
 10
38632.14488906
 20
-13596.83474837
 10
38632.14488906
 20
-13606.83474837
 10
38759.65393071
 20
-13606.83474837
  0
LWPOLYLINE
  5
60A
100
AcDbEntity
  8
Ech.1_5
100
AcDbPolyline
 90
        4
 70
     0
 43
0.0
 10
40294.29904512
 20
-13569.83474837
 10
38635.37224048
 20
-13569.83474837
 10
38635.37224048
 20
-13469.83474837
 10
40294.29904512
 20
-13469.83474837
  0
LWPOLYLINE
  5
60B
100
AcDbEntity
  8
Ech.1_5
100
AcDbPolyline
 90
        5
 70
     0
 43
0.0
 10
39376.51867471
 20
-13300.07950708
 10
39276.51867471
 20
-13336.47653051
 10
39276.51867471
 20
-13469.83474837
 10
39376.51867471
 20
-13469.83474837
 10
39376.51867471
 20
-13354.67504222
  0
LWPOLYLINE
  5
60C
100
AcDbEntity
  8
Ech.1_5
 62
     7
  6
CONTINUOUS
370
    -3
100
AcDbPolyline
 90
        5
 70
     1
 43
0.0
 10
39245.37232087
 20
-13569.83474837
 10
39290.37232087
 20
-13569.83474837
 10
39290.37232087
 20
-13479.83474837
 10
39266.79096186
 20
-13479.83474837
 10
39245.37232087
 20
-13479.83474837
  0
LWPOLYLINE
  5
60D
100
AcDbEntity
  8
Ech.1_5
 62
   190
  6
CONTINUOUS
370
    -3
100
AcDbPolyline
 90
        4
 70
     0
 43
0.0
 10
39245.37232087
 20
-13569.83474837
 10
39290.37232087
 20
-13479.83474837
 10
39245.37232087
 20
-13479.83474837
 10
39290.37232087
 20
-13569.83474837
  0
LWPOLYLINE
  5
60E
102
{ACAD_REACTORS
330
60F
102
}
100
AcDbEntity
  8
Ech.1_5
 62
   190
  6
CONTINUOUS
370
    -3
100
AcDbPolyline
 90
        9
 70
     1
 43
0.0
 10
38701.12842082
 20
-13439.10496914
 10
38700.44438053
 20
-13437.2255839
 10
38649.35550777
 20
-13455.82041289
 10
38592.09179873
 20
-13463.34944535
 10
38592.09179873
 20
-13491.95726495
 10
38596.80852477
 20
-13486.69616814
 10
38594.09179873
 20
-13486.69616814
 10
38594.09179873
 20
-13465.10369827
 10
38649.83356065
 20
-13457.77477142
  0
HATCH
  5
60F
100
AcDbEntity
  8
Ech.1_5
 62
   177
  6
CONTINUOUS
100
AcDbHatch
 10
0.0
 20
0.0
 30
0.0
210
0.0
220
0.0
230
1.0
  2
SOLID
 70
     1
 71
     1
 91
        1
 92
        7
 72
     0
 73
     1
 93
        9
 10
38701.12842082
 20
-13439.10496914
 10
38700.44438053
 20
-13437.2255839
 10
38649.35550777
 20
-13455.82041289
 10
38592.09179873
 20
-13463.34944535
 10
38592.09179873
 20
-13491.95726495
 10
38596.80852477
 20
-13486.69616814
 10
38594.09179873
 20
-13486.69616814
 10
38594.09179873
 20
-13465.10369827
 10
38649.83356065
 20
-13457.77477142
 97
        1
330
60E
 75
     0
 76
     2
 47
0.775229
 98
        1
 10
0.0
 20
0.0
  0
LWPOLYLINE
  5
610
100
AcDbEntity
  8
Ech.1_5
100
AcDbPolyline
 90
       10
 70
     0
 43
0.0
 10
38701.12842082
 20
-13439.10496914
 10
38700.44438053
 20
-13437.2255839
 10
38649.35550777
 20
-13455.82041289
 10
38592.09179873
 20
-13463.34944535
 10
38592.09179873
 20
-13491.95726495
 10
38596.80852477
 20
-13486.69616814
 10
38594.09179873
 20
-13486.69616814
 10
38594.09179873
 20
-13465.10369827
 10
38649.83356065
 20
-13457.77477142
 10
38701.12842082
 20
-13439.10496914
  0
LWPOLYLINE
  5
611
100
AcDbEntity
  8
Ech.1_5
 62
   190
  6
CONTINUOUS
370
    -3
100
AcDbPolyline
 90
        4
 70
     1
 43
0.0
 10
40022.62434618
 20
-13629.83474837
 10
40022.62434618
 20
-13569.83474837
 10
39980.62434618
 20
-13569.83474837
 10
39980.62434618
 20
-13629.83474837
  0
LWPOLYLINE
  5
612
100
AcDbEntity
  8
Ech.1_5
 62
   190
  6
CONTINUOUS
370
    -3
100
AcDbPolyline
 90
        4
 70
     0
 43
0.0
 10
39980.62434618
 20
-13629.83474837
 10
40022.62434618
 20
-13569.83474837
 10
40022.62434618
 20
-13629.83474837
 10
39980.62434618
 20
-13569.83474837
  0
LWPOLYLINE
  5
613
100
AcDbEntity
  8
Ech.1_5
100
AcDbPolyline
 90
        4
 70
     0
 43
0.0
 10
40526.97388044
 20
-13731.83458587
 10
39504.37250045
 20
-13731.83458587
 10
39504.37250045
 20
-13707.15241578
 10
40526.97388044
 20
-13707.15241578
  0
LWPOLYLINE
  5
614
100
AcDbEntity
  8
Ech.1_5
 62
     7
  6
CONTINUOUS
370
    -3
100
AcDbPolyline
 90
       10
 70
     1
 43
0.0
 10
38613.37224048
 20
-13463.41697113
 10
38613.37224048
 20
-13619.612501
 42
-0.41421356
 10
38626.23626558
 20
-13632.4765261
 10
38635.37224048
 20
-13632.4765261
 10
38635.37224048
 20
-13611.17188275
 10
38629.08828101
 20
-13611.17188275
 10
38629.08828101
 20
-13600.10616238
 10
38629.08828101
 20
-13596.83474837
 10
38635.37224048
 20
-13596.83474837
 10
38635.37224048
 20
-13463.41697113
  0
LWPOLYLINE
  5
615
100
AcDbEntity
  8
Ech.1_5
 62
     7
  6
CONTINUOUS
370
    -3
100
AcDbPolyline
 90
        4
 70
     1
 43
0.0
 10
38649.57471108
 20
-13569.83474837
 10
38689.57471108
 20
-13569.83474837
 10
38689.57471108
 20
-13596.83474837
 10
38649.57471108
 20
-13596.83474837
  0
LWPOLYLINE
  5
616
100
AcDbEntity
  8
Ech.1_5
 62
   190
  6
CONTINUOUS
370
    -3
100
AcDbPolyline
 90
        4
 70
     0
 43
0.0
 10
38689.57471108
 20
-13569.83474837
 10
38649.57471108
 20
-13596.83474837
 10
38689.57471108
 20
-13596.83474837
 10
38649.57471108
 20
-13569.83474837
  0
LWPOLYLINE
  5
617
100
AcDbEntity
  8
Ech.1_5
 62
     7
  6
CONTINUOUS
370
    -3
100
AcDbPolyline
 90
        4
 70
     1
 43
0.0
 10
38931.72939872
 20
-13569.83474837
 10
38971.72939872
 20
-13569.83474837
 10
38971.72939872
 20
-13596.83474837
 10
38931.72939872
 20
-13596.83474837
  0
LWPOLYLINE
  5
618
100
AcDbEntity
  8
Ech.1_5
 62
   190
  6
CONTINUOUS
370
    -3
100
AcDbPolyline
 90
        4
 70
     0
 43
0.0
 10
38971.72939872
 20
-13569.83474837
 10
38931.72939872
 20
-13596.83474837
 10
38971.72939872
 20
-13596.83474837
 10
38931.72939872
 20
-13569.83474837
  0
LINE
  5
619
100
AcDbEntity
  8
Ech.1_5
 62
   140
100
AcDbLine
 10
39236.3742794
 20
-13569.83474837
 30
0.0
 11
39283.81494067
 21
-13569.83474837
 31
0.0
  0
ARC
  5
61A
100
AcDbEntity
  8
Ech.1_5
 62
     7
100
AcDbCircle
 10
38537.55772271
 20
-13477.93079177
 30
0.0
 40
62.81757614
100
AcDbArc
 50
180.12287567
 51
11.68289665
  0
ARC
  5
61B
100
AcDbEntity
  8
Ech.1_5
 62
     7
100
AcDbCircle
 10
38537.55772271
 20
-13477.93079177
 30
0.0
 40
65.31757614
100
AcDbArc
 50
182.93511954
 51
11.68289665
  0
CIRCLE
  5
61C
100
AcDbEntity
  8
Ech.1_5
 62
     7
100
AcDbCircle
 10
38469.08065653
 20
-13476.32136154
 30
0.0
 40
5.9222896
  0
LINE
  5
61D
100
AcDbEntity
  8
Ech.1_5
 62
     7
100
AcDbLine
 10
38810.29731318
 20
-13569.83474837
 30
0.0
 11
39086.37224048
 21
-13569.83474837
 31
0.0
  0
LINE
  5
61E
100
AcDbEntity
  8
Ech.1_5
 62
     7
100
AcDbLine
 10
38726.07445157
 20
-13569.83474837
 30
0.0
 11
38810.29731318
 21
-13569.83474837
 31
0.0
  0
LINE
  5
61F
100
AcDbEntity
  8
Ech.1_5
 62
     7
100
AcDbLine
 10
38599.07392604
 20
-13465.21054802
 30
0.0
 11
38601.52213429
 21
-13464.70431058
 31
0.0
  0
LINE
  5
620
100
AcDbEntity
  8
Ech.1_5
 62
     7
100
AcDbLine
 10
39248.86905856
 20
-13569.83474837
 30
0.0
 11
39274.10041856
 21
-13569.83474837
 31
0.0
  0
LWPOLYLINE
  5
621
100
AcDbEntity
  8
Ech.1_5
 62
     7
100
AcDbPolyline
 90
       12
 70
     0
 43
0.0
 10
38613.37224048
 20
-13490.41697113
 10
38613.37224048
 20
-13619.612501
 42
-0.41421356
 10
38626.23626558
 20
-13632.4765261
 10
38635.37224048
 20
-13632.4765261
 10
38635.37224048
 20
-13611.17188275
 10
38629.08828101
 20
-13611.17188275
 10
38629.08828101
 20
-13600.10616238
 10
38629.08828101
 20
-13596.83474837
 10
38635.37224048
 20
-13596.83474837
 10
38635.37224048
 20
-13463.41697113
 10
38613.37224048
 20
-13463.41697113
 10
38613.37224048
 20
-13593.77646756
  0
LINE
  5
622
100
AcDbEntity
  8
Ech.1_5
 62
     7
100
AcDbLine
 10
38643.17923117
 20
-13374.90861671
 30
0.0
 11
38643.04205334
 21
-13374.9321698
 31
0.0
  0
LINE
  5
623
100
AcDbEntity
  8
Ech.1_5
 62
     7
100
AcDbLine
 10
38592.12243891
 20
-13491.92308849
 30
0.0
 11
38596.80852477
 21
-13486.69616814
 31
0.0
  0
LINE
  5
624
100
AcDbEntity
  8
Ech.1_5
 62
     7
100
AcDbLine
 10
38594.12243891
 20
-13486.69616814
 30
0.0
 11
38596.80852477
 21
-13486.69616814
 31
0.0
  0
LWPOLYLINE
  5
625
100
AcDbEntity
  8
Ech.1_5
100
AcDbPolyline
 90
        9
 70
     0
 43
0.0
 10
40294.29904512
 20
-12859.61699341
 10
39784.57747856
 20
-13045.1404714
 10
38984.47485952
 20
-13336.35400909
 10
38635.37224048
 20
-13463.41697113
 10
38635.37224048
 20
-13469.83474837
 10
38910.11998242
 20
-13469.83474837
 10
38984.47485952
 20
-13442.77178634
 10
39784.57747856
 20
-13151.55824865
 10
40294.29904512
 20
-12966.03477066
  0
LWPOLYLINE
  5
626
102
{ACAD_REACTORS
330
627
102
}
100
AcDbEntity
  8
Ech.1_5
 62
     7
  6
CONTINUOUS
370
    -3
100
AcDbPolyline
 90
        4
 70
     1
 43
0.0
 10
39236.37247351
 20
-13568.23404163
 10
39245.37247357
 20
-13568.23404163
 10
39245.37224054
 20
-13358.68445158
 10
39236.37224048
 20
-13358.68445158
  0
HATCH
  5
627
100
AcDbEntity
  8
Ech.1_5
 62
   190
  6
CONTINUOUS
100
AcDbHatch
 10
0.0
 20
0.0
 30
0.0
210
0.0
220
0.0
230
1.0
  2
CDWK10A
 70
     0
 71
     1
 91
        1
 92
        7
 72
     0
 73
     1
 93
        4
 10
39236.37247351
 20
-13568.23404163
 10
39245.37247357
 20
-13568.23404163
 10
39245.37224054
 20
-13358.68445158
 10
39236.37224048
 20
-13358.68445158
 97
        1
330
626
 75
     0
 76
     2
 52
0.0
 41
1.0
 77
     0
 78
     3
 53
45.0
 43
0.0
 44
0.0
 45
0.0
 46
42.00000167
 79
     0
 53
45.0
 43
0.0
 44
10.80000043
 45
0.0
 46
42.00000167
 79
     0
 53
45.0
 43
0.0
 44
21.60000086
 45
0.0
 46
42.00000167
 79
     0
 47
0.775229
 98
        1
 10
0.0
 20
0.0
  0
LWPOLYLINE
  5
628
100
AcDbEntity
  8
Ech.1_5
 62
   190
  6
CONTINUOUS
370
    -3
100
AcDbPolyline
 90
        4
 70
     1
 43
0.0
 10
39245.37224054
 20
-13369.83474489
 10
39245.37224054
 20
-13469.83474489
 10
40249.09719481
 20
-13469.83474489
 10
40249.09719481
 20
-13369.83474489
  0
LWPOLYLINE
  5
629
100
AcDbEntity
  8
Ech.1_5
 62
   190
  6
CONTINUOUS
370
    -3
100
AcDbPolyline
 90
        5
 70
     0
 43
0.0
 10
39504.37250045
 20
-13631.83474837
 10
40526.97388044
 20
-13631.83474837
 10
40526.97388044
 20
-13731.83474837
 10
39504.37250045
 20
-13731.83474837
 10
39504.37250045
 20
-13631.83474837
  0
LWPOLYLINE
  5
62A
100
AcDbEntity
  8
Ech.1_5
370
    50
100
AcDbPolyline
 90
        3
 70
     0
 43
0.0
 10
39504.37250045
 20
-13707.0804235
 10
39504.37250045
 20
-13730.1589404
 10
39530.23468496
 20
-13730.1589404
  0
LINE
  5
62B
100
AcDbEntity
  8
Ech.1_5
 48
0.2
100
AcDbLine
 10
40025.86888297
 20
-13707.90311983
 30
0.0
 11
40025.86888297
 21
-13577.34309724
 31
0.0
  0
LINE
  5
62C
100
AcDbEntity
  8
Ech.1_5
  6
DASHEDX2
 48
0.2
100
AcDbLine
 10
40025.86888297
 20
-13707.90311983
 30
0.0
 11
40025.86888297
 21
-13731.83458587
 31
0.0
  0
LINE
  5
62D
100
AcDbEntity
  8
Ech.1_5
 62
     1
  6
CADWORK_22
 48
-5.0
370
    35
100
AcDbLine
 10
39515.46982047
 20
-13569.83474837
 30
0.0
 11
40392.40014358
 21
-13569.83474837
 31
0.0
  0
LWPOLYLINE
  5
62E
100
AcDbEntity
  8
Ech.1_5
 62
   190
  6
CONTINUOUS
370
    -3
100
AcDbPolyline
 90
       25
 70
     1
 43
0.0
 10
39303.20160973
 20
-13162.64263153
 10
39309.31052449
 20
-13185.41781481
 10
39333.04318878
 20
-13179.05207797
 10
39320.43893013
 20
-13126.85627102
 10
39310.99451166
 20
-13129.13691194
 10
39313.57221119
 20
-13139.81148714
 10
39296.61969086
 20
-13143.90518669
 10
39294.04199133
 20
-13133.23061148
 10
39284.59757287
 20
-13135.5112524
 10
39287.1752724
 20
-13146.18582761
 10
39264.10892361
 20
-13151.75589623
 10
39263.67207983
 20
-13149.94687165
 10
39263.6169551
 20
-13149.96018319
 10
39254.57462239
 20
-13112.51475577
 10
39250.92329904
 20
-13097.39417046
 10
38924.54303975
 20
-13176.2085705
 42
0.41421356
 10
38908.09521685
 20
-13203.12896259
 10
38912.32272024
 20
-13220.63558133
 10
38925.03176481
 20
-13273.26531981
 10
38945.33431815
 20
-13268.36265332
 10
38942.80106548
 20
-13257.87213809
 10
38958.58572255
 20
-13253.70132002
 10
38961.08113967
 20
-13264.03515351
 10
38971.5403375
 20
-13261.22971624
 10
38969.35710498
 20
-13252.18867813
  0
LWPOLYLINE
  5
62F
100
AcDbEntity
  8
Ech.1_5
 62
   190
  6
CONTINUOUS
370
    -3
100
AcDbPolyline
 90
       26
 70
     1
 43
0.0
 10
39641.78680002
 20
-13039.33749491
 10
39647.89571478
 20
-13062.11267819
 10
39671.62837908
 20
-13055.74694135
 10
39659.02412042
 20
-13003.5511344
 10
39649.57970195
 20
-13005.83177532
 10
39652.15740148
 20
-13016.50635052
 10
39635.20488115
 20
-13020.60005007
 10
39632.62718162
 20
-13009.92547486
 10
39623.18276316
 20
-13012.20611578
 10
39625.76046269
 20
-13022.88069099
 10
39602.69411391
 20
-13028.45075961
 10
39602.27265864
 20
-13026.70546078
 10
39602.22470904
 20
-13026.71703967
 10
39593.18237632
 20
-12989.27161225
 10
39589.51566447
 20
-12974.08730119
 10
39263.12823005
 20
-13052.90343388
 42
0.41421356
 10
39246.68040714
 20
-13079.82382597
 10
39250.92329904
 20
-13097.39417046
 10
39250.97842377
 20
-13097.38085893
 10
39263.67207983
 20
-13149.94687165
 10
39283.91950844
 20
-13145.0575167
 10
39281.38625577
 20
-13134.56700147
 10
39297.17091284
 20
-13130.3961834
 10
39299.66632996
 20
-13140.73001689
 10
39310.12552779
 20
-13137.92457962
 10
39307.94229527
 20
-13128.8835415
  0
LWPOLYLINE
  5
630
102
{ACAD_REACTORS
330
631
102
}
100
AcDbEntity
  8
Ech.1_5
 62
   190
  6
CONTINUOUS
370
    -3
100
AcDbPolyline
 90
       23
 70
     1
 43
0.0
 10
39980.39455396
 20
-12916.09435138
 10
39986.50346872
 20
-12938.86953467
 10
40010.23613301
 20
-12932.50379783
 10
39997.63187435
 20
-12880.30799087
 10
39988.18745589
 20
-12882.58863179
 10
39990.76515542
 20
-12893.263207
 10
39973.81263509
 20
-12897.35690654
 10
39971.23493556
 20
-12886.68233134
 10
39961.7905171
 20
-12888.96297226
 10
39964.36821662
 20
-12899.63754746
 10
39941.30186784
 20
-12905.20761608
 10
39928.171368
 20
-12850.83257878
 10
39601.73598398
 20
-12929.66029035
 42
0.41421356
 10
39585.28816108
 20
-12956.58068244
 10
39589.51566447
 20
-12974.08730119
 10
39589.56361407
 20
-12974.0757223
 10
39602.27265864
 20
-13026.70546078
 10
39622.52726238
 20
-13021.81437317
 10
39619.99400971
 20
-13011.32385795
 10
39635.77866678
 20
-13007.15303987
 10
39638.2740839
 20
-13017.48687336
 10
39648.73328172
 20
-13014.68143609
 10
39646.55004921
 20
-13005.64039798
  0
HATCH
  5
631
100
AcDbEntity
  8
Ech.1_5
 62
    15
  6
CONTINUOUS
100
AcDbHatch
 10
0.0
 20
0.0
 30
0.0
210
0.0
220
0.0
230
1.0
  2
SOLID
 70
     1
 71
     1
 91
        1
 92
        7
 72
     1
 73
     1
 93
       23
 10
39980.39455396
 20
-12916.09435138
 42
0.0
 10
39986.50346872
 20
-12938.86953467
 42
0.0
 10
40010.23613301
 20
-12932.50379783
 42
0.0
 10
39997.63187435
 20
-12880.30799087
 42
0.0
 10
39988.18745589
 20
-12882.58863179
 42
0.0
 10
39990.76515542
 20
-12893.263207
 42
0.0
 10
39973.81263509
 20
-12897.35690654
 42
0.0
 10
39971.23493556
 20
-12886.68233134
 42
0.0
 10
39961.7905171
 20
-12888.96297226
 42
0.0
 10
39964.36821662
 20
-12899.63754746
 42
0.0
 10
39941.30186784
 20
-12905.20761608
 42
0.0
 10
39928.171368
 20
-12850.83257878
 42
0.0
 10
39601.73598398
 20
-12929.66029035
 42
0.41421356
 10
39585.28816108
 20
-12956.58068244
 42
0.0
 10
39589.51566447
 20
-12974.08730119
 42
0.0
 10
39589.56361407
 20
-12974.0757223
 42
0.0
 10
39602.27265864
 20
-13026.70546078
 42
0.0
 10
39622.52726238
 20
-13021.81437317
 42
0.0
 10
39619.99400971
 20
-13011.32385795
 42
0.0
 10
39635.77866678
 20
-13007.15303987
 42
0.0
 10
39638.2740839
 20
-13017.48687336
 42
0.0
 10
39648.73328172
 20
-13014.68143609
 42
0.0
 10
39646.55004921
 20
-13005.64039798
 42
0.0
 97
        1
330
630
 75
     0
 76
     2
 47
0.775229
 98
        1
 10
0.0
 20
0.0
  0
LINE
  5
632
100
AcDbEntity
  8
Ech.1_5
 62
   190
  6
CONTINUOUS
370
    -3
100
AcDbLine
 10
38577.38167816
 20
-13359.06303592
 30
0.0
 11
38925.45322008
 21
-13275.01061864
 31
0.0
  0
LWPOLYLINE
  5
633
100
AcDbEntity
  8
Ech.1_5
 62
   190
  6
CONTINUOUS
370
    -3
100
AcDbPolyline
 90
       23
 70
     0
 43
0.0
 10
38972.38675773
 20
-13252.38005546
 10
38981.83117619
 20
-13250.09941454
 10
38994.43543485
 20
-13302.2952215
 10
38970.70277056
 20
-13308.66095834
 10
38964.59385579
 20
-13285.88577505
 10
38630.74935105
 20
-13375.43182165
 10
38632.93258356
 20
-13384.47285976
 10
38622.47338574
 20
-13387.27829703
 10
38619.97796862
 20
-13376.94446354
 10
38604.19331154
 20
-13381.11528162
 10
38606.72656422
 20
-13391.60579684
 10
38586.42401088
 20
-13396.50846334
 10
38577.38167816
 20
-13359.06303592
 10
38569.48746291
 20
-13326.37210611
 42
-0.41421356
 10
38585.93528582
 20
-13299.45171402
 10
38912.32272024
 20
-13220.63558133
 10
38925.45322008
 20
-13275.01061864
 10
38948.56751846
 20
-13269.42897113
 10
38945.98981893
 20
-13258.75439593
 10
38955.4342374
 20
-13256.47375501
 10
38958.01193692
 20
-13267.14833021
 10
38974.96445726
 20
-13263.05463067
 10
38972.38675773
 20
-13252.38005546
  0
LINE
  5
634
100
AcDbEntity
  8
Ech.1_5
 62
   190
  6
CONTINUOUS
370
    -3
100
AcDbLine
 10
38915.9894321
 20
-13235.8198924
 30
0.0
 11
39264.06097401
 21
-13151.76747511
 31
0.0
  0
LWPOLYLINE
  5
635
100
AcDbEntity
  8
Ech.1_5
 62
   190
  6
CONTINUOUS
370
    -3
100
AcDbPolyline
 90
       23
 70
     0
 43
0.0
 10
39310.99451166
 20
-13129.13691194
 10
39320.43893013
 20
-13126.85627102
 10
39333.04318878
 20
-13179.05207797
 10
39309.31052449
 20
-13185.41781481
 10
39303.20160973
 20
-13162.64263153
 10
38969.35710498
 20
-13252.18867813
 10
38971.5403375
 20
-13261.22971624
 10
38961.08113967
 20
-13264.03515351
 10
38958.58572255
 20
-13253.70132002
 10
38942.80106548
 20
-13257.87213809
 10
38945.33431815
 20
-13268.36265332
 10
38925.03176481
 20
-13273.26531981
 10
38915.9894321
 20
-13235.8198924
 10
38908.09521685
 20
-13203.12896259
 42
-0.41421356
 10
38924.54303975
 20
-13176.2085705
 10
39250.97842377
 20
-13097.38085893
 10
39264.10892361
 20
-13151.75589623
 10
39287.1752724
 20
-13146.18582761
 10
39284.59757287
 20
-13135.5112524
 10
39294.04199133
 20
-13133.23061148
 10
39296.61969086
 20
-13143.90518669
 10
39313.57221119
 20
-13139.81148714
 10
39310.99451166
 20
-13129.13691194
  0
LINE
  5
636
100
AcDbEntity
  8
Ech.1_5
 62
   190
  6
CONTINUOUS
370
    -3
100
AcDbLine
 10
39254.57462239
 20
-13112.51475577
 30
0.0
 11
39602.64616431
 21
-13028.46233849
 31
0.0
  0
LWPOLYLINE
  5
637
100
AcDbEntity
  8
Ech.1_5
 62
   190
  6
CONTINUOUS
370
    -3
100
AcDbPolyline
 90
       23
 70
     0
 43
0.0
 10
39649.57970195
 20
-13005.83177532
 10
39659.02412042
 20
-13003.5511344
 10
39671.62837908
 20
-13055.74694135
 10
39647.89571478
 20
-13062.11267819
 10
39641.78680002
 20
-13039.33749491
 10
39307.94229527
 20
-13128.8835415
 10
39310.12552779
 20
-13137.92457962
 10
39299.66632996
 20
-13140.73001689
 10
39297.17091284
 20
-13130.3961834
 10
39281.38625577
 20
-13134.56700147
 10
39283.91950844
 20
-13145.0575167
 10
39263.6169551
 20
-13149.96018319
 10
39254.57462239
 20
-13112.51475577
 10
39246.68040714
 20
-13079.82382597
 42
-0.41421356
 10
39263.12823005
 20
-13052.90343388
 10
39589.56361407
 20
-12974.0757223
 10
39602.69411391
 20
-13028.45075961
 10
39625.76046269
 20
-13022.88069099
 10
39623.18276316
 20
-13012.20611578
 10
39632.62718162
 20
-13009.92547486
 10
39635.20488115
 20
-13020.60005007
 10
39652.15740148
 20
-13016.50635052
 10
39649.57970195
 20
-13005.83177532
  0
LINE
  5
638
100
AcDbEntity
  8
Ech.1_5
 62
     7
100
AcDbLine
 10
39593.18237632
 20
-12989.27161225
 30
0.0
 11
39941.25391824
 21
-12905.21919497
 31
0.0
  0
LWPOLYLINE
  5
639
100
AcDbEntity
  8
Ech.1_5
 62
   190
  6
CONTINUOUS
370
    -3
100
AcDbPolyline
 90
       23
 70
     0
 43
0.0
 10
39988.18745589
 20
-12882.58863179
 10
39997.63187435
 20
-12880.30799087
 10
40010.23613301
 20
-12932.50379783
 10
39986.50346872
 20
-12938.86953467
 10
39980.39455396
 20
-12916.09435138
 10
39646.55004921
 20
-13005.64039798
 10
39648.73328172
 20
-13014.68143609
 10
39638.2740839
 20
-13017.48687336
 10
39635.77866678
 20
-13007.15303987
 10
39619.99400971
 20
-13011.32385795
 10
39622.52726238
 20
-13021.81437317
 10
39602.22470904
 20
-13026.71703967
 10
39593.18237632
 20
-12989.27161225
 10
39585.28816108
 20
-12956.58068244
 42
-0.41421356
 10
39601.73598398
 20
-12929.66029035
 10
39928.171368
 20
-12850.83257878
 10
39941.30186784
 20
-12905.20761608
 10
39964.36821662
 20
-12899.63754746
 10
39961.7905171
 20
-12888.96297226
 10
39971.23493556
 20
-12886.68233134
 10
39973.81263509
 20
-12897.35690654
 10
39990.76515542
 20
-12893.263207
 10
39988.18745589
 20
-12882.58863179
  0
LINE
  5
63A
100
AcDbEntity
  8
Ech.1_5
 62
   190
  6
CONTINUOUS
370
    -3
100
AcDbLine
 10
39593.17520119
 20
-12989.2733449
 30
0.0
 11
39941.24674311
 21
-12905.22092762
 31
0.0
  0
LWPOLYLINE
  5
63B
100
AcDbEntity
  8
Ech.1_5
 62
     7
100
AcDbPolyline
 90
        5
 70
     0
 43
0.0
 10
39261.8629243
 20
-13177.92741046
 10
39299.45062913
 20
-13164.24660472
 10
39308.685173
 20
-13189.61830548
 10
39271.09746817
 20
-13203.29911122
 10
39261.8629243
 20
-13177.92741046
  0
LWPOLYLINE
  5
63C
100
AcDbEntity
  8
Ech.1_5
 62
   190
  6
CONTINUOUS
370
    -3
100
AcDbPolyline
 90
        6
 70
     1
 43
0.0
 10
39976.67447828
 20
-12917.6476073
 10
39985.89552759
 20
-12942.98223207
 10
39948.30919932
 20
-12956.66681988
 10
39942.58269258
 20
-12940.93337192
 10
39939.08677345
 20
-12931.32841303
 10
39942.58269258
 20
-12930.05600252
  0
LWPOLYLINE
  5
63D
100
AcDbEntity
  8
Ech.1_5
 62
   190
  6
CONTINUOUS
370
    -3
100
AcDbPolyline
 90
        4
 70
     1
 43
0.0
 10
39638.07389947
 20
-13040.88901817
 10
39600.48619464
 20
-13054.5698239
 10
39609.72073851
 20
-13079.94152466
 10
39647.30706678
 20
-13066.25693686
  0
LWPOLYLINE
  5
63E
100
AcDbEntity
  8
Ech.1_5
 62
   190
  6
CONTINUOUS
370
    -3
100
AcDbPolyline
 90
        4
 70
     1
 43
0.0
 10
39299.45062913
 20
-13164.24660472
 10
39261.91340691
 20
-13177.90903629
 10
39271.12538529
 20
-13203.21873887
 10
39308.6612328
 20
-13189.55253031
  0
LWPOLYLINE
  5
63F
100
AcDbEntity
  8
Ech.1_5
 62
   190
  6
CONTINUOUS
370
    -3
100
AcDbPolyline
 90
        4
 70
     1
 43
0.0
 10
38960.8428752
 20
-13287.48974825
 10
38923.25517037
 20
-13301.17055398
 10
38932.47955131
 20
-13326.51433233
 10
38970.06587958
 20
-13312.82974452
  0
LWPOLYLINE
  5
640
100
AcDbEntity
  8
Ech.1_5
 62
   190
  6
CONTINUOUS
370
    -3
100
AcDbPolyline
 90
        4
 70
     1
 43
0.0
 10
38677.25268066
 20
-13366.2236101
 10
38641.17614398
 20
-13375.90030445
 10
38641.19326839
 20
-13432.56540028
 10
38693.9242362
 20
-13413.36688869
  0
LWPOLYLINE
  5
641
100
AcDbEntity
  8
Ech.1_5
 62
   190
  6
CONTINUOUS
370
    -3
100
AcDbPolyline
 90
        4
 70
     0
 43
0.0
 10
38677.25268066
 20
-13366.2236101
 10
38641.19326841
 20
-13432.56549037
 10
38693.92172685
 20
-13413.373901
 10
38641.17614398
 20
-13375.90030445
  0
LWPOLYLINE
  5
642
100
AcDbEntity
  8
Ech.1_5
 62
   190
  6
CONTINUOUS
370
    -3
100
AcDbPolyline
 90
        4
 70
     0
 43
0.0
 10
38960.8428752
 20
-13287.48974825
 10
38932.48971424
 20
-13326.54225474
 10
38970.07741907
 20
-13312.86144901
 10
38923.25517037
 20
-13301.17055398
  0
LWPOLYLINE
  5
643
100
AcDbEntity
  8
Ech.1_5
 62
   190
  6
CONTINUOUS
370
    -3
100
AcDbPolyline
 90
        4
 70
     0
 43
0.0
 10
39299.45062913
 20
-13164.24660472
 10
39271.09746817
 20
-13203.29911122
 10
39308.685173
 20
-13189.61830548
 10
39261.8629243
 20
-13177.92741046
  0
LWPOLYLINE
  5
644
100
AcDbEntity
  8
Ech.1_5
 62
   190
  6
CONTINUOUS
370
    -3
100
AcDbPolyline
 90
        4
 70
     0
 43
0.0
 10
39638.03581943
 20
-13040.9414681
 10
39609.68265846
 20
-13079.99397459
 10
39647.2703633
 20
-13066.31316886
 10
39600.44811459
 20
-13054.62227383
  0
LWPOLYLINE
  5
645
100
AcDbEntity
  8
Ech.1_5
 62
   190
  6
CONTINUOUS
370
    -3
100
AcDbPolyline
 90
        4
 70
     0
 43
0.0
 10
39976.63639823
 20
-12917.70005723
 10
39948.28323727
 20
-12956.75256372
 10
39985.8709421
 20
-12943.07175799
 10
39939.0486934
 20
-12931.38086296
  0
LWPOLYLINE
  5
646
100
AcDbEntity
  8
Ech.1_5
 62
   190
  6
CONTINUOUS
370
    -3
100
AcDbPolyline
 90
       23
 70
     1
 43
0.0
 10
38964.59385579
 20
-13285.88577505
 10
38970.70277056
 20
-13308.66095834
 10
38994.43543485
 20
-13302.2952215
 10
38981.83117619
 20
-13250.09941454
 10
38972.38675773
 20
-13252.38005546
 10
38974.96445726
 20
-13263.05463067
 10
38958.01193692
 20
-13267.14833021
 10
38955.4342374
 20
-13256.47375501
 10
38945.98981893
 20
-13258.75439593
 10
38948.56751846
 20
-13269.42897113
 10
38925.45322008
 20
-13275.01061864
 10
38915.9894321
 20
-13235.8198924
 10
38912.32272024
 20
-13220.63558133
 10
38585.93528582
 20
-13299.45171402
 42
0.41421356
 10
38569.48746291
 20
-13326.37210611
 10
38577.38167816
 20
-13359.06303592
 10
38586.42401088
 20
-13396.50846334
 10
38606.72656422
 20
-13391.60579684
 10
38604.19331154
 20
-13381.11528162
 10
38619.97796862
 20
-13376.94446354
 10
38622.47338574
 20
-13387.27829703
 10
38632.93258356
 20
-13384.47285976
 10
38630.74935105
 20
-13375.43182165
  0
LINE
  5
647
100
AcDbEntity
  8
Ech.1_5
 62
   190
  6
CONTINUOUS
370
    -3
100
AcDbLine
 10
38577.38167816
 20
-13359.06303592
 30
0.0
 11
38925.45322008
 21
-13275.01061864
 31
0.0
  0
LWPOLYLINE
  5
648
100
AcDbEntity
  8
Ech.1_5
 62
     5
  6
CONTINUOUS
370
    -3
100
AcDbPolyline
 90
        5
 70
     0
 43
0.0
 10
40022.62434618
 20
-13629.83474837
 10
40022.62434618
 20
-13569.83474837
 10
39980.62434618
 20
-13569.83474837
 10
39980.62434618
 20
-13629.83474837
 10
40022.62434618
 20
-13629.83474837
  0
LWPOLYLINE
  5
649
100
AcDbEntity
  8
Ech.1_5
 62
     5
  6
CONTINUOUS
370
    -3
100
AcDbPolyline
 90
        7
 70
     0
 43
0.0
 10
39245.37232087
 20
-13569.83474837
 10
39290.37232087
 20
-13569.83474837
 10
39290.37232087
 20
-13479.83474837
 10
39266.79096186
 20
-13479.83474837
 10
39245.37232087
 20
-13479.83474837
 10
39245.37232087
 20
-13569.83474837
 10
39266.39514439
 20
-13569.83474837
  0
LWPOLYLINE
  5
64A
100
AcDbEntity
  8
Ech.1_5
 62
     5
  6
CONTINUOUS
370
    -3
100
AcDbPolyline
 90
        5
 70
     0
 43
0.0
 10
38649.57471108
 20
-13569.83474837
 10
38689.57471108
 20
-13569.83474837
 10
38689.57471108
 20
-13596.83474837
 10
38649.57471108
 20
-13596.83474837
 10
38649.57471108
 20
-13569.83474837
  0
LWPOLYLINE
  5
64B
100
AcDbEntity
  8
Ech.1_5
 62
     5
  6
CONTINUOUS
370
    -3
100
AcDbPolyline
 90
        5
 70
     0
 43
0.0
 10
38931.72939872
 20
-13569.83474837
 10
38971.72939872
 20
-13569.83474837
 10
38971.72939872
 20
-13596.83474837
 10
38931.72939872
 20
-13596.83474837
 10
38931.72939872
 20
-13569.83474837
  0
LWPOLYLINE
  5
64C
100
AcDbEntity
  8
Ech.1_5
 62
     5
  6
CONTINUOUS
370
    -3
100
AcDbPolyline
 90
        5
 70
     0
 43
0.0
 10
38923.25517037
 20
-13301.17055398
 10
38960.8428752
 20
-13287.48974825
 10
38970.07741907
 20
-13312.86144901
 10
38932.48971424
 20
-13326.54225474
 10
38923.25517037
 20
-13301.17055398
  0
LWPOLYLINE
  5
64D
100
AcDbEntity
  8
Ech.1_5
 62
     5
  6
CONTINUOUS
370
    -3
100
AcDbPolyline
 90
        5
 70
     0
 43
0.0
 10
38641.17614398
 20
-13375.90030445
 10
38677.25268066
 20
-13366.2236101
 10
38693.92614707
 20
-13413.37229217
 10
38641.19326841
 20
-13432.56549037
 10
38641.17614398
 20
-13375.90030445
  0
LWPOLYLINE
  5
64E
100
AcDbEntity
  8
Ech.1_5
 62
     5
  6
CONTINUOUS
370
    -3
100
AcDbPolyline
 90
        5
 70
     0
 43
0.0
 10
39261.90100435
 20
-13177.87496053
 10
39299.48870918
 20
-13164.19415479
 10
39308.72325305
 20
-13189.56585555
 10
39271.13554822
 20
-13203.24666129
 10
39261.90100435
 20
-13177.87496053
  0
LWPOLYLINE
  5
64F
100
AcDbEntity
  8
Ech.1_5
 62
     5
  6
CONTINUOUS
370
    -3
100
AcDbPolyline
 90
        5
 70
     0
 43
0.0
 10
39600.48619464
 20
-13054.5698239
 10
39638.07389947
 20
-13040.88901817
 10
39647.30844334
 20
-13066.26071893
 10
39609.72073851
 20
-13079.94152466
 10
39600.48619464
 20
-13054.5698239
  0
LWPOLYLINE
  5
650
100
AcDbEntity
  8
Ech.1_5
 62
     5
  6
CONTINUOUS
370
    -3
100
AcDbPolyline
 90
        5
 70
     0
 43
0.0
 10
39939.08677345
 20
-12931.32841303
 10
39976.67447828
 20
-12917.6476073
 10
39985.90902215
 20
-12943.01930806
 10
39948.32131732
 20
-12956.70011379
 10
39939.08677345
 20
-12931.32841303
  0
LWPOLYLINE
  5
651
100
AcDbEntity
  8
Ech.1_5
 62
   150
  6
CADWORK_22
370
    35
100
AcDbPolyline
 90
        4
 70
     0
 43
0.0
 38
2500.0
 10
38647.951765
 20
-13454.61158687
 10
38698.99722475
 20
-13435.75662124
 10
38705.92553259
 20
-13436.14140621
 10
40294.29904512
 20
-12858.02072675
  0
LINE
  5
652
100
AcDbEntity
  8
Ech.1_5
 48
0.2
100
AcDbLine
 10
39557.69930901
 20
-13707.90311983
 30
0.0
 11
39557.69930901
 21
-13577.34309724
 31
0.0
  0
LINE
  5
653
100
AcDbEntity
  8
Ech.1_5
  6
DASHEDX2
 48
0.2
100
AcDbLine
 10
39557.69930901
 20
-13707.90311983
 30
0.0
 11
39557.69930901
 21
-13731.83458587
 31
0.0
  0
LWPOLYLINE
  5
654
100
AcDbEntity
  8
Ech.1_5
 62
   190
  6
CONTINUOUS
370
    -3
100
AcDbPolyline
 90
      175
 70
     0
 43
0.0
 10
38778.14830751
 20
-13753.93068922
 10
38780.92123179
 20
-13749.44841795
 10
38783.64824486
 20
-13744.96037309
 10
38786.28343551
 20
-13740.46078101
 10
38788.78089253
 20
-13735.94386813
 10
38791.09470473
 20
-13731.40386082
 10
38793.17896087
 20
-13726.83498549
 10
38794.98774977
 20
-13722.23146853
 10
38796.47516021
 20
-13717.58753635
 10
38797.59528097
 20
-13712.89741532
 10
38798.30220086
 20
-13708.15533186
 10
38798.56519255
 20
-13703.35767623
 10
38798.42108848
 20
-13698.51046678
 10
38797.92550452
 20
-13693.62239872
 10
38797.13405731
 20
-13688.70216736
 10
38796.10236348
 20
-13683.75846801
 10
38794.88603967
 20
-13678.79999597
 10
38793.54070251
 20
-13673.83544657
 10
38792.12196863
 20
-13668.87351512
 10
38790.68545466
 20
-13663.92289693
 10
38789.28677724
 20
-13658.9922873
 10
38787.97461379
 20
-13654.08741235
 10
38786.76643772
 20
-13649.20064631
 10
38785.67095517
 20
-13644.32061199
 10
38784.69687184
 20
-13639.43593204
 10
38783.85289342
 20
-13634.53522909
 10
38783.14772562
 20
-13629.60712576
 10
38782.59003851
 20
-13624.64038364
 10
38782.18637299
 20
-13619.63207277
 10
38781.93997402
 20
-13614.59212444
 10
38781.85380356
 20
-13609.53157431
 10
38781.93082357
 20
-13604.46145803
 10
38782.17399599
 20
-13599.39281128
 10
38782.58628277
 20
-13594.33666972
 10
38783.17064587
 20
-13589.304069
 10
38783.93004723
 20
-13584.30604479
 10
38784.86744882
 20
-13579.35363275
 10
38785.98581259
 20
-13574.45786854
 10
38787.28810047
 20
-13569.62978783
 10
38788.77727444
 20
-13564.88042629
 10
38790.45562902
 20
-13560.21995122
 10
38792.31895291
 20
-13555.65006535
 10
38794.3593646
 20
-13551.16769625
 10
38796.56894127
 20
-13546.76971772
 10
38798.93976011
 20
-13542.45300356
 10
38801.46389831
 20
-13538.2144276
 10
38804.13343304
 20
-13534.05086363
 10
38806.94044149
 20
-13529.95918546
 10
38809.87700085
 20
-13525.9362669
 10
38812.93518831
 20
-13521.97898176
 10
38816.10708103
 20
-13518.08420384
 10
38819.38475622
 20
-13514.24880696
 10
38822.76029105
 20
-13510.46966491
 10
38826.22576271
 20
-13506.74365151
 10
38829.77324838
 20
-13503.06764056
 10
38833.39482524
 20
-13499.43850588
 10
38837.08257049
 20
-13495.85312127
 10
38840.8285613
 20
-13492.30836053
 10
38844.62487487
 20
-13488.80109747
 10
38848.46358836
 20
-13485.32820591
 10
38852.33677898
 20
-13481.88655965
 10
38856.23652389
 20
-13478.47303249
 10
38860.1549003
 20
-13475.08449825
 10
38864.08398537
 20
-13471.71783073
 10
38868.0158563
 20
-13468.36990373
 10
38871.94300528
 20
-13465.03777855
 10
38875.86318688
 20
-13461.72089362
 10
38879.77777097
 20
-13458.42032055
 10
38883.68819843
 20
-13455.13716298
 10
38887.5959101
 20
-13451.87252458
 10
38891.50234683
 20
-13448.627509
 10
38895.40894948
 20
-13445.40321989
 10
38899.31715891
 20
-13442.20076091
 10
38903.22841597
 20
-13439.0212357
 10
38907.14416151
 20
-13435.86574794
 10
38911.06583639
 20
-13432.73540126
 10
38914.99488147
 20
-13429.63129933
 10
38918.93273759
 20
-13426.5545458
 10
38922.88084561
 20
-13423.50624432
 10
38926.84064639
 20
-13420.48749856
 10
38930.81358078
 20
-13417.49941215
 10
38934.80108964
 20
-13414.54308876
 10
38938.80461381
 20
-13411.61963205
 10
38942.82559416
 20
-13408.73014566
 10
38946.86547154
 20
-13405.87573326
 10
38950.9256868
 20
-13403.05749849
 10
38955.0076808
 20
-13400.27654501
 10
38959.1128944
 20
-13397.53397648
 10
38963.24276843
 20
-13394.83089655
 10
38967.39874377
 20
-13392.16840887
 10
38971.58226127
 20
-13389.5476171
 10
38975.79476177
 20
-13386.96962489
 10
38980.03740333
 20
-13384.4352321
 10
38984.30963143
 20
-13381.94339883
 10
38988.61025025
 20
-13379.4923963
 10
38992.93806284
 20
-13377.0804945
 10
38997.29187227
 20
-13374.70596341
 10
39001.67048159
 20
-13372.36707304
 10
39006.07269385
 20
-13370.06209338
 10
39010.49731213
 20
-13367.78929442
 10
39014.94313946
 20
-13365.54694616
 10
39019.40897892
 20
-13363.33331859
 10
39023.89363356
 20
-13361.14668171
 10
39028.39590643
 20
-13358.98530551
 10
39032.9146006
 20
-13356.84745999
 10
39037.44851912
 20
-13354.73141514
 10
39041.99646505
 20
-13352.63544095
 10
39046.55724144
 20
-13350.55780742
 10
39051.12965136
 20
-13348.49678454
 10
39055.71249787
 20
-13346.45064231
 10
39060.30458401
 20
-13344.41765072
 10
39064.90471285
 20
-13342.39607977
 10
39069.51168744
 20
-13340.38419945
 10
39074.12431085
 20
-13338.38027976
 10
39078.74138612
 20
-13336.38259069
 10
39083.36171633
 20
-13334.38940223
 10
39087.98410452
 20
-13332.39898438
 10
39092.60735375
 20
-13330.40960713
 10
39097.23026708
 20
-13328.41954048
 10
39101.85164757
 20
-13326.42705442
 10
39106.47029828
 20
-13324.43041895
 10
39111.08502226
 20
-13322.42790406
 10
39115.69462257
 20
-13320.41777974
 10
39120.29790227
 20
-13318.39831599
 10
39124.89366441
 20
-13316.36778281
 10
39129.48071253
 20
-13314.32445104
 10
39134.05848099
 20
-13312.26773026
 10
39138.62828027
 20
-13310.20041666
 10
39143.19176803
 20
-13308.12593315
 10
39147.75060192
 20
-13306.04770263
 10
39152.30643962
 20
-13303.969148
 10
39156.86093878
 20
-13301.89369216
 10
39161.41575706
 20
-13299.82475802
 10
39165.97255213
 20
-13297.76576848
 10
39170.53298165
 20
-13295.72014643
 10
39175.09870327
 20
-13293.69131479
 10
39179.67137466
 20
-13291.68269646
 10
39184.25265348
 20
-13289.69771434
 10
39188.84419739
 20
-13287.73979132
 10
39193.44766405
 20
-13285.81235032
 10
39198.06471113
 20
-13283.91881423
 10
39202.69699628
 20
-13282.06260596
 10
39207.3461752
 20
-13280.24714433
 10
39212.01317887
 20
-13278.47434587
 10
39216.69713571
 20
-13276.74239048
 10
39221.39689858
 20
-13275.04888686
 10
39226.11132034
 20
-13273.39144372
 10
39230.83925387
 20
-13271.76766975
 10
39235.57955205
 20
-13270.17517366
 10
39240.33106772
 20
-13268.61156416
 10
39245.09265377
 20
-13267.07444995
 10
39249.86316306
 20
-13265.56143974
 10
39254.64144846
 20
-13264.07014222
 10
39259.42636284
 20
-13262.5981661
 10
39264.21675906
 20
-13261.14312009
 10
39269.01149
 20
-13259.70261289
 10
39273.80940853
 20
-13258.2742532
 10
39278.609412
 20
-13256.8557292
 10
39283.4109846
 20
-13255.44577711
 10
39288.21402498
 20
-13254.04387337
 10
39293.01844049
 20
-13252.64950996
 10
39297.82413849
 20
-13251.26217889
 10
39302.63102632
 20
-13249.88137215
 10
39307.43901136
 20
-13248.50658175
 10
39312.24800094
 20
-13247.13729967
 10
39317.05790243
 20
-13245.77301792
 10
39321.86862319
 20
-13244.4132285
 10
39326.68007057
 20
-13243.05742339
 10
39331.49215192
 20
-13241.7050946
 10
39336.3047746
 20
-13240.35573413
 10
39341.11784597
 20
-13239.00883397
 10
39345.93127338
 20
-13237.66388612
 10
39350.74496419
 20
-13236.32038257
 10
39355.55882575
 20
-13234.97781533
 10
39359.61749086
 20
-13233.84624083
  0
LINE
  5
655
100
AcDbEntity
  8
Ech.1_5
 62
   190
  6
CONTINUOUS
370
    -3
100
AcDbLine
 10
39359.61749086
 20
-13233.84624083
 30
0.0
 11
39342.4117372
 21
-13246.44087677
 31
0.0
  0
LINE
  5
656
100
AcDbEntity
  8
Ech.1_5
 62
   190
  6
CONTINUOUS
370
    -3
100
AcDbLine
 10
39359.61749086
 20
-13233.84624083
 30
0.0
 11
39337.76333172
 21
-13233.15969568
 31
0.0
  0
LWPOLYLINE
  5
657
100
AcDbEntity
  8
Ech.1_5
 62
   190
  6
CONTINUOUS
370
    -3
100
AcDbPolyline
 90
      122
 70
     0
 43
0.0
 10
39245.37224054
 20
-13469.83474489
 42
0.49314642
 10
39261.47104478
 20
-13448.85441776
 10
39245.9401891
 20
-13390.81507202
 42
-1.30322619
 10
39278.13771144
 20
-13390.81507202
 10
39262.60685577
 20
-13448.85441776
 42
1.30322619
 10
39294.80437811
 20
-13448.85441776
 10
39279.27352244
 20
-13390.81507202
 42
-1.30322619
 10
39311.47104478
 20
-13390.81507202
 10
39295.9401891
 20
-13448.85441776
 42
1.30322619
 10
39328.13771144
 20
-13448.85441776
 10
39312.60685577
 20
-13390.81507202
 42
-1.30322619
 10
39344.80437811
 20
-13390.81507202
 10
39329.27352244
 20
-13448.85441776
 42
1.30322619
 10
39361.47104478
 20
-13448.85441776
 10
39345.9401891
 20
-13390.81507202
 42
-1.30322619
 10
39378.13771144
 20
-13390.81507202
 10
39362.60685577
 20
-13448.85441776
 42
1.30322619
 10
39394.80437811
 20
-13448.85441776
 10
39379.27352244
 20
-13390.81507202
 42
-1.30322619
 10
39411.47104478
 20
-13390.81507202
 10
39395.9401891
 20
-13448.85441776
 42
1.30322619
 10
39428.13771144
 20
-13448.85441776
 10
39412.60685577
 20
-13390.81507202
 42
-1.30322619
 10
39444.80437811
 20
-13390.81507202
 10
39429.27352244
 20
-13448.85441776
 42
1.30322619
 10
39461.47104478
 20
-13448.85441776
 10
39445.9401891
 20
-13390.81507202
 42
-1.30322619
 10
39478.13771144
 20
-13390.81507202
 10
39462.60685577
 20
-13448.85441776
 42
1.30322619
 10
39494.80437811
 20
-13448.85441776
 10
39479.27352244
 20
-13390.81507202
 42
-1.30322619
 10
39511.47104478
 20
-13390.81507202
 10
39495.9401891
 20
-13448.85441776
 42
1.30322619
 10
39528.13771144
 20
-13448.85441776
 10
39512.60685577
 20
-13390.81507202
 42
-1.30322619
 10
39544.80437811
 20
-13390.81507202
 10
39529.27352244
 20
-13448.85441776
 42
1.30322619
 10
39561.47104478
 20
-13448.85441776
 10
39545.9401891
 20
-13390.81507202
 42
-1.30322619
 10
39578.13771144
 20
-13390.81507202
 10
39562.60685577
 20
-13448.85441776
 42
1.30322619
 10
39594.80437811
 20
-13448.85441776
 10
39579.27352244
 20
-13390.81507202
 42
-1.30322619
 10
39611.47104478
 20
-13390.81507202
 10
39595.9401891
 20
-13448.85441776
 42
1.30322619
 10
39628.13771144
 20
-13448.85441776
 10
39612.60685577
 20
-13390.81507202
 42
-1.30322619
 10
39644.80437811
 20
-13390.81507202
 10
39629.27352244
 20
-13448.85441776
 42
1.30322619
 10
39661.47104478
 20
-13448.85441776
 10
39645.9401891
 20
-13390.81507202
 42
-1.30322619
 10
39678.13771144
 20
-13390.81507202
 10
39662.60685577
 20
-13448.85441776
 42
1.30322619
 10
39694.80437811
 20
-13448.85441776
 10
39679.27352244
 20
-13390.81507202
 42
-1.30322619
 10
39711.47104478
 20
-13390.81507202
 10
39695.9401891
 20
-13448.85441776
 42
1.30322619
 10
39728.13771144
 20
-13448.85441776
 10
39712.60685577
 20
-13390.81507202
 42
-1.30322619
 10
39744.80437811
 20
-13390.81507202
 10
39729.27352244
 20
-13448.85441776
 42
1.30322619
 10
39761.47104478
 20
-13448.85441776
 10
39745.9401891
 20
-13390.81507202
 42
-1.30322619
 10
39778.13771144
 20
-13390.81507202
 10
39762.60685577
 20
-13448.85441776
 42
1.30322619
 10
39794.80437811
 20
-13448.85441776
 10
39779.27352244
 20
-13390.81507202
 42
-1.30322619
 10
39811.47104478
 20
-13390.81507202
 10
39795.9401891
 20
-13448.85441776
 42
1.30322619
 10
39828.13771144
 20
-13448.85441776
 10
39812.60685577
 20
-13390.81507202
 42
-1.30322619
 10
39844.80437811
 20
-13390.81507202
 10
39829.27352244
 20
-13448.85441776
 42
1.30322619
 10
39861.47104478
 20
-13448.85441776
 10
39845.9401891
 20
-13390.81507202
 42
-1.30322619
 10
39878.13771144
 20
-13390.81507202
 10
39862.60685577
 20
-13448.85441776
 42
1.30322619
 10
39894.80437811
 20
-13448.85441776
 10
39879.27352244
 20
-13390.81507202
 42
-1.30322619
 10
39911.47104478
 20
-13390.81507202
 10
39895.9401891
 20
-13448.85441776
 42
1.30322619
 10
39928.13771144
 20
-13448.85441776
 10
39912.60685577
 20
-13390.81507202
 42
-1.30322619
 10
39944.80437811
 20
-13390.81507202
 10
39929.27352244
 20
-13448.85441776
 42
1.30322619
 10
39961.47104478
 20
-13448.85441776
 10
39945.9401891
 20
-13390.81507202
 42
-1.30322619
 10
39978.13771144
 20
-13390.81507202
 10
39962.60685577
 20
-13448.85441776
 42
1.30322619
 10
39994.80437811
 20
-13448.85441776
 10
39979.27352244
 20
-13390.81507202
 42
-1.30322619
 10
40011.47104478
 20
-13390.81507202
 10
39995.9401891
 20
-13448.85441776
 42
1.30322619
 10
40028.13771144
 20
-13448.85441776
 10
40012.60685577
 20
-13390.81507202
 42
-1.30322619
 10
40044.80437811
 20
-13390.81507202
 10
40029.27352244
 20
-13448.85441776
 42
1.30322619
 10
40061.47104478
 20
-13448.85441776
 10
40045.9401891
 20
-13390.81507202
 42
-1.30322619
 10
40078.13771144
 20
-13390.81507202
 10
40062.60685577
 20
-13448.85441776
 42
1.30322619
 10
40094.80437811
 20
-13448.85441776
 10
40079.27352244
 20
-13390.81507202
 42
-1.30322619
 10
40111.47104478
 20
-13390.81507202
 10
40095.9401891
 20
-13448.85441776
 42
1.30322619
 10
40128.13771144
 20
-13448.85441776
 10
40112.60685577
 20
-13390.81507202
 42
-1.30322619
 10
40144.80437811
 20
-13390.81507202
 10
40129.27352244
 20
-13448.85441776
 42
1.30322619
 10
40161.47104478
 20
-13448.85441776
 10
40145.9401891
 20
-13390.81507202
 42
-1.30322619
 10
40178.13771144
 20
-13390.81507202
 10
40162.60685577
 20
-13448.85441776
 42
1.30322619
 10
40194.80437811
 20
-13448.85441776
 10
40179.27352244
 20
-13390.81507202
 42
-1.30322619
 10
40211.47104478
 20
-13390.81507202
 10
40195.9401891
 20
-13448.85441776
 42
1.30322619
 10
40228.13771144
 20
-13448.85441776
 10
40212.60685577
 20
-13390.81507202
 42
-1.30322619
 10
40244.80437811
 20
-13390.81507202
 10
40229.27352244
 20
-13448.85441776
 42
0.56527988
 10
40249.09719481
 20
-13469.41316407
  0
LWPOLYLINE
  5
658
100
AcDbEntity
  8
Ech.1_5
 62
   190
  6
CONTINUOUS
370
    -3
100
AcDbPolyline
 90
      122
 70
     0
 43
0.0
 10
39504.37250309
 20
-13715.16791921
 42
1.14028181
 10
39537.13793161
 20
-13710.85426395
 10
39521.60708517
 20
-13652.81491574
 42
-1.30322619
 10
39553.8046075
 20
-13652.81492086
 10
39538.27374261
 20
-13710.85426413
 42
1.30322619
 10
39570.47126495
 20
-13710.85426925
 10
39554.9404185
 20
-13652.81492104
 42
-1.30322619
 10
39587.13794084
 20
-13652.81492616
 10
39571.60707594
 20
-13710.85426943
 42
1.30322619
 10
39603.80459828
 20
-13710.85427454
 10
39588.27375183
 20
-13652.81492634
 42
-1.30322619
 10
39620.47127417
 20
-13652.81493145
 10
39604.94040928
 20
-13710.85427472
 42
1.30322619
 10
39637.13793161
 20
-13710.85427984
 10
39621.60708517
 20
-13652.81493163
 42
-1.30322619
 10
39653.8046075
 20
-13652.81493675
 10
39638.27374261
 20
-13710.85428002
 42
1.30322619
 10
39670.47126495
 20
-13710.85428514
 10
39654.9404185
 20
-13652.81493693
 42
-1.30322619
 10
39687.13794084
 20
-13652.81494205
 10
39671.60707594
 20
-13710.85428532
 42
1.30322619
 10
39703.80459828
 20
-13710.85429043
 10
39688.27375183
 20
-13652.81494223
 42
-1.30322619
 10
39720.47127417
 20
-13652.81494734
 10
39704.94040928
 20
-13710.85429061
 42
1.30322619
 10
39737.13793161
 20
-13710.85429573
 10
39721.60708517
 20
-13652.81494752
 42
-1.30322619
 10
39753.8046075
 20
-13652.81495264
 10
39738.27374261
 20
-13710.85429591
 42
1.30322619
 10
39770.47126495
 20
-13710.85430103
 10
39754.9404185
 20
-13652.81495282
 42
-1.30322619
 10
39787.13794084
 20
-13652.81495794
 10
39771.60707594
 20
-13710.85430121
 42
1.30322619
 10
39803.80459828
 20
-13710.85430632
 10
39788.27375183
 20
-13652.81495812
 42
-1.30322619
 10
39820.47127417
 20
-13652.81496324
 10
39804.94040928
 20
-13710.8543065
 42
1.30322619
 10
39837.13793161
 20
-13710.85431162
 10
39821.60708517
 20
-13652.81496342
 42
-1.30322619
 10
39853.8046075
 20
-13652.81496853
 10
39838.27374261
 20
-13710.8543118
 42
1.30322619
 10
39870.47126495
 20
-13710.85431692
 10
39854.9404185
 20
-13652.81496871
 42
-1.30322619
 10
39887.13794084
 20
-13652.81497383
 10
39871.60707594
 20
-13710.8543171
 42
1.30322619
 10
39903.80459828
 20
-13710.85432222
 10
39888.27375183
 20
-13652.81497401
 42
-1.30322619
 10
39920.47127417
 20
-13652.81497913
 10
39904.94040928
 20
-13710.8543224
 42
1.30322619
 10
39937.13793161
 20
-13710.85432751
 10
39921.60708517
 20
-13652.81497931
 42
-1.30322619
 10
39953.8046075
 20
-13652.81498442
 10
39938.27374261
 20
-13710.85432769
 42
1.30322619
 10
39970.47126495
 20
-13710.85433281
 10
39954.9404185
 20
-13652.8149846
 42
-1.30322619
 10
39987.13794084
 20
-13652.81498972
 10
39971.60707594
 20
-13710.85433299
 42
1.30322619
 10
40003.80459828
 20
-13710.85433811
 10
39988.27375183
 20
-13652.8149899
 42
-1.30322619
 10
40020.47127417
 20
-13652.81499502
 10
40004.94040928
 20
-13710.85433829
 42
1.30322619
 10
40037.13793161
 20
-13710.8543434
 10
40021.60708517
 20
-13652.8149952
 42
-1.30322619
 10
40053.8046075
 20
-13652.81500031
 10
40038.27374261
 20
-13710.85434358
 42
1.30322619
 10
40070.47126495
 20
-13710.8543487
 10
40054.9404185
 20
-13652.81500049
 42
-1.30322619
 10
40087.13794084
 20
-13652.81500561
 10
40071.60707594
 20
-13710.85434888
 42
1.30322619
 10
40103.80459828
 20
-13710.854354
 10
40088.27375183
 20
-13652.81500579
 42
-1.30322619
 10
40120.47127417
 20
-13652.81501091
 10
40104.94040928
 20
-13710.85435418
 42
1.30322619
 10
40137.13793161
 20
-13710.85435929
 10
40121.60708517
 20
-13652.81501109
 42
-1.30322619
 10
40153.8046075
 20
-13652.81501621
 10
40138.27374261
 20
-13710.85435947
 42
1.30322619
 10
40170.47126495
 20
-13710.85436459
 10
40154.9404185
 20
-13652.81501639
 42
-1.30322619
 10
40187.13794084
 20
-13652.8150215
 10
40171.60707594
 20
-13710.85436477
 42
1.30322619
 10
40203.80459828
 20
-13710.85436989
 10
40188.27375183
 20
-13652.81502168
 42
-1.30322619
 10
40220.47127417
 20
-13652.8150268
 10
40204.94040928
 20
-13710.85437007
 42
1.30322619
 10
40237.13793161
 20
-13710.85437519
 10
40221.60708517
 20
-13652.81502698
 42
-1.30322619
 10
40253.8046075
 20
-13652.8150321
 10
40238.27374261
 20
-13710.85437537
 42
1.30322619
 10
40270.47126495
 20
-13710.85438048
 10
40254.9404185
 20
-13652.81503228
 42
-1.30322619
 10
40287.13794084
 20
-13652.81503739
 10
40271.60707594
 20
-13710.85438066
 42
1.30322619
 10
40303.80459828
 20
-13710.85438578
 10
40288.27375183
 20
-13652.81503757
 42
-1.30322619
 10
40320.47127417
 20
-13652.81504269
 10
40304.94040928
 20
-13710.85438596
 42
1.30322619
 10
40337.13793161
 20
-13710.85439108
 10
40321.60708517
 20
-13652.81504287
 42
-1.30322619
 10
40353.8046075
 20
-13652.81504799
 10
40338.27374261
 20
-13710.85439126
 42
1.30322619
 10
40370.47126495
 20
-13710.85439637
 10
40354.9404185
 20
-13652.81504817
 42
-1.30322619
 10
40387.13794084
 20
-13652.81505328
 10
40371.60707594
 20
-13710.85439655
 42
1.30322619
 10
40403.80459828
 20
-13710.85440167
 10
40388.27375183
 20
-13652.81505346
 42
-1.30322619
 10
40420.47127417
 20
-13652.81505858
 10
40404.94040928
 20
-13710.85440185
 42
1.30322619
 10
40437.13793161
 20
-13710.85440697
 10
40421.60708517
 20
-13652.81505876
 42
-1.30322619
 10
40453.8046075
 20
-13652.81506388
 10
40438.27374261
 20
-13710.85440715
 42
1.30322619
 10
40470.47126495
 20
-13710.85441226
 10
40454.9404185
 20
-13652.81506406
 42
-1.30322619
 10
40487.13794084
 20
-13652.81506918
 10
40471.60707594
 20
-13710.85441244
 42
1.30322619
 10
40503.80459828
 20
-13710.85441756
 10
40488.27375183
 20
-13652.81506936
 42
-1.30322619
 10
40520.47127417
 20
-13652.81507447
 10
40504.94040928
 20
-13710.85441774
 42
0.61195998
 10
40526.97388062
 20
-13730.74232183
  0
LWPOLYLINE
  5
659
100
AcDbEntity
  8
Ech.1_5
 62
   190
  6
CONTINUOUS
370
    -3
100
AcDbPolyline
 90
      122
 70
     0
 43
0.0
 10
39290.57409085
 20
-13569.83474489
 42
0.49314642
 10
39306.67289508
 20
-13548.85441776
 10
39291.14203941
 20
-13490.81507202
 42
-1.30322619
 10
39323.33956175
 20
-13490.81507202
 10
39307.80870608
 20
-13548.85441776
 42
1.30322619
 10
39340.00622841
 20
-13548.85441776
 10
39324.47537274
 20
-13490.81507202
 42
-1.30322619
 10
39356.67289508
 20
-13490.81507202
 10
39341.14203941
 20
-13548.85441776
 42
1.30322619
 10
39373.33956175
 20
-13548.85441776
 10
39357.80870608
 20
-13490.81507202
 42
-1.30322619
 10
39390.00622841
 20
-13490.81507202
 10
39374.47537274
 20
-13548.85441776
 42
1.30322619
 10
39406.67289508
 20
-13548.85441776
 10
39391.14203941
 20
-13490.81507202
 42
-1.30322619
 10
39423.33956175
 20
-13490.81507202
 10
39407.80870608
 20
-13548.85441776
 42
1.30322619
 10
39440.00622841
 20
-13548.85441776
 10
39424.47537274
 20
-13490.81507202
 42
-1.30322619
 10
39456.67289508
 20
-13490.81507202
 10
39441.14203941
 20
-13548.85441776
 42
1.30322619
 10
39473.33956175
 20
-13548.85441776
 10
39457.80870608
 20
-13490.81507202
 42
-1.30322619
 10
39490.00622841
 20
-13490.81507202
 10
39474.47537274
 20
-13548.85441776
 42
1.30322619
 10
39506.67289508
 20
-13548.85441776
 10
39491.14203941
 20
-13490.81507202
 42
-1.30322619
 10
39523.33956175
 20
-13490.81507202
 10
39507.80870608
 20
-13548.85441776
 42
1.30322619
 10
39540.00622841
 20
-13548.85441776
 10
39524.47537274
 20
-13490.81507202
 42
-1.30322619
 10
39556.67289508
 20
-13490.81507202
 10
39541.14203941
 20
-13548.85441776
 42
1.30322619
 10
39573.33956175
 20
-13548.85441776
 10
39557.80870608
 20
-13490.81507202
 42
-1.30322619
 10
39590.00622841
 20
-13490.81507202
 10
39574.47537274
 20
-13548.85441776
 42
1.30322619
 10
39606.67289508
 20
-13548.85441776
 10
39591.14203941
 20
-13490.81507202
 42
-1.30322619
 10
39623.33956175
 20
-13490.81507202
 10
39607.80870608
 20
-13548.85441776
 42
1.30322619
 10
39640.00622841
 20
-13548.85441776
 10
39624.47537274
 20
-13490.81507202
 42
-1.30322619
 10
39656.67289508
 20
-13490.81507202
 10
39641.14203941
 20
-13548.85441776
 42
1.30322619
 10
39673.33956175
 20
-13548.85441776
 10
39657.80870608
 20
-13490.81507202
 42
-1.30322619
 10
39690.00622841
 20
-13490.81507202
 10
39674.47537274
 20
-13548.85441776
 42
1.30322619
 10
39706.67289508
 20
-13548.85441776
 10
39691.14203941
 20
-13490.81507202
 42
-1.30322619
 10
39723.33956175
 20
-13490.81507202
 10
39707.80870608
 20
-13548.85441776
 42
1.30322619
 10
39740.00622841
 20
-13548.85441776
 10
39724.47537274
 20
-13490.81507202
 42
-1.30322619
 10
39756.67289508
 20
-13490.81507202
 10
39741.14203941
 20
-13548.85441776
 42
1.30322619
 10
39773.33956175
 20
-13548.85441776
 10
39757.80870608
 20
-13490.81507202
 42
-1.30322619
 10
39790.00622841
 20
-13490.81507202
 10
39774.47537274
 20
-13548.85441776
 42
1.30322619
 10
39806.67289508
 20
-13548.85441776
 10
39791.14203941
 20
-13490.81507202
 42
-1.30322619
 10
39823.33956175
 20
-13490.81507202
 10
39807.80870608
 20
-13548.85441776
 42
1.30322619
 10
39840.00622841
 20
-13548.85441776
 10
39824.47537274
 20
-13490.81507202
 42
-1.30322619
 10
39856.67289508
 20
-13490.81507202
 10
39841.14203941
 20
-13548.85441776
 42
1.30322619
 10
39873.33956175
 20
-13548.85441776
 10
39857.80870608
 20
-13490.81507202
 42
-1.30322619
 10
39890.00622841
 20
-13490.81507202
 10
39874.47537274
 20
-13548.85441776
 42
1.30322619
 10
39906.67289508
 20
-13548.85441776
 10
39891.14203941
 20
-13490.81507202
 42
-1.30322619
 10
39923.33956175
 20
-13490.81507202
 10
39907.80870608
 20
-13548.85441776
 42
1.30322619
 10
39940.00622841
 20
-13548.85441776
 10
39924.47537274
 20
-13490.81507202
 42
-1.30322619
 10
39956.67289508
 20
-13490.81507202
 10
39941.14203941
 20
-13548.85441776
 42
1.30322619
 10
39973.33956175
 20
-13548.85441776
 10
39957.80870608
 20
-13490.81507202
 42
-1.30322619
 10
39990.00622841
 20
-13490.81507202
 10
39974.47537274
 20
-13548.85441776
 42
1.30322619
 10
40006.67289508
 20
-13548.85441776
 10
39991.14203941
 20
-13490.81507202
 42
-1.30322619
 10
40023.33956175
 20
-13490.81507202
 10
40007.80870608
 20
-13548.85441776
 42
1.30322619
 10
40040.00622841
 20
-13548.85441776
 10
40024.47537274
 20
-13490.81507202
 42
-1.30322619
 10
40056.67289508
 20
-13490.81507202
 10
40041.14203941
 20
-13548.85441776
 42
1.30322619
 10
40073.33956175
 20
-13548.85441776
 10
40057.80870608
 20
-13490.81507202
 42
-1.30322619
 10
40090.00622841
 20
-13490.81507202
 10
40074.47537274
 20
-13548.85441776
 42
1.30322619
 10
40106.67289508
 20
-13548.85441776
 10
40091.14203941
 20
-13490.81507202
 42
-1.30322619
 10
40123.33956175
 20
-13490.81507202
 10
40107.80870608
 20
-13548.85441776
 42
1.30322619
 10
40140.00622841
 20
-13548.85441776
 10
40124.47537274
 20
-13490.81507202
 42
-1.30322619
 10
40156.67289508
 20
-13490.81507202
 10
40141.14203941
 20
-13548.85441776
 42
1.30322619
 10
40173.33956175
 20
-13548.85441776
 10
40157.80870608
 20
-13490.81507202
 42
-1.30322619
 10
40190.00622841
 20
-13490.81507202
 10
40174.47537274
 20
-13548.85441776
 42
1.30322619
 10
40206.67289508
 20
-13548.85441776
 10
40191.14203941
 20
-13490.81507202
 42
-1.30322619
 10
40223.33956175
 20
-13490.81507202
 10
40207.80870608
 20
-13548.85441776
 42
1.30322619
 10
40240.00622841
 20
-13548.85441776
 10
40224.47537274
 20
-13490.81507202
 42
-1.30322619
 10
40256.67289508
 20
-13490.81507202
 10
40241.14203941
 20
-13548.85441776
 42
1.30322619
 10
40273.33956175
 20
-13548.85441776
 10
40257.80870608
 20
-13490.81507202
 42
-1.30322619
 10
40290.00622841
 20
-13490.81507202
 10
40274.47537274
 20
-13548.85441776
 42
0.56527988
 10
40294.29904512
 20
-13569.41316407
  0
ARC
  5
65A
100
AcDbEntity
  8
Ech.1_5
 62
   190
  6
CONTINUOUS
370
    -3
100
AcDbCircle
 10
39231.33017495
 20
-13636.28489177
 30
0.0
 40
4.99998675
100
AcDbArc
 50
257.68297916
 51
282.31702084
  0
LWPOLYLINE
  5
65B
100
AcDbEntity
  8
Ech.1_5
 62
     9
100
AcDbPolyline
 90
       17
 70
     0
 43
0.0
 10
39016.37250045
 20
-13788.39590167
 10
39016.37250045
 20
-13787.91812549
 10
39012.37250045
 20
-13783.91812549
 10
39016.37250045
 20
-13779.91812549
 10
39016.37250045
 20
-13715.91812549
 10
39012.37250045
 20
-13711.91812549
 10
39016.37250045
 20
-13707.91812549
 10
39016.37250045
 20
-13672.91812549
 10
39009.37250045
 20
-13672.91812549
 10
39009.37250045
 20
-13666.91812549
 10
39006.87250045
 20
-13661.91812549
 10
39004.37250045
 20
-13666.91812549
 10
39004.37250045
 20
-13697.84705768
 10
39003.99189811
 20
-13699.76047454
 10
38997.83696654
 20
-13706.45365939
 10
38996.37250045
 20
-13709.9891933
 10
38996.37250045
 20
-13788.39581744
  0
LWPOLYLINE
  5
65C
100
AcDbEntity
  8
Ech.1_5
 62
     7
100
AcDbPolyline
 90
        2
 70
     1
 43
0.0
 10
39337.4816154
 20
-13524.95124378
 42
1.0
 10
39337.4816154
 20
-13523.33544432
 42
1.0
  0
LWPOLYLINE
  5
65D
100
AcDbEntity
  8
Ech.1_5
 62
     7
100
AcDbPolyline
 90
        2
 70
     1
 43
0.0
 10
39337.4816154
 20
-13540.27808331
 42
1.0
 10
39337.4816154
 20
-13538.66228385
 42
1.0
  0
LWPOLYLINE
  5
65E
100
AcDbEntity
  8
Ech.1_5
 62
     7
100
AcDbPolyline
 90
        2
 70
     1
 43
0.0
 10
39315.25875271
 20
-13540.27808331
 42
1.0
 10
39315.25875271
 20
-13538.66228385
 42
1.0
  0
LWPOLYLINE
  5
65F
100
AcDbEntity
  8
Ech.1_5
 62
     7
100
AcDbPolyline
 90
        2
 70
     1
 43
0.0
 10
39315.25875271
 20
-13524.95124378
 42
1.0
 10
39315.25875271
 20
-13523.33544432
 42
1.0
  0
LWPOLYLINE
  5
660
100
AcDbEntity
  8
Ech.1_5
 62
     7
100
AcDbPolyline
 90
        2
 70
     1
 43
0.0
 10
39326.86997257
 20
-13548.40982902
 42
1.0
 10
39326.86997257
 20
-13546.79402957
 42
1.0
  0
LWPOLYLINE
  5
661
100
AcDbEntity
  8
Ech.1_5
 62
     7
100
AcDbPolyline
 90
        2
 70
     1
 43
0.0
 10
39326.86997257
 20
-13533.0829895
 42
1.0
 10
39326.86997257
 20
-13531.46719004
 42
1.0
  0
LWPOLYLINE
  5
662
100
AcDbEntity
  8
Ech.1_5
100
AcDbPolyline
 90
        5
 70
     0
 43
0.0
 10
39305.37018405
 20
-13514.23402662
 10
39347.37018405
 20
-13514.23403194
 10
39347.37018405
 20
-13569.83475807
 10
39305.37018405
 20
-13569.83473868
 10
39305.37018405
 20
-13514.23403194
  0
LWPOLYLINE
  5
663
100
AcDbEntity
  8
Ech.1_5
 62
     7
100
AcDbPolyline
 90
        5
 70
     0
 43
0.0
 10
39312.62983221
 20
-13567.33437547
 42
-1.0
 10
39317.98665865
 20
-13567.33437547
 10
39317.98665865
 20
-13548.75289233
 42
1.0
 10
39312.62983221
 20
-13548.75289233
 10
39312.62983221
 20
-13567.33437547
  0
LWPOLYLINE
  5
664
100
AcDbEntity
  8
Ech.1_5
 62
     7
100
AcDbPolyline
 90
        5
 70
     0
 43
0.0
 10
39340.1105359
 20
-13567.33437547
 10
39340.1105359
 20
-13548.75289233
 42
1.0
 10
39334.75370945
 20
-13548.75289233
 10
39334.75370945
 20
-13567.33437547
 42
-1.0
 10
39340.1105359
 20
-13567.33437547
  0
LWPOLYLINE
  5
665
100
AcDbEntity
  8
Ech.1_5
100
AcDbPolyline
 90
        4
 70
     0
 43
0.0
 10
38759.65393071
 20
-13606.83474837
 10
39016.37250045
 20
-13606.83474837
 10
39016.37250045
 20
-13596.83474837
 10
38759.65393071
 20
-13596.83474837
  0
LWPOLYLINE
  5
666
102
{ACAD_REACTORS
330
667
102
}
100
AcDbEntity
  8
Ech.1_5
 62
     7
  6
CONTINUOUS
370
    -3
100
AcDbPolyline
 90
        4
 70
     1
 43
0.0
 10
38818.41649766
 20
-13596.83474837
 10
38818.41649766
 20
-13606.83474837
 10
39016.37250045
 20
-13606.83474837
 10
39016.37250045
 20
-13596.83474837
  0
HATCH
  5
667
100
AcDbEntity
  8
Ech.1_5
 62
   190
  6
CONTINUOUS
100
AcDbHatch
 10
0.0
 20
0.0
 30
0.0
210
0.0
220
0.0
230
1.0
  2
ANSI37
 70
     0
 71
     1
 91
        1
 92
        7
 72
     0
 73
     1
 93
        4
 10
38818.41649766
 20
-13596.83474837
 10
38818.41649766
 20
-13606.83474837
 10
39016.37250045
 20
-13606.83474837
 10
39016.37250045
 20
-13596.83474837
 97
        1
330
666
 75
     0
 76
     2
 52
0.0
 41
1.88976388
 77
     0
 78
     2
 53
45.0
 43
0.0
 44
0.0
 45
4.24264086
 46
-4.24264086
 79
     0
 53
-45.0
 43
0.0
 44
0.0
 45
4.24264086
 46
4.24264086
 79
     0
 47
0.775229
 98
        1
 10
0.0
 20
0.0
  0
LWPOLYLINE
  5
668
100
AcDbEntity
  8
Ech.1_5
 62
   177
  6
CONTINUOUS
370
    70
100
AcDbPolyline
 90
        6
 70
     0
 43
0.0
 10
39016.37234775
 20
-13624.33617741
 10
39016.37250045
 20
-13607.77449288
 10
39004.04763342
 20
-13607.77444398
 10
39016.37250045
 20
-13607.77449288
 10
39016.37250045
 20
-13595.8950531
 10
39004.04777197
 20
-13595.8950531
  0
LINE
  5
669
100
AcDbEntity
  8
Ech.1_5
 62
     9
  6
CONTINUOUS
370
    -3
100
AcDbLine
 10
39016.37250045
 20
-13621.83474837
 30
2500.0
 11
38996.37250045
 21
-13621.83474837
 31
2500.0
  0
3DFACE
  5
66A
102
{ACAD_REACTORS
330
66B
102
}
100
AcDbEntity
  8
Ech.1_5
 62
     9
  6
CONTINUOUS
370
    -3
100
AcDbFace
 70
     0
 10
39436.37250045
 20
-13788.39571038
 30
2500.0
 11
39436.37250045
 21
-13569.83474489
 31
2500.0
 12
39236.37239318
 22
-13569.83474489
 32
2500.0
 13
39236.37262572
 23
-13788.39571038
 33
2500.0
  0
HATCH
  5
66B
100
AcDbEntity
  8
Ech.1_5
 62
     9
  6
CONTINUOUS
100
AcDbHatch
 10
0.0
 20
0.0
 30
0.0
210
0.0
220
0.0
230
1.0
  2
AR-CONC
 70
     0
 71
     1
 91
        1
 92
        7
 72
     0
 73
     1
 93
        4
 10
39436.37250045
 20
-13788.39571038
 10
39436.37250045
 20
-13569.83474489
 10
39236.37239318
 20
-13569.83474489
 10
39236.37262572
 20
-13788.39571038
 97
        1
330
66A
 75
     0
 76
     2
 52
45.0
 41
0.11811097
 77
     0
 78
    13
 53
50.0
 43
0.0
 44
0.0
 45
-18.84283637
 46
1.64853443
 79
     2
 49
1.97029307
 49
-21.67322338
 53
355.0
 43
0.0
 44
0.0
 45
-3.64507756
 46
19.76051824
 79
     2
 49
1.57623377
 49
-17.3385787
 53
100.45140076
 43
1.57023568
 44
-0.13737749
 45
-15.19777228
 46
-18.11197244
 79
     2
 49
1.67449124
 49
-18.41940522
 53
46.18420029
 43
0.0
 44
5.25411576
 45
-28.03703353
 46
4.34827878
 79
     2
 49
2.95543872
 49
-32.50983238
 53
96.63559723
 43
2.33641885
 44
4.89175692
 45
-24.55412615
 46
-25.59063404
 79
     2
 49
2.51173697
 49
-27.62910426
 53
351.1842041
 43
0.0
 44
5.25411576
 45
24.55410288
 46
25.59065715
 79
     2
 49
2.36435249
 49
-26.00786805
 53
21.0
 43
2.62705699
 44
3.94058615
 45
-15.68109068
 46
10.57702905
 79
     2
 49
1.97029307
 49
-21.67322338
 53
326.0
 43
2.62705699
 44
3.94058615
 45
6.39203268
 46
19.05010734
 79
     2
 49
1.57623377
 49
-17.3385787
 53
71.45140076
 43
3.93381357
 44
3.05916555
 45
-22.07312962
 46
-8.47306182
 79
     2
 49
1.67449124
 49
-18.41940522
 53
37.5
 43
0.0
 44
0.0
 45
0.31944534
 46
8.74531245
 79
     6
 49
0.01875
 49
-17.12841332
 49
0.01875
 49
-17.60128498
 49
0.01875
 49
-17.40425348
 53
7.5
 43
0.0
 44
0.0
 45
6.91098818
 46
10.3614222
 79
     6
 49
0.01875
 49
-10.03535807
 49
0.01875
 49
-16.7343539
 49
0.01875
 49
-6.6333206
 53
-32.5
 43
-5.85833833
 44
0.0
 45
14.02382061
 46
-0.59253003
 79
     6
 49
0.01875
 49
-6.56764314
 49
0.01875
 49
-20.49104869
 49
0.01875
 49
-27.19004452
 53
-42.5
 43
-8.48539531
 44
0.0
 45
15.32063571
 46
2.62981542
 79
     6
 49
0.01875
 49
-8.53793621
 49
0.01875
 49
-13.60815793
 49
0.01875
 49
-19.30887222
 47
0.775229
 98
        1
 10
0.0
 20
0.0
  0
LWPOLYLINE
  5
66C
100
AcDbEntity
  8
Ech.1_5
 62
     7
  6
CONTINUOUS
370
    -3
100
AcDbPolyline
 90
        5
 70
     1
 43
0.0
 10
38982.05478517
 20
-13569.83474837
 10
39027.05478517
 20
-13569.83474837
 10
39027.05478517
 20
-13479.83474837
 10
39003.47342616
 20
-13479.83474837
 10
38982.05478517
 20
-13479.83474837
  0
LWPOLYLINE
  5
66D
100
AcDbEntity
  8
Ech.1_5
 62
   190
  6
CONTINUOUS
370
    -3
100
AcDbPolyline
 90
        4
 70
     0
 43
0.0
 10
38982.05478517
 20
-13569.83474837
 10
39027.05478517
 20
-13479.83474837
 10
38982.05478517
 20
-13479.83474837
 10
39027.05478517
 20
-13569.83474837
  0
LWPOLYLINE
  5
66E
100
AcDbEntity
  8
Ech.1_5
100
AcDbPolyline
 90
        4
 70
     0
 43
0.0
 10
39027.25663547
 20
-13568.23404163
 10
39027.25663547
 20
-13358.68445158
 10
39036.25663553
 20
-13358.68445158
 10
39036.25667799
 20
-13568.23404163
  0
LINE
  5
66F
100
AcDbEntity
  8
Ech.1_5
 62
   140
100
AcDbLine
 10
38973.0567437
 20
-13569.83474837
 30
0.0
 11
39020.49740496
 21
-13569.83474837
 31
0.0
  0
LINE
  5
670
100
AcDbEntity
  8
Ech.1_5
 62
     7
100
AcDbLine
 10
38985.55152285
 20
-13569.83474837
 30
0.0
 11
39010.78288286
 21
-13569.83474837
 31
0.0
  0
LWPOLYLINE
  5
671
102
{ACAD_REACTORS
330
672
102
}
100
AcDbEntity
  8
Ech.1_5
 62
     7
  6
CONTINUOUS
370
    -3
100
AcDbPolyline
 90
        4
 70
     1
 43
0.0
 10
39027.2567158
 20
-13568.23404163
 10
39036.25671586
 20
-13568.23404163
 10
39036.25648284
 20
-13358.68445158
 10
39027.25648277
 20
-13358.68445158
  0
HATCH
  5
672
100
AcDbEntity
  8
Ech.1_5
 62
   190
  6
CONTINUOUS
100
AcDbHatch
 10
0.0
 20
0.0
 30
0.0
210
0.0
220
0.0
230
1.0
  2
CDWK10A
 70
     0
 71
     1
 91
        1
 92
        7
 72
     0
 73
     1
 93
        4
 10
39027.2567158
 20
-13568.23404163
 10
39036.25671586
 20
-13568.23404163
 10
39036.25648284
 20
-13358.68445158
 10
39027.25648277
 20
-13358.68445158
 97
        1
330
671
 75
     0
 76
     2
 52
0.0
 41
1.0
 77
     0
 78
     3
 53
45.0
 43
0.0
 44
0.0
 45
0.0
 46
42.00000167
 79
     0
 53
45.0
 43
0.0
 44
10.80000043
 45
0.0
 46
42.00000167
 79
     0
 53
45.0
 43
0.0
 44
21.60000086
 45
0.0
 46
42.00000167
 79
     0
 47
0.775229
 98
        1
 10
0.0
 20
0.0
  0
LWPOLYLINE
  5
673
100
AcDbEntity
  8
Ech.1_5
 62
     5
  6
CONTINUOUS
370
    -3
100
AcDbPolyline
 90
        7
 70
     0
 43
0.0
 10
38982.05478517
 20
-13569.83474837
 10
39027.05478517
 20
-13569.83474837
 10
39027.05478517
 20
-13479.83474837
 10
39003.47342616
 20
-13479.83474837
 10
38982.05478517
 20
-13479.83474837
 10
38982.05478517
 20
-13569.83474837
 10
39003.07760869
 20
-13569.83474837
  0
LWPOLYLINE
  5
674
100
AcDbEntity
  8
Ech.1_5
 62
     7
  6
CONTINUOUS
370
    -3
100
AcDbPolyline
 90
        4
 70
     1
 43
0.0
 10
39036.37250045
 20
-13788.39640375
 10
39036.37250045
 20
-13569.83474837
 10
39016.37250045
 20
-13569.83474837
 10
39016.37250045
 20
-13788.39640375
  0
LWPOLYLINE
  5
675
102
{ACAD_REACTORS
330
676
102
}
100
AcDbEntity
  8
Ech.1_5
 62
   190
  6
CONTINUOUS
100
AcDbPolyline
 90
        3
 70
     1
 43
0.0
 10
38958.46978708
 20
-13690.7656483
 10
38945.2442781
 20
-13707.23305928
 10
38962.24586958
 20
-13695.44597641
  0
HATCH
  5
676
100
AcDbEntity
  8
Ech.1_5
 62
   190
  6
CONTINUOUS
100
AcDbHatch
 10
0.0
 20
0.0
 30
0.0
210
0.0
220
0.0
230
1.0
  2
SOLID
 70
     1
 71
     1
 91
        1
 92
        7
 72
     0
 73
     1
 93
        3
 10
38958.46978708
 20
-13690.7656483
 10
38945.2442781
 20
-13707.23305928
 10
38962.24586958
 20
-13695.44597641
 97
        1
330
675
 75
     0
 76
     2
 47
0.775229
 98
        1
 10
0.0
 20
0.0
  0
LWPOLYLINE
  5
677
100
AcDbEntity
  8
Ech.1_5
 62
   190
  6
CONTINUOUS
370
    -3
100
AcDbPolyline
 90
       41
 70
     0
 43
0.0
 10
39023.67200581
 20
-13700.08443007
 10
39023.78600146
 20
-13695.04990868
 10
39023.90239315
 20
-13690.01989628
 10
39024.02357695
 20
-13684.99890187
 10
39024.15194889
 20
-13679.99143445
 10
39024.28990503
 20
-13675.002003
 10
39024.43984141
 20
-13670.03511652
 10
39024.60415408
 20
-13665.095284
 10
39024.7829691
 20
-13660.18181733
 10
39024.96672825
 20
-13655.27185654
 10
39025.1432913
 20
-13650.33663016
 10
39025.30051799
 20
-13645.34736668
 10
39025.42626805
 20
-13640.27529456
 10
39025.5083576
 20
-13635.09167254
 10
39025.41737277
 20
-13629.84907974
 10
39024.65170935
 20
-13624.85827709
 10
39022.63714606
 20
-13620.48087954
 10
39019.10654181
 20
-13617.00259578
 10
39014.52134931
 20
-13614.52903546
 10
39009.44809597
 20
-13613.13976648
 10
39004.35178994
 20
-13612.92813371
 10
38999.48376117
 20
-13614.01647993
 10
38995.07193349
 20
-13616.46436517
 10
38991.36164973
 20
-13620.01136213
 10
38988.60348821
 20
-13624.30084727
 10
38986.93881858
 20
-13629.01368657
 10
38986.10071325
 20
-13633.97097686
 10
38985.72687111
 20
-13639.0266055
 10
38985.4846595
 20
-13644.06344168
 10
38985.12819622
 20
-13649.04909734
 10
38984.4273708
 20
-13653.96659116
 10
38983.1967498
 20
-13658.79644081
 10
38981.45920715
 20
-13663.50750317
 10
38979.29827951
 20
-13668.06523925
 10
38976.79736768
 20
-13672.43542223
 10
38974.02842427
 20
-13676.60888649
 10
38971.04376545
 20
-13680.61945232
 10
38967.89377603
 20
-13684.50516801
 10
38964.62884078
 20
-13688.30408187
 10
38961.29934451
 20
-13692.05424219
 10
38960.35782833
 20
-13693.10581235
  0
LWPOLYLINE
  5
678
100
AcDbEntity
  8
Ech.1_5
 62
   190
  6
CONTINUOUS
370
    -3
100
AcDbPolyline
 90
        3
 70
     0
 43
0.0
 10
39027.53027851
 20
-13762.82869193
 10
38999.55654401
 20
-13762.82869193
 10
38979.55654401
 20
-13762.82869193
  0
INSERT
  5
679
100
AcDbEntity
  8
Ech.1_5
 62
   190
  6
CONTINUOUS
370
    -3
100
AcDbBlockReference
  2
CDWK_EXTR_4
 10
39027.53027851
 20
-13762.82869193
 30
0.0
 41
5.0
 42
5.0
 43
5.0
 50
180.0
  0
LWPOLYLINE
  5
67A
100
AcDbEntity
  8
Ech.1_5
 62
   190
  6
CONTINUOUS
370
    -3
100
AcDbPolyline
 90
        9
 70
     1
 43
0.0
 10
39236.37262572
 20
-13788.39488921
 10
39236.37262572
 20
-13665.57454715
 10
39236.37262572
 20
-13369.83474489
 10
39136.37250045
 20
-13369.83474489
 10
39136.37250045
 20
-13788.3965111
 10
39140.44497442
 20
-13788.39651904
 10
39156.9313285
 20
-13770.41816745
 10
39142.82138849
 20
-13806.37386737
 10
39159.30689164
 20
-13788.39651904
  0
LWPOLYLINE
  5
67B
100
AcDbEntity
  8
Ech.1_5
 62
   190
  6
CONTINUOUS
370
    -3
100
AcDbPolyline
 90
        4
 70
     1
 43
0.0
 10
39136.37250045
 20
-13788.3965111
 10
39136.37250045
 20
-13369.83474489
 10
39036.37250045
 20
-13369.83474489
 10
39036.37250045
 20
-13788.3965111
  0
LWPOLYLINE
  5
67C
100
AcDbEntity
  8
Ech.1_5
 62
   190
  6
CONTINUOUS
370
    -3
100
AcDbPolyline
 90
       50
 70
     0
 43
0.0
 10
39219.70593818
 20
-13788.39571038
 42
1.14028181
 10
39215.39227231
 20
-13755.6302415
 10
39157.35285386
 20
-13771.16111662
 42
-1.30322619
 10
39157.35285386
 20
-13738.96355395
 10
39215.39227231
 20
-13754.49442908
 42
1.30322619
 10
39215.39227231
 20
-13722.2968664
 10
39157.35285386
 20
-13737.82774153
 42
-1.30322619
 10
39157.35285386
 20
-13705.63017886
 10
39215.39227231
 20
-13721.16105398
 42
1.30322619
 10
39215.39227231
 20
-13688.96349131
 10
39157.35285386
 20
-13704.49436644
 42
-1.30322619
 10
39157.35285386
 20
-13672.29680376
 10
39215.39227231
 20
-13687.82767889
 42
1.30322619
 10
39215.39227231
 20
-13655.63011622
 10
39157.35285386
 20
-13671.16099134
 42
-1.30322619
 10
39157.35285386
 20
-13638.96342867
 10
39215.39227231
 20
-13654.4943038
 42
1.30322619
 10
39215.39227231
 20
-13622.29674112
 10
39157.35285386
 20
-13637.82761625
 42
-1.30322619
 10
39157.35285386
 20
-13605.63005358
 10
39215.39227231
 20
-13621.16092871
 42
1.30322619
 10
39215.39227231
 20
-13588.96336603
 10
39157.35285386
 20
-13604.49424116
 42
-1.30322619
 10
39157.35285386
 20
-13572.29667848
 10
39215.39227231
 20
-13587.82755361
 42
1.30322619
 10
39215.39227231
 20
-13555.62999094
 10
39157.35285386
 20
-13571.16086607
 42
-1.30322619
 10
39157.35285386
 20
-13538.96330339
 10
39215.39227231
 20
-13554.49417852
 42
1.30322619
 10
39215.39227231
 20
-13522.29661585
 10
39157.35285386
 20
-13537.82749097
 42
-1.30322619
 10
39157.35285386
 20
-13505.6299283
 10
39215.39227231
 20
-13521.16080343
 42
1.30322619
 10
39215.39227231
 20
-13488.96324075
 10
39157.35285386
 20
-13504.49411588
 42
-1.30322619
 10
39157.35285386
 20
-13472.29655321
 10
39215.39227231
 20
-13487.82742833
 42
1.30322619
 10
39215.39227231
 20
-13455.62986566
 10
39157.35285386
 20
-13471.16074079
 42
-1.30322619
 10
39157.35285386
 20
-13438.96317811
 10
39215.39227231
 20
-13454.49405324
 42
1.30322619
 10
39215.39227231
 20
-13422.29649057
 10
39157.35285386
 20
-13437.82736569
 42
-1.30322619
 10
39157.35285386
 20
-13405.62980302
 10
39215.39227231
 20
-13421.16067815
 42
1.30322619
 10
39215.39227231
 20
-13388.96311547
 10
39157.35285386
 20
-13404.4939906
 42
-1.30322619
 10
39157.35285386
 20
-13372.29642793
 10
39215.39227231
 20
-13387.82730306
 42
0.52905071
 10
39236.2646846
 20
-13369.83474489
  0
LWPOLYLINE
  5
67D
100
AcDbEntity
  8
Ech.1_5
 62
   190
  6
CONTINUOUS
370
    -3
100
AcDbPolyline
 90
       50
 70
     0
 43
0.0
 10
39119.70583378
 20
-13788.3965111
 42
1.14028181
 10
39115.39217331
 20
-13755.63108327
 10
39057.35282758
 20
-13771.16193894
 42
-1.30322619
 10
39057.35282758
 20
-13738.9644166
 10
39115.39217331
 20
-13754.49527227
 42
1.30322619
 10
39115.39217331
 20
-13722.29774993
 10
39057.35282758
 20
-13737.8286056
 42
-1.30322619
 10
39057.35282758
 20
-13705.63108327
 10
39115.39217331
 20
-13721.16193894
 42
1.30322619
 10
39115.39217331
 20
-13688.9644166
 10
39057.35282758
 20
-13704.49527227
 42
-1.30322619
 10
39057.35282758
 20
-13672.29774993
 10
39115.39217331
 20
-13687.8286056
 42
1.30322619
 10
39115.39217331
 20
-13655.63108327
 10
39057.35282758
 20
-13671.16193894
 42
-1.30322619
 10
39057.35282758
 20
-13638.9644166
 10
39115.39217331
 20
-13654.49527227
 42
1.30322619
 10
39115.39217331
 20
-13622.29774993
 10
39057.35282758
 20
-13637.8286056
 42
-1.30322619
 10
39057.35282758
 20
-13605.63108327
 10
39115.39217331
 20
-13621.16193894
 42
1.30322619
 10
39115.39217331
 20
-13588.9644166
 10
39057.35282758
 20
-13604.49527227
 42
-1.30322619
 10
39057.35282758
 20
-13572.29774993
 10
39115.39217331
 20
-13587.8286056
 42
1.30322619
 10
39115.39217331
 20
-13555.63108327
 10
39057.35282758
 20
-13571.16193894
 42
-1.30322619
 10
39057.35282758
 20
-13538.9644166
 10
39115.39217331
 20
-13554.49527227
 42
1.30322619
 10
39115.39217331
 20
-13522.29774993
 10
39057.35282758
 20
-13537.8286056
 42
-1.30322619
 10
39057.35282758
 20
-13505.63108327
 10
39115.39217331
 20
-13521.16193894
 42
1.30322619
 10
39115.39217331
 20
-13488.9644166
 10
39057.35282758
 20
-13504.49527227
 42
-1.30322619
 10
39057.35282758
 20
-13472.29774993
 10
39115.39217331
 20
-13487.8286056
 42
1.30322619
 10
39115.39217331
 20
-13455.63108327
 10
39057.35282758
 20
-13471.16193894
 42
-1.30322619
 10
39057.35282758
 20
-13438.9644166
 10
39115.39217331
 20
-13454.49527227
 42
1.30322619
 10
39115.39217331
 20
-13422.29774993
 10
39057.35282758
 20
-13437.8286056
 42
-1.30322619
 10
39057.35282758
 20
-13405.63108327
 10
39115.39217331
 20
-13421.16193894
 42
1.30322619
 10
39115.39217331
 20
-13388.9644166
 10
39057.35282758
 20
-13404.49527227
 42
-1.30322619
 10
39057.35282758
 20
-13372.29774993
 10
39115.39217331
 20
-13387.8286056
 42
0.52907632
 10
39136.26440786
 20
-13369.83474489
  0
LWPOLYLINE
  5
67E
100
AcDbEntity
  8
Ech.1_5
 62
   254
  6
CONTINUOUS
370
    -3
100
AcDbPolyline
 90
        4
 70
     1
 43
0.0
 10
39441.37250045
 20
-13569.83474489
 10
39441.37250045
 20
-13788.39566565
 10
39491.37250045
 20
-13788.39521836
 10
39491.37250045
 20
-13569.83474489
  0
LWPOLYLINE
  5
67F
100
AcDbEntity
  8
Ech.1_5
 62
     9
  6
CONTINUOUS
370
    -3
100
AcDbPolyline
 90
       50
 70
     0
 43
0.0
 10
39449.70583378
 20
-13569.83474489
 42
0.99994639
 10
39449.70494049
 20
-13586.50141181
 42
0.06557053
 10
39451.86266401
 20
-13586.21745916
 10
39480.88233688
 20
-13578.45203157
 42
-1.14022144
 10
39483.04004261
 20
-13594.83474489
 42
-1.14022136
 10
39480.88233688
 20
-13611.21745916
 10
39451.86266401
 20
-13603.45203157
 42
0.06551691
 10
39449.70671061
 20
-13603.1680779
 42
0.99999996
 10
39449.70495808
 20
-13619.83474489
 42
0.06556941
 10
39451.86266401
 20
-13619.55079218
 10
39480.88233688
 20
-13611.78536459
 42
-0.06551834
 10
39483.03832805
 20
-13611.50141181
 42
-0.99999784
 10
39483.04004258
 20
-13628.1680779
 42
-0.99989492
 10
39483.0400426
 20
-13644.83474489
 42
-1.14022136
 10
39480.88233688
 20
-13661.21745916
 10
39451.86266401
 20
-13653.45203157
 42
0.06551691
 10
39449.70671061
 20
-13653.1680779
 42
0.99999996
 10
39449.70495808
 20
-13669.83474489
 42
0.06556941
 10
39451.86266401
 20
-13669.55079218
 10
39480.88233688
 20
-13661.78536459
 42
-0.06551837
 10
39483.03832927
 20
-13661.50141181
 42
-0.99999777
 10
39483.04004259
 20
-13678.1680779
 42
-0.99989492
 10
39483.04004259
 20
-13694.83474489
 42
-1.14022136
 10
39480.88233688
 20
-13711.21745916
 10
39451.86266401
 20
-13703.45203157
 42
0.06551691
 10
39449.70671061
 20
-13703.1680779
 42
0.99999996
 10
39449.70495807
 20
-13719.83474489
 42
0.06556941
 10
39451.86266401
 20
-13719.55079218
 10
39480.88233688
 20
-13711.78536459
 42
-0.06551841
 10
39483.03833045
 20
-13711.50141181
 42
-0.9999977
 10
39483.0400426
 20
-13728.1680779
 42
-0.99989492
 10
39483.0400426
 20
-13744.83474489
 42
-1.14022136
 10
39480.88233688
 20
-13761.21745916
 10
39451.86266401
 20
-13753.45203157
 42
0.06551691
 10
39449.70671061
 20
-13753.1680779
 42
0.99999996
 10
39449.70495808
 20
-13769.83474489
 42
0.06556941
 10
39451.86266401
 20
-13769.55079218
 10
39480.88233688
 20
-13761.78536459
 42
-0.06551837
 10
39483.03832919
 20
-13761.50141181
 42
-0.99999777
 10
39483.04004259
 20
-13778.1680779
 42
-0.41418279
 10
39491.37250045
 20
-13788.39521836
 42
0.41418274
 10
39483.04004283
 20
-13778.1680779
 42
-0.06556985
 10
39480.88233688
 20
-13777.88412614
 10
39451.86266401
 20
-13770.1186976
 42
0.06551739
 10
39449.70670941
 20
-13769.83474489
 42
1.00000222
 10
39449.70499547
 20
-13786.50141181
 42
0.06556887
 10
39451.86266401
 20
-13786.21745916
 10
39480.88233688
 20
-13778.45203157
 42
-0.06551695
 10
39483.03829146
 20
-13778.1680779
 42
-0.48310486
 10
39491.15445714
 20
-13788.39522031
  0
LWPOLYLINE
  5
680
100
AcDbEntity
  8
Ech.1_5
 62
     9
  6
CONTINUOUS
370
    -3
100
AcDbPolyline
 90
       18
 70
     0
 43
0.0
 10
39480.88233688
 20
-13677.88412614
 10
39451.86266401
 20
-13670.1186976
 42
0.06551739
 10
39449.70670941
 20
-13669.83474489
 42
1.00000222
 10
39449.70499552
 20
-13686.50141181
 42
0.06556887
 10
39451.86266401
 20
-13686.21745916
 10
39480.88233688
 20
-13678.45203157
 42
-0.06551695
 10
39483.03829146
 20
-13678.1680779
 42
-0.99999997
 10
39483.04004282
 20
-13694.83474489
 42
-0.06556941
 10
39480.88233688
 20
-13694.55079218
 10
39451.86266401
 20
-13686.78536459
 42
0.06551836
 10
39449.706672
 20
-13686.50141181
 42
0.99999778
 10
39449.70495808
 20
-13703.1680779
 42
0.06556985
 10
39451.86266401
 20
-13702.88412614
 10
39480.88233688
 20
-13695.1186976
 42
-0.06551739
 10
39483.03829147
 20
-13694.83474489
 42
-1.00000231
 10
39483.04000381
 20
-13711.50141181
 42
0.99989739
 10
39483.04004025
 20
-13694.83474489
 42
0.99989506
 10
39483.04004259
 20
-13678.1680779
  0
ARC
  5
681
100
AcDbEntity
  8
Ech.1_5
 62
     9
  6
CONTINUOUS
370
    -3
100
AcDbCircle
 10
39483.03916597
 20
-13669.83472656
 30
0.0
 40
8.33335139
100
AcDbArc
 50
255.00000684
 51
270.00602884
  0
LWPOLYLINE
  5
682
100
AcDbEntity
  8
Ech.1_5
 62
     9
  6
CONTINUOUS
370
    -3
100
AcDbPolyline
 90
       18
 70
     0
 43
0.0
 10
39483.04004282
 20
-13628.1680779
 42
-0.06556985
 10
39480.88233688
 20
-13627.88412614
 10
39451.86266401
 20
-13620.1186976
 42
0.06551739
 10
39449.70670941
 20
-13619.83474489
 42
1.00000229
 10
39449.70499673
 20
-13636.50141181
 42
0.06556883
 10
39451.86266401
 20
-13636.21745916
 10
39480.88233688
 20
-13628.45203157
 42
-0.06551695
 10
39483.03829147
 20
-13628.1680779
 42
-0.99999997
 10
39483.04004283
 20
-13644.83474489
 42
-0.06556941
 10
39480.88233688
 20
-13644.55079218
 10
39451.86266401
 20
-13636.78536459
 42
0.0655184
 10
39449.70667079
 20
-13636.50141181
 42
0.99999771
 10
39449.70495807
 20
-13653.1680779
 42
0.06556985
 10
39451.86266401
 20
-13652.88412614
 10
39480.88233688
 20
-13645.1186976
 42
-0.06551739
 10
39483.03829146
 20
-13644.83474489
 42
-1.00000224
 10
39483.04000499
 20
-13661.50141181
 42
0.99989718
 10
39483.0400426
 20
-13644.83474489
  0
ARC
  5
683
100
AcDbEntity
  8
Ech.1_5
 62
     9
  6
CONTINUOUS
370
    -3
100
AcDbCircle
 10
39483.03916691
 20
-13636.5014114
 30
0.0
 40
8.33333354
100
AcDbArc
 50
270.0060047
 51
89.9939793
  0
ARC
  5
684
100
AcDbEntity
  8
Ech.1_5
 62
     9
  6
CONTINUOUS
370
    -3
100
AcDbCircle
 10
39449.70583398
 20
-13711.5014114
 30
0.0
 40
8.33333354
100
AcDbArc
 50
89.993981
 51
269.9939953
  0
ARC
  5
685
100
AcDbEntity
  8
Ech.1_5
 62
     9
  6
CONTINUOUS
370
    -3
100
AcDbCircle
 10
39449.70583398
 20
-13711.5014114
 30
0.0
 40
8.33333354
100
AcDbArc
 50
89.99397279
 51
269.9939953
  0
LWPOLYLINE
  5
686
100
AcDbEntity
  8
Ech.1_5
 62
     9
  6
CONTINUOUS
370
    -3
100
AcDbPolyline
 90
        9
 70
     0
 43
0.0
 10
39451.86266401
 20
-13602.88412614
 10
39480.88233688
 20
-13595.1186976
 42
-0.06551739
 10
39483.03829146
 20
-13594.83474489
 42
-1.00000217
 10
39483.04000621
 20
-13611.50141181
 42
0.99989709
 10
39483.04004283
 20
-13594.83474489
 42
-0.06556941
 10
39480.88233688
 20
-13594.55079218
 10
39451.86266401
 20
-13586.78536459
 42
0.06551671
 10
39449.70672699
 20
-13586.50141181
 42
1.00000108
 10
39449.70495807
 20
-13603.1680779
  0
ARC
  5
687
100
AcDbEntity
  8
Ech.1_5
 62
     9
  6
CONTINUOUS
370
    -3
100
AcDbCircle
 10
39449.70583493
 20
-13594.83472663
 30
0.0
 40
8.33335132
100
AcDbArc
 50
269.99397116
 51
284.99999323
  0
LWPOLYLINE
  5
688
100
AcDbEntity
  8
Ech.1_5
 62
     9
  6
CONTINUOUS
370
    -3
100
AcDbPolyline
 90
       18
 70
     0
 43
0.0
 10
39483.04004284
 20
-13728.1680779
 42
-0.06556985
 10
39480.88233688
 20
-13727.88412614
 10
39451.86266401
 20
-13720.1186976
 42
0.06551739
 10
39449.70670942
 20
-13719.83474489
 42
1.00000215
 10
39449.7049943
 20
-13736.50141181
 42
0.06556891
 10
39451.86266401
 20
-13736.21745916
 10
39480.88233688
 20
-13728.45203157
 42
-0.06551695
 10
39483.03829145
 20
-13728.1680779
 42
-0.99999997
 10
39483.04004283
 20
-13744.83474489
 42
-0.06556941
 10
39480.88233688
 20
-13744.55079218
 10
39451.86266401
 20
-13736.78536459
 42
0.06551833
 10
39449.70667322
 20
-13736.50141181
 42
0.99999785
 10
39449.70495809
 20
-13753.1680779
 42
0.06556985
 10
39451.86266401
 20
-13752.88412614
 10
39480.88233688
 20
-13745.1186976
 42
-0.06551739
 10
39483.03829146
 20
-13744.83474489
 42
-1.00000224
 10
39483.04000507
 20
-13761.50141181
 42
0.99989718
 10
39483.0400426
 20
-13744.83474489
  0
ARC
  5
689
100
AcDbEntity
  8
Ech.1_5
 62
     9
  6
CONTINUOUS
370
    -3
100
AcDbCircle
 10
39483.03916691
 20
-13736.5014114
 30
0.0
 40
8.33333354
100
AcDbArc
 50
270.0060047
 51
89.99397919
  0
ARC
  5
68A
100
AcDbEntity
  8
Ech.1_5
 62
     9
  6
CONTINUOUS
370
    -3
100
AcDbCircle
 10
39449.70583398
 20
-13661.5014114
 30
0.0
 40
8.33333354
100
AcDbArc
 50
89.99397279
 51
269.99399531
  0
ARC
  5
68B
100
AcDbEntity
  8
Ech.1_5
 62
     9
  6
CONTINUOUS
370
    -3
100
AcDbCircle
 10
39449.70583398
 20
-13661.5014114
 30
0.0
 40
8.33333354
100
AcDbArc
 50
89.99398095
 51
269.99399531
  0
ARC
  5
68C
100
AcDbEntity
  8
Ech.1_5
 62
     9
  6
CONTINUOUS
370
    -3
100
AcDbCircle
 10
39449.70583398
 20
-13761.5014114
 30
0.0
 40
8.33333354
100
AcDbArc
 50
89.99397279
 51
269.9939953
  0
ARC
  5
68D
100
AcDbEntity
  8
Ech.1_5
 62
     9
  6
CONTINUOUS
370
    -3
100
AcDbCircle
 10
39449.70583398
 20
-13761.5014114
 30
0.0
 40
8.33333354
100
AcDbArc
 50
89.99398106
 51
269.9939953
  0
ARC
  5
68E
100
AcDbEntity
  8
Ech.1_5
 62
     9
  6
CONTINUOUS
370
    -3
100
AcDbCircle
 10
39449.70583398
 20
-13611.5014114
 30
0.0
 40
8.33333354
100
AcDbArc
 50
89.99397278
 51
269.99399531
  0
ARC
  5
68F
100
AcDbEntity
  8
Ech.1_5
 62
     9
  6
CONTINUOUS
370
    -3
100
AcDbCircle
 10
39449.70583398
 20
-13611.5014114
 30
0.0
 40
8.33333354
100
AcDbArc
 50
89.99398095
 51
269.99399531
  0
LWPOLYLINE
  5
690
100
AcDbEntity
  8
Ech.1_5
 62
     9
  6
CONTINUOUS
370
    -3
100
AcDbPolyline
 90
        4
 70
     0
 43
0.0
 10
39457.87986322
 20
-13788.39551798
 10
39451.86266401
 20
-13786.78536459
 42
0.06551836
 10
39449.70667205
 20
-13786.50141181
 42
0.17367129
 10
39444.41599907
 20
-13788.39563842
  0
LWPOLYLINE
  5
691
102
{ACAD_REACTORS
330
692
102
}
100
AcDbEntity
  8
Ech.1_5
 62
     9
  6
CONTINUOUS
370
    -3
100
AcDbPolyline
 90
        4
 70
     1
 43
0.0
 10
39491.37250045
 20
-13569.83323999
 10
39491.37250045
 20
-13788.39521836
 10
39504.37250045
 20
-13788.39510207
 10
39504.37250045
 20
-13569.83323999
  0
HATCH
  5
692
100
AcDbEntity
  8
Ech.1_5
 62
     9
  6
CONTINUOUS
100
AcDbHatch
 10
0.0
 20
0.0
 30
0.0
210
0.0
220
0.0
230
1.0
  2
DOTS2
 70
     0
 71
     1
 91
        1
 92
        7
 72
     0
 73
     1
 93
        4
 10
39491.37250045
 20
-13569.83323999
 10
39491.37250045
 20
-13788.39521836
 10
39504.37250045
 20
-13788.39510207
 10
39504.37250045
 20
-13569.83323999
 97
        1
330
691
 75
     0
 76
     2
 52
0.0
 41
4.72440952
 77
     0
 78
     1
 53
0.0
 43
0.0
 44
0.0
 45
3.75
 46
3.535
 79
     2
 49
0.0
 49
-3.535
 47
0.775229
 98
        1
 10
0.0
 20
0.0
  0
LWPOLYLINE
  5
693
102
{ACAD_REACTORS
330
694
102
}
100
AcDbEntity
  8
Ech.1_5
 62
     9
  6
CONTINUOUS
370
    -3
100
AcDbPolyline
 90
       12
 70
     1
 43
0.0
 10
39443.37119475
 20
-13599.83474489
 10
39441.37250045
 20
-13599.83474489
 10
39441.37250045
 20
-13569.83474489
 10
39491.27029076
 20
-13569.83474489
 10
39491.27029076
 20
-13599.83474489
 10
39489.27029076
 20
-13599.83474489
 10
39489.27029076
 20
-13597.83474489
 10
39489.27029076
 20
-13597.83474489
 10
39489.27029076
 20
-13571.83474489
 10
39443.37119475
 20
-13571.83474489
 10
39443.37119475
 20
-13597.83474489
 10
39443.37119475
 20
-13597.83474489
  0
HATCH
  5
694
100
AcDbEntity
  8
Ech.1_5
 62
     9
  6
CONTINUOUS
100
AcDbHatch
 10
0.0
 20
0.0
 30
0.0
210
0.0
220
0.0
230
1.0
  2
SOLID
 70
     1
 71
     1
 91
        1
 92
        7
 72
     0
 73
     1
 93
       10
 10
39443.37119475
 20
-13599.83474489
 10
39441.37250045
 20
-13599.83474489
 10
39441.37250045
 20
-13569.83474489
 10
39491.27029076
 20
-13569.83474489
 10
39491.27029076
 20
-13599.83474489
 10
39489.27029076
 20
-13599.83474489
 10
39489.27029076
 20
-13597.83474489
 10
39489.27029076
 20
-13571.83474489
 10
39443.37119475
 20
-13571.83474489
 10
39443.37119475
 20
-13597.83474489
 97
        1
330
693
 75
     0
 76
     2
 47
0.775229
 98
        1
 10
0.0
 20
0.0
  0
LWPOLYLINE
  5
695
100
AcDbEntity
  8
Ech.1_5
 62
     1
  6
CADWORK_22
 48
-5.0
370
    35
100
AcDbPolyline
 90
        4
 70
     0
 43
0.0
 10
39437.9561658
 20
-13601.59468838
 10
39444.81081759
 20
-13612.07199997
 10
39438.03903675
 20
-13620.24075465
 10
39438.03903675
 20
-13637.50169415
  0
CIRCLE
  5
696
100
AcDbEntity
  8
Ech.1_5
 62
     7
  6
CONTINUOUS
100
AcDbCircle
 10
39438.50327809
 20
-13611.91195678
 30
0.0
 40
6.16444111
  0
LWPOLYLINE
  5
697
100
AcDbEntity
  8
Ech.1_5
 62
     1
  6
CADWORK_22
 48
-5.0
370
    35
100
AcDbPolyline
 90
        3
 70
     0
 43
0.0
 10
39437.9561658
 20
-13601.59468838
 10
39437.9561658
 20
-13571.83474837
 10
40462.80341793
 20
-13571.83474837
  0
LWPOLYLINE
  5
698
100
AcDbEntity
  8
Ech.1_5
100
AcDbPolyline
 90
        5
 70
     0
 43
0.0
 10
40537.66586656
 20
-13731.83458587
 10
39504.37250045
 20
-13731.83458587
 10
39504.37250045
 20
-13744.83458587
 10
40537.66586656
 20
-13744.83458587
 10
40537.66586656
 20
-13731.83458587
  0
LWPOLYLINE
  5
699
102
{ACAD_REACTORS
330
69A
102
}
100
AcDbEntity
  8
Ech.1_5
 62
   190
  6
CONTINUOUS
370
    -3
100
AcDbPolyline
 90
        4
 70
     1
 43
0.0
 10
40537.66586656
 20
-13731.83458587
 10
39504.37250045
 20
-13731.83458587
 10
39504.37250045
 20
-13744.83458587
 10
40537.66586656
 20
-13744.83458587
  0
HATCH
  5
69A
100
AcDbEntity
  8
Ech.1_5
 62
   253
  6
CONTINUOUS
100
AcDbHatch
 10
0.0
 20
0.0
 30
0.0
210
0.0
220
0.0
230
1.0
  2
SOLID
 70
     1
 71
     1
 91
        1
 92
        7
 72
     0
 73
     1
 93
        4
 10
40537.66586656
 20
-13731.83458587
 10
39504.37250045
 20
-13731.83458587
 10
39504.37250045
 20
-13744.83458587
 10
40537.66586656
 20
-13744.83458587
 97
        1
330
699
 75
     0
 76
     2
 47
0.775229
 98
        1
 10
0.0
 20
0.0
  0
LWPOLYLINE
  5
69B
100
AcDbEntity
  8
Ech.1_5
 62
   190
  6
CONTINUOUS
370
    -3
100
AcDbPolyline
 90
        3
 70
     0
 43
0.0
 10
39792.91271054
 20
-13737.1097199
 10
39761.52793325
 20
-13795.32775151
 10
39741.52793325
 20
-13795.32775151
  0
INSERT
  5
69C
100
AcDbEntity
  8
Ech.1_5
 62
   190
  6
CONTINUOUS
370
    -3
100
AcDbBlockReference
  2
CDWK_EXTR_4
 10
39792.91271054
 20
-13737.1097199
 30
0.0
 41
5.0
 42
5.0
 43
5.0
 50
241.67132275
  0
LWPOLYLINE
  5
69D
100
AcDbEntity
  8
Ech.1_5
 62
   190
  6
CONTINUOUS
370
    -3
100
AcDbPolyline
 90
        6
 70
     0
 43
0.0
 10
39528.16676939
 20
-13788.39488921
 10
39159.30689164
 20
-13788.39651904
 10
39142.82138849
 20
-13806.37386737
 10
39156.9313285
 20
-13770.41816745
 10
39140.44497442
 20
-13788.39651904
 10
38953.84607561
 20
-13788.39573321
  0
LWPOLYLINE
  5
69E
100
AcDbEntity
  8
Ech.1_5
 62
   190
100
AcDbPolyline
 90
        5
 70
     0
 43
0.0
 10
38520.00023259
 20
-13994.99421601
 10
38654.42901157
 20
-13994.99421601
 10
38654.42901157
 20
-14051.71717482
 10
38520.00023259
 20
-14051.71717482
 10
38520.00023259
 20
-13994.99421601
  0
HATCH
  5
69F
100
AcDbEntity
  8
Ech.1_5
 62
   190
100
AcDbHatch
 10
0.0
 20
0.0
 30
0.0
210
0.0
220
0.0
230
1.0
  2
SOLID
 70
     1
 71
     0
 91
        1
 92
        7
 72
     0
 73
     1
 93
        4
 10
38538.28027837
 20
-14028.65102714
 10
38588.28027837
 20
-14028.65102714
 10
38588.28027837
 20
-14021.2358896
 10
38538.28027837
 20
-14021.2358896
 97
        0
 75
     0
 76
     2
 47
0.775229
 98
        1
 10
0.0
 20
0.0
  0
LWPOLYLINE
  5
6A0
100
AcDbEntity
  8
Ech.1_5
 62
   190
100
AcDbPolyline
 90
        5
 70
     0
 43
0.0
 10
38538.28027837
 20
-14028.65102714
 10
38588.28027837
 20
-14028.65102714
 10
38588.28027837
 20
-14021.2358896
 10
38538.28027837
 20
-14021.2358896
 10
38538.28027837
 20
-14028.65102714
  0
LWPOLYLINE
  5
6A1
100
AcDbEntity
  8
Ech.1_5
 62
   190
100
AcDbPolyline
 90
        5
 70
     0
 43
0.0
 10
38588.28027837
 20
-14028.65102714
 10
38638.28027837
 20
-14028.65102714
 10
38638.28027837
 20
-14021.2358896
 10
38588.28027837
 20
-14021.2358896
 10
38588.28027837
 20
-14028.65102714
  0
TEXT
  5
6A2
100
AcDbEntity
  8
Ech.1_5
 62
   190
100
AcDbText
 10
38549.574571
 20
-14011.64988652
 30
0.0
 40
8.00000012
  1
Echelle en mm
  7
ARIAL
 50
0.0
 41
1.0
 51
0.0
100
AcDbText
  0
TEXT
  5
6A3
100
AcDbEntity
  8
Ech.1_5
 62
   190
100
AcDbText
 10
38535.59398625
 20
-14039.85972205
 30
0.0
 40
8.00000012
  1
0
  7
ARIAL
 50
0.0
 41
1.0
 51
0.0
100
AcDbText
  0
TEXT
  5
6A4
100
AcDbEntity
  8
Ech.1_5
 62
   190
100
AcDbText
 10
38622.19104414
 20
-14039.85972205
 30
0.0
 40
8.00000012
  1
100
  7
ARIAL
 50
0.0
 41
1.0
 51
0.0
100
AcDbText
  0
TEXT
  5
6A5
100
AcDbEntity
  8
Ech.1_5
 62
   190
100
AcDbText
 10
38583.45061257
 20
-14039.85972205
 30
0.0
 40
8.00000012
  1
50
  7
ARIAL
 50
0.0
 41
1.0
 51
0.0
100
AcDbText
  0
POINT
  5
6A6
100
AcDbEntity
  8
Ech.1_5
 62
     7
100
AcDbPoint
 10
39338.28951513
 20
-13523.08239873
 30
0.0
  0
POINT
  5
6A7
100
AcDbEntity
  8
Ech.1_5
 62
     7
100
AcDbPoint
 10
39314.45085298
 20
-13523.08239873
 30
0.0
  0
POINT
  5
6A8
100
AcDbEntity
  8
Ech.1_5
 62
     7
100
AcDbPoint
 10
39327.6778723
 20
-13531.21414445
 30
0.0
  0
INSERT
  5
6A9
100
AcDbEntity
  8
Ech.1_5
 62
     0
370
    -3
100
AcDbBlockReference
  2
*D17
 10
0.0
 20
0.0
 30
0.0
  0
INSERT
  5
6AA
100
AcDbEntity
  8
Ech.1_5
 62
     0
370
    -3
100
AcDbBlockReference
  2
*D18
 10
0.0
 20
0.0
 30
0.0
  0
ENDSEC
  0
SECTION
  2
OBJECTS
  0
DICTIONARY
  5
1
100
AcDbDictionary
  3
ACAD_GROUP
350
2
  3
ACAD_MLINESTYLE
350
3
  0
DICTIONARY
  5
2
102
{CDWK_REACTORS
330
1
102
}
100
AcDbDictionary
  0
DICTIONARY
  5
3
102
{CDWK_REACTORS
330
1
102
}
100
AcDbDictionary
  3
STANDARD
350
4
  0
MLINESTYLE
  5
4
102
{CDWK_REACTORS
330
3
102
}
100
AcDbMlineStyle
  2
STANDARD
 70
     0
  3

 62
     0
 51
90.0
 52
90.0
 71
     2
 49
0.5
 62
   256
  6
BYLAYER
 49
-0.5
 62
   256
  6
BYLAYER
  0
ENDSEC
  0
EOF
