  0
SECTION
  2
HEADER
  9
$ACADVER
  1
AC1014
  9
$DWGCODEPAGE
  3
ANSI_1252
  9
$INSBASE
 10
0.0
 20
0.0
 30
0.0
  9
$EXTMIN
 10
1033.98771282
 20
-21718.34332712
  9
$EXTMAX
 10
122326.07664696
 20
2240.3362527
  9
$LIMMIN
 10
1033.98771282
 20
-21718.34332712
  9
$LIMMAX
 10
122326.07664696
 20
2240.3362527
  9
$ORTHOMODE
 70
     0
  9
$REGENMODE
 70
     1
  9
$FILLMODE
 70
     1
  9
$QTEXTMODE
 70
     0
  9
$MIRRTEXT
 70
     1
  9
$DRAGMODE
 70
     2
  9
$LTSCALE
 40
5.0
  9
$OSMODE
 70
     0
  9
$ATTMODE
 70
     1
  9
$TEXTSIZE
 40
3.5
  9
$TRACEWID
 40
1.0
  9
$TEXTSTYLE
  7
STANDARD
  9
$CLAYER
  8
0
  9
$CELTYPE
  6
BYLAYER
  9
$CECOLOR
 62
   256
  9
$DIMSCALE
 40
1.0
  9
$DIMASZ
 40
2.0
  9
$DIMEXO
 40
5.0
  9
$DIMDLI
 40
10.0
  9
$DIMRND
 40
0.0
  9
$DIMDLE
 40
2.0
  9
$DIMEXE
 40
2.0
  9
$DIMTP
 40
0.0
  9
$DIMTM
 40
0.0
  9
$DIMTXT
 40
2.5
  9
$DIMCEN
 40
1.5
  9
$DIMTSZ
 40
0.0
  9
$DIMTOL
 70
     0
  9
$DIMLIM
 70
     0
  9
$DIMTIH
 70
     1
  9
$DIMTOH
 70
     0
  9
$DIMSE1
 70
     0
  9
$DIMSE2
 70
     0
  9
$DIMTAD
 70
     1
  9
$DIMZIN
 70
     8
  9
$DIMBLK
  1

  9
$DIMASO
 70
     1
  9
$DIMSHO
 70
     1
  9
$DIMPOST
  1

  9
$DIMAPOST
  1

  9
$DIMALT
 70
     0
  9
$DIMALTD
 70
     2
  9
$DIMALTF
 40
25.4
  9
$DIMLFAC
 40
1.0
  9
$DIMTOFL
 70
     0
  9
$DIMTVP
 40
0.0
  9
$DIMTIX
 70
     0
  9
$DIMSOXD
 70
     0
  9
$DIMSAH
 70
     0
  9
$DIMBLK1
  1

  9
$DIMBLK2
  1

  9
$DIMSTYLE
  2
*UNNAMED
  9
$DIMCLRD
 70
   190
  9
$DIMCLRE
 70
   190
  9
$DIMCLRT
 70
   190
  9
$DIMTFAC
 40
1.0
  9
$DIMGAP
 40
0.09
  9
$DIMUNIT
 70
     2
  9
$LUNITS
 70
     2
  9
$LUPREC
 70
     6
  9
$AXISMODE
 70
     0
  9
$AXISUNIT
 10
0.0
 20
0.0
  9
$SKETCHINC
 40
0.1
  9
$FILLETRAD
 40
0.0
  9
$AUNITS
 70
     0
  9
$AUPREC
 70
     0
  9
$MENU
  1
ACAD
  9
$ELEVATION
 40
0.0
  9
$PELEVATION
 40
0.0
  9
$THICKNESS
 40
0.0
  9
$LIMCHECK
 70
     0
  9
$BLIPMODE
 70
     1
  9
$CHAMFERA
 40
0.0
  9
$CHAMFERB
 40
0.0
  9
$SKPOLY
 70
     1
  9
$TDCREATE
 40
2457811.0000000000
  9
$TDUPDATE
 40
2457811.0000000000
  9
$TDINDWG
 40
0.0
  9
$TDUSRTIMER
 40
0.0
  9
$USRTIMER
 70
     1
  9
$ANGBASE
 50
0.0
  9
$ANGDIR
 70
     0
  9
$PDMODE
 70
     0
  9
$PDSIZE
 40
0.0
  9
$PLINEWID
 40
0.0
  9
$COORDS
 70
     2
  9
$SPLFRAME
 70
     0
  9
$SPLINETYPE
 70
     6
  9
$SPLINESEGS
 70
     8
  9
$ATTDIA
 70
     1
  9
$ATTREQ
 70
     1
  9
$HANDLING
 70
     1
  9
$HANDSEED
  5
     60C
  9
$SURFTAB1
 70
     6
  9
$SURFTAB2
 70
     6
  9
$SURFTYPE
 70
     6
  9
$SURFU
 70
     6
  9
$SURFV
 70
     6
  9
$UCSNAME
  2

  9
$UCSORG
 10
0.0
 20
0.0
 30
0.0
  9
$UCSXDIR
 10
1.0
 20
0.0
 30
0.0
  9
$UCSYDIR
 10
0.0
 20
1.0
 30
0.0
  9
$PUCSNAME
  2

  9
$PUCSORG
 10
0.0
 20
0.0
 30
0.0
  9
$PUCSXDIR
 10
1.0
 20
0.0
 30
0.0
  9
$PUCSYDIR
 10
0.0
 20
1.0
 30
0.0
  9
$USERI1
 70
     0
  9
$USERI2
 70
     0
  9
$USERI3
 70
     0
  9
$USERI4
 70
     0
  9
$USERI5
 70
     0
  9
$USERR1
 40
0.0
  9
$USERR2
 40
0.0
  9
$USERR3
 40
0.0
  9
$USERR4
 40
0.0
  9
$USERR5
 40
0.0
  9
$WORLDVIEW
 70
     1
  9
$SHADEDGE
 70
     3
  9
$SHADEDIF
 70
    70
  9
$TILEMODE
 70
     1
  9
$MAXACTVP
 70
    16
  9
$PINSBASE
 10
0.0
 20
0.0
 30
0.0
  9
$PLIMCHECK
 70
     0
  9
$PEXTMIN
 10
1.0000000000000E+20
 20
1.0000000000000E+20
 30
1.0000000000000E+20
  9
$PEXTMAX
 10
-1.0000000000000E+20
 20
-1.0000000000000E+20
 30
-1.0000000000000E+20
  9
$PLIMMIN
 10
0.0
 20
0.0
  9
$UNITMODE
 70
     0
  9
$VISRETAIN
 70
     0
  9
$MEASUREMENT
 70
     1
  0
ENDSEC
  0
SECTION
  2
TABLES
  0
TABLE
  2
VPORT
  5
487
100
AcDbSymbolTable
 70
     1
  0
ENDTAB
  0
TABLE
  2
STYLE
  5
488
100
AcDbSymbolTable
 70
     3
  0
STYLE
  5
489
100
AcDbSymbolTableRecord
100
AcDbTextStyleTableRecord
  2
STANDARD
 70
     0
 40
0.0
 41
1.0
 50
0.0
 71
     0
 42
3.5
  3
MONOTXT
  4

  0
STYLE
  5
48A
100
AcDbSymbolTableRecord
100
AcDbTextStyleTableRecord
  2
SYMAP
 70
     0
 40
0.0
 41
1.0
 50
0.0
 71
     0
 42
3.5
  3
SYMAP
  4

  0
STYLE
  5
48B
100
AcDbSymbolTableRecord
100
AcDbTextStyleTableRecord
  2
CADWORK1
 70
     0
 40
0.0
 41
1.0
 50
0.0
 71
     0
 42
3.5
  3
MONOTXT
  4

  0
STYLE
  5
48C
100
AcDbSymbolTableRecord
100
AcDbTextStyleTableRecord
  2
MONOTXT
 70
     0
 40
0.0
 41
1.0
 50
0.0
 71
     0
 42
3.5
  3
MONOTXT
  4

  0
STYLE
  5
48D
100
AcDbSymbolTableRecord
100
AcDbTextStyleTableRecord
  2
ARIAL
 70
     0
 40
0.0
 41
1.0
 50
0.0
 71
     0
 42
3.5
  3

  4

1001
ACAD
1000
Arial
1071
        0
  0
ENDTAB
  0
TABLE
  2
LTYPE
  5
48E
100
AcDbSymbolTable
 70
    15
  0
LTYPE
  5
48F
100
AcDbSymbolTableRecord
100
AcDbLinetypeTableRecord
  2
BYBLOCK
 70
    64
  3

 72
    65
 73
     0
 40
0.0
  0
LTYPE
  5
490
100
AcDbSymbolTableRecord
100
AcDbLinetypeTableRecord
  2
BYLAYER
 70
    64
  3

 72
    65
 73
     0
 40
0.0
  0
LTYPE
  5
491
100
AcDbSymbolTableRecord
100
AcDbLinetypeTableRecord
  2
CONTINUOUS
 70
    64
  3
Solid line
 72
    65
 73
     0
 40
0.0
  0
LTYPE
  5
492
100
AcDbSymbolTableRecord
100
AcDbLinetypeTableRecord
  2
DOT2
 70
    64
  3
...............................................
 72
    65
 73
     2
 40
1.25
 49
0.0
 74
     0
 49
-1.25
 74
     0
  0
LTYPE
  5
493
100
AcDbSymbolTableRecord
100
AcDbLinetypeTableRecord
  2
CADWORK_13
 70
    64
  3
13 =======================================
 72
    65
 73
     2
 40
4.0
 49
2.0
 74
     0
 49
-2.0
 74
     0
  0
LTYPE
  5
494
100
AcDbSymbolTableRecord
100
AcDbLinetypeTableRecord
  2
DASHDOT
 70
    64
  3
 __ . __ . __ . __ . __ . __ . __ . __ . __ . __
 72
    65
 73
     4
 40
10.0
 49
5.0
 74
     0
 49
-2.5
 74
     0
 49
0.0
 74
     0
 49
-2.5
 74
     0
  0
LTYPE
  5
495
100
AcDbSymbolTableRecord
100
AcDbLinetypeTableRecord
  2
CENTER
 70
    64
  3
 ____ _ ____ _ ____ _ ____ _ ____ _ ____ _ ____
 72
    65
 73
     4
 40
20.0
 49
12.5
 74
     0
 49
-2.5
 74
     0
 49
2.5
 74
     0
 49
-2.5
 74
     0
  0
LTYPE
  5
496
100
AcDbSymbolTableRecord
100
AcDbLinetypeTableRecord
  2
DASHEDX2
 70
    64
  3
____  ____  ____  ____  ____  ____  ____  ____
 72
    65
 73
     2
 40
3.75
 49
2.5
 74
     0
 49
-1.25
 74
     0
  0
LTYPE
  5
497
100
AcDbSymbolTableRecord
100
AcDbLinetypeTableRecord
  2
CADWORK_22
 70
    64
  3
22 =======================================
 72
    65
 73
     0
 40
0.0
  0
LTYPE
  5
498
100
AcDbSymbolTableRecord
100
AcDbLinetypeTableRecord
  2
DAL
 70
    64
  3
Solid line (for MAPS)
 72
    65
 73
     0
 40
0.0
  0
LTYPE
  5
499
100
AcDbSymbolTableRecord
100
AcDbLinetypeTableRecord
  2
MUR
 70
    64
  3
Solid line (for MAPS)
 72
    65
 73
     0
 40
0.0
  0
LTYPE
  5
49A
100
AcDbSymbolTableRecord
100
AcDbLinetypeTableRecord
  2
SOM
 70
    64
  3
Solid line (for MAPS)
 72
    65
 73
     0
 40
0.0
  0
LTYPE
  5
49B
100
AcDbSymbolTableRecord
100
AcDbLinetypeTableRecord
  2
COL
 70
    64
  3
Solid line (for MAPS)
 72
    65
 73
     0
 40
0.0
  0
LTYPE
  5
49C
100
AcDbSymbolTableRecord
100
AcDbLinetypeTableRecord
  2
LGN
 70
    64
  3
Solid line (for MAPS)
 72
    65
 73
     0
 40
0.0
  0
LTYPE
  5
49D
100
AcDbSymbolTableRecord
100
AcDbLinetypeTableRecord
  2
PNT
 70
    64
  3
Solid line (for MAPS)
 72
    65
 73
     0
 40
0.0
  0
ENDTAB
  0
TABLE
  2
LAYER
  5
49E
100
AcDbSymbolTable
 70
    32
  0
LAYER
  5
49F
100
AcDbSymbolTableRecord
100
AcDbLayerTableRecord
  2
Standard
 70
     0
 62
     7
  6
CONTINUOUS
370
    -3
  0
LAYER
  5
4A0
100
AcDbSymbolTableRecord
100
AcDbLayerTableRecord
  2
Ech.1_1
 70
     0
 62
     7
  6
CONTINUOUS
370
    -3
  0
LAYER
  5
4A1
100
AcDbSymbolTableRecord
100
AcDbLayerTableRecord
  2
Ech.1_2
 70
     0
 62
     7
  6
CONTINUOUS
370
    -3
  0
LAYER
  5
4A2
100
AcDbSymbolTableRecord
100
AcDbLayerTableRecord
  2
Ech.1_5
 70
     0
 62
     7
  6
CONTINUOUS
370
    -3
  0
LAYER
  5
4A3
100
AcDbSymbolTableRecord
100
AcDbLayerTableRecord
  2
Ech.1_10
 70
     0
 62
     7
  6
CONTINUOUS
370
    -3
  0
LAYER
  5
4A4
100
AcDbSymbolTableRecord
100
AcDbLayerTableRecord
  2
Ech.1_20
 70
     0
 62
     7
  6
CONTINUOUS
370
    -3
  0
LAYER
  5
4A5
100
AcDbSymbolTableRecord
100
AcDbLayerTableRecord
  2
Ech.1_25
 70
     0
 62
     7
  6
CONTINUOUS
370
    -3
  0
LAYER
  5
4A6
100
AcDbSymbolTableRecord
100
AcDbLayerTableRecord
  2
Ech.1_33
 70
     0
 62
     7
  6
CONTINUOUS
370
    -3
  0
LAYER
  5
4A7
100
AcDbSymbolTableRecord
100
AcDbLayerTableRecord
  2
Ech.1_50
 70
     0
 62
     7
  6
CONTINUOUS
370
    -3
  0
LAYER
  5
4A8
100
AcDbSymbolTableRecord
100
AcDbLayerTableRecord
  2
Ech.1_75
 70
     0
 62
     7
  6
CONTINUOUS
370
    -3
  0
LAYER
  5
4A9
100
AcDbSymbolTableRecord
100
AcDbLayerTableRecord
  2
Ech.1_100
 70
     0
 62
     7
  6
CONTINUOUS
370
    -3
  0
LAYER
  5
4AA
100
AcDbSymbolTableRecord
100
AcDbLayerTableRecord
  2
Ech.1_200
 70
     0
 62
     7
  6
CONTINUOUS
370
    -3
  0
LAYER
  5
4AB
100
AcDbSymbolTableRecord
100
AcDbLayerTableRecord
  2
Ech.1_500
 70
     0
 62
     7
  6
CONTINUOUS
370
    -3
  0
LAYER
  5
4AC
100
AcDbSymbolTableRecord
100
AcDbLayerTableRecord
  2
Ech.1_1000
 70
     0
 62
     7
  6
CONTINUOUS
370
    -3
  0
LAYER
  5
4AD
100
AcDbSymbolTableRecord
100
AcDbLayerTableRecord
  2
Cadres traceur
 70
     0
 62
     7
  6
CONTINUOUS
370
    18
  0
LAYER
  5
4AE
100
AcDbSymbolTableRecord
100
AcDbLayerTableRecord
  2
Cadres laser
 70
     0
 62
     7
  6
CONTINUOUS
370
    18
  0
LAYER
  5
4AF
100
AcDbSymbolTableRecord
100
AcDbLayerTableRecord
  2
Légende d_aide
 70
     0
 62
     7
  6
CONTINUOUS
370
    18
  0
LAYER
  5
4B0
100
AcDbSymbolTableRecord
100
AcDbLayerTableRecord
  2
hachures ok
 70
     0
 62
     7
  6
CONTINUOUS
370
    18
  0
LAYER
  5
4B1
100
AcDbSymbolTableRecord
100
AcDbLayerTableRecord
  2
ossature bois
 70
     0
 62
     7
  6
CONTINUOUS
370
    18
  0
LAYER
  5
4B2
100
AcDbSymbolTableRecord
100
AcDbLayerTableRecord
  2
VR
 70
     0
 62
     7
  6
CONTINUOUS
370
    25
  0
LAYER
  5
4B3
100
AcDbSymbolTableRecord
100
AcDbLayerTableRecord
  2
Calque1
 70
     0
 62
     7
  6
CONTINUOUS
370
     9
  0
LAYER
  5
4B4
100
AcDbSymbolTableRecord
100
AcDbLayerTableRecord
  2
0
 70
     0
 62
     7
  6
CONTINUOUS
370
    -3
  0
LAYER
  5
4B5
100
AcDbSymbolTableRecord
100
AcDbLayerTableRecord
  2
menuiserie
 70
     0
 62
     7
  6
CONTINUOUS
370
    -3
  0
LAYER
  5
4B6
100
AcDbSymbolTableRecord
100
AcDbLayerTableRecord
  2
cotation
 70
     0
 62
   250
  6
CONTINUOUS
370
     9
  0
LAYER
  5
4B7
100
AcDbSymbolTableRecord
100
AcDbLayerTableRecord
  2
Defpoints
 70
     0
 62
    10
  6
CONTINUOUS
370
    -3
  0
LAYER
  5
4B8
100
AcDbSymbolTableRecord
100
AcDbLayerTableRecord
  2
HACHURE
 70
     0
 62
   254
  6
CONTINUOUS
370
    25
  0
LAYER
  5
4B9
100
AcDbSymbolTableRecord
100
AcDbLayerTableRecord
  2
mat1
 70
     0
 62
     7
  6
CONTINUOUS
370
    30
  0
LAYER
  5
4BA
100
AcDbSymbolTableRecord
100
AcDbLayerTableRecord
  2
mat2
 70
     0
 62
     7
  6
CONTINUOUS
370
     5
  0
LAYER
  5
4BB
100
AcDbSymbolTableRecord
100
AcDbLayerTableRecord
  2
hach
 70
     0
 62
     8
  6
CONTINUOUS
370
     5
  0
LAYER
  5
4BC
100
AcDbSymbolTableRecord
100
AcDbLayerTableRecord
  2
menuiseries
 70
     0
 62
     7
  6
CONTINUOUS
370
     9
  0
LAYER
  5
4BD
100
AcDbSymbolTableRecord
100
AcDbLayerTableRecord
  2
BétonMétal
 70
     0
 62
     7
  6
CONTINUOUS
370
    80
  0
LAYER
  5
4BE
100
AcDbSymbolTableRecord
100
AcDbLayerTableRecord
  2
bois
 70
     0
 62
     7
  6
CONTINUOUS
370
    60
  0
ENDTAB
  0
TABLE
  2
VIEW
  5
4BF
100
AcDbSymbolTable
 70
     0
  0
ENDTAB
  0
TABLE
  2
UCS
  5
4C0
100
AcDbSymbolTable
 70
     0
  0
ENDTAB
  0
TABLE
  2
APPID
  5
4C1
100
AcDbSymbolTable
 70
     1
  0
APPID
  5
4C2
100
AcDbSymbolTableRecord
100
AcDbRegAppTableRecord
  2
ACAD
 70
     0
  0
ENDTAB
  0
TABLE
  2
DIMSTYLE
  5
4C3
100
AcDbSymbolTable
 70
     0
  0
ENDTAB
  0
TABLE
  2
BLOCK_RECORD
  5
4C4
100
AcDbSymbolTable
 70
     0
  0
BLOCK_RECORD
  5
4C5
100
AcDbSymbolTableRecord
100
AcDbBlockTableRecord
  2
*MODEL_SPACE
  0
BLOCK_RECORD
  5
4C6
100
AcDbSymbolTableRecord
100
AcDbBlockTableRecord
  2
*PAPER_SPACE
  0
BLOCK_RECORD
  5
4C7
100
AcDbSymbolTableRecord
100
AcDbBlockTableRecord
  2
CDWK_EXTR_0
  0
BLOCK_RECORD
  5
4C8
100
AcDbSymbolTableRecord
100
AcDbBlockTableRecord
  2
CDWK_EXTR_1D
  0
BLOCK_RECORD
  5
4C9
100
AcDbSymbolTableRecord
100
AcDbBlockTableRecord
  2
CDWK_EXTR_1G
  0
BLOCK_RECORD
  5
4CA
100
AcDbSymbolTableRecord
100
AcDbBlockTableRecord
  2
CDWK_EXTR_2
  0
BLOCK_RECORD
  5
4CB
100
AcDbSymbolTableRecord
100
AcDbBlockTableRecord
  2
CDWK_EXTR_3
  0
BLOCK_RECORD
  5
4CC
100
AcDbSymbolTableRecord
100
AcDbBlockTableRecord
  2
CDWK_EXTR_4
  0
BLOCK_RECORD
  5
4CD
100
AcDbSymbolTableRecord
100
AcDbBlockTableRecord
  2
CDWK_PTTYP0
  0
BLOCK_RECORD
  5
4CE
100
AcDbSymbolTableRecord
100
AcDbBlockTableRecord
  2
CDWK_PTTYP1
  0
BLOCK_RECORD
  5
4CF
100
AcDbSymbolTableRecord
100
AcDbBlockTableRecord
  2
CDWK_PTTYP2
  0
BLOCK_RECORD
  5
4D0
100
AcDbSymbolTableRecord
100
AcDbBlockTableRecord
  2
CDWK_PTTYP3
  0
BLOCK_RECORD
  5
4D1
100
AcDbSymbolTableRecord
100
AcDbBlockTableRecord
  2
CDWK_PTTYP4
  0
BLOCK_RECORD
  5
4D2
100
AcDbSymbolTableRecord
100
AcDbBlockTableRecord
  2
CDWK_PTTYP5
  0
BLOCK_RECORD
  5
4D3
100
AcDbSymbolTableRecord
100
AcDbBlockTableRecord
  2
CDWK_PTTYP6
  0
BLOCK_RECORD
  5
4D4
100
AcDbSymbolTableRecord
100
AcDbBlockTableRecord
  2
CDWK_PTTYP7
  0
BLOCK_RECORD
  5
4D5
100
AcDbSymbolTableRecord
100
AcDbBlockTableRecord
  2
CDWK_PTTYP8
  0
BLOCK_RECORD
  5
4D6
100
AcDbSymbolTableRecord
100
AcDbBlockTableRecord
  2
CDWK_PTTYP9
  0
BLOCK_RECORD
  5
4D7
100
AcDbSymbolTableRecord
100
AcDbBlockTableRecord
  2
CDWK_PTTYP10
  0
BLOCK_RECORD
  5
4D8
100
AcDbSymbolTableRecord
100
AcDbBlockTableRecord
  2
CDWK_PTTYP11
  0
BLOCK_RECORD
  5
4D9
100
AcDbSymbolTableRecord
100
AcDbBlockTableRecord
  2
CDWK_PTTYP12
  0
BLOCK_RECORD
  5
4DA
100
AcDbSymbolTableRecord
100
AcDbBlockTableRecord
  2
CDWK_PTTYP13
  0
BLOCK_RECORD
  5
4DB
100
AcDbSymbolTableRecord
100
AcDbBlockTableRecord
  2
CDWK_PTTYP14
  0
BLOCK_RECORD
  5
4DC
100
AcDbSymbolTableRecord
100
AcDbBlockTableRecord
  2
CDWK_PTTYP15
  0
BLOCK_RECORD
  5
4DD
100
AcDbSymbolTableRecord
100
AcDbBlockTableRecord
  2
CDWK_PTTYP16
  0
BLOCK_RECORD
  5
4DE
100
AcDbSymbolTableRecord
100
AcDbBlockTableRecord
  2
CDWK_PTTYP17
  0
BLOCK_RECORD
  5
4DF
100
AcDbSymbolTableRecord
100
AcDbBlockTableRecord
  2
CDWK_PTTYP18
  0
BLOCK_RECORD
  5
4E0
100
AcDbSymbolTableRecord
100
AcDbBlockTableRecord
  2
CDWK_PTTYP19
  0
BLOCK_RECORD
  5
4E1
100
AcDbSymbolTableRecord
100
AcDbBlockTableRecord
  2
CDWK_PTTYP20
  0
BLOCK_RECORD
  5
4E2
100
AcDbSymbolTableRecord
100
AcDbBlockTableRecord
  2
CDWK_PTTYP21
  0
BLOCK_RECORD
  5
4E3
100
AcDbSymbolTableRecord
100
AcDbBlockTableRecord
  2
CDWK_PTTYP22
  0
BLOCK_RECORD
  5
4E4
100
AcDbSymbolTableRecord
100
AcDbBlockTableRecord
  2
CDWK_PTTYP23
  0
BLOCK_RECORD
  5
4E5
100
AcDbSymbolTableRecord
100
AcDbBlockTableRecord
  2
CDWK_PTTYP24
  0
BLOCK_RECORD
  5
4E6
100
AcDbSymbolTableRecord
100
AcDbBlockTableRecord
  2
CDWK_PTTYP25
  0
BLOCK_RECORD
  5
4E7
100
AcDbSymbolTableRecord
100
AcDbBlockTableRecord
  2
CDWK_PTTYP26
  0
BLOCK_RECORD
  5
4E8
100
AcDbSymbolTableRecord
100
AcDbBlockTableRecord
  2
CDWK_PTTYP27
  0
BLOCK_RECORD
  5
4E9
100
AcDbSymbolTableRecord
100
AcDbBlockTableRecord
  2
CDWK_PTTYP28
  0
BLOCK_RECORD
  5
4EA
100
AcDbSymbolTableRecord
100
AcDbBlockTableRecord
  2
CDWK_PTTYP29
  0
BLOCK_RECORD
  5
4EB
100
AcDbSymbolTableRecord
100
AcDbBlockTableRecord
  2
CDWK_PTTYP30
  0
BLOCK_RECORD
  5
4EC
100
AcDbSymbolTableRecord
100
AcDbBlockTableRecord
  2
CDWK_PTTYP31
  0
BLOCK_RECORD
  5
4ED
100
AcDbSymbolTableRecord
100
AcDbBlockTableRecord
  2
CDWK_PTTYP32
  0
BLOCK_RECORD
  5
4EE
100
AcDbSymbolTableRecord
100
AcDbBlockTableRecord
  2
CDWK_PTTYP33
  0
BLOCK_RECORD
  5
4EF
100
AcDbSymbolTableRecord
100
AcDbBlockTableRecord
  2
CDWK_PTTYP34
  0
BLOCK_RECORD
  5
4F0
100
AcDbSymbolTableRecord
100
AcDbBlockTableRecord
  2
CDWK_PTTYP35
  0
BLOCK_RECORD
  5
4F1
100
AcDbSymbolTableRecord
100
AcDbBlockTableRecord
  2
CDWK_PTTYP36
  0
BLOCK_RECORD
  5
4F2
100
AcDbSymbolTableRecord
100
AcDbBlockTableRecord
  2
CDWK_PTTYP37
  0
BLOCK_RECORD
  5
4F3
100
AcDbSymbolTableRecord
100
AcDbBlockTableRecord
  2
CDWK_PTTYP38
  0
BLOCK_RECORD
  5
4F4
100
AcDbSymbolTableRecord
100
AcDbBlockTableRecord
  2
*D19
  0
ENDTAB
  0
ENDSEC
  0
SECTION
  2
BLOCKS
  0
BLOCK
  5
4F5
100
AcDbEntity
  8
0
100
AcDbBlockBegin
  2
*MODEL_SPACE
 70
     0
 10
0.0
 20
0.0
 30
0.0
  3
*MODEL_SPACE
  1

  0
ENDBLK
  5
4F6
100
AcDbEntity
100
AcDbBlockEnd
  0
BLOCK
  5
4F7
100
AcDbEntity
  8
0
100
AcDbBlockBegin
  2
*PAPER_SPACE
 70
     0
 10
0.0
 20
0.0
 30
0.0
  3
*PAPER_SPACE
  1

  0
ENDBLK
  5
4F8
100
AcDbEntity
100
AcDbBlockEnd
  0
BLOCK
  5
4F9
100
AcDbEntity
  8
0
100
AcDbBlockBegin
  2
CDWK_EXTR_0
 70
     0
 10
0.0
 20
0.0
 30
0.0
  3
CDWK_EXTR_0
  1

  4
Cadwork line-extremity
  0
LINE
  5
4FA
100
AcDbEntity
  8
0
 62
     0
370
    -2
100
AcDbLine
 10
0.0
 20
0.0
 30
0.0
 11
2.0
 21
0.5
 31
0.0
  0
LINE
  5
4FB
100
AcDbEntity
  8
0
 62
     0
370
    -2
100
AcDbLine
 10
0.0
 20
0.0
 30
0.0
 11
2.0
 21
-0.5
 31
0.0
  0
LINE
  5
4FC
100
AcDbEntity
  8
0
 62
     0
370
    -2
100
AcDbLine
 10
2.0
 20
0.5
 30
0.0
 11
2.0
 21
-0.5
 31
0.0
  0
ENDBLK
  5
4FD
100
AcDbEntity
100
AcDbBlockEnd
  0
BLOCK
  5
4FE
100
AcDbEntity
  8
0
100
AcDbBlockBegin
  2
CDWK_EXTR_1D
 70
     0
 10
0.0
 20
0.0
 30
0.0
  3
CDWK_EXTR_1D
  1

  4
Cadwork line-extremity
  0
LINE
  5
4FF
100
AcDbEntity
  8
0
 62
     0
370
    -2
100
AcDbLine
 10
0.0
 20
0.0
 30
0.0
 11
0.0
 21
1.0
 31
0.0
  0
LINE
  5
500
100
AcDbEntity
  8
0
 62
     0
370
    -2
100
AcDbLine
 10
0.0
 20
1.0
 30
0.0
 11
0.5
 21
1.5
 31
0.0
  0
LINE
  5
501
100
AcDbEntity
  8
0
 62
     0
370
    -2
100
AcDbLine
 10
0.5
 20
1.5
 30
0.0
 11
1.5
 21
1.5
 31
0.0
  0
ENDBLK
  5
502
100
AcDbEntity
100
AcDbBlockEnd
  0
BLOCK
  5
503
100
AcDbEntity
  8
0
100
AcDbBlockBegin
  2
CDWK_EXTR_1G
 70
     0
 10
0.0
 20
0.0
 30
0.0
  3
CDWK_EXTR_1G
  1

  4
Cadwork line-extremity
  0
LINE
  5
504
100
AcDbEntity
  8
0
 62
     0
370
    -2
100
AcDbLine
 10
0.0
 20
0.0
 30
0.0
 11
0.0
 21
-1.0
 31
0.0
  0
LINE
  5
505
100
AcDbEntity
  8
0
 62
     0
370
    -2
100
AcDbLine
 10
0.0
 20
-1.0
 30
0.0
 11
0.5
 21
-1.5
 31
0.0
  0
LINE
  5
506
100
AcDbEntity
  8
0
 62
     0
370
    -2
100
AcDbLine
 10
0.5
 20
-1.5
 30
0.0
 11
1.5
 21
-1.5
 31
0.0
  0
ENDBLK
  5
507
100
AcDbEntity
100
AcDbBlockEnd
  0
BLOCK
  5
508
100
AcDbEntity
  8
0
100
AcDbBlockBegin
  2
CDWK_EXTR_2
 70
     0
 10
0.0
 20
0.0
 30
0.0
  3
CDWK_EXTR_2
  1

  4
Cadwork line-extremity
  0
SOLID
  5
509
100
AcDbEntity
  8
0
 62
     0
100
AcDbTrace
 10
0.0
 20
0.0
 11
2.0
 21
0.5
 12
2.0
 22
-0.5
 13
2.0
 23
-0.5
  0
ENDBLK
  5
50A
100
AcDbEntity
100
AcDbBlockEnd
  0
BLOCK
  5
50B
100
AcDbEntity
  8
0
100
AcDbBlockBegin
  2
CDWK_EXTR_3
 70
     0
 10
0.0
 20
0.0
 30
0.0
  3
CDWK_EXTR_3
  1

  4
Cadwork line-extremity
  0
SOLID
  5
50C
100
AcDbEntity
  8
0
 62
     0
100
AcDbTrace
 10
0.0
 20
0.0
 11
2.0
 21
0.5
 12
2.0
 22
-0.5
 13
2.0
 23
-0.5
  0
LINE
  5
50D
100
AcDbEntity
  8
0
 62
     0
370
    -2
100
AcDbLine
 10
0.0
 20
1.0
 30
0.0
 11
0.0
 21
-1.0
 31
0.0
  0
ENDBLK
  5
50E
100
AcDbEntity
100
AcDbBlockEnd
  0
BLOCK
  5
50F
100
AcDbEntity
  8
0
100
AcDbBlockBegin
  2
CDWK_EXTR_4
 70
     0
 10
0.0
 20
0.0
 30
0.0
  3
CDWK_EXTR_4
  1

  4
Cadwork line-extremity
  0
HATCH
  5
510
100
AcDbEntity
  8
0
 62
     0
370
    -2
100
AcDbHatch
 10
0.0
 20
0.0
 30
0.0
210
0.0
220
0.0
230
1.0
  2
SOLID
 70
     1
 71
     0
 91
        1
 92
        1
 93
        1
 72
     2
 10
0.0
 20
0.0
 40
0.5
 50
0.0
 51
360.0
 73
     1
 97
        0
 75
     0
 76
     1
 98
        1
 10
0.0
 20
0.0
  0
ENDBLK
  5
511
100
AcDbEntity
100
AcDbBlockEnd
  0
BLOCK
  5
512
100
AcDbEntity
  8
0
100
AcDbBlockBegin
  2
CDWK_PTTYP0
 70
     0
 10
0.0
 20
0.0
 30
0.0
  3
CDWK_PTTYP0
  1

  4
Cadwork point
  0
POINT
  5
513
100
AcDbEntity
  8
0
 62
     0
100
AcDbPoint
 10
0.0
 20
0.0
 30
0.0
  0
ENDBLK
  5
514
100
AcDbEntity
100
AcDbBlockEnd
  0
BLOCK
  5
515
100
AcDbEntity
  8
0
100
AcDbBlockBegin
  2
CDWK_PTTYP1
 70
     0
 10
0.0
 20
0.0
 30
0.0
  3
CDWK_PTTYP1
  1

  4
Cadwork node
  0
LINE
  5
516
100
AcDbEntity
  8
0
 62
     0
370
    -2
100
AcDbLine
 10
-0.5
 20
0.5
 30
0.0
 11
0.5
 21
0.5
 31
0.0
  0
LINE
  5
517
100
AcDbEntity
  8
0
 62
     0
370
    -2
100
AcDbLine
 10
0.5
 20
0.5
 30
0.0
 11
0.5
 21
-0.5
 31
0.0
  0
LINE
  5
518
100
AcDbEntity
  8
0
 62
     0
370
    -2
100
AcDbLine
 10
0.5
 20
-0.5
 30
0.0
 11
-0.5
 21
-0.5
 31
0.0
  0
LINE
  5
519
100
AcDbEntity
  8
0
 62
     0
370
    -2
100
AcDbLine
 10
-0.5
 20
-0.5
 30
0.0
 11
-0.5
 21
0.5
 31
0.0
  0
ENDBLK
  5
51A
100
AcDbEntity
100
AcDbBlockEnd
  0
BLOCK
  5
51B
100
AcDbEntity
  8
0
100
AcDbBlockBegin
  2
CDWK_PTTYP2
 70
     0
 10
0.0
 20
0.0
 30
0.0
  3
CDWK_PTTYP2
  1

  4
Cadwork node
  0
LINE
  5
51C
100
AcDbEntity
  8
0
 62
     0
370
    -2
100
AcDbLine
 10
0.0
 20
0.5
 30
0.0
 11
0.0
 21
-0.5
 31
0.0
  0
LINE
  5
51D
100
AcDbEntity
  8
0
 62
     0
370
    -2
100
AcDbLine
 10
-0.5
 20
0.0
 30
0.0
 11
0.5
 21
0.0
 31
0.0
  0
ENDBLK
  5
51E
100
AcDbEntity
100
AcDbBlockEnd
  0
BLOCK
  5
51F
100
AcDbEntity
  8
0
100
AcDbBlockBegin
  2
CDWK_PTTYP3
 70
     0
 10
0.0
 20
0.0
 30
0.0
  3
CDWK_PTTYP3
  1

  4
Cadwork node
  0
CIRCLE
  5
520
100
AcDbEntity
  8
0
 62
     0
370
    -2
100
AcDbCircle
 10
0.0
 20
0.0
 30
0.0
 40
0.5
  0
ENDBLK
  5
521
100
AcDbEntity
100
AcDbBlockEnd
  0
BLOCK
  5
522
100
AcDbEntity
  8
0
100
AcDbBlockBegin
  2
CDWK_PTTYP4
 70
     0
 10
0.0
 20
0.0
 30
0.0
  3
CDWK_PTTYP4
  1

  4
Cadwork node
  0
HATCH
  5
523
100
AcDbEntity
  8
0
 62
     0
370
    -2
100
AcDbHatch
 10
0.0
 20
0.0
 30
0.0
210
0.0
220
0.0
230
1.0
  2
SOLID
 70
     1
 71
     0
 91
        1
 92
        1
 93
        1
 72
     2
 10
0.0
 20
0.0
 40
0.5
 50
0.0
 51
360.0
 73
     1
 97
        0
 75
     0
 76
     1
 98
        1
 10
0.0
 20
0.0
  0
ENDBLK
  5
524
100
AcDbEntity
100
AcDbBlockEnd
  0
BLOCK
  5
525
100
AcDbEntity
  8
0
100
AcDbBlockBegin
  2
CDWK_PTTYP5
 70
     0
 10
0.0
 20
0.0
 30
0.0
  3
CDWK_PTTYP5
  1

  4
Cadwork node
  0
LINE
  5
526
100
AcDbEntity
  8
0
 62
     0
370
    -2
100
AcDbLine
 10
-0.5
 20
0.5
 30
0.0
 11
0.5
 21
0.5
 31
0.0
  0
LINE
  5
527
100
AcDbEntity
  8
0
 62
     0
370
    -2
100
AcDbLine
 10
0.5
 20
0.5
 30
0.0
 11
0.5
 21
-0.5
 31
0.0
  0
LINE
  5
528
100
AcDbEntity
  8
0
 62
     0
370
    -2
100
AcDbLine
 10
0.5
 20
-0.5
 30
0.0
 11
-0.5
 21
-0.5
 31
0.0
  0
LINE
  5
529
100
AcDbEntity
  8
0
 62
     0
370
    -2
100
AcDbLine
 10
-0.5
 20
-0.5
 30
0.0
 11
-0.5
 21
0.5
 31
0.0
  0
SOLID
  5
52A
100
AcDbEntity
  8
0
 62
     0
100
AcDbTrace
 10
-0.5
 20
-0.5
 11
-0.5
 21
0.0
 12
0.0
 22
-0.5
 13
0.0
 23
0.0
  0
SOLID
  5
52B
100
AcDbEntity
  8
0
 62
     0
100
AcDbTrace
 10
0.0
 20
0.0
 11
0.0
 21
0.5
 12
0.5
 22
0.0
 13
0.5
 23
0.5
  0
ENDBLK
  5
52C
100
AcDbEntity
100
AcDbBlockEnd
  0
BLOCK
  5
52D
100
AcDbEntity
  8
0
100
AcDbBlockBegin
  2
CDWK_PTTYP6
 70
     0
 10
0.0
 20
0.0
 30
0.0
  3
CDWK_PTTYP6
  1

  4
Cadwork node
  0
LINE
  5
52E
100
AcDbEntity
  8
0
 62
     0
370
    -2
100
AcDbLine
 10
-0.5
 20
0.5
 30
0.0
 11
0.5
 21
0.5
 31
0.0
  0
LINE
  5
52F
100
AcDbEntity
  8
0
 62
     0
370
    -2
100
AcDbLine
 10
0.5
 20
0.5
 30
0.0
 11
0.5
 21
-0.5
 31
0.0
  0
LINE
  5
530
100
AcDbEntity
  8
0
 62
     0
370
    -2
100
AcDbLine
 10
0.5
 20
-0.5
 30
0.0
 11
-0.5
 21
-0.5
 31
0.0
  0
LINE
  5
531
100
AcDbEntity
  8
0
 62
     0
370
    -2
100
AcDbLine
 10
-0.5
 20
-0.5
 30
0.0
 11
-0.5
 21
0.5
 31
0.0
  0
SOLID
  5
532
100
AcDbEntity
  8
0
 62
     0
100
AcDbTrace
 10
-0.5
 20
-0.5
 11
-0.5
 21
0.5
 12
0.5
 22
0.5
 13
0.5
 23
0.5
  0
ENDBLK
  5
533
100
AcDbEntity
100
AcDbBlockEnd
  0
BLOCK
  5
534
100
AcDbEntity
  8
0
100
AcDbBlockBegin
  2
CDWK_PTTYP7
 70
     0
 10
0.0
 20
0.0
 30
0.0
  3
CDWK_PTTYP7
  1

  4
Cadwork node
  0
LINE
  5
535
100
AcDbEntity
  8
0
 62
     0
370
    -2
100
AcDbLine
 10
-0.5
 20
0.5
 30
0.0
 11
0.5
 21
0.5
 31
0.0
  0
LINE
  5
536
100
AcDbEntity
  8
0
 62
     0
370
    -2
100
AcDbLine
 10
0.5
 20
0.5
 30
0.0
 11
0.5
 21
-0.5
 31
0.0
  0
LINE
  5
537
100
AcDbEntity
  8
0
 62
     0
370
    -2
100
AcDbLine
 10
0.5
 20
-0.5
 30
0.0
 11
-0.5
 21
-0.5
 31
0.0
  0
LINE
  5
538
100
AcDbEntity
  8
0
 62
     0
370
    -2
100
AcDbLine
 10
-0.5
 20
-0.5
 30
0.0
 11
-0.5
 21
0.5
 31
0.0
  0
LINE
  5
539
100
AcDbEntity
  8
0
 62
     0
370
    -2
100
AcDbLine
 10
0.0
 20
0.5
 30
0.0
 11
0.0
 21
-0.5
 31
0.0
  0
LINE
  5
53A
100
AcDbEntity
  8
0
 62
     0
370
    -2
100
AcDbLine
 10
-0.5
 20
0.0
 30
0.0
 11
0.5
 21
0.0
 31
0.0
  0
ENDBLK
  5
53B
100
AcDbEntity
100
AcDbBlockEnd
  0
BLOCK
  5
53C
100
AcDbEntity
  8
0
100
AcDbBlockBegin
  2
CDWK_PTTYP8
 70
     0
 10
0.0
 20
0.0
 30
0.0
  3
CDWK_PTTYP8
  1

  4
Cadwork node
  0
SOLID
  5
53D
100
AcDbEntity
  8
0
 62
     0
100
AcDbTrace
 10
-0.5
 20
0.5
 11
0.5
 21
0.5
 12
-0.5
 22
-0.5
 13
0.5
 23
-0.5
  0
ENDBLK
  5
53E
100
AcDbEntity
100
AcDbBlockEnd
  0
BLOCK
  5
53F
100
AcDbEntity
  8
0
100
AcDbBlockBegin
  2
CDWK_PTTYP9
 70
     0
 10
0.0
 20
0.0
 30
0.0
  3
CDWK_PTTYP9
  1

  4
Cadwork node
  0
CIRCLE
  5
540
100
AcDbEntity
  8
0
 62
     0
370
    -2
100
AcDbCircle
 10
0.0
 20
0.0
 30
0.0
 40
0.5
  0
CIRCLE
  5
541
100
AcDbEntity
  8
0
 62
     0
370
    -2
100
AcDbCircle
 10
0.0
 20
0.0
 30
0.0
 40
0.16666667
  0
ENDBLK
  5
542
100
AcDbEntity
100
AcDbBlockEnd
  0
BLOCK
  5
543
100
AcDbEntity
  8
0
100
AcDbBlockBegin
  2
CDWK_PTTYP10
 70
     0
 10
0.0
 20
0.0
 30
0.0
  3
CDWK_PTTYP10
  1

  4
Cadwork node
  0
CIRCLE
  5
544
100
AcDbEntity
  8
0
 62
     0
370
    -2
100
AcDbCircle
 10
0.0
 20
0.0
 30
0.0
 40
0.5
  0
ENDBLK
  5
545
100
AcDbEntity
100
AcDbBlockEnd
  0
BLOCK
  5
546
100
AcDbEntity
  8
0
100
AcDbBlockBegin
  2
CDWK_PTTYP11
 70
     0
 10
0.0
 20
0.0
 30
0.0
  3
CDWK_PTTYP11
  1

  4
Cadwork node
  0
CIRCLE
  5
547
100
AcDbEntity
  8
0
 62
     0
370
    -2
100
AcDbCircle
 10
0.0
 20
0.0
 30
0.0
 40
0.5
  0
CIRCLE
  5
548
100
AcDbEntity
  8
0
 62
     0
370
    -2
100
AcDbCircle
 10
0.0
 20
0.0
 30
0.0
 40
0.25
  0
ENDBLK
  5
549
100
AcDbEntity
100
AcDbBlockEnd
  0
BLOCK
  5
54A
100
AcDbEntity
  8
0
100
AcDbBlockBegin
  2
CDWK_PTTYP12
 70
     0
 10
0.0
 20
0.0
 30
0.0
  3
CDWK_PTTYP12
  1

  4
Cadwork node
  0
CIRCLE
  5
54B
100
AcDbEntity
  8
0
 62
     0
370
    -2
100
AcDbCircle
 10
0.0
 20
0.0
 30
0.0
 40
0.5
  0
CIRCLE
  5
54C
100
AcDbEntity
  8
0
 62
     0
370
    -2
100
AcDbCircle
 10
0.25
 20
0.0
 30
0.0
 40
0.25
  0
ENDBLK
  5
54D
100
AcDbEntity
100
AcDbBlockEnd
  0
BLOCK
  5
54E
100
AcDbEntity
  8
0
100
AcDbBlockBegin
  2
CDWK_PTTYP13
 70
     0
 10
0.0
 20
0.0
 30
0.0
  3
CDWK_PTTYP13
  1

  4
Cadwork node
  0
CIRCLE
  5
54F
100
AcDbEntity
  8
0
 62
     0
370
    -2
100
AcDbCircle
 10
0.0
 20
0.0
 30
0.0
 40
0.5
  0
CIRCLE
  5
550
100
AcDbEntity
  8
0
 62
     0
370
    -2
100
AcDbCircle
 10
0.25
 20
0.0
 30
0.0
 40
0.25
  0
CIRCLE
  5
551
100
AcDbEntity
  8
0
 62
     0
370
    -2
100
AcDbCircle
 10
-0.25
 20
0.0
 30
0.0
 40
0.25
  0
ENDBLK
  5
552
100
AcDbEntity
100
AcDbBlockEnd
  0
BLOCK
  5
553
100
AcDbEntity
  8
0
100
AcDbBlockBegin
  2
CDWK_PTTYP14
 70
     0
 10
0.0
 20
0.0
 30
0.0
  3
CDWK_PTTYP14
  1

  4
Cadwork node
  0
POINT
  5
554
100
AcDbEntity
  8
0
 62
     0
100
AcDbPoint
 10
0.0
 20
0.0
 30
0.0
  0
ENDBLK
  5
555
100
AcDbEntity
100
AcDbBlockEnd
  0
BLOCK
  5
556
100
AcDbEntity
  8
0
100
AcDbBlockBegin
  2
CDWK_PTTYP15
 70
     0
 10
0.0
 20
0.0
 30
0.0
  3
CDWK_PTTYP15
  1

  4
Cadwork node
  0
POINT
  5
557
100
AcDbEntity
  8
0
 62
     0
100
AcDbPoint
 10
0.0
 20
0.0
 30
0.0
  0
ENDBLK
  5
558
100
AcDbEntity
100
AcDbBlockEnd
  0
BLOCK
  5
559
100
AcDbEntity
  8
0
100
AcDbBlockBegin
  2
CDWK_PTTYP16
 70
     0
 10
0.0
 20
0.0
 30
0.0
  3
CDWK_PTTYP16
  1

  4
Cadwork node
  0
LINE
  5
55A
100
AcDbEntity
  8
0
 62
     0
370
    -2
100
AcDbLine
 10
-0.5
 20
-0.28867513
 30
0.0
 11
0.5
 21
-0.28867513
 31
0.0
  0
LINE
  5
55B
100
AcDbEntity
  8
0
 62
     0
370
    -2
100
AcDbLine
 10
0.5
 20
-0.28867513
 30
0.0
 11
0.0
 21
0.57735027
 31
0.0
  0
LINE
  5
55C
100
AcDbEntity
  8
0
 62
     0
370
    -2
100
AcDbLine
 10
0.0
 20
0.57735027
 30
0.0
 11
-0.5
 21
-0.28867513
 31
0.0
  0
CIRCLE
  5
55D
100
AcDbEntity
  8
0
 62
     0
370
    -2
100
AcDbCircle
 10
0.0
 20
0.0
 30
0.0
 40
0.28867513
  0
ENDBLK
  5
55E
100
AcDbEntity
100
AcDbBlockEnd
  0
BLOCK
  5
55F
100
AcDbEntity
  8
0
100
AcDbBlockBegin
  2
CDWK_PTTYP17
 70
     0
 10
0.0
 20
0.0
 30
0.0
  3
CDWK_PTTYP17
  1

  4
Cadwork node
  0
CIRCLE
  5
560
100
AcDbEntity
  8
0
 62
     0
370
    -2
100
AcDbCircle
 10
0.0
 20
0.0
 30
0.0
 40
0.5
  0
HATCH
  5
561
100
AcDbEntity
  8
0
 62
     0
370
    -2
100
AcDbHatch
 10
0.0
 20
0.0
 30
0.0
210
0.0
220
0.0
230
1.0
  2
SOLID
 70
     1
 71
     0
 91
        1
 92
        1
 93
        1
 72
     2
 10
0.0
 20
0.0
 40
0.25
 50
0.0
 51
360.0
 73
     1
 97
        0
 75
     0
 76
     1
 98
        1
 10
0.0
 20
0.0
  0
ENDBLK
  5
562
100
AcDbEntity
100
AcDbBlockEnd
  0
BLOCK
  5
563
100
AcDbEntity
  8
0
100
AcDbBlockBegin
  2
CDWK_PTTYP18
 70
     0
 10
0.0
 20
0.0
 30
0.0
  3
CDWK_PTTYP18
  1

  4
Cadwork node
  0
CIRCLE
  5
564
100
AcDbEntity
  8
0
 62
     0
370
    -2
100
AcDbCircle
 10
0.0
 20
0.0
 30
0.0
 40
0.5
  0
CIRCLE
  5
565
100
AcDbEntity
  8
0
 62
     0
370
    -2
100
AcDbCircle
 10
0.0
 20
0.0
 30
0.0
 40
0.2
  0
ENDBLK
  5
566
100
AcDbEntity
100
AcDbBlockEnd
  0
BLOCK
  5
567
100
AcDbEntity
  8
0
100
AcDbBlockBegin
  2
CDWK_PTTYP19
 70
     0
 10
0.0
 20
0.0
 30
0.0
  3
CDWK_PTTYP19
  1

  4
Cadwork node
  0
CIRCLE
  5
568
100
AcDbEntity
  8
0
 62
     0
370
    -2
100
AcDbCircle
 10
0.0
 20
0.0
 30
0.0
 40
0.4
  0
CIRCLE
  5
569
100
AcDbEntity
  8
0
 62
     0
370
    -2
100
AcDbCircle
 10
0.0
 20
0.0
 30
0.0
 40
0.25
  0
LINE
  5
56A
100
AcDbEntity
  8
0
 62
     0
370
    -2
100
AcDbLine
 10
-0.25
 20
0.0
 30
0.0
 11
0.25
 21
0.0
 31
0.0
  0
ENDBLK
  5
56B
100
AcDbEntity
100
AcDbBlockEnd
  0
BLOCK
  5
56C
100
AcDbEntity
  8
0
100
AcDbBlockBegin
  2
CDWK_PTTYP20
 70
     0
 10
0.0
 20
0.0
 30
0.0
  3
CDWK_PTTYP20
  1

  4
Cadwork node
  0
CIRCLE
  5
56D
100
AcDbEntity
  8
0
 62
     0
370
    -2
100
AcDbCircle
 10
0.0
 20
0.0
 30
0.0
 40
0.5
  0
CIRCLE
  5
56E
100
AcDbEntity
  8
0
 62
     0
370
    -2
100
AcDbCircle
 10
0.0
 20
0.0
 30
0.0
 40
0.3
  0
ENDBLK
  5
56F
100
AcDbEntity
100
AcDbBlockEnd
  0
BLOCK
  5
570
100
AcDbEntity
  8
0
100
AcDbBlockBegin
  2
CDWK_PTTYP21
 70
     0
 10
0.0
 20
0.0
 30
0.0
  3
CDWK_PTTYP21
  1

  4
Cadwork node
  0
CIRCLE
  5
571
100
AcDbEntity
  8
0
 62
     0
370
    -2
100
AcDbCircle
 10
0.0
 20
0.0
 30
0.0
 40
0.5
  0
LINE
  5
572
100
AcDbEntity
  8
0
 62
     0
370
    -2
100
AcDbLine
 10
-0.5
 20
0.0
 30
0.0
 11
0.5
 21
0.0
 31
0.0
  0
ENDBLK
  5
573
100
AcDbEntity
100
AcDbBlockEnd
  0
BLOCK
  5
574
100
AcDbEntity
  8
0
100
AcDbBlockBegin
  2
CDWK_PTTYP22
 70
     0
 10
0.0
 20
0.0
 30
0.0
  3
CDWK_PTTYP22
  1

  4
Cadwork node
  0
POINT
  5
575
100
AcDbEntity
  8
0
 62
     0
100
AcDbPoint
 10
0.0
 20
0.0
 30
0.0
  0
ENDBLK
  5
576
100
AcDbEntity
100
AcDbBlockEnd
  0
BLOCK
  5
577
100
AcDbEntity
  8
0
100
AcDbBlockBegin
  2
CDWK_PTTYP23
 70
     0
 10
0.0
 20
0.0
 30
0.0
  3
CDWK_PTTYP23
  1

  4
Cadwork node
  0
POINT
  5
578
100
AcDbEntity
  8
0
 62
     0
100
AcDbPoint
 10
0.0
 20
0.0
 30
0.0
  0
ENDBLK
  5
579
100
AcDbEntity
100
AcDbBlockEnd
  0
BLOCK
  5
57A
100
AcDbEntity
  8
0
100
AcDbBlockBegin
  2
CDWK_PTTYP24
 70
     0
 10
0.0
 20
0.0
 30
0.0
  3
CDWK_PTTYP24
  1

  4
Cadwork node
  0
POINT
  5
57B
100
AcDbEntity
  8
0
 62
     0
100
AcDbPoint
 10
0.0
 20
0.0
 30
0.0
  0
ENDBLK
  5
57C
100
AcDbEntity
100
AcDbBlockEnd
  0
BLOCK
  5
57D
100
AcDbEntity
  8
0
100
AcDbBlockBegin
  2
CDWK_PTTYP25
 70
     0
 10
0.0
 20
0.0
 30
0.0
  3
CDWK_PTTYP25
  1

  4
Cadwork node
  0
LINE
  5
57E
100
AcDbEntity
  8
0
 62
     0
370
    -2
100
AcDbLine
 10
-0.43290044
 20
-0.25
 30
0.0
 11
0.43290044
 21
-0.25
 31
0.0
  0
LINE
  5
57F
100
AcDbEntity
  8
0
 62
     0
370
    -2
100
AcDbLine
 10
-0.43290044
 20
-0.25
 30
0.0
 11
0.0
 21
0.5
 31
0.0
  0
LINE
  5
580
100
AcDbEntity
  8
0
 62
     0
370
    -2
100
AcDbLine
 10
0.43290044
 20
-0.25
 30
0.0
 11
0.0
 21
0.5
 31
0.0
  0
CIRCLE
  5
581
100
AcDbEntity
  8
0
 62
     0
370
    -2
100
AcDbCircle
 10
0.0
 20
0.0
 30
0.0
 40
0.5
  0
ENDBLK
  5
582
100
AcDbEntity
100
AcDbBlockEnd
  0
BLOCK
  5
583
100
AcDbEntity
  8
0
100
AcDbBlockBegin
  2
CDWK_PTTYP26
 70
     0
 10
0.0
 20
0.0
 30
0.0
  3
CDWK_PTTYP26
  1

  4
Cadwork node
  0
LINE
  5
584
100
AcDbEntity
  8
0
 62
     0
370
    -2
100
AcDbLine
 10
-0.5
 20
-0.28850001
 30
0.0
 11
0.5
 21
-0.28850001
 31
0.0
  0
LINE
  5
585
100
AcDbEntity
  8
0
 62
     0
370
    -2
100
AcDbLine
 10
-0.5
 20
-0.28850001
 30
0.0
 11
0.0
 21
0.57736721
 31
0.0
  0
LINE
  5
586
100
AcDbEntity
  8
0
 62
     0
370
    -2
100
AcDbLine
 10
0.5
 20
-0.28850001
 30
0.0
 11
0.0
 21
0.57736721
 31
0.0
  0
CIRCLE
  5
587
100
AcDbEntity
  8
0
 62
     0
370
    -2
100
AcDbCircle
 10
0.0
 20
0.0
 30
0.0
 40
0.1312336
  0
ENDBLK
  5
588
100
AcDbEntity
100
AcDbBlockEnd
  0
BLOCK
  5
589
100
AcDbEntity
  8
0
100
AcDbBlockBegin
  2
CDWK_PTTYP27
 70
     0
 10
0.0
 20
0.0
 30
0.0
  3
CDWK_PTTYP27
  1

  4
Cadwork node
  0
LINE
  5
58A
100
AcDbEntity
  8
0
 62
     0
370
    -2
100
AcDbLine
 10
-0.43290044
 20
-0.25
 30
0.0
 11
0.43290044
 21
-0.25
 31
0.0
  0
LINE
  5
58B
100
AcDbEntity
  8
0
 62
     0
370
    -2
100
AcDbLine
 10
-0.43290044
 20
-0.25
 30
0.0
 11
0.0
 21
0.5
 31
0.0
  0
LINE
  5
58C
100
AcDbEntity
  8
0
 62
     0
370
    -2
100
AcDbLine
 10
0.43290044
 20
-0.25
 30
0.0
 11
0.0
 21
0.5
 31
0.0
  0
CIRCLE
  5
58D
100
AcDbEntity
  8
0
 62
     0
370
    -2
100
AcDbCircle
 10
0.0
 20
0.0
 30
0.0
 40
0.5
  0
CIRCLE
  5
58E
100
AcDbEntity
  8
0
 62
     0
370
    -2
100
AcDbCircle
 10
0.0
 20
0.0
 30
0.0
 40
0.1312336
  0
ENDBLK
  5
58F
100
AcDbEntity
100
AcDbBlockEnd
  0
BLOCK
  5
590
100
AcDbEntity
  8
0
100
AcDbBlockBegin
  2
CDWK_PTTYP28
 70
     0
 10
0.0
 20
0.0
 30
0.0
  3
CDWK_PTTYP28
  1

  4
Cadwork node
  0
POINT
  5
591
100
AcDbEntity
  8
0
 62
     0
100
AcDbPoint
 10
0.0
 20
0.0
 30
0.0
  0
ENDBLK
  5
592
100
AcDbEntity
100
AcDbBlockEnd
  0
BLOCK
  5
593
100
AcDbEntity
  8
0
100
AcDbBlockBegin
  2
CDWK_PTTYP29
 70
     0
 10
0.0
 20
0.0
 30
0.0
  3
CDWK_PTTYP29
  1

  4
Cadwork node
  0
CIRCLE
  5
594
100
AcDbEntity
  8
0
 62
     0
370
    -2
100
AcDbCircle
 10
0.0
 20
0.0
 30
0.0
 40
0.5
  0
CIRCLE
  5
595
100
AcDbEntity
  8
0
 62
     0
370
    -2
100
AcDbCircle
 10
0.0
 20
0.0
 30
0.0
 40
0.375
  0
CIRCLE
  5
596
100
AcDbEntity
  8
0
 62
     0
370
    -2
100
AcDbCircle
 10
0.0
 20
0.0
 30
0.0
 40
0.21875
  0
ENDBLK
  5
597
100
AcDbEntity
100
AcDbBlockEnd
  0
BLOCK
  5
598
100
AcDbEntity
  8
0
100
AcDbBlockBegin
  2
CDWK_PTTYP30
 70
     0
 10
0.0
 20
0.0
 30
0.0
  3
CDWK_PTTYP30
  1

  4
Cadwork node
  0
LINE
  5
599
100
AcDbEntity
  8
0
 62
     0
370
    -2
100
AcDbLine
 10
0.17680339
 20
0.17680339
 30
0.0
 11
0.5
 21
0.5
 31
0.0
  0
LINE
  5
59A
100
AcDbEntity
  8
0
 62
     0
370
    -2
100
AcDbLine
 10
-0.17680339
 20
0.17680339
 30
0.0
 11
-0.5
 21
0.5
 31
0.0
  0
LINE
  5
59B
100
AcDbEntity
  8
0
 62
     0
370
    -2
100
AcDbLine
 10
0.17680339
 20
-0.17680339
 30
0.0
 11
0.5
 21
-0.5
 31
0.0
  0
LINE
  5
59C
100
AcDbEntity
  8
0
 62
     0
370
    -2
100
AcDbLine
 10
-0.17680339
 20
-0.17680339
 30
0.0
 11
-0.5
 21
-0.5
 31
0.0
  0
ENDBLK
  5
59D
100
AcDbEntity
100
AcDbBlockEnd
  0
BLOCK
  5
59E
100
AcDbEntity
  8
0
100
AcDbBlockBegin
  2
CDWK_PTTYP31
 70
     0
 10
0.0
 20
0.0
 30
0.0
  3
CDWK_PTTYP31
  1

  4
Cadwork node
  0
CIRCLE
  5
59F
100
AcDbEntity
  8
0
 62
     0
370
    -2
100
AcDbCircle
 10
0.0
 20
0.0
 30
0.0
 40
0.075
  0
LINE
  5
5A0
100
AcDbEntity
  8
0
 62
     0
370
    -2
100
AcDbLine
 10
0.075
 20
0.0
 30
0.0
 11
0.5
 21
0.0
 31
0.0
  0
LINE
  5
5A1
100
AcDbEntity
  8
0
 62
     0
370
    -2
100
AcDbLine
 10
-0.075
 20
0.0
 30
0.0
 11
-0.5
 21
0.0
 31
0.0
  0
LINE
  5
5A2
100
AcDbEntity
  8
0
 62
     0
370
    -2
100
AcDbLine
 10
0.0
 20
0.075
 30
0.0
 11
0.0
 21
0.5
 31
0.0
  0
LINE
  5
5A3
100
AcDbEntity
  8
0
 62
     0
370
    -2
100
AcDbLine
 10
0.0
 20
-0.075
 30
0.0
 11
0.0
 21
-0.5
 31
0.0
  0
ENDBLK
  5
5A4
100
AcDbEntity
100
AcDbBlockEnd
  0
BLOCK
  5
5A5
100
AcDbEntity
  8
0
100
AcDbBlockBegin
  2
CDWK_PTTYP32
 70
     0
 10
0.0
 20
0.0
 30
0.0
  3
CDWK_PTTYP32
  1

  4
Cadwork node
  0
CIRCLE
  5
5A6
100
AcDbEntity
  8
0
 62
     0
370
    -2
100
AcDbCircle
 10
0.0
 20
0.0
 30
0.0
 40
0.5
  0
CIRCLE
  5
5A7
100
AcDbEntity
  8
0
 62
     0
370
    -2
100
AcDbCircle
 10
0.0
 20
0.0
 30
0.0
 40
0.16666667
  0
LINE
  5
5A8
100
AcDbEntity
  8
0
 62
     0
370
    -2
100
AcDbLine
 10
0.11786893
 20
0.11786893
 30
0.0
 11
0.35360678
 21
0.35360678
 31
0.0
  0
LINE
  5
5A9
100
AcDbEntity
  8
0
 62
     0
370
    -2
100
AcDbLine
 10
-0.11786893
 20
0.11786893
 30
0.0
 11
-0.35360678
 21
0.35360678
 31
0.0
  0
LINE
  5
5AA
100
AcDbEntity
  8
0
 62
     0
370
    -2
100
AcDbLine
 10
0.11786893
 20
-0.11786893
 30
0.0
 11
0.35360678
 21
-0.35360678
 31
0.0
  0
LINE
  5
5AB
100
AcDbEntity
  8
0
 62
     0
370
    -2
100
AcDbLine
 10
-0.11786893
 20
-0.11786893
 30
0.0
 11
-0.35360678
 21
-0.35360678
 31
0.0
  0
ENDBLK
  5
5AC
100
AcDbEntity
100
AcDbBlockEnd
  0
BLOCK
  5
5AD
100
AcDbEntity
  8
0
100
AcDbBlockBegin
  2
CDWK_PTTYP33
 70
     0
 10
0.0
 20
0.0
 30
0.0
  3
CDWK_PTTYP33
  1

  4
Cadwork node
  0
CIRCLE
  5
5AE
100
AcDbEntity
  8
0
 62
     0
370
    -2
100
AcDbCircle
 10
0.0
 20
0.0
 30
0.0
 40
0.5
  0
LINE
  5
5AF
100
AcDbEntity
  8
0
 62
     0
370
    -2
100
AcDbLine
 10
0.0
 20
0.5
 30
0.0
 11
0.0
 21
-0.5
 31
0.0
  0
LINE
  5
5B0
100
AcDbEntity
  8
0
 62
     0
370
    -2
100
AcDbLine
 10
-0.5
 20
0.0
 30
0.0
 11
0.5
 21
0.0
 31
0.0
  0
ENDBLK
  5
5B1
100
AcDbEntity
100
AcDbBlockEnd
  0
BLOCK
  5
5B2
100
AcDbEntity
  8
0
100
AcDbBlockBegin
  2
CDWK_PTTYP34
 70
     0
 10
0.0
 20
0.0
 30
0.0
  3
CDWK_PTTYP34
  1

  4
Cadwork node
  0
CIRCLE
  5
5B3
100
AcDbEntity
  8
0
 62
     0
370
    -2
100
AcDbCircle
 10
0.0
 20
0.0
 30
0.0
 40
0.5
  0
LINE
  5
5B4
100
AcDbEntity
  8
0
 62
     0
370
    -2
100
AcDbLine
 10
-0.30360678
 20
-0.40360678
 30
0.0
 11
0.40360678
 21
0.30360678
 31
0.0
  0
LINE
  5
5B5
100
AcDbEntity
  8
0
 62
     0
370
    -2
100
AcDbLine
 10
-0.40360678
 20
-0.30360678
 30
0.0
 11
0.30360678
 21
0.40360678
 31
0.0
  0
ENDBLK
  5
5B6
100
AcDbEntity
100
AcDbBlockEnd
  0
BLOCK
  5
5B7
100
AcDbEntity
  8
0
100
AcDbBlockBegin
  2
CDWK_PTTYP35
 70
     0
 10
0.0
 20
0.0
 30
0.0
  3
CDWK_PTTYP35
  1

  4
Cadwork node
  0
CIRCLE
  5
5B8
100
AcDbEntity
  8
0
 62
     0
370
    -2
100
AcDbCircle
 10
0.0
 20
0.0
 30
0.0
 40
0.21431634
  0
LINE
  5
5B9
100
AcDbEntity
  8
0
 62
     0
370
    -2
100
AcDbLine
 10
0.0
 20
0.21431634
 30
0.0
 11
0.0
 21
0.5
 31
0.0
  0
LINE
  5
5BA
100
AcDbEntity
  8
0
 62
     0
370
    -2
100
AcDbLine
 10
0.0
 20
-0.21431634
 30
0.0
 11
0.0
 21
-0.5
 31
0.0
  0
ENDBLK
  5
5BB
100
AcDbEntity
100
AcDbBlockEnd
  0
BLOCK
  5
5BC
100
AcDbEntity
  8
0
100
AcDbBlockBegin
  2
CDWK_PTTYP36
 70
     0
 10
0.0
 20
0.0
 30
0.0
  3
CDWK_PTTYP36
  1

  4
Cadwork node
  0
LINE
  5
5BD
100
AcDbEntity
  8
0
 62
     0
370
    -2
100
AcDbLine
 10
-0.5
 20
-0.16666667
 30
0.0
 11
0.5
 21
-0.16666667
 31
0.0
  0
LINE
  5
5BE
100
AcDbEntity
  8
0
 62
     0
370
    -2
100
AcDbLine
 10
0.5
 20
-0.16666667
 30
0.0
 11
0.5
 21
0.16666667
 31
0.0
  0
LINE
  5
5BF
100
AcDbEntity
  8
0
 62
     0
370
    -2
100
AcDbLine
 10
0.5
 20
0.16666667
 30
0.0
 11
-0.5
 21
0.16666667
 31
0.0
  0
LINE
  5
5C0
100
AcDbEntity
  8
0
 62
     0
370
    -2
100
AcDbLine
 10
-0.5
 20
0.16666667
 30
0.0
 11
-0.5
 21
-0.16666667
 31
0.0
  0
SOLID
  5
5C1
100
AcDbEntity
  8
0
 62
     0
100
AcDbTrace
 10
-0.5
 20
-0.16666667
 11
0.5
 21
0.16666667
 12
0.5
 22
-0.16666667
 13
0.5
 23
-0.16666667
  0
ENDBLK
  5
5C2
100
AcDbEntity
100
AcDbBlockEnd
  0
BLOCK
  5
5C3
100
AcDbEntity
  8
0
100
AcDbBlockBegin
  2
CDWK_PTTYP37
 70
     0
 10
0.0
 20
0.0
 30
0.0
  3
CDWK_PTTYP37
  1

  4
Cadwork node
  0
CIRCLE
  5
5C4
100
AcDbEntity
  8
0
 62
     0
370
    -2
100
AcDbCircle
 10
0.0
 20
0.0
 30
0.0
 40
0.5
  0
SOLID
  5
5C5
100
AcDbEntity
  8
0
 62
     0
100
AcDbTrace
 10
0.0
 20
0.0
 11
0.35350001
 21
0.35350001
 12
0.5
 22
0.0
 13
0.46200001
 23
0.19149999
  0
SOLID
  5
5C6
100
AcDbEntity
  8
0
 62
     0
100
AcDbTrace
 10
0.0
 20
0.0
 11
0.35350001
 21
-0.35350001
 12
0.5
 22
0.0
 13
0.46200001
 23
-0.19149999
  0
SOLID
  5
5C7
100
AcDbEntity
  8
0
 62
     0
100
AcDbTrace
 10
0.0
 20
0.0
 11
0.0
 21
-0.5
 12
0.35350001
 22
-0.35350001
 13
0.19149999
 23
-0.46200001
  0
SOLID
  5
5C8
100
AcDbEntity
  8
0
 62
     0
100
AcDbTrace
 10
0.0
 20
0.0
 11
0.0
 21
-0.5
 12
-0.35350001
 22
-0.35350001
 13
-0.19149999
 23
-0.46200001
  0
ENDBLK
  5
5C9
100
AcDbEntity
100
AcDbBlockEnd
  0
BLOCK
  5
5CA
100
AcDbEntity
  8
0
100
AcDbBlockBegin
  2
CDWK_PTTYP38
 70
     0
 10
0.0
 20
0.0
 30
0.0
  3
CDWK_PTTYP38
  1

  4
Cadwork node
  0
CIRCLE
  5
5CB
100
AcDbEntity
  8
0
 62
     0
370
    -2
100
AcDbCircle
 10
0.0
 20
0.0
 30
0.0
 40
0.5
  0
SOLID
  5
5CC
100
AcDbEntity
  8
0
 62
     0
100
AcDbTrace
 10
0.0
 20
0.0
 11
0.35350001
 21
0.35350001
 12
0.0
 22
0.5
 13
0.19149999
 23
0.46200001
  0
SOLID
  5
5CD
100
AcDbEntity
  8
0
 62
     0
100
AcDbTrace
 10
0.0
 20
0.0
 11
0.5
 21
0.0
 12
0.35350001
 22
0.35350001
 13
0.46200001
 23
0.19149999
  0
SOLID
  5
5CE
100
AcDbEntity
  8
0
 62
     0
100
AcDbTrace
 10
0.0
 20
0.0
 11
0.0
 21
-0.5
 12
-0.35350001
 22
-0.35350001
 13
-0.19149999
 23
-0.46200001
  0
SOLID
  5
5CF
100
AcDbEntity
  8
0
 62
     0
100
AcDbTrace
 10
0.0
 20
0.0
 11
-0.5
 21
0.0
 12
-0.35350001
 22
-0.35350001
 13
-0.46200001
 23
-0.19149999
  0
ENDBLK
  5
5D0
100
AcDbEntity
100
AcDbBlockEnd
  0
BLOCK
  5
5D1
100
AcDbEntity
  8
Ech.1_5
100
AcDbBlockBegin
  2
*D19
 70
     1
 10
0.0
 20
0.0
 30
0.0
  3
*D19
  1

  4
Cadwork dimension
  0
TEXT
  5
5D2
100
AcDbEntity
  8
Ech.1_5
 62
   190
370
    18
100
AcDbText
 10
33900.32865945
 20
-13733.06019926
 30
0.0
 40
12.5
  1
20 mini
  7
ARIAL
 50
0.0
 41
1.0
 51
0.0
100
AcDbText
  0
LINE
  5
5D3
100
AcDbEntity
  8
Ech.1_5
 62
   190
370
    -2
100
AcDbLine
 10
33915.08247896
 20
-13743.06019926
 30
0.0
 11
33915.08247896
 21
-13723.38322749
 31
0.0
  0
LINE
  5
5D4
100
AcDbEntity
  8
Ech.1_5
 62
   190
370
    -2
100
AcDbLine
 10
33935.08247896
 20
-13743.06019926
 30
0.0
 11
33935.08247896
 21
-13723.38322749
 31
0.0
  0
LINE
  5
5D5
100
AcDbEntity
  8
Ech.1_5
 62
   190
370
    -2
100
AcDbLine
 10
33910.08247896
 20
-13738.06019926
 30
0.0
 11
33940.08247896
 21
-13738.06019926
 31
0.0
  0
LINE
  5
5D6
100
AcDbEntity
  8
Ech.1_5
 62
   190
370
    -2
100
AcDbLine
 10
33912.58247896
 20
-13740.56019926
 30
0.0
 11
33917.58247896
 21
-13735.56019926
 31
0.0
  0
LINE
  5
5D7
100
AcDbEntity
  8
Ech.1_5
 62
   190
370
    -2
100
AcDbLine
 10
33932.58247896
 20
-13740.56019926
 30
0.0
 11
33937.58247896
 21
-13735.56019926
 31
0.0
  0
ENDBLK
  5
5D8
100
AcDbEntity
100
AcDbBlockEnd
  0
ENDSEC
  0
SECTION
  2
ENTITIES
  0
LWPOLYLINE
  5
5D9
100
AcDbEntity
  8
Ech.1_5
 62
   190
  6
CONTINUOUS
370
    -3
100
AcDbPolyline
 90
        9
 70
     1
 43
0.0
 10
33864.8256288
 20
-13708.38485732
 10
33915.08247896
 20
-13708.38322749
 10
33915.08247896
 20
-13585.56288542
 10
33915.08247896
 20
-13029.88104357
 10
33815.08247896
 20
-13029.88104357
 10
33815.08247896
 20
-13708.38477831
 10
33845.96371158
 20
-13708.38485732
 10
33862.45006566
 20
-13690.40650572
 10
33848.34012565
 20
-13726.36220564
  0
LWPOLYLINE
  5
5DA
100
AcDbEntity
  8
Ech.1_5
 62
   190
  6
CONTINUOUS
370
    -3
100
AcDbPolyline
 90
       80
 70
     0
 43
0.0
 10
33898.4158123
 20
-13708.38322749
 42
1.14028181
 10
33894.10215183
 20
-13675.61779965
 10
33836.06280609
 20
-13691.14865532
 42
-1.30322619
 10
33836.06280609
 20
-13658.95113298
 10
33894.10215183
 20
-13674.48198866
 42
1.30322619
 10
33894.10215183
 20
-13642.28446632
 10
33836.06280609
 20
-13657.81532199
 42
-1.30322619
 10
33836.06280609
 20
-13625.61779965
 10
33894.10215183
 20
-13641.14865532
 42
1.30322619
 10
33894.10215183
 20
-13608.95113298
 10
33836.06280609
 20
-13624.48198866
 42
-1.30322619
 10
33836.06280609
 20
-13592.28446632
 10
33894.10215183
 20
-13607.81532199
 42
1.30322619
 10
33894.10215183
 20
-13575.61779965
 10
33836.06280609
 20
-13591.14865532
 42
-1.30322619
 10
33836.06280609
 20
-13558.95113298
 10
33894.10215183
 20
-13574.48198866
 42
1.30322619
 10
33894.10215183
 20
-13542.28446632
 10
33836.06280609
 20
-13557.81532199
 42
-1.30322619
 10
33836.06280609
 20
-13525.61779965
 10
33894.10215183
 20
-13541.14865532
 42
1.30322619
 10
33894.10215183
 20
-13508.95113298
 10
33836.06280609
 20
-13524.48198865
 42
-1.30322619
 10
33836.06280609
 20
-13492.28446632
 10
33894.10215183
 20
-13507.81532199
 42
1.30322619
 10
33894.10215183
 20
-13475.61779965
 10
33836.06280609
 20
-13491.14865532
 42
-1.30322619
 10
33836.06280609
 20
-13458.95113298
 10
33894.10215183
 20
-13474.48198865
 42
1.30322619
 10
33894.10215183
 20
-13442.28446632
 10
33836.06280609
 20
-13457.81532199
 42
-1.30322619
 10
33836.06280609
 20
-13425.61779965
 10
33894.10215183
 20
-13441.14865532
 42
1.30322619
 10
33894.10215183
 20
-13408.95113298
 10
33836.06280609
 20
-13424.48198865
 42
-1.30322619
 10
33836.06280609
 20
-13392.28446632
 10
33894.10215183
 20
-13407.81532199
 42
1.30322619
 10
33894.10215183
 20
-13375.61779965
 10
33836.06280609
 20
-13391.14865532
 42
-1.30322619
 10
33836.06280609
 20
-13358.95113298
 10
33894.10215183
 20
-13374.48198865
 42
1.30322619
 10
33894.10215183
 20
-13342.28446632
 10
33836.06280609
 20
-13357.81532199
 42
-1.30322619
 10
33836.06280609
 20
-13325.61779965
 10
33894.10215183
 20
-13341.14865532
 42
1.30322619
 10
33894.10215183
 20
-13308.95113298
 10
33836.06280609
 20
-13324.48198865
 42
-1.30322619
 10
33836.06280609
 20
-13292.28446632
 10
33894.10215183
 20
-13307.81532199
 42
1.30322619
 10
33894.10215183
 20
-13275.61779965
 10
33836.06280609
 20
-13291.14865532
 42
-1.30322619
 10
33836.06280609
 20
-13258.95113298
 10
33894.10215183
 20
-13274.48198865
 42
1.30322619
 10
33894.10215183
 20
-13242.28446632
 10
33836.06280609
 20
-13257.81532199
 42
-1.30322619
 10
33836.06280609
 20
-13225.61779965
 10
33894.10215183
 20
-13241.14865532
 42
1.30322619
 10
33894.10215183
 20
-13208.95113298
 10
33836.06280609
 20
-13224.48198865
 42
-1.30322619
 10
33836.06280609
 20
-13192.28446632
 10
33894.10215183
 20
-13207.81532199
 42
1.30322619
 10
33894.10215183
 20
-13175.61779965
 10
33836.06280609
 20
-13191.14865532
 42
-1.30322619
 10
33836.06280609
 20
-13158.95113298
 10
33894.10215183
 20
-13174.48198865
 42
1.30322619
 10
33894.10215183
 20
-13142.28446632
 10
33836.06280609
 20
-13157.81532199
 42
-1.30322619
 10
33836.06280609
 20
-13125.61779965
 10
33894.10215183
 20
-13141.14865532
 42
1.30322619
 10
33894.10215183
 20
-13108.95113298
 10
33836.06280609
 20
-13124.48198865
 42
-1.30322619
 10
33836.06280609
 20
-13092.28446632
 10
33894.10215183
 20
-13107.81532199
 42
1.30322619
 10
33894.10215183
 20
-13075.61779965
 10
33836.06280609
 20
-13091.14865532
 42
-1.30322619
 10
33836.06280609
 20
-13058.95113298
 10
33894.10215183
 20
-13074.48198865
 42
1.30322619
 10
33894.10215183
 20
-13042.28446632
 10
33836.06280609
 20
-13057.81532199
 42
-0.76903107
 10
33820.01465334
 20
-13029.88104357
  0
LWPOLYLINE
  5
5DB
100
AcDbEntity
  8
Ech.1_5
 62
   190
  6
CONTINUOUS
370
    -3
100
AcDbPolyline
 90
        5
 70
     1
 43
0.0
 10
33815.08247896
 20
-13541.99342455
 10
33815.08247896
 20
-13129.88104357
 10
33715.08247896
 20
-13129.88104357
 10
33715.08247896
 20
-13708.38485732
 10
33815.08247896
 20
-13708.38485732
  0
LWPOLYLINE
  5
5DC
100
AcDbEntity
  8
Ech.1_5
 62
   190
  6
CONTINUOUS
370
    -3
100
AcDbPolyline
 90
        3
 70
     0
 43
0.0
 10
33721.28113941
 20
-13129.88104357
 42
0.23012554
 10
33735.58971485
 20
-13132.62921002
 10
33745.82601761
 20
-13129.88104357
  0
LWPOLYLINE
  5
5DD
100
AcDbEntity
  8
Ech.1_5
 62
     7
  6
CONTINUOUS
370
    -3
100
AcDbPolyline
 90
        4
 70
     1
 43
0.0
 10
33815.08247896
 20
-13640.29994336
 10
33935.08247896
 20
-13640.29994336
 10
33935.08247896
 20
-13595.29994336
 10
33815.08247896
 20
-13595.29994336
  0
LWPOLYLINE
  5
5DE
100
AcDbEntity
  8
Ech.1_5
 62
   190
  6
CONTINUOUS
370
    -3
100
AcDbPolyline
 90
        4
 70
     0
 43
0.0
 10
33935.08247896
 20
-13595.29994336
 10
33815.08247896
 20
-13640.29994336
 10
33815.08247896
 20
-13595.29994336
 10
33935.08247896
 20
-13640.29994336
  0
LWPOLYLINE
  5
5DF
100
AcDbEntity
  8
Ech.1_5
 62
     5
  6
CONTINUOUS
370
    -3
100
AcDbPolyline
 90
        5
 70
     0
 43
0.0
 10
33815.08247896
 20
-13640.29994336
 10
33935.08247896
 20
-13640.29994336
 10
33935.08247896
 20
-13595.29994336
 10
33815.08247896
 20
-13595.29994336
 10
33815.08247896
 20
-13640.29994336
  0
LWPOLYLINE
  5
5E0
102
{ACAD_REACTORS
330
5E1
102
}
100
AcDbEntity
  8
Ech.1_5
 62
     7
  6
CONTINUOUS
370
    -3
100
AcDbPolyline
 90
        6
 70
     1
 43
0.0
 10
33715.08247896
 20
-13640.29994336
 10
33715.08247896
 20
-13697.33920316
 10
33719.08247896
 20
-13697.33920316
 10
33719.08247896
 20
-13644.29994355
 10
33868.1837579
 20
-13644.29994355
 10
33868.1837579
 20
-13640.29994336
  0
HATCH
  5
5E1
100
AcDbEntity
  8
Ech.1_5
 62
     7
  6
CONTINUOUS
100
AcDbHatch
 10
0.0
 20
0.0
 30
0.0
210
0.0
220
0.0
230
1.0
  2
SOLID
 70
     1
 71
     1
 91
        1
 92
        7
 72
     0
 73
     1
 93
        6
 10
33715.08247896
 20
-13640.29994336
 10
33715.08247896
 20
-13697.33920316
 10
33719.08247896
 20
-13697.33920316
 10
33719.08247896
 20
-13644.29994355
 10
33868.1837579
 20
-13644.29994355
 10
33868.1837579
 20
-13640.29994336
 97
        1
330
5E0
 75
     0
 76
     2
 47
0.775229
 98
        1
 10
0.0
 20
0.0
  0
LWPOLYLINE
  5
5E2
100
AcDbEntity
  8
Ech.1_5
 62
   190
  6
CONTINUOUS
370
    -3
100
AcDbPolyline
 90
        5
 70
     1
 43
0.0
 10
33362.36051427
 20
-13029.88104357
 10
33362.36051427
 20
-13129.88104357
 10
33815.08247896
 20
-13129.88104357
 10
33815.08247896
 20
-13029.88104357
 10
33774.47289525
 20
-13029.88104357
  0
LWPOLYLINE
  5
5E3
100
AcDbEntity
  8
Ech.1_5
 62
   190
  6
CONTINUOUS
370
    -3
100
AcDbPolyline
 90
        4
 70
     0
 43
0.0
 10
33815.08247896
 20
-13050.8822988
 42
-0.00127912
 10
33815.06068672
 20
-13050.96474199
 10
33799.57753171
 20
-13109.01681004
 42
0.48179955
 10
33815.08247896
 20
-13129.97319232
  0
LWPOLYLINE
  5
5E4
100
AcDbEntity
  8
Ech.1_5
 62
   190
  6
CONTINUOUS
370
    -3
100
AcDbPolyline
 90
        3
 70
     0
 43
0.0
 10
33362.36051427
 20
-13123.68238313
 42
0.23012554
 10
33365.10868072
 20
-13109.37380768
 10
33362.36051427
 20
-13099.13750493
  0
LWPOLYLINE
  5
5E5
100
AcDbEntity
  8
Ech.1_5
 62
   190
  6
CONTINUOUS
370
    -3
100
AcDbPolyline
 90
        9
 70
     1
 43
0.0
 10
33362.36051427
 20
-12929.88104357
 10
33362.36051427
 20
-12980.13789373
 10
33380.33886586
 20
-12996.62424781
 10
33344.38316594
 20
-12982.5143078
 10
33362.36051427
 20
-12998.99981095
 10
33362.36051427
 20
-13029.88104357
 10
33915.08247896
 20
-13029.88104357
 10
33915.08247896
 20
-12929.88104357
 10
33818.04235612
 20
-12929.88104357
  0
LWPOLYLINE
  5
5E6
100
AcDbEntity
  8
Ech.1_5
 62
   190
  6
CONTINUOUS
370
    -3
100
AcDbPolyline
 90
       65
 70
     0
 43
0.0
 10
33370.54382079
 20
-12992.78042058
 10
33366.24449095
 20
-13008.90019645
 42
1.30322619
 10
33398.44199155
 20
-13008.87374016
 10
33382.86345619
 20
-12950.84719511
 42
-1.30322619
 10
33415.06095678
 20
-12950.82073883
 10
33399.57780177
 20
-13008.87280688
 42
1.30322619
 10
33431.77530237
 20
-13008.8463506
 10
33416.19676701
 20
-12950.81980555
 42
-1.30322619
 10
33448.39426761
 20
-12950.79334926
 10
33432.9111126
 20
-13008.84541732
 42
1.30322619
 10
33465.1086132
 20
-13008.81896103
 10
33449.53007784
 20
-12950.79241598
 42
-1.30322619
 10
33481.72757844
 20
-12950.7659597
 10
33466.24442343
 20
-13008.81802775
 42
1.30322619
 10
33498.44192403
 20
-13008.79157147
 10
33482.86338867
 20
-12950.76502642
 42
-1.30322619
 10
33515.06088927
 20
-12950.73857013
 10
33499.57773426
 20
-13008.79063818
 42
1.30322619
 10
33531.77523486
 20
-13008.7641819
 10
33516.1966995
 20
-12950.73763685
 42
-1.30322619
 10
33548.39420009
 20
-12950.71118057
 10
33532.91104508
 20
-13008.76324862
 42
1.30322619
 10
33565.10854568
 20
-13008.73679233
 10
33549.53001032
 20
-12950.71024728
 42
-1.30322619
 10
33581.72751092
 20
-12950.683791
 10
33566.24435591
 20
-13008.73585905
 42
1.30322619
 10
33598.44185651
 20
-13008.70940277
 10
33582.86332115
 20
-12950.68285772
 42
-1.30322619
 10
33615.06082175
 20
-12950.65640143
 10
33599.57766674
 20
-13008.70846949
 42
1.30322619
 10
33631.77516734
 20
-13008.6820132
 10
33616.19663198
 20
-12950.65546815
 42
-1.30322619
 10
33648.39413258
 20
-12950.62901187
 10
33632.91097757
 20
-13008.68107992
 42
1.30322619
 10
33665.10847817
 20
-13008.65462363
 10
33649.52994281
 20
-12950.62807859
 42
-1.30322619
 10
33681.72744341
 20
-12950.6016223
 10
33666.24428839
 20
-13008.65369035
 42
1.30322619
 10
33698.44178899
 20
-13008.62723407
 10
33682.86325363
 20
-12950.60068902
 42
-1.30322619
 10
33715.06075423
 20
-12950.57423273
 10
33699.57759922
 20
-13008.62630079
 42
1.30322619
 10
33731.77509982
 20
-13008.5998445
 10
33716.19656446
 20
-12950.57329945
 42
-1.30322619
 10
33748.39406506
 20
-12950.54684317
 10
33732.91091005
 20
-13008.59891122
 42
1.30322619
 10
33765.10841065
 20
-13008.57245494
 10
33749.52987529
 20
-12950.54590989
 42
-1.30322619
 10
33781.72737589
 20
-12950.5194536
 10
33766.24422088
 20
-13008.57152166
 42
1.30322619
 10
33798.44172148
 20
-13008.54506537
 10
33782.86318612
 20
-12950.51852032
 42
-1.30322619
 10
33815.06068672
 20
-12950.49206404
 10
33799.57753171
 20
-13008.54413209
 42
1.30322619
 10
33831.7750323
 20
-13008.5176758
 10
33816.19649694
 20
-12950.49113076
 42
-1.30322619
 10
33848.39399754
 20
-12950.46467447
 10
33832.91084253
 20
-13008.51674252
 42
1.30322619
 10
33865.10834313
 20
-13008.49028624
 10
33849.52980777
 20
-12950.46374119
 42
-1.30322619
 10
33881.72730837
 20
-12950.4372849
 10
33866.24415336
 20
-13008.48935296
 42
1.30322619
 10
33898.44165396
 20
-13008.46289667
 10
33882.8631186
 20
-12950.43635162
 42
-1.00339369
 10
33915.08247896
 20
-12941.89173781
  0
LWPOLYLINE
  5
5E7
100
AcDbEntity
  8
Ech.1_5
 62
   190
  6
CONTINUOUS
370
    -3
100
AcDbPolyline
 90
        4
 70
     0
 43
0.0
 10
33915.08247896
 20
-12950.32719405
 42
-0.00128313
 10
33915.0606192
 20
-12950.40989534
 10
33899.57746419
 20
-13008.46196339
 42
0.4818008
 10
33915.08247896
 20
-13029.4183481
  0
LWPOLYLINE
  5
5E8
100
AcDbEntity
  8
Ech.1_5
 62
   190
  6
CONTINUOUS
370
    -3
100
AcDbPolyline
 90
        3
 70
     0
 43
0.0
 10
33362.36051427
 20
-13023.20970518
 42
0.23012554
 10
33365.10868072
 20
-13008.90112973
 10
33359.63098501
 20
-12988.49794357
  0
LWPOLYLINE
  5
5E9
100
AcDbEntity
  8
Ech.1_5
 62
   190
  6
CONTINUOUS
370
    -3
100
AcDbPolyline
 90
        3
 70
     0
 43
0.0
 10
33362.36051427
 20
-12930.20394085
 42
-0.55573415
 10
33381.72764596
 20
-12950.8481284
 10
33371.64496133
 20
-12988.6518379
  0
LWPOLYLINE
  5
5EA
100
AcDbEntity
  8
Ech.1_5
 62
     7
  6
CONTINUOUS
370
    -3
100
AcDbPolyline
 90
        4
 70
     1
 43
0.0
 10
33580.2182446
 20
-13029.88104357
 10
33580.2182446
 20
-12909.88104357
 10
33625.2182446
 20
-12909.88104357
 10
33625.2182446
 20
-13029.88104357
  0
LWPOLYLINE
  5
5EB
100
AcDbEntity
  8
Ech.1_5
 62
   190
  6
CONTINUOUS
370
    -3
100
AcDbPolyline
 90
        4
 70
     0
 43
0.0
 10
33625.2182446
 20
-12909.88104357
 10
33580.2182446
 20
-13029.88104357
 10
33625.2182446
 20
-13029.88104357
 10
33580.2182446
 20
-12909.88104357
  0
LWPOLYLINE
  5
5EC
100
AcDbEntity
  8
Ech.1_5
 62
     5
  6
CONTINUOUS
370
    -3
100
AcDbPolyline
 90
        5
 70
     0
 43
0.0
 10
33580.2182446
 20
-13029.88104357
 10
33580.2182446
 20
-12909.88104357
 10
33625.2182446
 20
-12909.88104357
 10
33625.2182446
 20
-13029.88104357
 10
33580.2182446
 20
-13029.88104357
  0
LWPOLYLINE
  5
5ED
102
{ACAD_REACTORS
330
5EE
102
}
100
AcDbEntity
  8
Ech.1_5
 62
     7
  6
CONTINUOUS
370
    -3
100
AcDbPolyline
 90
        6
 70
     1
 43
0.0
 10
33580.2182446
 20
-13129.88104357
 10
33523.1789848
 20
-13129.88104357
 10
33523.1789848
 20
-13125.88104357
 10
33576.21824441
 20
-13125.88104357
 10
33576.21824441
 20
-12976.77976463
 10
33580.2182446
 20
-12976.77976463
  0
HATCH
  5
5EE
100
AcDbEntity
  8
Ech.1_5
 62
     7
  6
CONTINUOUS
100
AcDbHatch
 10
0.0
 20
0.0
 30
0.0
210
0.0
220
0.0
230
1.0
  2
SOLID
 70
     1
 71
     1
 91
        1
 92
        7
 72
     0
 73
     1
 93
        6
 10
33580.2182446
 20
-13129.88104357
 10
33523.1789848
 20
-13129.88104357
 10
33523.1789848
 20
-13125.88104357
 10
33576.21824441
 20
-13125.88104357
 10
33576.21824441
 20
-12976.77976463
 10
33580.2182446
 20
-12976.77976463
 97
        1
330
5ED
 75
     0
 76
     2
 47
0.775229
 98
        1
 10
0.0
 20
0.0
  0
LWPOLYLINE
  5
5EF
102
{ACAD_REACTORS
330
5F0
102
}
100
AcDbEntity
  8
Ech.1_5
 62
     9
  6
CONTINUOUS
370
    -3
100
AcDbPolyline
 90
        6
 70
     1
 43
0.0
 10
33715.08247896
 20
-13708.38485732
 10
33715.08247896
 20
-13129.88104357
 10
33362.36051427
 20
-13129.88104357
 10
33362.36051427
 20
-13329.88104357
 10
33515.08247896
 20
-13329.88104357
 10
33515.08247896
 20
-13708.38485732
  0
HATCH
  5
5F0
100
AcDbEntity
  8
Ech.1_5
 62
     9
  6
CONTINUOUS
100
AcDbHatch
 10
0.0
 20
0.0
 30
0.0
210
0.0
220
0.0
230
1.0
  2
AR-CONC
 70
     0
 71
     1
 91
        1
 92
        7
 72
     0
 73
     1
 93
        6
 10
33715.08247896
 20
-13708.38485732
 10
33715.08247896
 20
-13129.88104357
 10
33362.36051427
 20
-13129.88104357
 10
33362.36051427
 20
-13329.88104357
 10
33515.08247896
 20
-13329.88104357
 10
33515.08247896
 20
-13708.38485732
 97
        1
330
5EF
 75
     0
 76
     2
 52
0.0
 41
0.11811097
 77
     0
 78
    13
 53
50.0
 43
0.0
 44
0.0
 45
-18.84283637
 46
1.64853443
 79
     2
 49
1.97029307
 49
-21.67322338
 53
355.0
 43
0.0
 44
0.0
 45
-3.64507756
 46
19.76051824
 79
     2
 49
1.57623377
 49
-17.3385787
 53
100.45140076
 43
1.57023568
 44
-0.13737749
 45
-15.19777228
 46
-18.11197244
 79
     2
 49
1.67449124
 49
-18.41940522
 53
46.18420029
 43
0.0
 44
5.25411576
 45
-28.03703353
 46
4.34827878
 79
     2
 49
2.95543872
 49
-32.50983238
 53
96.63559723
 43
2.33641885
 44
4.89175692
 45
-24.55412615
 46
-25.59063404
 79
     2
 49
2.51173697
 49
-27.62910426
 53
351.1842041
 43
0.0
 44
5.25411576
 45
24.55410288
 46
25.59065715
 79
     2
 49
2.36435249
 49
-26.00786805
 53
21.0
 43
2.62705699
 44
3.94058615
 45
-15.68109068
 46
10.57702905
 79
     2
 49
1.97029307
 49
-21.67322338
 53
326.0
 43
2.62705699
 44
3.94058615
 45
6.39203268
 46
19.05010734
 79
     2
 49
1.57623377
 49
-17.3385787
 53
71.45140076
 43
3.93381357
 44
3.05916555
 45
-22.07312962
 46
-8.47306182
 79
     2
 49
1.67449124
 49
-18.41940522
 53
37.5
 43
0.0
 44
0.0
 45
0.31944534
 46
8.74531245
 79
     6
 49
0.01875
 49
-17.12841332
 49
0.01875
 49
-17.60128498
 49
0.01875
 49
-17.40425348
 53
7.5
 43
0.0
 44
0.0
 45
6.91098818
 46
10.3614222
 79
     6
 49
0.01875
 49
-10.03535807
 49
0.01875
 49
-16.7343539
 49
0.01875
 49
-6.6333206
 53
-32.5
 43
-5.85833833
 44
0.0
 45
14.02382061
 46
-0.59253003
 79
     6
 49
0.01875
 49
-6.56764314
 49
0.01875
 49
-20.49104869
 49
0.01875
 49
-27.19004452
 53
-42.5
 43
-8.48539531
 44
0.0
 45
15.32063571
 46
2.62981542
 79
     6
 49
0.01875
 49
-8.53793621
 49
0.01875
 49
-13.60815793
 49
0.01875
 49
-19.30887222
 47
0.775229
 98
        1
 10
0.0
 20
0.0
  0
LWPOLYLINE
  5
5F1
102
{ACAD_REACTORS
330
5F2
102
}
100
AcDbEntity
  8
Ech.1_5
 62
     7
  6
CONTINUOUS
370
    -3
100
AcDbPolyline
 90
        8
 70
     1
 43
0.0
 10
33715.08247896
 20
-13149.88104357
 10
33815.08247896
 20
-12954.88104357
 10
33868.1837579
 20
-12954.88104357
 10
33868.1837579
 20
-12958.88104376
 10
33817.52650081
 20
-12958.88104376
 10
33719.08247896
 20
-13150.84688637
 10
33719.08247896
 20
-13206.92030337
 10
33715.08247896
 20
-13206.92030337
  0
HATCH
  5
5F2
100
AcDbEntity
  8
Ech.1_5
 62
     7
  6
CONTINUOUS
100
AcDbHatch
 10
0.0
 20
0.0
 30
0.0
210
0.0
220
0.0
230
1.0
  2
SOLID
 70
     1
 71
     1
 91
        1
 92
        7
 72
     0
 73
     1
 93
        8
 10
33715.08247896
 20
-13149.88104357
 10
33815.08247896
 20
-12954.88104357
 10
33868.1837579
 20
-12954.88104357
 10
33868.1837579
 20
-12958.88104376
 10
33817.52650081
 20
-12958.88104376
 10
33719.08247896
 20
-13150.84688637
 10
33719.08247896
 20
-13206.92030337
 10
33715.08247896
 20
-13206.92030337
 97
        1
330
5F1
 75
     0
 76
     2
 47
0.775229
 98
        1
 10
0.0
 20
0.0
  0
LWPOLYLINE
  5
5F3
100
AcDbEntity
  8
Ech.1_5
 62
     9
  6
CONTINUOUS
370
    -3
100
AcDbPolyline
 90
        5
 70
     0
 43
0.0
 10
33935.08247896
 20
-13708.38485732
 10
33955.08247896
 20
-13708.38485732
 10
33955.08247896
 20
-12911.88104357
 10
33935.08247896
 20
-12911.88104357
 10
33935.08247896
 20
-13708.38485732
  0
LWPOLYLINE
  5
5F4
100
AcDbEntity
  8
Ech.1_5
 62
     7
  6
CONTINUOUS
370
    -3
100
AcDbPolyline
 90
        4
 70
     1
 43
0.0
 10
33815.08247896
 20
-12954.88104357
 10
33935.08247896
 20
-12954.88104357
 10
33935.08247896
 20
-12909.88104357
 10
33815.08247896
 20
-12909.88104357
  0
LWPOLYLINE
  5
5F5
100
AcDbEntity
  8
Ech.1_5
 62
   190
  6
CONTINUOUS
370
    -3
100
AcDbPolyline
 90
        4
 70
     0
 43
0.0
 10
33935.08247896
 20
-12909.88104357
 10
33815.08247896
 20
-12954.88104357
 10
33815.08247896
 20
-12909.88104357
 10
33935.08247896
 20
-12954.88104357
  0
LWPOLYLINE
  5
5F6
100
AcDbEntity
  8
Ech.1_5
 62
     5
  6
CONTINUOUS
370
    -3
100
AcDbPolyline
 90
        5
 70
     0
 43
0.0
 10
33815.08247896
 20
-12954.88104357
 10
33935.08247896
 20
-12954.88104357
 10
33935.08247896
 20
-12909.88104357
 10
33815.08247896
 20
-12909.88104357
 10
33815.08247896
 20
-12954.88104357
  0
LWPOLYLINE
  5
5F7
100
AcDbEntity
  8
Ech.1_5
 62
   190
  6
CONTINUOUS
370
    -3
100
AcDbPolyline
 90
       70
 70
     0
 43
0.0
 10
33814.28690374
 20
-13129.88104357
 42
-0.55573415
 10
33793.64271619
 20
-13149.24817526
 10
33735.59064814
 20
-13133.76502025
 42
1.30322619
 10
33735.61710442
 20
-13165.96252085
 10
33793.64364947
 20
-13150.38398549
 42
-1.30322619
 10
33793.67010576
 20
-13182.58148609
 10
33735.6180377
 20
-13167.09833108
 42
1.30322619
 10
33735.64449399
 20
-13199.29583168
 10
33793.67103904
 20
-13183.71729632
 42
-1.30322619
 10
33793.69749532
 20
-13215.91479692
 10
33735.64542727
 20
-13200.43164191
 42
1.30322619
 10
33735.67188355
 20
-13232.62914251
 10
33793.6984286
 20
-13217.05060715
 42
-1.30322619
 10
33793.72488489
 20
-13249.24810775
 10
33735.67281683
 20
-13233.76495273
 42
1.30322619
 10
33735.69927312
 20
-13265.96245333
 10
33793.72581817
 20
-13250.38391797
 42
-1.30322619
 10
33793.75227445
 20
-13282.58141857
 10
33735.7002064
 20
-13267.09826356
 42
1.30322619
 10
33735.72666269
 20
-13299.29576416
 10
33793.75320773
 20
-13283.7172288
 42
-1.30322619
 10
33793.77966402
 20
-13315.9147294
 10
33735.72759597
 20
-13300.43157439
 42
1.30322619
 10
33735.75405225
 20
-13332.62907499
 10
33793.7805973
 20
-13317.05053963
 42
-1.30322619
 10
33793.80705359
 20
-13349.24804023
 10
33735.75498553
 20
-13333.76488522
 42
1.30322619
 10
33735.78144182
 20
-13365.96238582
 10
33793.80798687
 20
-13350.38385046
 42
-1.30322619
 10
33793.83444315
 20
-13382.58135106
 10
33735.7823751
 20
-13367.09819605
 42
1.30322619
 10
33735.80883138
 20
-13399.29569664
 10
33793.83537643
 20
-13383.71716128
 42
-1.30322619
 10
33793.86183272
 20
-13415.91466188
 10
33735.80976466
 20
-13400.43150687
 42
1.30322619
 10
33735.83622095
 20
-13432.62900747
 10
33793.862766
 20
-13417.05047211
 42
-1.30322619
 10
33793.88922228
 20
-13449.24797271
 10
33735.83715423
 20
-13433.7648177
 42
1.30322619
 10
33735.86361052
 20
-13465.9623183
 10
33793.89015556
 20
-13450.38378294
 42
-1.30322619
 10
33793.91661185
 20
-13482.58128354
 10
33735.8645438
 20
-13467.09812853
 42
1.30322619
 10
33735.89100008
 20
-13499.29562913
 10
33793.91754513
 20
-13483.71709377
 42
-1.30322619
 10
33793.94400142
 20
-13515.91459437
 10
33735.89193336
 20
-13500.43143936
 42
1.30322619
 10
33735.91838965
 20
-13532.62893995
 10
33793.9449347
 20
-13517.05040459
 42
-1.30322619
 10
33793.97139098
 20
-13549.24790519
 10
33735.91932293
 20
-13533.76475018
 42
1.30322619
 10
33735.94577921
 20
-13565.96225078
 10
33793.97232426
 20
-13550.38371542
 42
-1.30322619
 10
33793.99878055
 20
-13582.58121602
 10
33735.9467125
 20
-13567.09806101
 42
1.30322619
 10
33735.97316878
 20
-13599.29556161
 10
33793.99971383
 20
-13583.71702625
 42
-1.30322619
 10
33794.02617011
 20
-13615.91452685
 10
33735.97410206
 20
-13600.43137184
 42
1.30322619
 10
33736.00055835
 20
-13632.62887244
 10
33794.0271034
 20
-13617.05033708
 42
-1.30322619
 10
33794.05355968
 20
-13649.24783768
 10
33736.00149163
 20
-13633.76468267
 42
1.30322619
 10
33736.02794791
 20
-13665.96218327
 10
33794.05449296
 20
-13650.38364791
 42
-1.30322619
 10
33794.08094925
 20
-13682.5811485
 10
33736.02888119
 20
-13667.09799349
 42
1.30322619
 10
33736.05533748
 20
-13699.29549409
 10
33794.08188253
 20
-13683.71695873
 42
-0.67248367
 10
33812.74948076
 20
-13708.30460556
  0
LWPOLYLINE
  5
5F8
100
AcDbEntity
  8
Ech.1_5
 62
   190
  6
CONTINUOUS
370
    -3
100
AcDbPolyline
 90
       54
 70
     0
 43
0.0
 10
33362.36051427
 20
-13030.6766188
 42
-0.55573415
 10
33381.72764596
 20
-13051.32080635
 10
33366.24449095
 20
-13109.3728744
 42
1.30322619
 10
33398.44199155
 20
-13109.34641811
 10
33382.86345619
 20
-13051.31987307
 42
-1.30322619
 10
33415.06095678
 20
-13051.29341678
 10
33399.57780177
 20
-13109.34548483
 42
1.30322619
 10
33431.77530237
 20
-13109.31902855
 10
33416.19676701
 20
-13051.2924835
 42
-1.30322619
 10
33448.39426761
 20
-13051.26602721
 10
33432.9111126
 20
-13109.31809527
 42
1.30322619
 10
33465.1086132
 20
-13109.29163898
 10
33449.53007784
 20
-13051.26509393
 42
-1.30322619
 10
33481.72757844
 20
-13051.23863765
 10
33466.24442343
 20
-13109.2907057
 42
1.30322619
 10
33498.44192403
 20
-13109.26424942
 10
33482.86338867
 20
-13051.23770437
 42
-1.30322619
 10
33515.06088927
 20
-13051.21124808
 10
33499.57773426
 20
-13109.26331614
 42
1.30322619
 10
33531.77523486
 20
-13109.23685985
 10
33516.1966995
 20
-13051.2103148
 42
-1.30322619
 10
33548.39420009
 20
-13051.18385852
 10
33532.91104508
 20
-13109.23592657
 42
1.30322619
 10
33565.10854568
 20
-13109.20947028
 10
33549.53001032
 20
-13051.18292524
 42
-1.30322619
 10
33581.72751092
 20
-13051.15646895
 10
33566.24435591
 20
-13109.208537
 42
1.30322619
 10
33598.44185651
 20
-13109.18208072
 10
33582.86332115
 20
-13051.15553567
 42
-1.30322619
 10
33615.06082175
 20
-13051.12907938
 10
33599.57766674
 20
-13109.18114744
 42
1.30322619
 10
33631.77516734
 20
-13109.15469115
 10
33616.19663198
 20
-13051.1281461
 42
-1.30322619
 10
33648.39413258
 20
-13051.10168982
 10
33632.91097757
 20
-13109.15375787
 42
1.30322619
 10
33665.10847817
 20
-13109.12730159
 10
33649.52994281
 20
-13051.10075654
 42
-1.30322619
 10
33681.72744341
 20
-13051.07430025
 10
33666.24428839
 20
-13109.1263683
 42
1.30322619
 10
33698.44178899
 20
-13109.09991202
 10
33682.86325363
 20
-13051.07336697
 42
-1.30322619
 10
33715.06075423
 20
-13051.04691069
 10
33699.57759922
 20
-13109.09897874
 42
1.30322619
 10
33731.77509982
 20
-13109.07252245
 10
33716.19656446
 20
-13051.0459774
 42
-1.30322619
 10
33748.39406506
 20
-13051.01952112
 10
33732.91091005
 20
-13109.07158917
 42
1.30322619
 10
33765.10841065
 20
-13109.04513289
 10
33749.52987529
 20
-13051.01858784
 42
-1.30322619
 10
33781.72737589
 20
-13050.99213155
 10
33766.24422088
 20
-13109.04419961
 42
1.30322619
 10
33798.44172148
 20
-13109.01774332
 10
33782.86318612
 20
-13050.99119827
 42
-1.00338566
 10
33815.08247896
 20
-13042.44632635
  0
LWPOLYLINE
  5
5F9
100
AcDbEntity
  8
Ech.1_5
 62
     9
  6
CONTINUOUS
370
    -3
100
AcDbPolyline
 90
        5
 70
     0
 43
0.0
 10
33975.08247896
 20
-12869.8823358
 10
33975.08247896
 20
-12889.8823358
 10
33905.14232206
 20
-12889.8823358
 10
33905.14232206
 20
-12869.8823358
 10
33975.08247896
 20
-12869.8823358
  0
LWPOLYLINE
  5
5FA
100
AcDbEntity
  8
Ech.1_5
 62
     9
  6
CONTINUOUS
370
    -3
100
AcDbPolyline
 90
        5
 70
     0
 43
0.0
 10
33975.08247896
 20
-12959.80647006
 10
33955.08247896
 20
-12959.80647006
 10
33955.08247896
 20
-12889.88104357
 10
33975.08247896
 20
-12889.88104357
 10
33975.08247896
 20
-12959.80647006
  0
LWPOLYLINE
  5
5FB
100
AcDbEntity
  8
Ech.1_5
 62
     9
  6
CONTINUOUS
370
    -3
100
AcDbPolyline
 90
        5
 70
     0
 43
0.0
 10
33953.08247896
 20
-12909.88104357
 10
33953.08247896
 20
-12889.88104357
 10
33362.36051427
 20
-12889.88104357
 10
33362.36051427
 20
-12909.88104357
 10
33953.08247896
 20
-12909.88104357
  0
LWPOLYLINE
  5
5FC
100
AcDbEntity
  8
Ech.1_5
 62
     7
  6
CONTINUOUS
370
    -3
100
AcDbPolyline
 90
        4
 70
     1
 43
0.0
 10
33815.08247896
 20
-13299.39649881
 10
33935.08247896
 20
-13299.39649881
 10
33935.08247896
 20
-13254.39649881
 10
33815.08247896
 20
-13254.39649881
  0
LWPOLYLINE
  5
5FD
100
AcDbEntity
  8
Ech.1_5
 62
   190
  6
CONTINUOUS
370
    -3
100
AcDbPolyline
 90
        4
 70
     0
 43
0.0
 10
33935.08247896
 20
-13254.39649881
 10
33815.08247896
 20
-13299.39649881
 10
33815.08247896
 20
-13254.39649881
 10
33935.08247896
 20
-13299.39649881
  0
LWPOLYLINE
  5
5FE
100
AcDbEntity
  8
Ech.1_5
 62
     5
  6
CONTINUOUS
370
    -3
100
AcDbPolyline
 90
        5
 70
     0
 43
0.0
 10
33815.08247896
 20
-13299.39649881
 10
33935.08247896
 20
-13299.39649881
 10
33935.08247896
 20
-13254.39649881
 10
33815.08247896
 20
-13254.39649881
 10
33815.08247896
 20
-13299.39649881
  0
LWPOLYLINE
  5
5FF
102
{ACAD_REACTORS
330
600
102
}
100
AcDbEntity
  8
Ech.1_5
 62
     7
  6
CONTINUOUS
370
    -3
100
AcDbPolyline
 90
        6
 70
     1
 43
0.0
 10
33715.08247896
 20
-13299.39649881
 10
33715.08247896
 20
-13356.4357586
 10
33719.08247896
 20
-13356.4357586
 10
33719.08247896
 20
-13303.396499
 10
33868.1837579
 20
-13303.396499
 10
33868.1837579
 20
-13299.39649881
  0
HATCH
  5
600
100
AcDbEntity
  8
Ech.1_5
 62
     7
  6
CONTINUOUS
100
AcDbHatch
 10
0.0
 20
0.0
 30
0.0
210
0.0
220
0.0
230
1.0
  2
SOLID
 70
     1
 71
     1
 91
        1
 92
        7
 72
     0
 73
     1
 93
        6
 10
33715.08247896
 20
-13299.39649881
 10
33715.08247896
 20
-13356.4357586
 10
33719.08247896
 20
-13356.4357586
 10
33719.08247896
 20
-13303.396499
 10
33868.1837579
 20
-13303.396499
 10
33868.1837579
 20
-13299.39649881
 97
        1
330
5FF
 75
     0
 76
     2
 47
0.775229
 98
        1
 10
0.0
 20
0.0
  0
LWPOLYLINE
  5
601
100
AcDbEntity
  8
Ech.1_5
 62
   190
  6
CONTINUOUS
370
    -3
100
AcDbPolyline
 90
        6
 70
     0
 43
0.0
 10
33453.22359377
 20
-13708.38485732
 10
33845.96371158
 20
-13708.38485732
 10
33862.44921474
 20
-13690.40750899
 10
33848.33927472
 20
-13726.36320891
 10
33864.8256288
 20
-13708.38485732
 10
33970.16982262
 20
-13708.38485732
  0
LWPOLYLINE
  5
602
100
AcDbEntity
  8
Ech.1_5
 62
   190
  6
CONTINUOUS
370
    -3
100
AcDbPolyline
 90
        6
 70
     0
 43
0.0
 10
33362.36051427
 20
-13391.73992877
 10
33362.36051427
 20
-12998.99981095
 10
33344.38316594
 20
-12982.5143078
 10
33380.33886586
 20
-12996.62424781
 10
33362.36051427
 20
-12980.13789373
 10
33362.36051427
 20
-12874.79369992
  0
LWPOLYLINE
  5
603
100
AcDbEntity
  8
Ech.1_5
 62
   190
100
AcDbPolyline
 90
        5
 70
     0
 43
0.0
 10
33283.80247535
 20
-13763.44376573
 10
33418.23125434
 20
-13763.44376573
 10
33418.23125434
 20
-13820.16672454
 10
33283.80247535
 20
-13820.16672454
 10
33283.80247535
 20
-13763.44376573
  0
HATCH
  5
604
100
AcDbEntity
  8
Ech.1_5
 62
   190
100
AcDbHatch
 10
0.0
 20
0.0
 30
0.0
210
0.0
220
0.0
230
1.0
  2
SOLID
 70
     1
 71
     0
 91
        1
 92
        7
 72
     0
 73
     1
 93
        4
 10
33302.08252114
 20
-13797.10057685
 10
33352.08252114
 20
-13797.10057685
 10
33352.08252114
 20
-13789.68543932
 10
33302.08252114
 20
-13789.68543932
 97
        0
 75
     0
 76
     2
 47
0.775229
 98
        1
 10
0.0
 20
0.0
  0
LWPOLYLINE
  5
605
100
AcDbEntity
  8
Ech.1_5
 62
   190
100
AcDbPolyline
 90
        5
 70
     0
 43
0.0
 10
33302.08252114
 20
-13797.10057685
 10
33352.08252114
 20
-13797.10057685
 10
33352.08252114
 20
-13789.68543932
 10
33302.08252114
 20
-13789.68543932
 10
33302.08252114
 20
-13797.10057685
  0
LWPOLYLINE
  5
606
100
AcDbEntity
  8
Ech.1_5
 62
   190
100
AcDbPolyline
 90
        5
 70
     0
 43
0.0
 10
33352.08252114
 20
-13797.10057685
 10
33402.08252114
 20
-13797.10057685
 10
33402.08252114
 20
-13789.68543932
 10
33352.08252114
 20
-13789.68543932
 10
33352.08252114
 20
-13797.10057685
  0
TEXT
  5
607
100
AcDbEntity
  8
Ech.1_5
 62
   190
100
AcDbText
 10
33313.37681376
 20
-13780.09943624
 30
0.0
 40
8.00000012
  1
Echelle en mm
  7
ARIAL
 50
0.0
 41
1.0
 51
0.0
100
AcDbText
  0
TEXT
  5
608
100
AcDbEntity
  8
Ech.1_5
 62
   190
100
AcDbText
 10
33299.39622901
 20
-13808.30927177
 30
0.0
 40
8.00000012
  1
0
  7
ARIAL
 50
0.0
 41
1.0
 51
0.0
100
AcDbText
  0
TEXT
  5
609
100
AcDbEntity
  8
Ech.1_5
 62
   190
100
AcDbText
 10
33385.99328691
 20
-13808.30927177
 30
0.0
 40
8.00000012
  1
100
  7
ARIAL
 50
0.0
 41
1.0
 51
0.0
100
AcDbText
  0
TEXT
  5
60A
100
AcDbEntity
  8
Ech.1_5
 62
   190
100
AcDbText
 10
33347.25285534
 20
-13808.30927177
 30
0.0
 40
8.00000012
  1
50
  7
ARIAL
 50
0.0
 41
1.0
 51
0.0
100
AcDbText
  0
INSERT
  5
60B
100
AcDbEntity
  8
Ech.1_5
 62
     0
370
    -3
100
AcDbBlockReference
  2
*D19
 10
0.0
 20
0.0
 30
0.0
  0
ENDSEC
  0
SECTION
  2
OBJECTS
  0
DICTIONARY
  5
1
100
AcDbDictionary
  3
ACAD_GROUP
350
2
  3
ACAD_MLINESTYLE
350
3
  0
DICTIONARY
  5
2
102
{CDWK_REACTORS
330
1
102
}
100
AcDbDictionary
  0
DICTIONARY
  5
3
102
{CDWK_REACTORS
330
1
102
}
100
AcDbDictionary
  3
STANDARD
350
4
  0
MLINESTYLE
  5
4
102
{CDWK_REACTORS
330
3
102
}
100
AcDbMlineStyle
  2
STANDARD
 70
     0
  3

 62
     0
 51
90.0
 52
90.0
 71
     2
 49
0.5
 62
   256
  6
BYLAYER
 49
-0.5
 62
   256
  6
BYLAYER
  0
ENDSEC
  0
EOF
