  0
SECTION
  2
HEADER
  9
$ACADVER
  1
AC1014
  9
$DWGCODEPAGE
  3
ANSI_1252
  9
$INSBASE
 10
0.0
 20
0.0
 30
0.0
  9
$EXTMIN
 10
1033.98771282
 20
-21718.34332712
  9
$EXTMAX
 10
122326.07664696
 20
2240.3362527
  9
$LIMMIN
 10
1033.98771282
 20
-21718.34332712
  9
$LIMMAX
 10
122326.07664696
 20
2240.3362527
  9
$ORTHOMODE
 70
     0
  9
$REGENMODE
 70
     1
  9
$FILLMODE
 70
     1
  9
$QTEXTMODE
 70
     0
  9
$MIRRTEXT
 70
     1
  9
$DRAGMODE
 70
     2
  9
$LTSCALE
 40
5.0
  9
$OSMODE
 70
     0
  9
$ATTMODE
 70
     1
  9
$TEXTSIZE
 40
3.5
  9
$TRACEWID
 40
1.0
  9
$TEXTSTYLE
  7
STANDARD
  9
$CLAYER
  8
0
  9
$CELTYPE
  6
BYLAYER
  9
$CECOLOR
 62
   256
  9
$DIMSCALE
 40
1.0
  9
$DIMASZ
 40
2.0
  9
$DIMEXO
 40
5.0
  9
$DIMDLI
 40
10.0
  9
$DIMRND
 40
0.0
  9
$DIMDLE
 40
2.0
  9
$DIMEXE
 40
2.0
  9
$DIMTP
 40
0.0
  9
$DIMTM
 40
0.0
  9
$DIMTXT
 40
2.5
  9
$DIMCEN
 40
1.5
  9
$DIMTSZ
 40
0.0
  9
$DIMTOL
 70
     0
  9
$DIMLIM
 70
     0
  9
$DIMTIH
 70
     1
  9
$DIMTOH
 70
     0
  9
$DIMSE1
 70
     0
  9
$DIMSE2
 70
     0
  9
$DIMTAD
 70
     1
  9
$DIMZIN
 70
     8
  9
$DIMBLK
  1

  9
$DIMASO
 70
     1
  9
$DIMSHO
 70
     1
  9
$DIMPOST
  1

  9
$DIMAPOST
  1

  9
$DIMALT
 70
     0
  9
$DIMALTD
 70
     2
  9
$DIMALTF
 40
25.4
  9
$DIMLFAC
 40
1.0
  9
$DIMTOFL
 70
     0
  9
$DIMTVP
 40
0.0
  9
$DIMTIX
 70
     0
  9
$DIMSOXD
 70
     0
  9
$DIMSAH
 70
     0
  9
$DIMBLK1
  1

  9
$DIMBLK2
  1

  9
$DIMSTYLE
  2
*UNNAMED
  9
$DIMCLRD
 70
   190
  9
$DIMCLRE
 70
   190
  9
$DIMCLRT
 70
   190
  9
$DIMTFAC
 40
1.0
  9
$DIMGAP
 40
0.09
  9
$DIMUNIT
 70
     2
  9
$LUNITS
 70
     2
  9
$LUPREC
 70
     6
  9
$AXISMODE
 70
     0
  9
$AXISUNIT
 10
0.0
 20
0.0
  9
$SKETCHINC
 40
0.1
  9
$FILLETRAD
 40
0.0
  9
$AUNITS
 70
     0
  9
$AUPREC
 70
     0
  9
$MENU
  1
ACAD
  9
$ELEVATION
 40
0.0
  9
$PELEVATION
 40
0.0
  9
$THICKNESS
 40
0.0
  9
$LIMCHECK
 70
     0
  9
$BLIPMODE
 70
     1
  9
$CHAMFERA
 40
0.0
  9
$CHAMFERB
 40
0.0
  9
$SKPOLY
 70
     1
  9
$TDCREATE
 40
2457808.0000000000
  9
$TDUPDATE
 40
2457808.0000000000
  9
$TDINDWG
 40
0.0
  9
$TDUSRTIMER
 40
0.0
  9
$USRTIMER
 70
     1
  9
$ANGBASE
 50
0.0
  9
$ANGDIR
 70
     0
  9
$PDMODE
 70
     0
  9
$PDSIZE
 40
0.0
  9
$PLINEWID
 40
0.0
  9
$COORDS
 70
     2
  9
$SPLFRAME
 70
     0
  9
$SPLINETYPE
 70
     6
  9
$SPLINESEGS
 70
     8
  9
$ATTDIA
 70
     1
  9
$ATTREQ
 70
     1
  9
$HANDLING
 70
     1
  9
$HANDSEED
  5
     811
  9
$SURFTAB1
 70
     6
  9
$SURFTAB2
 70
     6
  9
$SURFTYPE
 70
     6
  9
$SURFU
 70
     6
  9
$SURFV
 70
     6
  9
$UCSNAME
  2

  9
$UCSORG
 10
0.0
 20
0.0
 30
0.0
  9
$UCSXDIR
 10
1.0
 20
0.0
 30
0.0
  9
$UCSYDIR
 10
0.0
 20
1.0
 30
0.0
  9
$PUCSNAME
  2

  9
$PUCSORG
 10
0.0
 20
0.0
 30
0.0
  9
$PUCSXDIR
 10
1.0
 20
0.0
 30
0.0
  9
$PUCSYDIR
 10
0.0
 20
1.0
 30
0.0
  9
$USERI1
 70
     0
  9
$USERI2
 70
     0
  9
$USERI3
 70
     0
  9
$USERI4
 70
     0
  9
$USERI5
 70
     0
  9
$USERR1
 40
0.0
  9
$USERR2
 40
0.0
  9
$USERR3
 40
0.0
  9
$USERR4
 40
0.0
  9
$USERR5
 40
0.0
  9
$WORLDVIEW
 70
     1
  9
$SHADEDGE
 70
     3
  9
$SHADEDIF
 70
    70
  9
$TILEMODE
 70
     1
  9
$MAXACTVP
 70
    16
  9
$PINSBASE
 10
0.0
 20
0.0
 30
0.0
  9
$PLIMCHECK
 70
     0
  9
$PEXTMIN
 10
1.0000000000000E+20
 20
1.0000000000000E+20
 30
1.0000000000000E+20
  9
$PEXTMAX
 10
-1.0000000000000E+20
 20
-1.0000000000000E+20
 30
-1.0000000000000E+20
  9
$PLIMMIN
 10
0.0
 20
0.0
  9
$UNITMODE
 70
     0
  9
$VISRETAIN
 70
     0
  9
$MEASUREMENT
 70
     1
  0
ENDSEC
  0
SECTION
  2
TABLES
  0
TABLE
  2
VPORT
  5
4A2
100
AcDbSymbolTable
 70
     1
  0
ENDTAB
  0
TABLE
  2
STYLE
  5
4A3
100
AcDbSymbolTable
 70
     3
  0
STYLE
  5
4A4
100
AcDbSymbolTableRecord
100
AcDbTextStyleTableRecord
  2
STANDARD
 70
     0
 40
0.0
 41
1.0
 50
0.0
 71
     0
 42
3.5
  3
MONOTXT
  4

  0
STYLE
  5
4A5
100
AcDbSymbolTableRecord
100
AcDbTextStyleTableRecord
  2
SYMAP
 70
     0
 40
0.0
 41
1.0
 50
0.0
 71
     0
 42
3.5
  3
SYMAP
  4

  0
STYLE
  5
4A6
100
AcDbSymbolTableRecord
100
AcDbTextStyleTableRecord
  2
CADWORK1
 70
     0
 40
0.0
 41
1.0
 50
0.0
 71
     0
 42
3.5
  3
MONOTXT
  4

  0
STYLE
  5
4A7
100
AcDbSymbolTableRecord
100
AcDbTextStyleTableRecord
  2
MONOTXT
 70
     0
 40
0.0
 41
1.0
 50
0.0
 71
     0
 42
3.5
  3
MONOTXT
  4

  0
STYLE
  5
4A8
100
AcDbSymbolTableRecord
100
AcDbTextStyleTableRecord
  2
ARIAL
 70
     0
 40
0.0
 41
1.0
 50
0.0
 71
     0
 42
3.5
  3

  4

1001
ACAD
1000
Arial
1071
        0
  0
ENDTAB
  0
TABLE
  2
LTYPE
  5
4A9
100
AcDbSymbolTable
 70
    15
  0
LTYPE
  5
4AA
100
AcDbSymbolTableRecord
100
AcDbLinetypeTableRecord
  2
BYBLOCK
 70
    64
  3

 72
    65
 73
     0
 40
0.0
  0
LTYPE
  5
4AB
100
AcDbSymbolTableRecord
100
AcDbLinetypeTableRecord
  2
BYLAYER
 70
    64
  3

 72
    65
 73
     0
 40
0.0
  0
LTYPE
  5
4AC
100
AcDbSymbolTableRecord
100
AcDbLinetypeTableRecord
  2
CONTINUOUS
 70
    64
  3
Solid line
 72
    65
 73
     0
 40
0.0
  0
LTYPE
  5
4AD
100
AcDbSymbolTableRecord
100
AcDbLinetypeTableRecord
  2
DOT2
 70
    64
  3
...............................................
 72
    65
 73
     2
 40
1.25
 49
0.0
 74
     0
 49
-1.25
 74
     0
  0
LTYPE
  5
4AE
100
AcDbSymbolTableRecord
100
AcDbLinetypeTableRecord
  2
CADWORK_13
 70
    64
  3
13 =======================================
 72
    65
 73
     2
 40
4.0
 49
2.0
 74
     0
 49
-2.0
 74
     0
  0
LTYPE
  5
4AF
100
AcDbSymbolTableRecord
100
AcDbLinetypeTableRecord
  2
DASHDOT
 70
    64
  3
 __ . __ . __ . __ . __ . __ . __ . __ . __ . __
 72
    65
 73
     4
 40
10.0
 49
5.0
 74
     0
 49
-2.5
 74
     0
 49
0.0
 74
     0
 49
-2.5
 74
     0
  0
LTYPE
  5
4B0
100
AcDbSymbolTableRecord
100
AcDbLinetypeTableRecord
  2
CENTER
 70
    64
  3
 ____ _ ____ _ ____ _ ____ _ ____ _ ____ _ ____
 72
    65
 73
     4
 40
20.0
 49
12.5
 74
     0
 49
-2.5
 74
     0
 49
2.5
 74
     0
 49
-2.5
 74
     0
  0
LTYPE
  5
4B1
100
AcDbSymbolTableRecord
100
AcDbLinetypeTableRecord
  2
DASHEDX2
 70
    64
  3
____  ____  ____  ____  ____  ____  ____  ____
 72
    65
 73
     2
 40
3.75
 49
2.5
 74
     0
 49
-1.25
 74
     0
  0
LTYPE
  5
4B2
100
AcDbSymbolTableRecord
100
AcDbLinetypeTableRecord
  2
CADWORK_22
 70
    64
  3
22 =======================================
 72
    65
 73
     0
 40
0.0
  0
LTYPE
  5
4B3
100
AcDbSymbolTableRecord
100
AcDbLinetypeTableRecord
  2
DAL
 70
    64
  3
Solid line (for MAPS)
 72
    65
 73
     0
 40
0.0
  0
LTYPE
  5
4B4
100
AcDbSymbolTableRecord
100
AcDbLinetypeTableRecord
  2
MUR
 70
    64
  3
Solid line (for MAPS)
 72
    65
 73
     0
 40
0.0
  0
LTYPE
  5
4B5
100
AcDbSymbolTableRecord
100
AcDbLinetypeTableRecord
  2
SOM
 70
    64
  3
Solid line (for MAPS)
 72
    65
 73
     0
 40
0.0
  0
LTYPE
  5
4B6
100
AcDbSymbolTableRecord
100
AcDbLinetypeTableRecord
  2
COL
 70
    64
  3
Solid line (for MAPS)
 72
    65
 73
     0
 40
0.0
  0
LTYPE
  5
4B7
100
AcDbSymbolTableRecord
100
AcDbLinetypeTableRecord
  2
LGN
 70
    64
  3
Solid line (for MAPS)
 72
    65
 73
     0
 40
0.0
  0
LTYPE
  5
4B8
100
AcDbSymbolTableRecord
100
AcDbLinetypeTableRecord
  2
PNT
 70
    64
  3
Solid line (for MAPS)
 72
    65
 73
     0
 40
0.0
  0
ENDTAB
  0
TABLE
  2
LAYER
  5
4B9
100
AcDbSymbolTable
 70
    32
  0
LAYER
  5
4BA
100
AcDbSymbolTableRecord
100
AcDbLayerTableRecord
  2
Standard
 70
     0
 62
     7
  6
CONTINUOUS
370
    -3
  0
LAYER
  5
4BB
100
AcDbSymbolTableRecord
100
AcDbLayerTableRecord
  2
Ech.1_1
 70
     0
 62
     7
  6
CONTINUOUS
370
    -3
  0
LAYER
  5
4BC
100
AcDbSymbolTableRecord
100
AcDbLayerTableRecord
  2
Ech.1_2
 70
     0
 62
     7
  6
CONTINUOUS
370
    -3
  0
LAYER
  5
4BD
100
AcDbSymbolTableRecord
100
AcDbLayerTableRecord
  2
Ech.1_5
 70
     0
 62
     7
  6
CONTINUOUS
370
    -3
  0
LAYER
  5
4BE
100
AcDbSymbolTableRecord
100
AcDbLayerTableRecord
  2
Ech.1_10
 70
     0
 62
     7
  6
CONTINUOUS
370
    -3
  0
LAYER
  5
4BF
100
AcDbSymbolTableRecord
100
AcDbLayerTableRecord
  2
Ech.1_20
 70
     0
 62
     7
  6
CONTINUOUS
370
    -3
  0
LAYER
  5
4C0
100
AcDbSymbolTableRecord
100
AcDbLayerTableRecord
  2
Ech.1_25
 70
     0
 62
     7
  6
CONTINUOUS
370
    -3
  0
LAYER
  5
4C1
100
AcDbSymbolTableRecord
100
AcDbLayerTableRecord
  2
Ech.1_33
 70
     0
 62
     7
  6
CONTINUOUS
370
    -3
  0
LAYER
  5
4C2
100
AcDbSymbolTableRecord
100
AcDbLayerTableRecord
  2
Ech.1_50
 70
     0
 62
     7
  6
CONTINUOUS
370
    -3
  0
LAYER
  5
4C3
100
AcDbSymbolTableRecord
100
AcDbLayerTableRecord
  2
Ech.1_75
 70
     0
 62
     7
  6
CONTINUOUS
370
    -3
  0
LAYER
  5
4C4
100
AcDbSymbolTableRecord
100
AcDbLayerTableRecord
  2
Ech.1_100
 70
     0
 62
     7
  6
CONTINUOUS
370
    -3
  0
LAYER
  5
4C5
100
AcDbSymbolTableRecord
100
AcDbLayerTableRecord
  2
Ech.1_200
 70
     0
 62
     7
  6
CONTINUOUS
370
    -3
  0
LAYER
  5
4C6
100
AcDbSymbolTableRecord
100
AcDbLayerTableRecord
  2
Ech.1_500
 70
     0
 62
     7
  6
CONTINUOUS
370
    -3
  0
LAYER
  5
4C7
100
AcDbSymbolTableRecord
100
AcDbLayerTableRecord
  2
Ech.1_1000
 70
     0
 62
     7
  6
CONTINUOUS
370
    -3
  0
LAYER
  5
4C8
100
AcDbSymbolTableRecord
100
AcDbLayerTableRecord
  2
Cadres traceur
 70
     0
 62
     7
  6
CONTINUOUS
370
    18
  0
LAYER
  5
4C9
100
AcDbSymbolTableRecord
100
AcDbLayerTableRecord
  2
Cadres laser
 70
     0
 62
     7
  6
CONTINUOUS
370
    18
  0
LAYER
  5
4CA
100
AcDbSymbolTableRecord
100
AcDbLayerTableRecord
  2
Légende d_aide
 70
     0
 62
     7
  6
CONTINUOUS
370
    18
  0
LAYER
  5
4CB
100
AcDbSymbolTableRecord
100
AcDbLayerTableRecord
  2
hachures ok
 70
     0
 62
     7
  6
CONTINUOUS
370
    18
  0
LAYER
  5
4CC
100
AcDbSymbolTableRecord
100
AcDbLayerTableRecord
  2
ossature bois
 70
     0
 62
     7
  6
CONTINUOUS
370
    18
  0
LAYER
  5
4CD
100
AcDbSymbolTableRecord
100
AcDbLayerTableRecord
  2
VR
 70
     0
 62
     7
  6
CONTINUOUS
370
    25
  0
LAYER
  5
4CE
100
AcDbSymbolTableRecord
100
AcDbLayerTableRecord
  2
Calque1
 70
     0
 62
     7
  6
CONTINUOUS
370
     9
  0
LAYER
  5
4CF
100
AcDbSymbolTableRecord
100
AcDbLayerTableRecord
  2
0
 70
     0
 62
     7
  6
CONTINUOUS
370
    -3
  0
LAYER
  5
4D0
100
AcDbSymbolTableRecord
100
AcDbLayerTableRecord
  2
menuiserie
 70
     0
 62
     7
  6
CONTINUOUS
370
    -3
  0
LAYER
  5
4D1
100
AcDbSymbolTableRecord
100
AcDbLayerTableRecord
  2
cotation
 70
     0
 62
   250
  6
CONTINUOUS
370
     9
  0
LAYER
  5
4D2
100
AcDbSymbolTableRecord
100
AcDbLayerTableRecord
  2
Defpoints
 70
     0
 62
    10
  6
CONTINUOUS
370
    -3
  0
LAYER
  5
4D3
100
AcDbSymbolTableRecord
100
AcDbLayerTableRecord
  2
HACHURE
 70
     0
 62
   254
  6
CONTINUOUS
370
    25
  0
LAYER
  5
4D4
100
AcDbSymbolTableRecord
100
AcDbLayerTableRecord
  2
mat1
 70
     0
 62
     7
  6
CONTINUOUS
370
    30
  0
LAYER
  5
4D5
100
AcDbSymbolTableRecord
100
AcDbLayerTableRecord
  2
mat2
 70
     0
 62
     7
  6
CONTINUOUS
370
     5
  0
LAYER
  5
4D6
100
AcDbSymbolTableRecord
100
AcDbLayerTableRecord
  2
hach
 70
     0
 62
     8
  6
CONTINUOUS
370
     5
  0
LAYER
  5
4D7
100
AcDbSymbolTableRecord
100
AcDbLayerTableRecord
  2
menuiseries
 70
     0
 62
     7
  6
CONTINUOUS
370
     9
  0
LAYER
  5
4D8
100
AcDbSymbolTableRecord
100
AcDbLayerTableRecord
  2
BétonMétal
 70
     0
 62
     7
  6
CONTINUOUS
370
    80
  0
LAYER
  5
4D9
100
AcDbSymbolTableRecord
100
AcDbLayerTableRecord
  2
bois
 70
     0
 62
     7
  6
CONTINUOUS
370
    60
  0
ENDTAB
  0
TABLE
  2
VIEW
  5
4DA
100
AcDbSymbolTable
 70
     0
  0
ENDTAB
  0
TABLE
  2
UCS
  5
4DB
100
AcDbSymbolTable
 70
     0
  0
ENDTAB
  0
TABLE
  2
APPID
  5
4DC
100
AcDbSymbolTable
 70
     1
  0
APPID
  5
4DD
100
AcDbSymbolTableRecord
100
AcDbRegAppTableRecord
  2
ACAD
 70
     0
  0
ENDTAB
  0
TABLE
  2
DIMSTYLE
  5
4DE
100
AcDbSymbolTable
 70
     0
  0
ENDTAB
  0
TABLE
  2
BLOCK_RECORD
  5
4DF
100
AcDbSymbolTable
 70
     0
  0
BLOCK_RECORD
  5
4E0
100
AcDbSymbolTableRecord
100
AcDbBlockTableRecord
  2
*MODEL_SPACE
  0
BLOCK_RECORD
  5
4E1
100
AcDbSymbolTableRecord
100
AcDbBlockTableRecord
  2
*PAPER_SPACE
  0
BLOCK_RECORD
  5
4E2
100
AcDbSymbolTableRecord
100
AcDbBlockTableRecord
  2
CDWK_EXTR_0
  0
BLOCK_RECORD
  5
4E3
100
AcDbSymbolTableRecord
100
AcDbBlockTableRecord
  2
CDWK_EXTR_1D
  0
BLOCK_RECORD
  5
4E4
100
AcDbSymbolTableRecord
100
AcDbBlockTableRecord
  2
CDWK_EXTR_1G
  0
BLOCK_RECORD
  5
4E5
100
AcDbSymbolTableRecord
100
AcDbBlockTableRecord
  2
CDWK_EXTR_2
  0
BLOCK_RECORD
  5
4E6
100
AcDbSymbolTableRecord
100
AcDbBlockTableRecord
  2
CDWK_EXTR_3
  0
BLOCK_RECORD
  5
4E7
100
AcDbSymbolTableRecord
100
AcDbBlockTableRecord
  2
CDWK_EXTR_4
  0
BLOCK_RECORD
  5
4E8
100
AcDbSymbolTableRecord
100
AcDbBlockTableRecord
  2
CDWK_PTTYP0
  0
BLOCK_RECORD
  5
4E9
100
AcDbSymbolTableRecord
100
AcDbBlockTableRecord
  2
CDWK_PTTYP1
  0
BLOCK_RECORD
  5
4EA
100
AcDbSymbolTableRecord
100
AcDbBlockTableRecord
  2
CDWK_PTTYP2
  0
BLOCK_RECORD
  5
4EB
100
AcDbSymbolTableRecord
100
AcDbBlockTableRecord
  2
CDWK_PTTYP3
  0
BLOCK_RECORD
  5
4EC
100
AcDbSymbolTableRecord
100
AcDbBlockTableRecord
  2
CDWK_PTTYP4
  0
BLOCK_RECORD
  5
4ED
100
AcDbSymbolTableRecord
100
AcDbBlockTableRecord
  2
CDWK_PTTYP5
  0
BLOCK_RECORD
  5
4EE
100
AcDbSymbolTableRecord
100
AcDbBlockTableRecord
  2
CDWK_PTTYP6
  0
BLOCK_RECORD
  5
4EF
100
AcDbSymbolTableRecord
100
AcDbBlockTableRecord
  2
CDWK_PTTYP7
  0
BLOCK_RECORD
  5
4F0
100
AcDbSymbolTableRecord
100
AcDbBlockTableRecord
  2
CDWK_PTTYP8
  0
BLOCK_RECORD
  5
4F1
100
AcDbSymbolTableRecord
100
AcDbBlockTableRecord
  2
CDWK_PTTYP9
  0
BLOCK_RECORD
  5
4F2
100
AcDbSymbolTableRecord
100
AcDbBlockTableRecord
  2
CDWK_PTTYP10
  0
BLOCK_RECORD
  5
4F3
100
AcDbSymbolTableRecord
100
AcDbBlockTableRecord
  2
CDWK_PTTYP11
  0
BLOCK_RECORD
  5
4F4
100
AcDbSymbolTableRecord
100
AcDbBlockTableRecord
  2
CDWK_PTTYP12
  0
BLOCK_RECORD
  5
4F5
100
AcDbSymbolTableRecord
100
AcDbBlockTableRecord
  2
CDWK_PTTYP13
  0
BLOCK_RECORD
  5
4F6
100
AcDbSymbolTableRecord
100
AcDbBlockTableRecord
  2
CDWK_PTTYP14
  0
BLOCK_RECORD
  5
4F7
100
AcDbSymbolTableRecord
100
AcDbBlockTableRecord
  2
CDWK_PTTYP15
  0
BLOCK_RECORD
  5
4F8
100
AcDbSymbolTableRecord
100
AcDbBlockTableRecord
  2
CDWK_PTTYP16
  0
BLOCK_RECORD
  5
4F9
100
AcDbSymbolTableRecord
100
AcDbBlockTableRecord
  2
CDWK_PTTYP17
  0
BLOCK_RECORD
  5
4FA
100
AcDbSymbolTableRecord
100
AcDbBlockTableRecord
  2
CDWK_PTTYP18
  0
BLOCK_RECORD
  5
4FB
100
AcDbSymbolTableRecord
100
AcDbBlockTableRecord
  2
CDWK_PTTYP19
  0
BLOCK_RECORD
  5
4FC
100
AcDbSymbolTableRecord
100
AcDbBlockTableRecord
  2
CDWK_PTTYP20
  0
BLOCK_RECORD
  5
4FD
100
AcDbSymbolTableRecord
100
AcDbBlockTableRecord
  2
CDWK_PTTYP21
  0
BLOCK_RECORD
  5
4FE
100
AcDbSymbolTableRecord
100
AcDbBlockTableRecord
  2
CDWK_PTTYP22
  0
BLOCK_RECORD
  5
4FF
100
AcDbSymbolTableRecord
100
AcDbBlockTableRecord
  2
CDWK_PTTYP23
  0
BLOCK_RECORD
  5
500
100
AcDbSymbolTableRecord
100
AcDbBlockTableRecord
  2
CDWK_PTTYP24
  0
BLOCK_RECORD
  5
501
100
AcDbSymbolTableRecord
100
AcDbBlockTableRecord
  2
CDWK_PTTYP25
  0
BLOCK_RECORD
  5
502
100
AcDbSymbolTableRecord
100
AcDbBlockTableRecord
  2
CDWK_PTTYP26
  0
BLOCK_RECORD
  5
503
100
AcDbSymbolTableRecord
100
AcDbBlockTableRecord
  2
CDWK_PTTYP27
  0
BLOCK_RECORD
  5
504
100
AcDbSymbolTableRecord
100
AcDbBlockTableRecord
  2
CDWK_PTTYP28
  0
BLOCK_RECORD
  5
505
100
AcDbSymbolTableRecord
100
AcDbBlockTableRecord
  2
CDWK_PTTYP29
  0
BLOCK_RECORD
  5
506
100
AcDbSymbolTableRecord
100
AcDbBlockTableRecord
  2
CDWK_PTTYP30
  0
BLOCK_RECORD
  5
507
100
AcDbSymbolTableRecord
100
AcDbBlockTableRecord
  2
CDWK_PTTYP31
  0
BLOCK_RECORD
  5
508
100
AcDbSymbolTableRecord
100
AcDbBlockTableRecord
  2
CDWK_PTTYP32
  0
BLOCK_RECORD
  5
509
100
AcDbSymbolTableRecord
100
AcDbBlockTableRecord
  2
CDWK_PTTYP33
  0
BLOCK_RECORD
  5
50A
100
AcDbSymbolTableRecord
100
AcDbBlockTableRecord
  2
CDWK_PTTYP34
  0
BLOCK_RECORD
  5
50B
100
AcDbSymbolTableRecord
100
AcDbBlockTableRecord
  2
CDWK_PTTYP35
  0
BLOCK_RECORD
  5
50C
100
AcDbSymbolTableRecord
100
AcDbBlockTableRecord
  2
CDWK_PTTYP36
  0
BLOCK_RECORD
  5
50D
100
AcDbSymbolTableRecord
100
AcDbBlockTableRecord
  2
CDWK_PTTYP37
  0
BLOCK_RECORD
  5
50E
100
AcDbSymbolTableRecord
100
AcDbBlockTableRecord
  2
CDWK_PTTYP38
  0
BLOCK_RECORD
  5
50F
100
AcDbSymbolTableRecord
100
AcDbBlockTableRecord
  2
*X1
  0
BLOCK_RECORD
  5
510
100
AcDbSymbolTableRecord
100
AcDbBlockTableRecord
  2
*X2
  0
BLOCK_RECORD
  5
511
100
AcDbSymbolTableRecord
100
AcDbBlockTableRecord
  2
*X3
  0
BLOCK_RECORD
  5
512
100
AcDbSymbolTableRecord
100
AcDbBlockTableRecord
  2
*X4
  0
BLOCK_RECORD
  5
513
100
AcDbSymbolTableRecord
100
AcDbBlockTableRecord
  2
*X5
  0
BLOCK_RECORD
  5
514
100
AcDbSymbolTableRecord
100
AcDbBlockTableRecord
  2
*X6
  0
BLOCK_RECORD
  5
515
100
AcDbSymbolTableRecord
100
AcDbBlockTableRecord
  2
*D59
  0
BLOCK_RECORD
  5
516
100
AcDbSymbolTableRecord
100
AcDbBlockTableRecord
  2
*D60
  0
BLOCK_RECORD
  5
517
100
AcDbSymbolTableRecord
100
AcDbBlockTableRecord
  2
*D61
  0
BLOCK_RECORD
  5
518
100
AcDbSymbolTableRecord
100
AcDbBlockTableRecord
  2
*D62
  0
ENDTAB
  0
ENDSEC
  0
SECTION
  2
BLOCKS
  0
BLOCK
  5
519
100
AcDbEntity
  8
0
100
AcDbBlockBegin
  2
*MODEL_SPACE
 70
     0
 10
0.0
 20
0.0
 30
0.0
  3
*MODEL_SPACE
  1

  0
ENDBLK
  5
51A
100
AcDbEntity
100
AcDbBlockEnd
  0
BLOCK
  5
51B
100
AcDbEntity
  8
0
100
AcDbBlockBegin
  2
*PAPER_SPACE
 70
     0
 10
0.0
 20
0.0
 30
0.0
  3
*PAPER_SPACE
  1

  0
ENDBLK
  5
51C
100
AcDbEntity
100
AcDbBlockEnd
  0
BLOCK
  5
51D
100
AcDbEntity
  8
0
100
AcDbBlockBegin
  2
CDWK_EXTR_0
 70
     0
 10
0.0
 20
0.0
 30
0.0
  3
CDWK_EXTR_0
  1

  4
Cadwork line-extremity
  0
LINE
  5
51E
100
AcDbEntity
  8
0
 62
     0
370
    -2
100
AcDbLine
 10
0.0
 20
0.0
 30
0.0
 11
2.0
 21
0.5
 31
0.0
  0
LINE
  5
51F
100
AcDbEntity
  8
0
 62
     0
370
    -2
100
AcDbLine
 10
0.0
 20
0.0
 30
0.0
 11
2.0
 21
-0.5
 31
0.0
  0
LINE
  5
520
100
AcDbEntity
  8
0
 62
     0
370
    -2
100
AcDbLine
 10
2.0
 20
0.5
 30
0.0
 11
2.0
 21
-0.5
 31
0.0
  0
ENDBLK
  5
521
100
AcDbEntity
100
AcDbBlockEnd
  0
BLOCK
  5
522
100
AcDbEntity
  8
0
100
AcDbBlockBegin
  2
CDWK_EXTR_1D
 70
     0
 10
0.0
 20
0.0
 30
0.0
  3
CDWK_EXTR_1D
  1

  4
Cadwork line-extremity
  0
LINE
  5
523
100
AcDbEntity
  8
0
 62
     0
370
    -2
100
AcDbLine
 10
0.0
 20
0.0
 30
0.0
 11
0.0
 21
1.0
 31
0.0
  0
LINE
  5
524
100
AcDbEntity
  8
0
 62
     0
370
    -2
100
AcDbLine
 10
0.0
 20
1.0
 30
0.0
 11
0.5
 21
1.5
 31
0.0
  0
LINE
  5
525
100
AcDbEntity
  8
0
 62
     0
370
    -2
100
AcDbLine
 10
0.5
 20
1.5
 30
0.0
 11
1.5
 21
1.5
 31
0.0
  0
ENDBLK
  5
526
100
AcDbEntity
100
AcDbBlockEnd
  0
BLOCK
  5
527
100
AcDbEntity
  8
0
100
AcDbBlockBegin
  2
CDWK_EXTR_1G
 70
     0
 10
0.0
 20
0.0
 30
0.0
  3
CDWK_EXTR_1G
  1

  4
Cadwork line-extremity
  0
LINE
  5
528
100
AcDbEntity
  8
0
 62
     0
370
    -2
100
AcDbLine
 10
0.0
 20
0.0
 30
0.0
 11
0.0
 21
-1.0
 31
0.0
  0
LINE
  5
529
100
AcDbEntity
  8
0
 62
     0
370
    -2
100
AcDbLine
 10
0.0
 20
-1.0
 30
0.0
 11
0.5
 21
-1.5
 31
0.0
  0
LINE
  5
52A
100
AcDbEntity
  8
0
 62
     0
370
    -2
100
AcDbLine
 10
0.5
 20
-1.5
 30
0.0
 11
1.5
 21
-1.5
 31
0.0
  0
ENDBLK
  5
52B
100
AcDbEntity
100
AcDbBlockEnd
  0
BLOCK
  5
52C
100
AcDbEntity
  8
0
100
AcDbBlockBegin
  2
CDWK_EXTR_2
 70
     0
 10
0.0
 20
0.0
 30
0.0
  3
CDWK_EXTR_2
  1

  4
Cadwork line-extremity
  0
SOLID
  5
52D
100
AcDbEntity
  8
0
 62
     0
100
AcDbTrace
 10
0.0
 20
0.0
 11
2.0
 21
0.5
 12
2.0
 22
-0.5
 13
2.0
 23
-0.5
  0
ENDBLK
  5
52E
100
AcDbEntity
100
AcDbBlockEnd
  0
BLOCK
  5
52F
100
AcDbEntity
  8
0
100
AcDbBlockBegin
  2
CDWK_EXTR_3
 70
     0
 10
0.0
 20
0.0
 30
0.0
  3
CDWK_EXTR_3
  1

  4
Cadwork line-extremity
  0
SOLID
  5
530
100
AcDbEntity
  8
0
 62
     0
100
AcDbTrace
 10
0.0
 20
0.0
 11
2.0
 21
0.5
 12
2.0
 22
-0.5
 13
2.0
 23
-0.5
  0
LINE
  5
531
100
AcDbEntity
  8
0
 62
     0
370
    -2
100
AcDbLine
 10
0.0
 20
1.0
 30
0.0
 11
0.0
 21
-1.0
 31
0.0
  0
ENDBLK
  5
532
100
AcDbEntity
100
AcDbBlockEnd
  0
BLOCK
  5
533
100
AcDbEntity
  8
0
100
AcDbBlockBegin
  2
CDWK_EXTR_4
 70
     0
 10
0.0
 20
0.0
 30
0.0
  3
CDWK_EXTR_4
  1

  4
Cadwork line-extremity
  0
HATCH
  5
534
100
AcDbEntity
  8
0
 62
     0
370
    -2
100
AcDbHatch
 10
0.0
 20
0.0
 30
0.0
210
0.0
220
0.0
230
1.0
  2
SOLID
 70
     1
 71
     0
 91
        1
 92
        1
 93
        1
 72
     2
 10
0.0
 20
0.0
 40
0.5
 50
0.0
 51
360.0
 73
     1
 97
        0
 75
     0
 76
     1
 98
        1
 10
0.0
 20
0.0
  0
ENDBLK
  5
535
100
AcDbEntity
100
AcDbBlockEnd
  0
BLOCK
  5
536
100
AcDbEntity
  8
0
100
AcDbBlockBegin
  2
CDWK_PTTYP0
 70
     0
 10
0.0
 20
0.0
 30
0.0
  3
CDWK_PTTYP0
  1

  4
Cadwork point
  0
POINT
  5
537
100
AcDbEntity
  8
0
 62
     0
100
AcDbPoint
 10
0.0
 20
0.0
 30
0.0
  0
ENDBLK
  5
538
100
AcDbEntity
100
AcDbBlockEnd
  0
BLOCK
  5
539
100
AcDbEntity
  8
0
100
AcDbBlockBegin
  2
CDWK_PTTYP1
 70
     0
 10
0.0
 20
0.0
 30
0.0
  3
CDWK_PTTYP1
  1

  4
Cadwork node
  0
LINE
  5
53A
100
AcDbEntity
  8
0
 62
     0
370
    -2
100
AcDbLine
 10
-0.5
 20
0.5
 30
0.0
 11
0.5
 21
0.5
 31
0.0
  0
LINE
  5
53B
100
AcDbEntity
  8
0
 62
     0
370
    -2
100
AcDbLine
 10
0.5
 20
0.5
 30
0.0
 11
0.5
 21
-0.5
 31
0.0
  0
LINE
  5
53C
100
AcDbEntity
  8
0
 62
     0
370
    -2
100
AcDbLine
 10
0.5
 20
-0.5
 30
0.0
 11
-0.5
 21
-0.5
 31
0.0
  0
LINE
  5
53D
100
AcDbEntity
  8
0
 62
     0
370
    -2
100
AcDbLine
 10
-0.5
 20
-0.5
 30
0.0
 11
-0.5
 21
0.5
 31
0.0
  0
ENDBLK
  5
53E
100
AcDbEntity
100
AcDbBlockEnd
  0
BLOCK
  5
53F
100
AcDbEntity
  8
0
100
AcDbBlockBegin
  2
CDWK_PTTYP2
 70
     0
 10
0.0
 20
0.0
 30
0.0
  3
CDWK_PTTYP2
  1

  4
Cadwork node
  0
LINE
  5
540
100
AcDbEntity
  8
0
 62
     0
370
    -2
100
AcDbLine
 10
0.0
 20
0.5
 30
0.0
 11
0.0
 21
-0.5
 31
0.0
  0
LINE
  5
541
100
AcDbEntity
  8
0
 62
     0
370
    -2
100
AcDbLine
 10
-0.5
 20
0.0
 30
0.0
 11
0.5
 21
0.0
 31
0.0
  0
ENDBLK
  5
542
100
AcDbEntity
100
AcDbBlockEnd
  0
BLOCK
  5
543
100
AcDbEntity
  8
0
100
AcDbBlockBegin
  2
CDWK_PTTYP3
 70
     0
 10
0.0
 20
0.0
 30
0.0
  3
CDWK_PTTYP3
  1

  4
Cadwork node
  0
CIRCLE
  5
544
100
AcDbEntity
  8
0
 62
     0
370
    -2
100
AcDbCircle
 10
0.0
 20
0.0
 30
0.0
 40
0.5
  0
ENDBLK
  5
545
100
AcDbEntity
100
AcDbBlockEnd
  0
BLOCK
  5
546
100
AcDbEntity
  8
0
100
AcDbBlockBegin
  2
CDWK_PTTYP4
 70
     0
 10
0.0
 20
0.0
 30
0.0
  3
CDWK_PTTYP4
  1

  4
Cadwork node
  0
HATCH
  5
547
100
AcDbEntity
  8
0
 62
     0
370
    -2
100
AcDbHatch
 10
0.0
 20
0.0
 30
0.0
210
0.0
220
0.0
230
1.0
  2
SOLID
 70
     1
 71
     0
 91
        1
 92
        1
 93
        1
 72
     2
 10
0.0
 20
0.0
 40
0.5
 50
0.0
 51
360.0
 73
     1
 97
        0
 75
     0
 76
     1
 98
        1
 10
0.0
 20
0.0
  0
ENDBLK
  5
548
100
AcDbEntity
100
AcDbBlockEnd
  0
BLOCK
  5
549
100
AcDbEntity
  8
0
100
AcDbBlockBegin
  2
CDWK_PTTYP5
 70
     0
 10
0.0
 20
0.0
 30
0.0
  3
CDWK_PTTYP5
  1

  4
Cadwork node
  0
LINE
  5
54A
100
AcDbEntity
  8
0
 62
     0
370
    -2
100
AcDbLine
 10
-0.5
 20
0.5
 30
0.0
 11
0.5
 21
0.5
 31
0.0
  0
LINE
  5
54B
100
AcDbEntity
  8
0
 62
     0
370
    -2
100
AcDbLine
 10
0.5
 20
0.5
 30
0.0
 11
0.5
 21
-0.5
 31
0.0
  0
LINE
  5
54C
100
AcDbEntity
  8
0
 62
     0
370
    -2
100
AcDbLine
 10
0.5
 20
-0.5
 30
0.0
 11
-0.5
 21
-0.5
 31
0.0
  0
LINE
  5
54D
100
AcDbEntity
  8
0
 62
     0
370
    -2
100
AcDbLine
 10
-0.5
 20
-0.5
 30
0.0
 11
-0.5
 21
0.5
 31
0.0
  0
SOLID
  5
54E
100
AcDbEntity
  8
0
 62
     0
100
AcDbTrace
 10
-0.5
 20
-0.5
 11
-0.5
 21
0.0
 12
0.0
 22
-0.5
 13
0.0
 23
0.0
  0
SOLID
  5
54F
100
AcDbEntity
  8
0
 62
     0
100
AcDbTrace
 10
0.0
 20
0.0
 11
0.0
 21
0.5
 12
0.5
 22
0.0
 13
0.5
 23
0.5
  0
ENDBLK
  5
550
100
AcDbEntity
100
AcDbBlockEnd
  0
BLOCK
  5
551
100
AcDbEntity
  8
0
100
AcDbBlockBegin
  2
CDWK_PTTYP6
 70
     0
 10
0.0
 20
0.0
 30
0.0
  3
CDWK_PTTYP6
  1

  4
Cadwork node
  0
LINE
  5
552
100
AcDbEntity
  8
0
 62
     0
370
    -2
100
AcDbLine
 10
-0.5
 20
0.5
 30
0.0
 11
0.5
 21
0.5
 31
0.0
  0
LINE
  5
553
100
AcDbEntity
  8
0
 62
     0
370
    -2
100
AcDbLine
 10
0.5
 20
0.5
 30
0.0
 11
0.5
 21
-0.5
 31
0.0
  0
LINE
  5
554
100
AcDbEntity
  8
0
 62
     0
370
    -2
100
AcDbLine
 10
0.5
 20
-0.5
 30
0.0
 11
-0.5
 21
-0.5
 31
0.0
  0
LINE
  5
555
100
AcDbEntity
  8
0
 62
     0
370
    -2
100
AcDbLine
 10
-0.5
 20
-0.5
 30
0.0
 11
-0.5
 21
0.5
 31
0.0
  0
SOLID
  5
556
100
AcDbEntity
  8
0
 62
     0
100
AcDbTrace
 10
-0.5
 20
-0.5
 11
-0.5
 21
0.5
 12
0.5
 22
0.5
 13
0.5
 23
0.5
  0
ENDBLK
  5
557
100
AcDbEntity
100
AcDbBlockEnd
  0
BLOCK
  5
558
100
AcDbEntity
  8
0
100
AcDbBlockBegin
  2
CDWK_PTTYP7
 70
     0
 10
0.0
 20
0.0
 30
0.0
  3
CDWK_PTTYP7
  1

  4
Cadwork node
  0
LINE
  5
559
100
AcDbEntity
  8
0
 62
     0
370
    -2
100
AcDbLine
 10
-0.5
 20
0.5
 30
0.0
 11
0.5
 21
0.5
 31
0.0
  0
LINE
  5
55A
100
AcDbEntity
  8
0
 62
     0
370
    -2
100
AcDbLine
 10
0.5
 20
0.5
 30
0.0
 11
0.5
 21
-0.5
 31
0.0
  0
LINE
  5
55B
100
AcDbEntity
  8
0
 62
     0
370
    -2
100
AcDbLine
 10
0.5
 20
-0.5
 30
0.0
 11
-0.5
 21
-0.5
 31
0.0
  0
LINE
  5
55C
100
AcDbEntity
  8
0
 62
     0
370
    -2
100
AcDbLine
 10
-0.5
 20
-0.5
 30
0.0
 11
-0.5
 21
0.5
 31
0.0
  0
LINE
  5
55D
100
AcDbEntity
  8
0
 62
     0
370
    -2
100
AcDbLine
 10
0.0
 20
0.5
 30
0.0
 11
0.0
 21
-0.5
 31
0.0
  0
LINE
  5
55E
100
AcDbEntity
  8
0
 62
     0
370
    -2
100
AcDbLine
 10
-0.5
 20
0.0
 30
0.0
 11
0.5
 21
0.0
 31
0.0
  0
ENDBLK
  5
55F
100
AcDbEntity
100
AcDbBlockEnd
  0
BLOCK
  5
560
100
AcDbEntity
  8
0
100
AcDbBlockBegin
  2
CDWK_PTTYP8
 70
     0
 10
0.0
 20
0.0
 30
0.0
  3
CDWK_PTTYP8
  1

  4
Cadwork node
  0
SOLID
  5
561
100
AcDbEntity
  8
0
 62
     0
100
AcDbTrace
 10
-0.5
 20
0.5
 11
0.5
 21
0.5
 12
-0.5
 22
-0.5
 13
0.5
 23
-0.5
  0
ENDBLK
  5
562
100
AcDbEntity
100
AcDbBlockEnd
  0
BLOCK
  5
563
100
AcDbEntity
  8
0
100
AcDbBlockBegin
  2
CDWK_PTTYP9
 70
     0
 10
0.0
 20
0.0
 30
0.0
  3
CDWK_PTTYP9
  1

  4
Cadwork node
  0
CIRCLE
  5
564
100
AcDbEntity
  8
0
 62
     0
370
    -2
100
AcDbCircle
 10
0.0
 20
0.0
 30
0.0
 40
0.5
  0
CIRCLE
  5
565
100
AcDbEntity
  8
0
 62
     0
370
    -2
100
AcDbCircle
 10
0.0
 20
0.0
 30
0.0
 40
0.16666667
  0
ENDBLK
  5
566
100
AcDbEntity
100
AcDbBlockEnd
  0
BLOCK
  5
567
100
AcDbEntity
  8
0
100
AcDbBlockBegin
  2
CDWK_PTTYP10
 70
     0
 10
0.0
 20
0.0
 30
0.0
  3
CDWK_PTTYP10
  1

  4
Cadwork node
  0
CIRCLE
  5
568
100
AcDbEntity
  8
0
 62
     0
370
    -2
100
AcDbCircle
 10
0.0
 20
0.0
 30
0.0
 40
0.5
  0
ENDBLK
  5
569
100
AcDbEntity
100
AcDbBlockEnd
  0
BLOCK
  5
56A
100
AcDbEntity
  8
0
100
AcDbBlockBegin
  2
CDWK_PTTYP11
 70
     0
 10
0.0
 20
0.0
 30
0.0
  3
CDWK_PTTYP11
  1

  4
Cadwork node
  0
CIRCLE
  5
56B
100
AcDbEntity
  8
0
 62
     0
370
    -2
100
AcDbCircle
 10
0.0
 20
0.0
 30
0.0
 40
0.5
  0
CIRCLE
  5
56C
100
AcDbEntity
  8
0
 62
     0
370
    -2
100
AcDbCircle
 10
0.0
 20
0.0
 30
0.0
 40
0.25
  0
ENDBLK
  5
56D
100
AcDbEntity
100
AcDbBlockEnd
  0
BLOCK
  5
56E
100
AcDbEntity
  8
0
100
AcDbBlockBegin
  2
CDWK_PTTYP12
 70
     0
 10
0.0
 20
0.0
 30
0.0
  3
CDWK_PTTYP12
  1

  4
Cadwork node
  0
CIRCLE
  5
56F
100
AcDbEntity
  8
0
 62
     0
370
    -2
100
AcDbCircle
 10
0.0
 20
0.0
 30
0.0
 40
0.5
  0
CIRCLE
  5
570
100
AcDbEntity
  8
0
 62
     0
370
    -2
100
AcDbCircle
 10
0.25
 20
0.0
 30
0.0
 40
0.25
  0
ENDBLK
  5
571
100
AcDbEntity
100
AcDbBlockEnd
  0
BLOCK
  5
572
100
AcDbEntity
  8
0
100
AcDbBlockBegin
  2
CDWK_PTTYP13
 70
     0
 10
0.0
 20
0.0
 30
0.0
  3
CDWK_PTTYP13
  1

  4
Cadwork node
  0
CIRCLE
  5
573
100
AcDbEntity
  8
0
 62
     0
370
    -2
100
AcDbCircle
 10
0.0
 20
0.0
 30
0.0
 40
0.5
  0
CIRCLE
  5
574
100
AcDbEntity
  8
0
 62
     0
370
    -2
100
AcDbCircle
 10
0.25
 20
0.0
 30
0.0
 40
0.25
  0
CIRCLE
  5
575
100
AcDbEntity
  8
0
 62
     0
370
    -2
100
AcDbCircle
 10
-0.25
 20
0.0
 30
0.0
 40
0.25
  0
ENDBLK
  5
576
100
AcDbEntity
100
AcDbBlockEnd
  0
BLOCK
  5
577
100
AcDbEntity
  8
0
100
AcDbBlockBegin
  2
CDWK_PTTYP14
 70
     0
 10
0.0
 20
0.0
 30
0.0
  3
CDWK_PTTYP14
  1

  4
Cadwork node
  0
POINT
  5
578
100
AcDbEntity
  8
0
 62
     0
100
AcDbPoint
 10
0.0
 20
0.0
 30
0.0
  0
ENDBLK
  5
579
100
AcDbEntity
100
AcDbBlockEnd
  0
BLOCK
  5
57A
100
AcDbEntity
  8
0
100
AcDbBlockBegin
  2
CDWK_PTTYP15
 70
     0
 10
0.0
 20
0.0
 30
0.0
  3
CDWK_PTTYP15
  1

  4
Cadwork node
  0
POINT
  5
57B
100
AcDbEntity
  8
0
 62
     0
100
AcDbPoint
 10
0.0
 20
0.0
 30
0.0
  0
ENDBLK
  5
57C
100
AcDbEntity
100
AcDbBlockEnd
  0
BLOCK
  5
57D
100
AcDbEntity
  8
0
100
AcDbBlockBegin
  2
CDWK_PTTYP16
 70
     0
 10
0.0
 20
0.0
 30
0.0
  3
CDWK_PTTYP16
  1

  4
Cadwork node
  0
LINE
  5
57E
100
AcDbEntity
  8
0
 62
     0
370
    -2
100
AcDbLine
 10
-0.5
 20
-0.28867513
 30
0.0
 11
0.5
 21
-0.28867513
 31
0.0
  0
LINE
  5
57F
100
AcDbEntity
  8
0
 62
     0
370
    -2
100
AcDbLine
 10
0.5
 20
-0.28867513
 30
0.0
 11
0.0
 21
0.57735027
 31
0.0
  0
LINE
  5
580
100
AcDbEntity
  8
0
 62
     0
370
    -2
100
AcDbLine
 10
0.0
 20
0.57735027
 30
0.0
 11
-0.5
 21
-0.28867513
 31
0.0
  0
CIRCLE
  5
581
100
AcDbEntity
  8
0
 62
     0
370
    -2
100
AcDbCircle
 10
0.0
 20
0.0
 30
0.0
 40
0.28867513
  0
ENDBLK
  5
582
100
AcDbEntity
100
AcDbBlockEnd
  0
BLOCK
  5
583
100
AcDbEntity
  8
0
100
AcDbBlockBegin
  2
CDWK_PTTYP17
 70
     0
 10
0.0
 20
0.0
 30
0.0
  3
CDWK_PTTYP17
  1

  4
Cadwork node
  0
CIRCLE
  5
584
100
AcDbEntity
  8
0
 62
     0
370
    -2
100
AcDbCircle
 10
0.0
 20
0.0
 30
0.0
 40
0.5
  0
HATCH
  5
585
100
AcDbEntity
  8
0
 62
     0
370
    -2
100
AcDbHatch
 10
0.0
 20
0.0
 30
0.0
210
0.0
220
0.0
230
1.0
  2
SOLID
 70
     1
 71
     0
 91
        1
 92
        1
 93
        1
 72
     2
 10
0.0
 20
0.0
 40
0.25
 50
0.0
 51
360.0
 73
     1
 97
        0
 75
     0
 76
     1
 98
        1
 10
0.0
 20
0.0
  0
ENDBLK
  5
586
100
AcDbEntity
100
AcDbBlockEnd
  0
BLOCK
  5
587
100
AcDbEntity
  8
0
100
AcDbBlockBegin
  2
CDWK_PTTYP18
 70
     0
 10
0.0
 20
0.0
 30
0.0
  3
CDWK_PTTYP18
  1

  4
Cadwork node
  0
CIRCLE
  5
588
100
AcDbEntity
  8
0
 62
     0
370
    -2
100
AcDbCircle
 10
0.0
 20
0.0
 30
0.0
 40
0.5
  0
CIRCLE
  5
589
100
AcDbEntity
  8
0
 62
     0
370
    -2
100
AcDbCircle
 10
0.0
 20
0.0
 30
0.0
 40
0.2
  0
ENDBLK
  5
58A
100
AcDbEntity
100
AcDbBlockEnd
  0
BLOCK
  5
58B
100
AcDbEntity
  8
0
100
AcDbBlockBegin
  2
CDWK_PTTYP19
 70
     0
 10
0.0
 20
0.0
 30
0.0
  3
CDWK_PTTYP19
  1

  4
Cadwork node
  0
CIRCLE
  5
58C
100
AcDbEntity
  8
0
 62
     0
370
    -2
100
AcDbCircle
 10
0.0
 20
0.0
 30
0.0
 40
0.4
  0
CIRCLE
  5
58D
100
AcDbEntity
  8
0
 62
     0
370
    -2
100
AcDbCircle
 10
0.0
 20
0.0
 30
0.0
 40
0.25
  0
LINE
  5
58E
100
AcDbEntity
  8
0
 62
     0
370
    -2
100
AcDbLine
 10
-0.25
 20
0.0
 30
0.0
 11
0.25
 21
0.0
 31
0.0
  0
ENDBLK
  5
58F
100
AcDbEntity
100
AcDbBlockEnd
  0
BLOCK
  5
590
100
AcDbEntity
  8
0
100
AcDbBlockBegin
  2
CDWK_PTTYP20
 70
     0
 10
0.0
 20
0.0
 30
0.0
  3
CDWK_PTTYP20
  1

  4
Cadwork node
  0
CIRCLE
  5
591
100
AcDbEntity
  8
0
 62
     0
370
    -2
100
AcDbCircle
 10
0.0
 20
0.0
 30
0.0
 40
0.5
  0
CIRCLE
  5
592
100
AcDbEntity
  8
0
 62
     0
370
    -2
100
AcDbCircle
 10
0.0
 20
0.0
 30
0.0
 40
0.3
  0
ENDBLK
  5
593
100
AcDbEntity
100
AcDbBlockEnd
  0
BLOCK
  5
594
100
AcDbEntity
  8
0
100
AcDbBlockBegin
  2
CDWK_PTTYP21
 70
     0
 10
0.0
 20
0.0
 30
0.0
  3
CDWK_PTTYP21
  1

  4
Cadwork node
  0
CIRCLE
  5
595
100
AcDbEntity
  8
0
 62
     0
370
    -2
100
AcDbCircle
 10
0.0
 20
0.0
 30
0.0
 40
0.5
  0
LINE
  5
596
100
AcDbEntity
  8
0
 62
     0
370
    -2
100
AcDbLine
 10
-0.5
 20
0.0
 30
0.0
 11
0.5
 21
0.0
 31
0.0
  0
ENDBLK
  5
597
100
AcDbEntity
100
AcDbBlockEnd
  0
BLOCK
  5
598
100
AcDbEntity
  8
0
100
AcDbBlockBegin
  2
CDWK_PTTYP22
 70
     0
 10
0.0
 20
0.0
 30
0.0
  3
CDWK_PTTYP22
  1

  4
Cadwork node
  0
POINT
  5
599
100
AcDbEntity
  8
0
 62
     0
100
AcDbPoint
 10
0.0
 20
0.0
 30
0.0
  0
ENDBLK
  5
59A
100
AcDbEntity
100
AcDbBlockEnd
  0
BLOCK
  5
59B
100
AcDbEntity
  8
0
100
AcDbBlockBegin
  2
CDWK_PTTYP23
 70
     0
 10
0.0
 20
0.0
 30
0.0
  3
CDWK_PTTYP23
  1

  4
Cadwork node
  0
POINT
  5
59C
100
AcDbEntity
  8
0
 62
     0
100
AcDbPoint
 10
0.0
 20
0.0
 30
0.0
  0
ENDBLK
  5
59D
100
AcDbEntity
100
AcDbBlockEnd
  0
BLOCK
  5
59E
100
AcDbEntity
  8
0
100
AcDbBlockBegin
  2
CDWK_PTTYP24
 70
     0
 10
0.0
 20
0.0
 30
0.0
  3
CDWK_PTTYP24
  1

  4
Cadwork node
  0
POINT
  5
59F
100
AcDbEntity
  8
0
 62
     0
100
AcDbPoint
 10
0.0
 20
0.0
 30
0.0
  0
ENDBLK
  5
5A0
100
AcDbEntity
100
AcDbBlockEnd
  0
BLOCK
  5
5A1
100
AcDbEntity
  8
0
100
AcDbBlockBegin
  2
CDWK_PTTYP25
 70
     0
 10
0.0
 20
0.0
 30
0.0
  3
CDWK_PTTYP25
  1

  4
Cadwork node
  0
LINE
  5
5A2
100
AcDbEntity
  8
0
 62
     0
370
    -2
100
AcDbLine
 10
-0.43290044
 20
-0.25
 30
0.0
 11
0.43290044
 21
-0.25
 31
0.0
  0
LINE
  5
5A3
100
AcDbEntity
  8
0
 62
     0
370
    -2
100
AcDbLine
 10
-0.43290044
 20
-0.25
 30
0.0
 11
0.0
 21
0.5
 31
0.0
  0
LINE
  5
5A4
100
AcDbEntity
  8
0
 62
     0
370
    -2
100
AcDbLine
 10
0.43290044
 20
-0.25
 30
0.0
 11
0.0
 21
0.5
 31
0.0
  0
CIRCLE
  5
5A5
100
AcDbEntity
  8
0
 62
     0
370
    -2
100
AcDbCircle
 10
0.0
 20
0.0
 30
0.0
 40
0.5
  0
ENDBLK
  5
5A6
100
AcDbEntity
100
AcDbBlockEnd
  0
BLOCK
  5
5A7
100
AcDbEntity
  8
0
100
AcDbBlockBegin
  2
CDWK_PTTYP26
 70
     0
 10
0.0
 20
0.0
 30
0.0
  3
CDWK_PTTYP26
  1

  4
Cadwork node
  0
LINE
  5
5A8
100
AcDbEntity
  8
0
 62
     0
370
    -2
100
AcDbLine
 10
-0.5
 20
-0.28850001
 30
0.0
 11
0.5
 21
-0.28850001
 31
0.0
  0
LINE
  5
5A9
100
AcDbEntity
  8
0
 62
     0
370
    -2
100
AcDbLine
 10
-0.5
 20
-0.28850001
 30
0.0
 11
0.0
 21
0.57736721
 31
0.0
  0
LINE
  5
5AA
100
AcDbEntity
  8
0
 62
     0
370
    -2
100
AcDbLine
 10
0.5
 20
-0.28850001
 30
0.0
 11
0.0
 21
0.57736721
 31
0.0
  0
CIRCLE
  5
5AB
100
AcDbEntity
  8
0
 62
     0
370
    -2
100
AcDbCircle
 10
0.0
 20
0.0
 30
0.0
 40
0.1312336
  0
ENDBLK
  5
5AC
100
AcDbEntity
100
AcDbBlockEnd
  0
BLOCK
  5
5AD
100
AcDbEntity
  8
0
100
AcDbBlockBegin
  2
CDWK_PTTYP27
 70
     0
 10
0.0
 20
0.0
 30
0.0
  3
CDWK_PTTYP27
  1

  4
Cadwork node
  0
LINE
  5
5AE
100
AcDbEntity
  8
0
 62
     0
370
    -2
100
AcDbLine
 10
-0.43290044
 20
-0.25
 30
0.0
 11
0.43290044
 21
-0.25
 31
0.0
  0
LINE
  5
5AF
100
AcDbEntity
  8
0
 62
     0
370
    -2
100
AcDbLine
 10
-0.43290044
 20
-0.25
 30
0.0
 11
0.0
 21
0.5
 31
0.0
  0
LINE
  5
5B0
100
AcDbEntity
  8
0
 62
     0
370
    -2
100
AcDbLine
 10
0.43290044
 20
-0.25
 30
0.0
 11
0.0
 21
0.5
 31
0.0
  0
CIRCLE
  5
5B1
100
AcDbEntity
  8
0
 62
     0
370
    -2
100
AcDbCircle
 10
0.0
 20
0.0
 30
0.0
 40
0.5
  0
CIRCLE
  5
5B2
100
AcDbEntity
  8
0
 62
     0
370
    -2
100
AcDbCircle
 10
0.0
 20
0.0
 30
0.0
 40
0.1312336
  0
ENDBLK
  5
5B3
100
AcDbEntity
100
AcDbBlockEnd
  0
BLOCK
  5
5B4
100
AcDbEntity
  8
0
100
AcDbBlockBegin
  2
CDWK_PTTYP28
 70
     0
 10
0.0
 20
0.0
 30
0.0
  3
CDWK_PTTYP28
  1

  4
Cadwork node
  0
POINT
  5
5B5
100
AcDbEntity
  8
0
 62
     0
100
AcDbPoint
 10
0.0
 20
0.0
 30
0.0
  0
ENDBLK
  5
5B6
100
AcDbEntity
100
AcDbBlockEnd
  0
BLOCK
  5
5B7
100
AcDbEntity
  8
0
100
AcDbBlockBegin
  2
CDWK_PTTYP29
 70
     0
 10
0.0
 20
0.0
 30
0.0
  3
CDWK_PTTYP29
  1

  4
Cadwork node
  0
CIRCLE
  5
5B8
100
AcDbEntity
  8
0
 62
     0
370
    -2
100
AcDbCircle
 10
0.0
 20
0.0
 30
0.0
 40
0.5
  0
CIRCLE
  5
5B9
100
AcDbEntity
  8
0
 62
     0
370
    -2
100
AcDbCircle
 10
0.0
 20
0.0
 30
0.0
 40
0.375
  0
CIRCLE
  5
5BA
100
AcDbEntity
  8
0
 62
     0
370
    -2
100
AcDbCircle
 10
0.0
 20
0.0
 30
0.0
 40
0.21875
  0
ENDBLK
  5
5BB
100
AcDbEntity
100
AcDbBlockEnd
  0
BLOCK
  5
5BC
100
AcDbEntity
  8
0
100
AcDbBlockBegin
  2
CDWK_PTTYP30
 70
     0
 10
0.0
 20
0.0
 30
0.0
  3
CDWK_PTTYP30
  1

  4
Cadwork node
  0
LINE
  5
5BD
100
AcDbEntity
  8
0
 62
     0
370
    -2
100
AcDbLine
 10
0.17680339
 20
0.17680339
 30
0.0
 11
0.5
 21
0.5
 31
0.0
  0
LINE
  5
5BE
100
AcDbEntity
  8
0
 62
     0
370
    -2
100
AcDbLine
 10
-0.17680339
 20
0.17680339
 30
0.0
 11
-0.5
 21
0.5
 31
0.0
  0
LINE
  5
5BF
100
AcDbEntity
  8
0
 62
     0
370
    -2
100
AcDbLine
 10
0.17680339
 20
-0.17680339
 30
0.0
 11
0.5
 21
-0.5
 31
0.0
  0
LINE
  5
5C0
100
AcDbEntity
  8
0
 62
     0
370
    -2
100
AcDbLine
 10
-0.17680339
 20
-0.17680339
 30
0.0
 11
-0.5
 21
-0.5
 31
0.0
  0
ENDBLK
  5
5C1
100
AcDbEntity
100
AcDbBlockEnd
  0
BLOCK
  5
5C2
100
AcDbEntity
  8
0
100
AcDbBlockBegin
  2
CDWK_PTTYP31
 70
     0
 10
0.0
 20
0.0
 30
0.0
  3
CDWK_PTTYP31
  1

  4
Cadwork node
  0
CIRCLE
  5
5C3
100
AcDbEntity
  8
0
 62
     0
370
    -2
100
AcDbCircle
 10
0.0
 20
0.0
 30
0.0
 40
0.075
  0
LINE
  5
5C4
100
AcDbEntity
  8
0
 62
     0
370
    -2
100
AcDbLine
 10
0.075
 20
0.0
 30
0.0
 11
0.5
 21
0.0
 31
0.0
  0
LINE
  5
5C5
100
AcDbEntity
  8
0
 62
     0
370
    -2
100
AcDbLine
 10
-0.075
 20
0.0
 30
0.0
 11
-0.5
 21
0.0
 31
0.0
  0
LINE
  5
5C6
100
AcDbEntity
  8
0
 62
     0
370
    -2
100
AcDbLine
 10
0.0
 20
0.075
 30
0.0
 11
0.0
 21
0.5
 31
0.0
  0
LINE
  5
5C7
100
AcDbEntity
  8
0
 62
     0
370
    -2
100
AcDbLine
 10
0.0
 20
-0.075
 30
0.0
 11
0.0
 21
-0.5
 31
0.0
  0
ENDBLK
  5
5C8
100
AcDbEntity
100
AcDbBlockEnd
  0
BLOCK
  5
5C9
100
AcDbEntity
  8
0
100
AcDbBlockBegin
  2
CDWK_PTTYP32
 70
     0
 10
0.0
 20
0.0
 30
0.0
  3
CDWK_PTTYP32
  1

  4
Cadwork node
  0
CIRCLE
  5
5CA
100
AcDbEntity
  8
0
 62
     0
370
    -2
100
AcDbCircle
 10
0.0
 20
0.0
 30
0.0
 40
0.5
  0
CIRCLE
  5
5CB
100
AcDbEntity
  8
0
 62
     0
370
    -2
100
AcDbCircle
 10
0.0
 20
0.0
 30
0.0
 40
0.16666667
  0
LINE
  5
5CC
100
AcDbEntity
  8
0
 62
     0
370
    -2
100
AcDbLine
 10
0.11786893
 20
0.11786893
 30
0.0
 11
0.35360678
 21
0.35360678
 31
0.0
  0
LINE
  5
5CD
100
AcDbEntity
  8
0
 62
     0
370
    -2
100
AcDbLine
 10
-0.11786893
 20
0.11786893
 30
0.0
 11
-0.35360678
 21
0.35360678
 31
0.0
  0
LINE
  5
5CE
100
AcDbEntity
  8
0
 62
     0
370
    -2
100
AcDbLine
 10
0.11786893
 20
-0.11786893
 30
0.0
 11
0.35360678
 21
-0.35360678
 31
0.0
  0
LINE
  5
5CF
100
AcDbEntity
  8
0
 62
     0
370
    -2
100
AcDbLine
 10
-0.11786893
 20
-0.11786893
 30
0.0
 11
-0.35360678
 21
-0.35360678
 31
0.0
  0
ENDBLK
  5
5D0
100
AcDbEntity
100
AcDbBlockEnd
  0
BLOCK
  5
5D1
100
AcDbEntity
  8
0
100
AcDbBlockBegin
  2
CDWK_PTTYP33
 70
     0
 10
0.0
 20
0.0
 30
0.0
  3
CDWK_PTTYP33
  1

  4
Cadwork node
  0
CIRCLE
  5
5D2
100
AcDbEntity
  8
0
 62
     0
370
    -2
100
AcDbCircle
 10
0.0
 20
0.0
 30
0.0
 40
0.5
  0
LINE
  5
5D3
100
AcDbEntity
  8
0
 62
     0
370
    -2
100
AcDbLine
 10
0.0
 20
0.5
 30
0.0
 11
0.0
 21
-0.5
 31
0.0
  0
LINE
  5
5D4
100
AcDbEntity
  8
0
 62
     0
370
    -2
100
AcDbLine
 10
-0.5
 20
0.0
 30
0.0
 11
0.5
 21
0.0
 31
0.0
  0
ENDBLK
  5
5D5
100
AcDbEntity
100
AcDbBlockEnd
  0
BLOCK
  5
5D6
100
AcDbEntity
  8
0
100
AcDbBlockBegin
  2
CDWK_PTTYP34
 70
     0
 10
0.0
 20
0.0
 30
0.0
  3
CDWK_PTTYP34
  1

  4
Cadwork node
  0
CIRCLE
  5
5D7
100
AcDbEntity
  8
0
 62
     0
370
    -2
100
AcDbCircle
 10
0.0
 20
0.0
 30
0.0
 40
0.5
  0
LINE
  5
5D8
100
AcDbEntity
  8
0
 62
     0
370
    -2
100
AcDbLine
 10
-0.30360678
 20
-0.40360678
 30
0.0
 11
0.40360678
 21
0.30360678
 31
0.0
  0
LINE
  5
5D9
100
AcDbEntity
  8
0
 62
     0
370
    -2
100
AcDbLine
 10
-0.40360678
 20
-0.30360678
 30
0.0
 11
0.30360678
 21
0.40360678
 31
0.0
  0
ENDBLK
  5
5DA
100
AcDbEntity
100
AcDbBlockEnd
  0
BLOCK
  5
5DB
100
AcDbEntity
  8
0
100
AcDbBlockBegin
  2
CDWK_PTTYP35
 70
     0
 10
0.0
 20
0.0
 30
0.0
  3
CDWK_PTTYP35
  1

  4
Cadwork node
  0
CIRCLE
  5
5DC
100
AcDbEntity
  8
0
 62
     0
370
    -2
100
AcDbCircle
 10
0.0
 20
0.0
 30
0.0
 40
0.21431634
  0
LINE
  5
5DD
100
AcDbEntity
  8
0
 62
     0
370
    -2
100
AcDbLine
 10
0.0
 20
0.21431634
 30
0.0
 11
0.0
 21
0.5
 31
0.0
  0
LINE
  5
5DE
100
AcDbEntity
  8
0
 62
     0
370
    -2
100
AcDbLine
 10
0.0
 20
-0.21431634
 30
0.0
 11
0.0
 21
-0.5
 31
0.0
  0
ENDBLK
  5
5DF
100
AcDbEntity
100
AcDbBlockEnd
  0
BLOCK
  5
5E0
100
AcDbEntity
  8
0
100
AcDbBlockBegin
  2
CDWK_PTTYP36
 70
     0
 10
0.0
 20
0.0
 30
0.0
  3
CDWK_PTTYP36
  1

  4
Cadwork node
  0
LINE
  5
5E1
100
AcDbEntity
  8
0
 62
     0
370
    -2
100
AcDbLine
 10
-0.5
 20
-0.16666667
 30
0.0
 11
0.5
 21
-0.16666667
 31
0.0
  0
LINE
  5
5E2
100
AcDbEntity
  8
0
 62
     0
370
    -2
100
AcDbLine
 10
0.5
 20
-0.16666667
 30
0.0
 11
0.5
 21
0.16666667
 31
0.0
  0
LINE
  5
5E3
100
AcDbEntity
  8
0
 62
     0
370
    -2
100
AcDbLine
 10
0.5
 20
0.16666667
 30
0.0
 11
-0.5
 21
0.16666667
 31
0.0
  0
LINE
  5
5E4
100
AcDbEntity
  8
0
 62
     0
370
    -2
100
AcDbLine
 10
-0.5
 20
0.16666667
 30
0.0
 11
-0.5
 21
-0.16666667
 31
0.0
  0
SOLID
  5
5E5
100
AcDbEntity
  8
0
 62
     0
100
AcDbTrace
 10
-0.5
 20
-0.16666667
 11
0.5
 21
0.16666667
 12
0.5
 22
-0.16666667
 13
0.5
 23
-0.16666667
  0
ENDBLK
  5
5E6
100
AcDbEntity
100
AcDbBlockEnd
  0
BLOCK
  5
5E7
100
AcDbEntity
  8
0
100
AcDbBlockBegin
  2
CDWK_PTTYP37
 70
     0
 10
0.0
 20
0.0
 30
0.0
  3
CDWK_PTTYP37
  1

  4
Cadwork node
  0
CIRCLE
  5
5E8
100
AcDbEntity
  8
0
 62
     0
370
    -2
100
AcDbCircle
 10
0.0
 20
0.0
 30
0.0
 40
0.5
  0
SOLID
  5
5E9
100
AcDbEntity
  8
0
 62
     0
100
AcDbTrace
 10
0.0
 20
0.0
 11
0.35350001
 21
0.35350001
 12
0.5
 22
0.0
 13
0.46200001
 23
0.19149999
  0
SOLID
  5
5EA
100
AcDbEntity
  8
0
 62
     0
100
AcDbTrace
 10
0.0
 20
0.0
 11
0.35350001
 21
-0.35350001
 12
0.5
 22
0.0
 13
0.46200001
 23
-0.19149999
  0
SOLID
  5
5EB
100
AcDbEntity
  8
0
 62
     0
100
AcDbTrace
 10
0.0
 20
0.0
 11
0.0
 21
-0.5
 12
0.35350001
 22
-0.35350001
 13
0.19149999
 23
-0.46200001
  0
SOLID
  5
5EC
100
AcDbEntity
  8
0
 62
     0
100
AcDbTrace
 10
0.0
 20
0.0
 11
0.0
 21
-0.5
 12
-0.35350001
 22
-0.35350001
 13
-0.19149999
 23
-0.46200001
  0
ENDBLK
  5
5ED
100
AcDbEntity
100
AcDbBlockEnd
  0
BLOCK
  5
5EE
100
AcDbEntity
  8
0
100
AcDbBlockBegin
  2
CDWK_PTTYP38
 70
     0
 10
0.0
 20
0.0
 30
0.0
  3
CDWK_PTTYP38
  1

  4
Cadwork node
  0
CIRCLE
  5
5EF
100
AcDbEntity
  8
0
 62
     0
370
    -2
100
AcDbCircle
 10
0.0
 20
0.0
 30
0.0
 40
0.5
  0
SOLID
  5
5F0
100
AcDbEntity
  8
0
 62
     0
100
AcDbTrace
 10
0.0
 20
0.0
 11
0.35350001
 21
0.35350001
 12
0.0
 22
0.5
 13
0.19149999
 23
0.46200001
  0
SOLID
  5
5F1
100
AcDbEntity
  8
0
 62
     0
100
AcDbTrace
 10
0.0
 20
0.0
 11
0.5
 21
0.0
 12
0.35350001
 22
0.35350001
 13
0.46200001
 23
0.19149999
  0
SOLID
  5
5F2
100
AcDbEntity
  8
0
 62
     0
100
AcDbTrace
 10
0.0
 20
0.0
 11
0.0
 21
-0.5
 12
-0.35350001
 22
-0.35350001
 13
-0.19149999
 23
-0.46200001
  0
SOLID
  5
5F3
100
AcDbEntity
  8
0
 62
     0
100
AcDbTrace
 10
0.0
 20
0.0
 11
-0.5
 21
0.0
 12
-0.35350001
 22
-0.35350001
 13
-0.46200001
 23
-0.19149999
  0
ENDBLK
  5
5F4
100
AcDbEntity
100
AcDbBlockEnd
  0
BLOCK
  5
5F5
100
AcDbEntity
  8
Ech.1_5
100
AcDbBlockBegin
  2
*X1
 70
     1
 10
0.0
 20
0.0
 30
0.0
  3
*X1
  1

  4
Cadwork hatch
  0
LINE
  5
5F6
100
AcDbEntity
  8
Ech.1_5
 62
   190
  6
CONTINUOUS
370
    -2
100
AcDbLine
 10
55674.72938569
 20
-10953.60571302
 30
0.0
 11
55629.73353664
 21
-11133.60577786
 31
0.0
  0
LINE
  5
5F7
100
AcDbEntity
  8
Ech.1_5
 62
   190
  6
CONTINUOUS
370
    -2
100
AcDbLine
 10
55629.73353664
 20
-10953.60571302
 30
0.0
 11
55674.72938569
 21
-11133.60577786
 31
0.0
  0
ENDBLK
  5
5F8
100
AcDbEntity
100
AcDbBlockEnd
  0
BLOCK
  5
5F9
100
AcDbEntity
  8
Ech.1_5
100
AcDbBlockBegin
  2
*X2
 70
     1
 10
0.0
 20
0.0
 30
0.0
  3
*X2
  1

  4
Cadwork hatch
  0
LINE
  5
5FA
100
AcDbEntity
  8
Ech.1_5
 62
   190
  6
CONTINUOUS
370
    -2
100
AcDbLine
 10
55719.72999721
 20
-10953.60571302
 30
0.0
 11
55674.72938569
 21
-11133.60577786
 31
0.0
  0
LINE
  5
5FB
100
AcDbEntity
  8
Ech.1_5
 62
   190
  6
CONTINUOUS
370
    -2
100
AcDbLine
 10
55674.72938569
 20
-10953.60571302
 30
0.0
 11
55719.72999721
 21
-11133.60577786
 31
0.0
  0
ENDBLK
  5
5FC
100
AcDbEntity
100
AcDbBlockEnd
  0
BLOCK
  5
5FD
100
AcDbEntity
  8
Ech.1_5
100
AcDbBlockBegin
  2
*X3
 70
     1
 10
0.0
 20
0.0
 30
0.0
  3
*X3
  1

  4
Cadwork hatch
  0
LINE
  5
5FE
100
AcDbEntity
  8
Ech.1_5
 62
   190
  6
CONTINUOUS
370
    -2
100
AcDbLine
 10
55719.72999721
 20
-11142.60685266
 30
0.0
 11
55669.73355105
 21
-11167.60507574
 31
0.0
  0
LINE
  5
5FF
100
AcDbEntity
  8
Ech.1_5
 62
   190
  6
CONTINUOUS
370
    -2
100
AcDbLine
 10
55669.73355105
 20
-11142.60685266
 30
0.0
 11
55719.72999721
 21
-11167.60507574
 31
0.0
  0
ENDBLK
  5
600
100
AcDbEntity
100
AcDbBlockEnd
  0
BLOCK
  5
601
100
AcDbEntity
  8
Ech.1_5
100
AcDbBlockBegin
  2
*X4
 70
     1
 10
0.0
 20
0.0
 30
0.0
  3
*X4
  1

  4
Cadwork hatch
  0
LINE
  5
602
100
AcDbEntity
  8
Ech.1_5
 62
   190
  6
CONTINUOUS
370
    -2
100
AcDbLine
 10
56141.58036943
 20
-10953.60571302
 30
0.0
 11
56186.58098094
 21
-11133.60577786
 31
0.0
  0
LINE
  5
603
100
AcDbEntity
  8
Ech.1_5
 62
   190
  6
CONTINUOUS
370
    -2
100
AcDbLine
 10
56186.58098094
 20
-10953.60571302
 30
0.0
 11
56141.58036943
 21
-11133.60577786
 31
0.0
  0
ENDBLK
  5
604
100
AcDbEntity
100
AcDbBlockEnd
  0
BLOCK
  5
605
100
AcDbEntity
  8
Ech.1_5
100
AcDbBlockBegin
  2
*X5
 70
     1
 10
0.0
 20
0.0
 30
0.0
  3
*X5
  1

  4
Cadwork hatch
  0
LINE
  5
606
100
AcDbEntity
  8
Ech.1_5
 62
   190
  6
CONTINUOUS
370
    -2
100
AcDbLine
 10
56096.57499543
 20
-10953.60571302
 30
0.0
 11
56141.58036943
 21
-11133.60577786
 31
0.0
  0
LINE
  5
607
100
AcDbEntity
  8
Ech.1_5
 62
   190
  6
CONTINUOUS
370
    -2
100
AcDbLine
 10
56141.58036943
 20
-10953.60571302
 30
0.0
 11
56096.57499543
 21
-11133.60577786
 31
0.0
  0
ENDBLK
  5
608
100
AcDbEntity
100
AcDbBlockEnd
  0
BLOCK
  5
609
100
AcDbEntity
  8
Ech.1_5
100
AcDbBlockBegin
  2
*X6
 70
     1
 10
0.0
 20
0.0
 30
0.0
  3
*X6
  1

  4
Cadwork hatch
  0
LINE
  5
60A
100
AcDbEntity
  8
Ech.1_5
 62
   190
  6
CONTINUOUS
370
    -2
100
AcDbLine
 10
56096.57499543
 20
-11142.60685266
 30
0.0
 11
56146.57620406
 21
-11167.60507574
 31
0.0
  0
LINE
  5
60B
100
AcDbEntity
  8
Ech.1_5
 62
   190
  6
CONTINUOUS
370
    -2
100
AcDbLine
 10
56146.57620406
 20
-11142.60685266
 30
0.0
 11
56096.57499543
 21
-11167.60507574
 31
0.0
  0
ENDBLK
  5
60C
100
AcDbEntity
100
AcDbBlockEnd
  0
BLOCK
  5
60D
100
AcDbEntity
  8
Ech.1_5
100
AcDbBlockBegin
  2
*D59
 70
     1
 10
0.0
 20
0.0
 30
0.0
  3
*D59
  1

  4
Cadwork dimension
  0
TEXT
  5
60E
100
AcDbEntity
  8
Ech.1_5
 62
   190
370
    18
100
AcDbText
 10
55605.47313063
 20
-10914.10576987
 30
0.0
 40
12.5
  1
200mm min
  7
ARIAL
 50
0.0
 41
1.0
 51
0.0
100
AcDbText
  0
LINE
  5
60F
100
AcDbEntity
  8
Ech.1_5
 62
   190
370
    -2
100
AcDbLine
 10
55519.72599442
 20
-10914.10576987
 30
0.0
 11
55519.72599442
 21
-10936.67721508
 31
0.0
  0
LINE
  5
610
100
AcDbEntity
  8
Ech.1_5
 62
   190
370
    -2
100
AcDbLine
 10
55719.73054173
 20
-10914.10576987
 30
0.0
 11
55719.73054173
 21
-10938.60575413
 31
0.0
  0
LINE
  5
611
100
AcDbEntity
  8
Ech.1_5
 62
   190
370
    -2
100
AcDbLine
 10
55514.72599442
 20
-10919.10576987
 30
0.0
 11
55724.73054173
 21
-10919.10576987
 31
0.0
  0
LINE
  5
612
100
AcDbEntity
  8
Ech.1_5
 62
   190
370
    -2
100
AcDbLine
 10
55517.22599442
 20
-10921.60576987
 30
0.0
 11
55522.22599442
 21
-10916.60576987
 31
0.0
  0
LINE
  5
613
100
AcDbEntity
  8
Ech.1_5
 62
   190
370
    -2
100
AcDbLine
 10
55717.23054173
 20
-10921.60576987
 30
0.0
 11
55722.23054173
 21
-10916.60576987
 31
0.0
  0
ENDBLK
  5
614
100
AcDbEntity
100
AcDbBlockEnd
  0
BLOCK
  5
615
100
AcDbEntity
  8
Ech.1_5
100
AcDbBlockBegin
  2
*D60
 70
     1
 10
0.0
 20
0.0
 30
0.0
  3
*D60
  1

  4
Cadwork dimension
  0
TEXT
  5
616
100
AcDbEntity
  8
Ech.1_5
 62
   190
370
    18
100
AcDbText
 10
56149.96204829
 20
-10914.10576987
 30
0.0
 40
12.5
  1
200mm min
  7
ARIAL
 50
0.0
 41
1.0
 51
0.0
100
AcDbText
  0
LINE
  5
617
100
AcDbEntity
  8
Ech.1_5
 62
   190
370
    -2
100
AcDbLine
 10
56296.58247551
 20
-10914.10576987
 30
0.0
 11
56296.58247551
 21
-10936.67721508
 31
0.0
  0
LINE
  5
618
100
AcDbEntity
  8
Ech.1_5
 62
   190
370
    -2
100
AcDbLine
 10
56096.5779282
 20
-10914.10576987
 30
0.0
 11
56096.5779282
 21
-10938.60575413
 31
0.0
  0
LINE
  5
619
100
AcDbEntity
  8
Ech.1_5
 62
   190
370
    -2
100
AcDbLine
 10
56301.58247551
 20
-10919.10576987
 30
0.0
 11
56091.5779282
 21
-10919.10576987
 31
0.0
  0
LINE
  5
61A
100
AcDbEntity
  8
Ech.1_5
 62
   190
370
    -2
100
AcDbLine
 10
56299.08247551
 20
-10916.60576987
 30
0.0
 11
56294.08247551
 21
-10921.60576987
 31
0.0
  0
LINE
  5
61B
100
AcDbEntity
  8
Ech.1_5
 62
   190
370
    -2
100
AcDbLine
 10
56099.0779282
 20
-10916.60576987
 30
0.0
 11
56094.0779282
 21
-10921.60576987
 31
0.0
  0
ENDBLK
  5
61C
100
AcDbEntity
100
AcDbBlockEnd
  0
BLOCK
  5
61D
100
AcDbEntity
  8
Ech.1_5
100
AcDbBlockBegin
  2
*D61
 70
     1
 10
0.0
 20
0.0
 30
0.0
  3
*D61
  1

  4
Cadwork dimension
  0
TEXT
  5
61E
100
AcDbEntity
  8
Ech.1_5
 62
   190
370
    18
100
AcDbText
 10
55778.53036039
 20
-10974.74687062
 30
0.0
 40
12.5
  1
25mm max
  7
ARIAL
 50
89.9999975
 41
1.0
 51
0.0
100
AcDbText
  0
LINE
  5
61F
100
AcDbEntity
  8
Ech.1_5
 62
   190
370
    -2
100
AcDbLine
 10
55788.53036039
 20
-10953.90594157
 30
0.0
 11
55769.45814752
 21
-10953.90594157
 31
0.0
  0
LINE
  5
620
100
AcDbEntity
  8
Ech.1_5
 62
   190
370
    -2
100
AcDbLine
 10
55788.53036039
 20
-10938.60575413
 30
0.0
 11
55769.45814752
 21
-10938.60575413
 31
0.0
  0
LINE
  5
621
100
AcDbEntity
  8
Ech.1_5
 62
   190
370
    -2
100
AcDbLine
 10
55783.53036039
 20
-10958.90594157
 30
0.0
 11
55783.53036039
 21
-10933.60575413
 31
0.0
  0
LINE
  5
622
100
AcDbEntity
  8
Ech.1_5
 62
   190
370
    -2
100
AcDbLine
 10
55786.03036039
 20
-10956.40594157
 30
0.0
 11
55781.03036039
 21
-10951.40594157
 31
0.0
  0
LINE
  5
623
100
AcDbEntity
  8
Ech.1_5
 62
   190
370
    -2
100
AcDbLine
 10
55786.03036039
 20
-10941.10575413
 30
0.0
 11
55781.03036039
 21
-10936.10575413
 31
0.0
  0
ENDBLK
  5
624
100
AcDbEntity
100
AcDbBlockEnd
  0
BLOCK
  5
625
100
AcDbEntity
  8
Ech.1_5
100
AcDbBlockBegin
  2
*D62
 70
     1
 10
0.0
 20
0.0
 30
0.0
  3
*D62
  1

  4
Cadwork dimension
  0
TEXT
  5
626
100
AcDbEntity
  8
Ech.1_5
 62
   190
370
    18
100
AcDbText
 10
56027.77810954
 20
-10974.74687062
 30
0.0
 40
12.5
  1
25mm max
  7
ARIAL
 50
89.9999975
 41
1.0
 51
0.0
100
AcDbText
  0
LINE
  5
627
100
AcDbEntity
  8
Ech.1_5
 62
   190
370
    -2
100
AcDbLine
 10
56027.77810954
 20
-10953.90594157
 30
0.0
 11
56046.85032241
 21
-10953.90594157
 31
0.0
  0
LINE
  5
628
100
AcDbEntity
  8
Ech.1_5
 62
   190
370
    -2
100
AcDbLine
 10
56027.77810954
 20
-10938.60575413
 30
0.0
 11
56046.85032241
 21
-10938.60575413
 31
0.0
  0
LINE
  5
629
100
AcDbEntity
  8
Ech.1_5
 62
   190
370
    -2
100
AcDbLine
 10
56032.77810954
 20
-10958.90594157
 30
0.0
 11
56032.77810954
 21
-10933.60575413
 31
0.0
  0
LINE
  5
62A
100
AcDbEntity
  8
Ech.1_5
 62
   190
370
    -2
100
AcDbLine
 10
56035.27810954
 20
-10956.40594157
 30
0.0
 11
56030.27810954
 21
-10951.40594157
 31
0.0
  0
LINE
  5
62B
100
AcDbEntity
  8
Ech.1_5
 62
   190
370
    -2
100
AcDbLine
 10
56035.27810954
 20
-10941.10575413
 30
0.0
 11
56030.27810954
 21
-10936.10575413
 31
0.0
  0
ENDBLK
  5
62C
100
AcDbEntity
100
AcDbBlockEnd
  0
ENDSEC
  0
SECTION
  2
ENTITIES
  0
INSERT
  5
62D
100
AcDbEntity
  8
Ech.1_5
 62
     0
100
AcDbBlockReference
  2
*X1
 10
0.0
 20
0.0
 30
0.0
  0
INSERT
  5
62E
100
AcDbEntity
  8
Ech.1_5
 62
     0
100
AcDbBlockReference
  2
*X2
 10
0.0
 20
0.0
 30
0.0
  0
INSERT
  5
62F
100
AcDbEntity
  8
Ech.1_5
 62
     0
100
AcDbBlockReference
  2
*X3
 10
0.0
 20
0.0
 30
0.0
  0
INSERT
  5
630
100
AcDbEntity
  8
Ech.1_5
 62
     0
100
AcDbBlockReference
  2
*X4
 10
0.0
 20
0.0
 30
0.0
  0
INSERT
  5
631
100
AcDbEntity
  8
Ech.1_5
 62
     0
100
AcDbBlockReference
  2
*X5
 10
0.0
 20
0.0
 30
0.0
  0
INSERT
  5
632
100
AcDbEntity
  8
Ech.1_5
 62
     0
100
AcDbBlockReference
  2
*X6
 10
0.0
 20
0.0
 30
0.0
  0
LWPOLYLINE
  5
633
100
AcDbEntity
  8
Ech.1_5
 62
   190
  6
CONTINUOUS
370
    -3
100
AcDbPolyline
 90
        5
 70
     0
 43
0.0
 10
56399.91697347
 20
-10403.63631346
 10
55414.91697347
 20
-10403.63631346
 10
55414.91697347
 20
-11758.63631346
 10
56399.91697347
 20
-11758.63631346
 10
56399.91697347
 20
-10403.63631346
  0
LINE
  5
634
100
AcDbEntity
  8
Ech.1_5
 62
   177
  6
DASHEDX2
 48
0.89999998
370
    70
100
AcDbLine
 10
55907.16057531
 20
-10982.61019433
 30
0.0
 11
55729.45736935
 21
-10982.60575413
 31
0.0
  0
LWPOLYLINE
  5
635
100
AcDbEntity
  8
Ech.1_5
 62
   177
  6
CONTINUOUS
370
    70
100
AcDbPolyline
 90
        6
 70
     0
 43
0.0
 10
55907.16071219
 20
-11202.60575419
 10
55898.25897579
 20
-11202.60575419
 10
55729.45619517
 20
-11202.60575419
 10
55729.45619517
 20
-11192.60839162
 10
55729.45619517
 20
-11192.60865628
 10
55729.45954513
 20
-10982.60757909
  0
LWPOLYLINE
  5
636
100
AcDbEntity
  8
Ech.1_5
 62
   190
100
AcDbPolyline
 90
        5
 70
     0
 43
0.0
 10
55543.2679239
 20
-11368.63065102
 10
55677.69670289
 20
-11368.63065102
 10
55677.69670289
 20
-11425.35360983
 10
55543.2679239
 20
-11425.35360983
 10
55543.2679239
 20
-11368.63065102
  0
HATCH
  5
637
100
AcDbEntity
  8
Ech.1_5
 62
   190
100
AcDbHatch
 10
0.0
 20
0.0
 30
0.0
210
0.0
220
0.0
230
1.0
  2
SOLID
 70
     1
 71
     0
 91
        1
 92
        7
 72
     0
 73
     1
 93
        4
 10
55561.54796969
 20
-11402.28746215
 10
55611.54796969
 20
-11402.28746215
 10
55611.54796969
 20
-11394.87232462
 10
55561.54796969
 20
-11394.87232462
 97
        0
 75
     0
 76
     2
 47
0.775229
 98
        1
 10
0.0
 20
0.0
  0
LWPOLYLINE
  5
638
100
AcDbEntity
  8
Ech.1_5
 62
   190
100
AcDbPolyline
 90
        5
 70
     0
 43
0.0
 10
55561.54796969
 20
-11402.28746215
 10
55611.54796969
 20
-11402.28746215
 10
55611.54796969
 20
-11394.87232462
 10
55561.54796969
 20
-11394.87232462
 10
55561.54796969
 20
-11402.28746215
  0
LWPOLYLINE
  5
639
100
AcDbEntity
  8
Ech.1_5
 62
   190
100
AcDbPolyline
 90
        5
 70
     0
 43
0.0
 10
55611.54796969
 20
-11402.28746215
 10
55661.54796969
 20
-11402.28746215
 10
55661.54796969
 20
-11394.87232462
 10
55611.54796969
 20
-11394.87232462
 10
55611.54796969
 20
-11402.28746215
  0
LINE
  5
63A
100
AcDbEntity
  8
Ech.1_5
 62
     7
  6
CENTER
370
    18
100
AcDbLine
 10
55907.16057531
 20
-10615.00608391
 30
0.0
 11
55907.16057531
 21
-11243.16729674
 31
0.0
  0
LINE
  5
63B
100
AcDbEntity
  8
Ech.1_5
 62
     7
  6
CENTER
370
    18
100
AcDbLine
 10
55909.14789462
 20
-10615.00608391
 30
0.0
 11
55909.14789462
 21
-11243.16729674
 31
0.0
  0
LWPOLYLINE
  5
63C
102
{ACAD_REACTORS
330
63D
102
}
100
AcDbEntity
  8
Ech.1_5
 62
     7
  6
CONTINUOUS
370
     5
100
AcDbPolyline
 90
        4
 70
     1
 43
0.0
 10
55729.45649977
 20
-11135.816763
 10
55720.02383971
 20
-11135.816763
 10
55720.02383971
 20
-11142.60575419
 10
55729.45649977
 20
-11142.60575419
  0
HATCH
  5
63D
100
AcDbEntity
  8
Ech.1_5
 62
     2
  6
CONTINUOUS
100
AcDbHatch
 10
0.0
 20
0.0
 30
0.0
210
0.0
220
0.0
230
1.0
  2
SOLID
 70
     1
 71
     1
 91
        1
 92
        7
 72
     0
 73
     1
 93
        4
 10
55729.45649977
 20
-11135.816763
 10
55720.02383971
 20
-11135.816763
 10
55720.02383971
 20
-11142.60575419
 10
55729.45649977
 20
-11142.60575419
 97
        1
330
63C
 75
     0
 76
     2
 47
0.775229
 98
        1
 10
0.0
 20
0.0
  0
HATCH
  5
63E
100
AcDbEntity
  8
Ech.1_5
 62
     7
  6
CONTINUOUS
100
AcDbHatch
 10
0.0
 20
0.0
 30
0.0
210
0.0
220
0.0
230
1.0
  2
ANSI31
 70
     0
 71
     1
 91
        1
 92
        7
 72
     0
 73
     1
 93
        4
 10
55729.45649977
 20
-11135.816763
 10
55720.02383971
 20
-11135.816763
 10
55720.02383971
 20
-11142.60575419
 10
55729.45649977
 20
-11142.60575419
 97
        1
330
63D
 75
     0
 76
     2
 52
0.0
 41
0.94488785
 77
     0
 78
     1
 53
45.0
 43
0.0
 44
0.0
 45
2.12132043
 46
-2.12132043
 79
     0
 47
0.775229
 98
        1
 10
0.0
 20
0.0
  0
LWPOLYLINE
  5
63F
102
{ACAD_REACTORS
330
640
102
}
100
AcDbEntity
  8
Ech.1_5
 62
     7
  6
CONTINUOUS
370
     5
100
AcDbPolyline
 90
        4
 70
     1
 43
0.0
 10
55720.02383971
 20
-11135.816763
 10
55729.45649977
 20
-11135.816763
 10
55729.45649977
 20
-11122.43924253
 10
55720.02383971
 20
-11122.43924253
  0
HATCH
  5
640
100
AcDbEntity
  8
Ech.1_5
 62
     2
  6
CONTINUOUS
100
AcDbHatch
 10
0.0
 20
0.0
 30
0.0
210
0.0
220
0.0
230
1.0
  2
SOLID
 70
     1
 71
     1
 91
        1
 92
        7
 72
     0
 73
     1
 93
        4
 10
55720.02383971
 20
-11135.816763
 10
55729.45649977
 20
-11135.816763
 10
55729.45649977
 20
-11122.43924253
 10
55720.02383971
 20
-11122.43924253
 97
        1
330
63F
 75
     0
 76
     2
 47
0.775229
 98
        1
 10
0.0
 20
0.0
  0
LWPOLYLINE
  5
641
100
AcDbEntity
  8
Ech.1_5
 62
   190
  6
CONTINUOUS
370
    -3
100
AcDbPolyline
 90
        4
 70
     1
 43
0.0
 10
55729.45709529
 20
-11122.43924253
 10
55729.45621171
 20
-11054.12636481
 10
55720.02355165
 20
-11054.12636481
 10
55720.02443523
 20
-11122.43924253
  0
LWPOLYLINE
  5
642
100
AcDbEntity
  8
Ech.1_5
 62
   190
  6
CONTINUOUS
370
    -3
100
AcDbPolyline
 90
        4
 70
     0
 43
0.0
 10
55720.02355165
 20
-11054.12636481
 10
55729.45709529
 20
-11122.43924253
 10
55720.02443523
 20
-11122.43924253
 10
55729.45621171
 20
-11054.12636481
  0
LWPOLYLINE
  5
643
102
{ACAD_REACTORS
330
644
102
}
100
AcDbEntity
  8
Ech.1_5
 62
     2
  6
CONTINUOUS
370
     5
100
AcDbPolyline
 90
        4
 70
     1
 43
0.0
 10
56098.02007634
 20
-11397.22168734
 10
56111.39759682
 20
-11397.22168734
 10
56111.39759682
 20
-11387.78902728
 10
56098.02007634
 20
-11387.78902728
  0
HATCH
  5
644
100
AcDbEntity
  8
Ech.1_5
 62
     2
  6
CONTINUOUS
100
AcDbHatch
 10
0.0
 20
0.0
 30
0.0
210
0.0
220
0.0
230
1.0
  2
SOLID
 70
     1
 71
     1
 91
        1
 92
        7
 72
     0
 73
     1
 93
        4
 10
56098.02007634
 20
-11397.22168734
 10
56111.39759682
 20
-11397.22168734
 10
56111.39759682
 20
-11387.78902728
 10
56098.02007634
 20
-11387.78902728
 97
        1
330
643
 75
     0
 76
     2
 47
0.775229
 98
        1
 10
0.0
 20
0.0
  0
LWPOLYLINE
  5
645
100
AcDbEntity
  8
Ech.1_5
 62
     3
370
    70
100
AcDbPolyline
 90
        4
 70
     0
 43
0.0
 10
56119.22339979
 20
-11466.11411148
 10
56106.23426637
 20
-11466.11411148
 10
56102.29953423
 20
-11460.43349852
 10
56088.82110422
 20
-11460.43349852
  0
LWPOLYLINE
  5
646
102
{ACAD_REACTORS
330
647
102
}
100
AcDbEntity
  8
Ech.1_5
 62
     7
  6
CONTINUOUS
370
     5
100
AcDbPolyline
 90
        4
 70
     1
 43
0.0
 10
56109.0013961
 20
-11406.7642741
 10
56102.21240491
 20
-11406.7642741
 10
56102.21240491
 20
-11416.19693416
 10
56109.0013961
 20
-11416.19693416
  0
HATCH
  5
647
100
AcDbEntity
  8
Ech.1_5
 62
     2
  6
CONTINUOUS
100
AcDbHatch
 10
0.0
 20
0.0
 30
0.0
210
0.0
220
0.0
230
1.0
  2
SOLID
 70
     1
 71
     1
 91
        1
 92
        7
 72
     0
 73
     1
 93
        4
 10
56109.0013961
 20
-11406.7642741
 10
56102.21240491
 20
-11406.7642741
 10
56102.21240491
 20
-11416.19693416
 10
56109.0013961
 20
-11416.19693416
 97
        1
330
646
 75
     0
 76
     2
 47
0.775229
 98
        1
 10
0.0
 20
0.0
  0
HATCH
  5
648
100
AcDbEntity
  8
Ech.1_5
 62
     7
  6
CONTINUOUS
100
AcDbHatch
 10
0.0
 20
0.0
 30
0.0
210
0.0
220
0.0
230
1.0
  2
ANSI31
 70
     0
 71
     1
 91
        1
 92
        7
 72
     0
 73
     1
 93
        4
 10
56109.0013961
 20
-11406.7642741
 10
56102.21240491
 20
-11406.7642741
 10
56102.21240491
 20
-11416.19693416
 10
56109.0013961
 20
-11416.19693416
 97
        1
330
647
 75
     0
 76
     2
 52
0.0
 41
0.94488785
 77
     0
 78
     1
 53
45.0
 43
0.0
 44
0.0
 45
2.12132043
 46
-2.12132043
 79
     0
 47
0.775229
 98
        1
 10
0.0
 20
0.0
  0
LWPOLYLINE
  5
649
100
AcDbEntity
  8
Ech.1_5
 62
   190
  6
CONTINUOUS
370
    -3
100
AcDbPolyline
 90
        4
 70
     1
 43
0.0
 10
56084.64928997
 20
-11445.1865588
 10
56124.72109563
 20
-11445.18611701
 10
56124.72109563
 20
-11435.75345695
 10
56084.64928997
 20
-11435.75389874
  0
LWPOLYLINE
  5
64A
100
AcDbEntity
  8
Ech.1_5
 62
   190
  6
CONTINUOUS
370
    -3
100
AcDbPolyline
 90
        4
 70
     0
 43
0.0
 10
56124.72109563
 20
-11435.75345695
 10
56084.64928997
 20
-11445.1865588
 10
56084.64928997
 20
-11435.75389874
 10
56124.72109563
 20
-11445.18611701
  0
LWPOLYLINE
  5
64B
100
AcDbEntity
  8
Ech.1_5
 62
     7
  6
CONTINUOUS
370
    -3
100
AcDbPolyline
 90
        5
 70
     0
 43
0.0
 10
56098.02007634
 20
-11387.78902728
 10
56111.39759682
 20
-11387.78902728
 10
56111.39759682
 20
-11397.22168734
 10
56098.02007634
 20
-11397.22168734
 10
56098.02007634
 20
-11387.78902728
  0
LWPOLYLINE
  5
64C
100
AcDbEntity
  8
Ech.1_5
 62
   190
  6
CONTINUOUS
370
    -3
100
AcDbPolyline
 90
        8
 70
     1
 43
0.0
 10
55452.54235152
 20
-11071.4300749
 10
55416.58665151
 20
-11057.32013488
 10
55434.56399991
 20
-11073.80563804
 10
55434.56425434
 20
-11133.60575413
 10
55629.73112272
 20
-11133.60575413
 10
55629.73112272
 20
-10953.60575413
 10
55434.56398876
 20
-10953.60575413
 10
55434.56399991
 20
-11054.94372082
  0
LWPOLYLINE
  5
64D
100
AcDbEntity
  8
Ech.1_5
 62
     7
  6
CONTINUOUS
370
    -3
100
AcDbPolyline
 90
        4
 70
     1
 43
0.0
 10
55674.73054173
 20
-11133.60575413
 10
55674.73054173
 20
-10953.60575413
 10
55629.73054173
 20
-10953.60575413
 10
55629.73054173
 20
-11133.60575413
  0
LWPOLYLINE
  5
64E
100
AcDbEntity
  8
Ech.1_5
 62
     7
  6
CONTINUOUS
370
    -3
100
AcDbPolyline
 90
        4
 70
     1
 43
0.0
 10
55719.73054173
 20
-11133.60575413
 10
55719.73054173
 20
-10953.60575413
 10
55674.73054173
 20
-10953.60575413
 10
55674.73054173
 20
-11133.60575413
  0
LWPOLYLINE
  5
64F
100
AcDbEntity
  8
Ech.1_5
 62
     7
  6
CONTINUOUS
100
AcDbPolyline
 90
        4
 70
     0
 43
0.0
 10
55434.56363992
 20
-11133.60575413
 10
55629.73054173
 20
-11133.60575413
 10
55629.73054173
 20
-10953.60575413
 10
55434.56398876
 20
-10953.60575413
  0
LWPOLYLINE
  5
650
100
AcDbEntity
  8
Ech.1_5
 62
   190
  6
CONTINUOUS
370
    -3
100
AcDbPolyline
 90
        4
 70
     1
 43
0.0
 10
55674.73054173
 20
-10953.60575413
 10
55629.73054173
 20
-10953.60575413
 10
55629.73054173
 20
-11133.60575413
 10
55674.73054173
 20
-11133.60575413
  0
LWPOLYLINE
  5
651
100
AcDbEntity
  8
Ech.1_5
 62
   190
  6
CONTINUOUS
370
    -3
100
AcDbPolyline
 90
       12
 70
     0
 43
0.0
 10
55434.56398876
 20
-10983.60575413
 42
-1.14028181
 10
55493.54175887
 20
-10991.37034297
 10
55465.58621866
 20
-11095.84116529
 42
1.30322619
 10
55523.54175887
 20
-11095.84116529
 10
55495.58621866
 20
-10991.37034297
 42
-1.30322619
 10
55553.54175887
 20
-10991.37034297
 10
55525.58621866
 20
-11095.84116529
 42
1.30322619
 10
55583.54175887
 20
-11095.84116529
 10
55555.58621866
 20
-10991.37034297
 42
-1.30322619
 10
55613.54175887
 20
-10991.37034297
 10
55585.58621866
 20
-11095.84116529
 42
0.67050386
 10
55629.73054173
 20
-11129.48964238
  0
LWPOLYLINE
  5
652
100
AcDbEntity
  8
Ech.1_5
 62
   190
  6
CONTINUOUS
370
    -3
100
AcDbPolyline
 90
        4
 70
     1
 43
0.0
 10
55719.73054173
 20
-10953.60575413
 10
55674.73054173
 20
-10953.60575413
 10
55674.73054173
 20
-11133.60575413
 10
55719.73054173
 20
-11133.60575413
  0
LWPOLYLINE
  5
653
100
AcDbEntity
  8
Ech.1_5
 62
     5
  6
CONTINUOUS
370
    -3
100
AcDbPolyline
 90
        5
 70
     0
 43
0.0
 10
55674.73054173
 20
-11133.60575413
 10
55674.73054173
 20
-10953.60575413
 10
55629.73054173
 20
-10953.60575413
 10
55629.73054173
 20
-11133.60575413
 10
55674.73054173
 20
-11133.60575413
  0
LWPOLYLINE
  5
654
100
AcDbEntity
  8
Ech.1_5
 62
     5
  6
CONTINUOUS
370
    -3
100
AcDbPolyline
 90
        5
 70
     0
 43
0.0
 10
55719.73054173
 20
-11133.60575413
 10
55719.73054173
 20
-10953.60575413
 10
55674.73054173
 20
-10953.60575413
 10
55674.73054173
 20
-11133.60575413
 10
55719.73054173
 20
-11133.60575413
  0
LWPOLYLINE
  5
655
100
AcDbEntity
  8
Ech.1_5
 62
   190
  6
CONTINUOUS
370
    -3
100
AcDbPolyline
 90
        4
 70
     1
 43
0.0
 10
55719.73095465
 20
-11167.60575419
 10
55719.73095465
 20
-11142.60575419
 10
55669.73095465
 20
-11142.60575419
 10
55669.73095465
 20
-11167.60575419
  0
LWPOLYLINE
  5
656
100
AcDbEntity
  8
Ech.1_5
 62
   190
  6
CONTINUOUS
370
    -3
100
AcDbPolyline
 90
        4
 70
     1
 43
0.0
 10
55719.73095465
 20
-11142.60575419
 10
55669.73095465
 20
-11142.60575419
 10
55669.73095465
 20
-11167.60575419
 10
55719.73095465
 20
-11167.60575419
  0
LWPOLYLINE
  5
657
100
AcDbEntity
  8
Ech.1_5
 62
     7
  6
CONTINUOUS
370
    -3
100
AcDbPolyline
 90
        4
 70
     1
 43
0.0
 10
55434.56398642
 20
-11187.60575419
 10
55719.73095465
 20
-11187.60575419
 10
55719.73095465
 20
-11167.60575419
 10
55434.56398642
 20
-11167.60575419
  0
LWPOLYLINE
  5
658
100
AcDbEntity
  8
Ech.1_5
 62
     5
  6
CONTINUOUS
370
    -3
100
AcDbPolyline
 90
        5
 70
     0
 43
0.0
 10
55719.73095465
 20
-11142.60575419
 10
55669.73095465
 20
-11142.60575419
 10
55669.73095465
 20
-11167.60575419
 10
55719.73095465
 20
-11167.60575419
 10
55719.73095465
 20
-11142.60575419
  0
LWPOLYLINE
  5
659
100
AcDbEntity
  8
Ech.1_5
 62
   150
  6
CADWORK_22
370
    35
100
AcDbPolyline
 90
        3
 70
     0
 43
0.0
 38
2500.0
 10
55434.56399024
 20
-11144.10575419
 10
55719.73095465
 20
-11144.10575419
 10
55719.73095465
 20
-11050.05558827
  0
LINE
  5
65A
100
AcDbEntity
  8
Ech.1_5
 62
   177
  6
DASHEDX2
 48
0.89999998
370
    70
100
AcDbLine
 10
55909.14803149
 20
-10982.61019433
 30
0.0
 11
56086.85110059
 21
-10982.60575413
 31
0.0
  0
LWPOLYLINE
  5
65B
100
AcDbEntity
  8
Ech.1_5
 62
   177
  6
CONTINUOUS
370
    70
100
AcDbPolyline
 90
        6
 70
     0
 43
0.0
 10
55909.14789462
 20
-11202.60575419
 10
55918.04963101
 20
-11202.60575419
 10
56086.85227476
 20
-11202.60575419
 10
56086.85227476
 20
-11192.60839162
 10
56086.85227476
 20
-11192.60865628
 10
56086.8489248
 20
-10982.60757909
  0
LWPOLYLINE
  5
65C
102
{ACAD_REACTORS
330
65D
102
}
100
AcDbEntity
  8
Ech.1_5
 62
     7
  6
CONTINUOUS
370
     5
100
AcDbPolyline
 90
        4
 70
     1
 43
0.0
 10
56086.85197016
 20
-11135.816763
 10
56096.28463022
 20
-11135.816763
 10
56096.28463022
 20
-11142.60575419
 10
56086.85197016
 20
-11142.60575419
  0
HATCH
  5
65D
100
AcDbEntity
  8
Ech.1_5
 62
     2
  6
CONTINUOUS
100
AcDbHatch
 10
0.0
 20
0.0
 30
0.0
210
0.0
220
0.0
230
1.0
  2
SOLID
 70
     1
 71
     1
 91
        1
 92
        7
 72
     0
 73
     1
 93
        4
 10
56086.85197016
 20
-11135.816763
 10
56096.28463022
 20
-11135.816763
 10
56096.28463022
 20
-11142.60575419
 10
56086.85197016
 20
-11142.60575419
 97
        1
330
65C
 75
     0
 76
     2
 47
0.775229
 98
        1
 10
0.0
 20
0.0
  0
HATCH
  5
65E
100
AcDbEntity
  8
Ech.1_5
 62
     7
  6
CONTINUOUS
100
AcDbHatch
 10
0.0
 20
0.0
 30
0.0
210
0.0
220
0.0
230
1.0
  2
ANSI31
 70
     0
 71
     1
 91
        1
 92
        7
 72
     0
 73
     1
 93
        4
 10
56086.85197016
 20
-11135.816763
 10
56096.28463022
 20
-11135.816763
 10
56096.28463022
 20
-11142.60575419
 10
56086.85197016
 20
-11142.60575419
 97
        1
330
65D
 75
     0
 76
     2
 52
0.0
 41
0.94488785
 77
     0
 78
     1
 53
45.0
 43
0.0
 44
0.0
 45
2.12132043
 46
-2.12132043
 79
     0
 47
0.775229
 98
        1
 10
0.0
 20
0.0
  0
LWPOLYLINE
  5
65F
102
{ACAD_REACTORS
330
660
102
}
100
AcDbEntity
  8
Ech.1_5
 62
     7
  6
CONTINUOUS
370
     5
100
AcDbPolyline
 90
        4
 70
     1
 43
0.0
 10
56096.28463022
 20
-11135.816763
 10
56086.85197016
 20
-11135.816763
 10
56086.85197016
 20
-11122.43924253
 10
56096.28463022
 20
-11122.43924253
  0
HATCH
  5
660
100
AcDbEntity
  8
Ech.1_5
 62
     2
  6
CONTINUOUS
100
AcDbHatch
 10
0.0
 20
0.0
 30
0.0
210
0.0
220
0.0
230
1.0
  2
SOLID
 70
     1
 71
     1
 91
        1
 92
        7
 72
     0
 73
     1
 93
        4
 10
56096.28463022
 20
-11135.816763
 10
56086.85197016
 20
-11135.816763
 10
56086.85197016
 20
-11122.43924253
 10
56096.28463022
 20
-11122.43924253
 97
        1
330
65F
 75
     0
 76
     2
 47
0.775229
 98
        1
 10
0.0
 20
0.0
  0
LWPOLYLINE
  5
661
100
AcDbEntity
  8
Ech.1_5
 62
   190
  6
CONTINUOUS
370
    -3
100
AcDbPolyline
 90
        4
 70
     1
 43
0.0
 10
56086.85137465
 20
-11122.43924253
 10
56086.85225822
 20
-11054.12636481
 10
56096.28491828
 20
-11054.12636481
 10
56096.28403471
 20
-11122.43924253
  0
LWPOLYLINE
  5
662
100
AcDbEntity
  8
Ech.1_5
 62
   190
  6
CONTINUOUS
370
    -3
100
AcDbPolyline
 90
        4
 70
     0
 43
0.0
 10
56096.28491828
 20
-11054.12636481
 10
56086.85137465
 20
-11122.43924253
 10
56096.28403471
 20
-11122.43924253
 10
56086.85225822
 20
-11054.12636481
  0
LWPOLYLINE
  5
663
100
AcDbEntity
  8
Ech.1_5
 62
   190
  6
CONTINUOUS
370
    -3
100
AcDbPolyline
 90
        4
 70
     1
 43
0.0
 10
56086.85137465
 20
-11016.11844383
 10
56086.85225822
 20
-10953.60575413
 10
56096.28491828
 20
-10953.60575413
 10
56096.28403471
 20
-11016.11844383
  0
LWPOLYLINE
  5
664
100
AcDbEntity
  8
Ech.1_5
 62
   190
  6
CONTINUOUS
370
    -3
100
AcDbPolyline
 90
        4
 70
     0
 43
0.0
 10
56096.28491828
 20
-10953.60575413
 10
56086.85137465
 20
-11016.11844383
 10
56096.28403471
 20
-11016.11844383
 10
56086.85225822
 20
-10953.60575413
  0
LWPOLYLINE
  5
665
100
AcDbEntity
  8
Ech.1_5
 62
     7
  6
CONTINUOUS
370
    -3
100
AcDbPolyline
 90
       12
 70
     1
 43
0.0
 10
56086.85197016
 20
-10953.90594157
 10
56086.85197016
 20
-11138.43924247
 10
56086.85197016
 20
-11181.60733754
 10
56086.85227476
 20
-11197.60575419
 10
56077.35129859
 20
-11197.60575419
 10
56077.35129859
 20
-11197.60575419
 10
56071.35129859
 20
-11197.60575419
 10
56071.35129859
 20
-11197.60575419
 10
56061.85032241
 20
-11197.60575419
 10
56061.85032241
 20
-10953.90594157
 10
56081.85197016
 20
-10953.90594157
 10
56081.85197016
 20
-10953.90594157
  0
LWPOLYLINE
  5
666
100
AcDbEntity
  8
Ech.1_5
 62
     5
  6
CONTINUOUS
370
    -3
100
AcDbPolyline
 90
       11
 70
     0
 43
0.0
 10
56086.85197016
 20
-10953.90594157
 10
56086.85227476
 20
-11197.60575419
 10
56077.35129859
 20
-11197.60575419
 10
56077.35129859
 20
-11197.60575419
 10
56071.35129859
 20
-11197.60575419
 10
56071.35129859
 20
-11197.60575419
 10
56061.85032241
 20
-11197.60575419
 10
56061.85032241
 20
-10953.90594157
 10
56081.85197016
 20
-10953.90594157
 10
56081.85197016
 20
-10953.90594157
 10
56086.85197016
 20
-10953.90594157
  0
LWPOLYLINE
  5
667
100
AcDbEntity
  8
Ech.1_5
 62
   190
  6
CONTINUOUS
370
    -3
100
AcDbPolyline
 90
        8
 70
     1
 43
0.0
 10
56363.76611841
 20
-11071.4300749
 10
56399.72181843
 20
-11057.32013488
 10
56381.74447002
 20
-11073.80563804
 10
56381.74421559
 20
-11133.60575413
 10
56186.57734721
 20
-11133.60575413
 10
56186.57734721
 20
-10953.60575413
 10
56381.74448117
 20
-10953.60575413
 10
56381.74447002
 20
-11054.94372082
  0
LWPOLYLINE
  5
668
100
AcDbEntity
  8
Ech.1_5
 62
     7
  6
CONTINUOUS
370
    -3
100
AcDbPolyline
 90
        4
 70
     1
 43
0.0
 10
56141.5779282
 20
-11133.60575413
 10
56141.5779282
 20
-10953.60575413
 10
56186.5779282
 20
-10953.60575413
 10
56186.5779282
 20
-11133.60575413
  0
LWPOLYLINE
  5
669
100
AcDbEntity
  8
Ech.1_5
 62
     7
  6
CONTINUOUS
370
    -3
100
AcDbPolyline
 90
        4
 70
     1
 43
0.0
 10
56096.5779282
 20
-11133.60575413
 10
56096.5779282
 20
-10953.60575413
 10
56141.5779282
 20
-10953.60575413
 10
56141.5779282
 20
-11133.60575413
  0
LWPOLYLINE
  5
66A
100
AcDbEntity
  8
Ech.1_5
 62
     7
  6
CONTINUOUS
100
AcDbPolyline
 90
        4
 70
     0
 43
0.0
 10
56381.74483001
 20
-11133.60575413
 10
56186.5779282
 20
-11133.60575413
 10
56186.5779282
 20
-10953.60575413
 10
56381.74448117
 20
-10953.60575413
  0
LWPOLYLINE
  5
66B
100
AcDbEntity
  8
Ech.1_5
 62
   190
  6
CONTINUOUS
370
    -3
100
AcDbPolyline
 90
        4
 70
     1
 43
0.0
 10
56141.5779282
 20
-10953.60575413
 10
56186.5779282
 20
-10953.60575413
 10
56186.5779282
 20
-11133.60575413
 10
56141.5779282
 20
-11133.60575413
  0
LWPOLYLINE
  5
66C
100
AcDbEntity
  8
Ech.1_5
 62
   190
  6
CONTINUOUS
370
    -3
100
AcDbPolyline
 90
       12
 70
     0
 43
0.0
 10
56381.74448117
 20
-10983.60575413
 42
1.14028181
 10
56322.76671106
 20
-10991.37034297
 10
56350.72225127
 20
-11095.84116529
 42
-1.30322619
 10
56292.76671106
 20
-11095.84116529
 10
56320.72225127
 20
-10991.37034297
 42
1.30322619
 10
56262.76671106
 20
-10991.37034297
 10
56290.72225127
 20
-11095.84116529
 42
-1.30322619
 10
56232.76671106
 20
-11095.84116529
 10
56260.72225127
 20
-10991.37034297
 42
1.30322619
 10
56202.76671106
 20
-10991.37034297
 10
56230.72225127
 20
-11095.84116529
 42
-0.67050386
 10
56186.5779282
 20
-11129.48964238
  0
LWPOLYLINE
  5
66D
100
AcDbEntity
  8
Ech.1_5
 62
   190
  6
CONTINUOUS
370
    -3
100
AcDbPolyline
 90
        4
 70
     1
 43
0.0
 10
56096.5779282
 20
-10953.60575413
 10
56141.5779282
 20
-10953.60575413
 10
56141.5779282
 20
-11133.60575413
 10
56096.5779282
 20
-11133.60575413
  0
LWPOLYLINE
  5
66E
100
AcDbEntity
  8
Ech.1_5
 62
     5
  6
CONTINUOUS
370
    -3
100
AcDbPolyline
 90
        5
 70
     0
 43
0.0
 10
56141.5779282
 20
-11133.60575413
 10
56141.5779282
 20
-10953.60575413
 10
56186.5779282
 20
-10953.60575413
 10
56186.5779282
 20
-11133.60575413
 10
56141.5779282
 20
-11133.60575413
  0
LWPOLYLINE
  5
66F
100
AcDbEntity
  8
Ech.1_5
 62
     5
  6
CONTINUOUS
370
    -3
100
AcDbPolyline
 90
        5
 70
     0
 43
0.0
 10
56096.5779282
 20
-11133.60575413
 10
56096.5779282
 20
-10953.60575413
 10
56141.5779282
 20
-10953.60575413
 10
56141.5779282
 20
-11133.60575413
 10
56096.5779282
 20
-11133.60575413
  0
LWPOLYLINE
  5
670
100
AcDbEntity
  8
Ech.1_5
 62
   190
  6
CONTINUOUS
370
    -3
100
AcDbPolyline
 90
        4
 70
     1
 43
0.0
 10
56096.57751528
 20
-11167.60575419
 10
56096.57751528
 20
-11142.60575419
 10
56146.57751528
 20
-11142.60575419
 10
56146.57751528
 20
-11167.60575419
  0
LWPOLYLINE
  5
671
100
AcDbEntity
  8
Ech.1_5
 62
   190
  6
CONTINUOUS
370
    -3
100
AcDbPolyline
 90
        4
 70
     1
 43
0.0
 10
56096.57751528
 20
-11142.60575419
 10
56146.57751528
 20
-11142.60575419
 10
56146.57751528
 20
-11167.60575419
 10
56096.57751528
 20
-11167.60575419
  0
LWPOLYLINE
  5
672
100
AcDbEntity
  8
Ech.1_5
 62
     7
  6
CONTINUOUS
370
    -3
100
AcDbPolyline
 90
        4
 70
     1
 43
0.0
 10
56381.74448351
 20
-11187.60575419
 10
56096.57751528
 20
-11187.60575419
 10
56096.57751528
 20
-11167.60575419
 10
56381.74448351
 20
-11167.60575419
  0
LWPOLYLINE
  5
673
100
AcDbEntity
  8
Ech.1_5
 62
     5
  6
CONTINUOUS
370
    -3
100
AcDbPolyline
 90
        5
 70
     0
 43
0.0
 10
56096.57751528
 20
-11142.60575419
 10
56146.57751528
 20
-11142.60575419
 10
56146.57751528
 20
-11167.60575419
 10
56096.57751528
 20
-11167.60575419
 10
56096.57751528
 20
-11142.60575419
  0
LWPOLYLINE
  5
674
100
AcDbEntity
  8
Ech.1_5
 62
   150
  6
CADWORK_22
370
    35
100
AcDbPolyline
 90
        3
 70
     0
 43
0.0
 38
2500.0
 10
56381.74447969
 20
-11144.10575419
 10
56096.57751528
 20
-11144.10575419
 10
56096.57751528
 20
-11050.05558827
  0
LWPOLYLINE
  5
675
102
{ACAD_REACTORS
330
676
102
}
100
AcDbEntity
  8
Ech.1_5
 62
     9
  6
CONTINUOUS
370
    -3
100
AcDbPolyline
 90
        4
 70
     1
 43
0.0
 10
56116.57807242
 20
-10733.60575413
 10
56116.57807242
 20
-10933.60575413
 10
56381.74448917
 20
-10933.6086557
 10
56381.74448917
 20
-10733.60575413
  0
HATCH
  5
676
100
AcDbEntity
  8
Ech.1_5
 62
     9
  6
CONTINUOUS
100
AcDbHatch
 10
0.0
 20
0.0
 30
0.0
210
0.0
220
0.0
230
1.0
  2
AR-CONC
 70
     0
 71
     1
 91
        1
 92
        7
 72
     0
 73
     1
 93
        4
 10
56116.57807242
 20
-10733.60575413
 10
56116.57807242
 20
-10933.60575413
 10
56381.74448917
 20
-10933.6086557
 10
56381.74448917
 20
-10733.60575413
 97
        1
330
675
 75
     0
 76
     2
 52
0.0
 41
0.11811097
 77
     0
 78
    13
 53
50.0
 43
0.0
 44
0.0
 45
-18.84283637
 46
1.64853443
 79
     2
 49
1.97029307
 49
-21.67322338
 53
355.0
 43
0.0
 44
0.0
 45
-3.64507756
 46
19.76051824
 79
     2
 49
1.57623377
 49
-17.3385787
 53
100.45140076
 43
1.57023568
 44
-0.13737749
 45
-15.19777228
 46
-18.11197244
 79
     2
 49
1.67449124
 49
-18.41940522
 53
46.18420029
 43
0.0
 44
5.25411576
 45
-28.03703353
 46
4.34827878
 79
     2
 49
2.95543872
 49
-32.50983238
 53
96.63559723
 43
2.33641885
 44
4.89175692
 45
-24.55412615
 46
-25.59063404
 79
     2
 49
2.51173697
 49
-27.62910426
 53
351.1842041
 43
0.0
 44
5.25411576
 45
24.55410288
 46
25.59065715
 79
     2
 49
2.36435249
 49
-26.00786805
 53
21.0
 43
2.62705699
 44
3.94058615
 45
-15.68109068
 46
10.57702905
 79
     2
 49
1.97029307
 49
-21.67322338
 53
326.0
 43
2.62705699
 44
3.94058615
 45
6.39203268
 46
19.05010734
 79
     2
 49
1.57623377
 49
-17.3385787
 53
71.45140076
 43
3.93381357
 44
3.05916555
 45
-22.07312962
 46
-8.47306182
 79
     2
 49
1.67449124
 49
-18.41940522
 53
37.5
 43
0.0
 44
0.0
 45
0.31944534
 46
8.74531245
 79
     6
 49
0.01875
 49
-17.12841332
 49
0.01875
 49
-17.60128498
 49
0.01875
 49
-17.40425348
 53
7.5
 43
0.0
 44
0.0
 45
6.91098818
 46
10.3614222
 79
     6
 49
0.01875
 49
-10.03535807
 49
0.01875
 49
-16.7343539
 49
0.01875
 49
-6.6333206
 53
-32.5
 43
-5.85833833
 44
0.0
 45
14.02382061
 46
-0.59253003
 79
     6
 49
0.01875
 49
-6.56764314
 49
0.01875
 49
-20.49104869
 49
0.01875
 49
-27.19004452
 53
-42.5
 43
-8.48539531
 44
0.0
 45
15.32063571
 46
2.62981542
 79
     6
 49
0.01875
 49
-8.53793621
 49
0.01875
 49
-13.60815793
 49
0.01875
 49
-19.30887222
 47
0.775229
 98
        1
 10
0.0
 20
0.0
  0
LWPOLYLINE
  5
677
100
AcDbEntity
  8
Ech.1_5
 62
   254
  6
CONTINUOUS
370
    -3
100
AcDbPolyline
 90
        4
 70
     1
 43
0.0
 10
56116.57733744
 20
-10663.60575413
 10
56116.57733744
 20
-10713.60575413
 10
56381.74448917
 20
-10713.60575413
 10
56381.74448917
 20
-10663.60575413
  0
LWPOLYLINE
  5
678
102
{ACAD_REACTORS
330
679
102
}
100
AcDbEntity
  8
Ech.1_5
 62
     9
  6
CONTINUOUS
370
    -3
100
AcDbPolyline
 90
        4
 70
     1
 43
0.0
 10
56116.57733744
 20
-10650.60575413
 10
56116.57733744
 20
-10663.60575413
 10
56381.74448917
 20
-10663.60575413
 10
56381.74448917
 20
-10650.60575413
  0
HATCH
  5
679
100
AcDbEntity
  8
Ech.1_5
 62
     9
  6
CONTINUOUS
100
AcDbHatch
 10
0.0
 20
0.0
 30
0.0
210
0.0
220
0.0
230
1.0
  2
DOTS2
 70
     0
 71
     1
 91
        1
 92
        7
 72
     0
 73
     1
 93
        4
 10
56116.57733744
 20
-10650.60575413
 10
56116.57733744
 20
-10663.60575413
 10
56381.74448917
 20
-10663.60575413
 10
56381.74448917
 20
-10650.60575413
 97
        1
330
678
 75
     0
 76
     2
 52
0.0
 41
4.72440952
 77
     0
 78
     1
 53
0.0
 43
0.0
 44
0.0
 45
3.75
 46
3.535
 79
     2
 49
0.0
 49
-3.535
 47
0.775229
 98
        1
 10
0.0
 20
0.0
  0
3DFACE
  5
67A
102
{ACAD_REACTORS
330
67B
102
}
100
AcDbEntity
  8
Ech.1_5
 62
     9
  6
CONTINUOUS
370
    -3
100
AcDbFace
 70
     0
 10
56116.57807242
 20
-10697.10573047
 30
2500.0
 11
56069.21852511
 21
-10697.10573047
 31
2500.0
 12
56069.21852511
 22
-10933.60575413
 32
2500.0
 13
56116.574952
 23
-10933.60575413
 33
2500.0
  0
HATCH
  5
67B
100
AcDbEntity
  8
Ech.1_5
 62
     9
  6
CONTINUOUS
100
AcDbHatch
 10
0.0
 20
0.0
 30
0.0
210
0.0
220
0.0
230
1.0
  2
ANSI31
 70
     0
 71
     1
 91
        1
 92
        7
 72
     0
 73
     1
 93
        4
 10
56116.57807242
 20
-10697.10573047
 10
56069.21852511
 20
-10697.10573047
 10
56069.21852511
 20
-10933.60575413
 10
56116.574952
 20
-10933.60575413
 97
        1
330
67A
 75
     0
 76
     2
 52
0.0
 41
9.44887814
 77
     0
 78
     1
 53
45.0
 43
0.0
 44
0.0
 45
21.21320344
 46
-21.21320344
 79
     0
 47
0.775229
 98
        1
 10
0.0
 20
0.0
  0
LWPOLYLINE
  5
67C
102
{ACAD_REACTORS
330
67D
102
}
100
AcDbEntity
  8
Ech.1_5
 62
     9
  6
CONTINUOUS
370
    15
100
AcDbPolyline
 90
       27
 70
     1
 43
0.0
 10
56061.72191409
 20
-10918.03920797
 10
56061.57521888
 20
-10904.57099043
 10
56061.45264323
 20
-10894.5173306
 10
56061.32859582
 20
-10884.46370376
 10
56061.21179177
 20
-10874.41008921
 10
56061.11094621
 20
-10864.35646628
 10
56061.03477426
 20
-10854.30281425
 10
56060.99199105
 20
-10844.24911245
 10
56060.99044758
 20
-10834.58501754
 10
56061.03594436
 20
-10824.14148431
 10
56061.10948914
 20
-10814.08755858
 10
56061.19118122
 20
-10804.03358276
 10
56061.26025606
 20
-10793.97957658
 10
56061.29594912
 20
-10783.92555979
 10
56061.2639592
 20
-10771.63821027
 10
56061.18843302
 20
-10763.8175782
 10
56061.04644735
 20
-10753.76370073
 10
56060.88550678
 20
-10743.71000073
 10
56060.73967939
 20
-10733.65655931
 10
56060.6430333
 20
-10723.60345759
 10
56060.62815321
 20
-10713.95101239
 10
56060.72015611
 20
-10703.49852128
 10
56060.81491934
 20
-10697.10573047
 10
56069.21852511
 20
-10697.10573047
 10
56069.21852511
 20
-10933.60575413
 10
56061.85033073
 20
-10933.60575413
 10
56061.78184988
 20
-10924.67848906
  0
HATCH
  5
67D
100
AcDbEntity
  8
Ech.1_5
 62
     9
  6
CONTINUOUS
100
AcDbHatch
 10
0.0
 20
0.0
 30
0.0
210
0.0
220
0.0
230
1.0
  2
SOLID
 70
     1
 71
     1
 91
        1
 92
        7
 72
     0
 73
     1
 93
       27
 10
56061.72191409
 20
-10918.03920797
 10
56061.57521888
 20
-10904.57099043
 10
56061.45264323
 20
-10894.5173306
 10
56061.32859582
 20
-10884.46370376
 10
56061.21179177
 20
-10874.41008921
 10
56061.11094621
 20
-10864.35646628
 10
56061.03477426
 20
-10854.30281425
 10
56060.99199105
 20
-10844.24911245
 10
56060.99044758
 20
-10834.58501754
 10
56061.03594436
 20
-10824.14148431
 10
56061.10948914
 20
-10814.08755858
 10
56061.19118122
 20
-10804.03358276
 10
56061.26025606
 20
-10793.97957658
 10
56061.29594912
 20
-10783.92555979
 10
56061.2639592
 20
-10771.63821027
 10
56061.18843302
 20
-10763.8175782
 10
56061.04644735
 20
-10753.76370073
 10
56060.88550678
 20
-10743.71000073
 10
56060.73967939
 20
-10733.65655931
 10
56060.6430333
 20
-10723.60345759
 10
56060.62815321
 20
-10713.95101239
 10
56060.72015611
 20
-10703.49852128
 10
56060.81491934
 20
-10697.10573047
 10
56069.21852511
 20
-10697.10573047
 10
56069.21852511
 20
-10933.60575413
 10
56061.85033073
 20
-10933.60575413
 10
56061.78184988
 20
-10924.67848906
 97
        1
330
67C
 75
     0
 76
     2
 47
0.775229
 98
        1
 10
0.0
 20
0.0
  0
LWPOLYLINE
  5
67E
102
{ACAD_REACTORS
330
67F
102
}
100
AcDbEntity
  8
Ech.1_5
 62
     9
  6
CONTINUOUS
370
    15
100
AcDbPolyline
 90
       35
 70
     1
 43
0.0
 10
56071.89096706
 20
-10939.17379848
 10
56081.93233756
 20
-10939.71376247
 10
56091.9751598
 20
-10940.19756575
 10
56102.02015962
 20
-10940.59712796
 10
56110.1171341
 20
-10940.83871319
 10
56122.1191164
 20
-10941.05178909
 10
56132.17251126
 20
-10941.13723852
 10
56142.22728316
 20
-10941.18524584
 10
56152.28246981
 20
-10941.24025143
 10
56159.50261766
 20
-10941.30890413
 10
56172.39069075
 20
-10941.5202663
 10
56182.44344768
 20
-10941.72948224
 10
56192.495711
 20
-10941.9365853
 10
56202.54780713
 20
-10942.10412313
 10
56213.00029824
 20
-10942.19612603
 10
56222.65274344
 20
-10942.18124594
 10
56232.70584517
 20
-10942.08459985
 10
56242.75928658
 20
-10941.93877246
 10
56252.81298658
 20
-10941.77783189
 10
56262.86686405
 20
-10941.63584622
 10
56270.68749612
 20
-10941.56032004
 10
56282.97484564
 20
-10941.52833012
 10
56293.02886243
 20
-10941.56402318
 10
56303.08286861
 20
-10941.63309802
 10
56313.13684444
 20
-10941.7147901
 10
56323.19077016
 20
-10941.78833488
 10
56333.6343034
 20
-10941.83383166
 10
56343.29839831
 20
-10941.83228819
 10
56353.35210011
 20
-10941.78950498
 10
56363.40575213
 20
-10941.71333303
 10
56373.45937507
 20
-10941.61248747
 10
56381.74448117
 20
-10941.51623015
 10
56381.74448117
 20
-10933.60575413
 10
56061.85033073
 20
-10933.60575413
 10
56061.85032241
 20
-10938.60575413
  0
HATCH
  5
67F
100
AcDbEntity
  8
Ech.1_5
 62
     9
  6
CONTINUOUS
100
AcDbHatch
 10
0.0
 20
0.0
 30
0.0
210
0.0
220
0.0
230
1.0
  2
SOLID
 70
     1
 71
     1
 91
        1
 92
        7
 72
     0
 73
     1
 93
       35
 10
56071.89096706
 20
-10939.17379848
 10
56081.93233756
 20
-10939.71376247
 10
56091.9751598
 20
-10940.19756575
 10
56102.02015962
 20
-10940.59712796
 10
56110.1171341
 20
-10940.83871319
 10
56122.1191164
 20
-10941.05178909
 10
56132.17251126
 20
-10941.13723852
 10
56142.22728316
 20
-10941.18524584
 10
56152.28246981
 20
-10941.24025143
 10
56159.50261766
 20
-10941.30890413
 10
56172.39069075
 20
-10941.5202663
 10
56182.44344768
 20
-10941.72948224
 10
56192.495711
 20
-10941.9365853
 10
56202.54780713
 20
-10942.10412313
 10
56213.00029824
 20
-10942.19612603
 10
56222.65274344
 20
-10942.18124594
 10
56232.70584517
 20
-10942.08459985
 10
56242.75928658
 20
-10941.93877246
 10
56252.81298658
 20
-10941.77783189
 10
56262.86686405
 20
-10941.63584622
 10
56270.68749612
 20
-10941.56032004
 10
56282.97484564
 20
-10941.52833012
 10
56293.02886243
 20
-10941.56402318
 10
56303.08286861
 20
-10941.63309802
 10
56313.13684444
 20
-10941.7147901
 10
56323.19077016
 20
-10941.78833488
 10
56333.6343034
 20
-10941.83383166
 10
56343.29839831
 20
-10941.83228819
 10
56353.35210011
 20
-10941.78950498
 10
56363.40575213
 20
-10941.71333303
 10
56373.45937507
 20
-10941.61248747
 10
56381.74448117
 20
-10941.51623015
 10
56381.74448117
 20
-10933.60575413
 10
56061.85033073
 20
-10933.60575413
 10
56061.85032241
 20
-10938.60575413
 97
        1
330
67E
 75
     0
 76
     2
 47
0.775229
 98
        1
 10
0.0
 20
0.0
  0
LWPOLYLINE
  5
680
100
AcDbEntity
  8
Ech.1_5
 62
     9
  6
CONTINUOUS
370
    -3
100
AcDbPolyline
 90
       62
 70
     0
 43
0.0
 10
56381.74448917
 20
-10671.93908746
 42
1.14028181
 10
56365.36177526
 20
-10674.0959177
 10
56373.12720309
 20
-10703.11559056
 42
-1.30322619
 10
56357.02844192
 20
-10703.11559056
 10
56364.79386976
 20
-10674.0959177
 42
1.30322619
 10
56348.69510859
 20
-10674.0959177
 10
56356.46053642
 20
-10703.11559056
 42
-1.30322619
 10
56340.36177526
 20
-10703.11559056
 10
56348.12720309
 20
-10674.0959177
 42
1.30322619
 10
56332.02844192
 20
-10674.0959177
 10
56339.79386976
 20
-10703.11559056
 42
-1.30322619
 10
56323.69510859
 20
-10703.11559056
 10
56331.46053642
 20
-10674.0959177
 42
1.30322619
 10
56315.36177526
 20
-10674.0959177
 10
56323.12720309
 20
-10703.11559056
 42
-1.30322619
 10
56307.02844192
 20
-10703.11559056
 10
56314.79386976
 20
-10674.0959177
 42
1.30322619
 10
56298.69510859
 20
-10674.0959177
 10
56306.46053642
 20
-10703.11559056
 42
-1.30322619
 10
56290.36177526
 20
-10703.11559056
 10
56298.12720309
 20
-10674.0959177
 42
1.30322619
 10
56282.02844192
 20
-10674.0959177
 10
56289.79386976
 20
-10703.11559056
 42
-1.30322619
 10
56273.69510859
 20
-10703.11559056
 10
56281.46053642
 20
-10674.0959177
 42
1.30322619
 10
56265.36177526
 20
-10674.0959177
 10
56273.12720309
 20
-10703.11559056
 42
-1.30322619
 10
56257.02844192
 20
-10703.11559056
 10
56264.79386976
 20
-10674.0959177
 42
1.30322619
 10
56248.69510859
 20
-10674.0959177
 10
56256.46053642
 20
-10703.11559056
 42
-1.30322619
 10
56240.36177526
 20
-10703.11559056
 10
56248.12720309
 20
-10674.0959177
 42
1.30322619
 10
56232.02844192
 20
-10674.0959177
 10
56239.79386976
 20
-10703.11559056
 42
-1.30322619
 10
56223.69510859
 20
-10703.11559056
 10
56231.46053642
 20
-10674.0959177
 42
1.30322619
 10
56215.36177526
 20
-10674.0959177
 10
56223.12720309
 20
-10703.11559056
 42
-1.30322619
 10
56207.02844192
 20
-10703.11559056
 10
56214.79386976
 20
-10674.0959177
 42
1.30322619
 10
56198.69510859
 20
-10674.0959177
 10
56206.46053642
 20
-10703.11559056
 42
-1.30322619
 10
56190.36177526
 20
-10703.11559056
 10
56198.12720309
 20
-10674.0959177
 42
1.30322619
 10
56182.02844192
 20
-10674.0959177
 10
56189.79386976
 20
-10703.11559056
 42
-1.30322619
 10
56173.69510859
 20
-10703.11559056
 10
56181.46053642
 20
-10674.0959177
 42
1.30322619
 10
56165.36177526
 20
-10674.0959177
 10
56173.12720309
 20
-10703.11559056
 42
-1.30322619
 10
56157.02844192
 20
-10703.11559056
 10
56164.79386976
 20
-10674.0959177
 42
1.30322619
 10
56148.69510859
 20
-10674.0959177
 10
56156.46053642
 20
-10703.11559056
 42
-1.30322619
 10
56140.36177526
 20
-10703.11559056
 10
56148.12720309
 20
-10674.0959177
 42
1.30322619
 10
56132.02844192
 20
-10674.0959177
 10
56139.79386976
 20
-10703.11559056
 42
-1.30322619
 10
56123.69510859
 20
-10703.11559056
 10
56131.46053642
 20
-10674.0959177
 42
0.83977392
 10
56116.57733744
 20
-10667.17008647
  0
LWPOLYLINE
  5
681
100
AcDbEntity
  8
Ech.1_5
 62
     1
  6
CADWORK_22
 48
-5.0
370
    35
100
AcDbPolyline
 90
        3
 70
     0
 43
0.0
 10
56381.74448117
 20
-10953.60575413
 10
56096.5779282
 20
-10953.60575413
 10
56096.5779282
 20
-11054.12636481
  0
LWPOLYLINE
  5
682
100
AcDbEntity
  8
Ech.1_5
 62
   190
  6
CONTINUOUS
370
    -3
100
AcDbPolyline
 90
        4
 70
     1
 43
0.0
 10
55729.45709529
 20
-11016.11844383
 10
55729.45621171
 20
-10953.60575413
 10
55720.02355165
 20
-10953.60575413
 10
55720.02443523
 20
-11016.11844383
  0
LWPOLYLINE
  5
683
100
AcDbEntity
  8
Ech.1_5
 62
   190
  6
CONTINUOUS
370
    -3
100
AcDbPolyline
 90
        4
 70
     0
 43
0.0
 10
55720.02355165
 20
-10953.60575413
 10
55729.45709529
 20
-11016.11844383
 10
55720.02443523
 20
-11016.11844383
 10
55729.45621171
 20
-10953.60575413
  0
LWPOLYLINE
  5
684
100
AcDbEntity
  8
Ech.1_5
 62
     7
  6
CONTINUOUS
370
    -3
100
AcDbPolyline
 90
       12
 70
     1
 43
0.0
 10
55729.45649977
 20
-10953.90594157
 10
55729.45649977
 20
-11138.43924247
 10
55729.45649977
 20
-11181.60733754
 10
55729.45619517
 20
-11197.60575419
 10
55738.95717135
 20
-11197.60575419
 10
55738.95717135
 20
-11197.60575419
 10
55744.95717135
 20
-11197.60575419
 10
55744.95717135
 20
-11197.60575419
 10
55754.45814752
 20
-11197.60575419
 10
55754.45814752
 20
-10953.90594157
 10
55734.45649977
 20
-10953.90594157
 10
55734.45649977
 20
-10953.90594157
  0
LWPOLYLINE
  5
685
100
AcDbEntity
  8
Ech.1_5
 62
     5
  6
CONTINUOUS
370
    -3
100
AcDbPolyline
 90
       11
 70
     0
 43
0.0
 10
55729.45649977
 20
-10953.90594157
 10
55729.45619517
 20
-11197.60575419
 10
55738.95717135
 20
-11197.60575419
 10
55738.95717135
 20
-11197.60575419
 10
55744.95717135
 20
-11197.60575419
 10
55744.95717135
 20
-11197.60575419
 10
55754.45814752
 20
-11197.60575419
 10
55754.45814752
 20
-10953.90594157
 10
55734.45649977
 20
-10953.90594157
 10
55734.45649977
 20
-10953.90594157
 10
55729.45649977
 20
-10953.90594157
  0
LWPOLYLINE
  5
686
102
{ACAD_REACTORS
330
687
102
}
100
AcDbEntity
  8
Ech.1_5
 62
     9
  6
CONTINUOUS
370
    -3
100
AcDbPolyline
 90
        4
 70
     1
 43
0.0
 10
55699.73039751
 20
-10733.60575413
 10
55699.73039751
 20
-10933.60575413
 10
55434.56398076
 20
-10933.6086557
 10
55434.56398076
 20
-10733.60575413
  0
HATCH
  5
687
100
AcDbEntity
  8
Ech.1_5
 62
     9
  6
CONTINUOUS
100
AcDbHatch
 10
0.0
 20
0.0
 30
0.0
210
0.0
220
0.0
230
1.0
  2
AR-CONC
 70
     0
 71
     1
 91
        1
 92
        7
 72
     0
 73
     1
 93
        4
 10
55699.73039751
 20
-10733.60575413
 10
55699.73039751
 20
-10933.60575413
 10
55434.56398076
 20
-10933.6086557
 10
55434.56398076
 20
-10733.60575413
 97
        1
330
686
 75
     0
 76
     2
 52
0.0
 41
0.11811097
 77
     0
 78
    13
 53
50.0
 43
0.0
 44
0.0
 45
-18.84283637
 46
1.64853443
 79
     2
 49
1.97029307
 49
-21.67322338
 53
355.0
 43
0.0
 44
0.0
 45
-3.64507756
 46
19.76051824
 79
     2
 49
1.57623377
 49
-17.3385787
 53
100.45140076
 43
1.57023568
 44
-0.13737749
 45
-15.19777228
 46
-18.11197244
 79
     2
 49
1.67449124
 49
-18.41940522
 53
46.18420029
 43
0.0
 44
5.25411576
 45
-28.03703353
 46
4.34827878
 79
     2
 49
2.95543872
 49
-32.50983238
 53
96.63559723
 43
2.33641885
 44
4.89175692
 45
-24.55412615
 46
-25.59063404
 79
     2
 49
2.51173697
 49
-27.62910426
 53
351.1842041
 43
0.0
 44
5.25411576
 45
24.55410288
 46
25.59065715
 79
     2
 49
2.36435249
 49
-26.00786805
 53
21.0
 43
2.62705699
 44
3.94058615
 45
-15.68109068
 46
10.57702905
 79
     2
 49
1.97029307
 49
-21.67322338
 53
326.0
 43
2.62705699
 44
3.94058615
 45
6.39203268
 46
19.05010734
 79
     2
 49
1.57623377
 49
-17.3385787
 53
71.45140076
 43
3.93381357
 44
3.05916555
 45
-22.07312962
 46
-8.47306182
 79
     2
 49
1.67449124
 49
-18.41940522
 53
37.5
 43
0.0
 44
0.0
 45
0.31944534
 46
8.74531245
 79
     6
 49
0.01875
 49
-17.12841332
 49
0.01875
 49
-17.60128498
 49
0.01875
 49
-17.40425348
 53
7.5
 43
0.0
 44
0.0
 45
6.91098818
 46
10.3614222
 79
     6
 49
0.01875
 49
-10.03535807
 49
0.01875
 49
-16.7343539
 49
0.01875
 49
-6.6333206
 53
-32.5
 43
-5.85833833
 44
0.0
 45
14.02382061
 46
-0.59253003
 79
     6
 49
0.01875
 49
-6.56764314
 49
0.01875
 49
-20.49104869
 49
0.01875
 49
-27.19004452
 53
-42.5
 43
-8.48539531
 44
0.0
 45
15.32063571
 46
2.62981542
 79
     6
 49
0.01875
 49
-8.53793621
 49
0.01875
 49
-13.60815793
 49
0.01875
 49
-19.30887222
 47
0.775229
 98
        1
 10
0.0
 20
0.0
  0
LWPOLYLINE
  5
688
100
AcDbEntity
  8
Ech.1_5
 62
   254
  6
CONTINUOUS
370
    -3
100
AcDbPolyline
 90
        4
 70
     1
 43
0.0
 10
55699.7311325
 20
-10663.60575413
 10
55699.7311325
 20
-10713.60575413
 10
55434.56398076
 20
-10713.60575413
 10
55434.56398076
 20
-10663.60575413
  0
LWPOLYLINE
  5
689
102
{ACAD_REACTORS
330
68A
102
}
100
AcDbEntity
  8
Ech.1_5
 62
     9
  6
CONTINUOUS
370
    -3
100
AcDbPolyline
 90
        4
 70
     1
 43
0.0
 10
55699.7311325
 20
-10650.60575413
 10
55699.7311325
 20
-10663.60575413
 10
55434.56398076
 20
-10663.60575413
 10
55434.56398076
 20
-10650.60575413
  0
HATCH
  5
68A
100
AcDbEntity
  8
Ech.1_5
 62
     9
  6
CONTINUOUS
100
AcDbHatch
 10
0.0
 20
0.0
 30
0.0
210
0.0
220
0.0
230
1.0
  2
DOTS2
 70
     0
 71
     1
 91
        1
 92
        7
 72
     0
 73
     1
 93
        4
 10
55699.7311325
 20
-10650.60575413
 10
55699.7311325
 20
-10663.60575413
 10
55434.56398076
 20
-10663.60575413
 10
55434.56398076
 20
-10650.60575413
 97
        1
330
689
 75
     0
 76
     2
 52
0.0
 41
4.72440952
 77
     0
 78
     1
 53
0.0
 43
0.0
 44
0.0
 45
3.75
 46
3.535
 79
     2
 49
0.0
 49
-3.535
 47
0.775229
 98
        1
 10
0.0
 20
0.0
  0
3DFACE
  5
68B
102
{ACAD_REACTORS
330
68C
102
}
100
AcDbEntity
  8
Ech.1_5
 62
     9
  6
CONTINUOUS
370
    -3
100
AcDbFace
 70
     0
 10
55699.73039751
 20
-10697.10573047
 30
2500.0
 11
55747.08994482
 21
-10697.10573047
 31
2500.0
 12
55747.08994482
 22
-10933.60575413
 32
2500.0
 13
55699.73351794
 23
-10933.60575413
 33
2500.0
  0
HATCH
  5
68C
100
AcDbEntity
  8
Ech.1_5
 62
     9
  6
CONTINUOUS
100
AcDbHatch
 10
0.0
 20
0.0
 30
0.0
210
0.0
220
0.0
230
1.0
  2
ANSI31
 70
     0
 71
     1
 91
        1
 92
        7
 72
     0
 73
     1
 93
        4
 10
55699.73039751
 20
-10697.10573047
 10
55747.08994482
 20
-10697.10573047
 10
55747.08994482
 20
-10933.60575413
 10
55699.73351794
 20
-10933.60575413
 97
        1
330
68B
 75
     0
 76
     2
 52
0.0
 41
9.44887814
 77
     0
 78
     1
 53
45.0
 43
0.0
 44
0.0
 45
21.21320344
 46
-21.21320344
 79
     0
 47
0.775229
 98
        1
 10
0.0
 20
0.0
  0
LWPOLYLINE
  5
68D
102
{ACAD_REACTORS
330
68E
102
}
100
AcDbEntity
  8
Ech.1_5
 62
     9
  6
CONTINUOUS
370
    15
100
AcDbPolyline
 90
       27
 70
     1
 43
0.0
 10
55754.58655584
 20
-10918.03920797
 10
55754.73325106
 20
-10904.57099043
 10
55754.8558267
 20
-10894.5173306
 10
55754.97987411
 20
-10884.46370376
 10
55755.09667816
 20
-10874.41008921
 10
55755.19752372
 20
-10864.35646628
 10
55755.27369567
 20
-10854.30281425
 10
55755.31647888
 20
-10844.24911245
 10
55755.31802235
 20
-10834.58501754
 10
55755.27252557
 20
-10824.14148431
 10
55755.19898079
 20
-10814.08755858
 10
55755.11728871
 20
-10804.03358276
 10
55755.04821387
 20
-10793.97957658
 10
55755.01252081
 20
-10783.92555979
 10
55755.04451073
 20
-10771.63821027
 10
55755.12003691
 20
-10763.8175782
 10
55755.26202258
 20
-10753.76370073
 10
55755.42296315
 20
-10743.71000073
 10
55755.56879054
 20
-10733.65655931
 10
55755.66543663
 20
-10723.60345759
 10
55755.68031672
 20
-10713.95101239
 10
55755.58831382
 20
-10703.49852128
 10
55755.4935506
 20
-10697.10573047
 10
55747.08994482
 20
-10697.10573047
 10
55747.08994482
 20
-10933.60575413
 10
55754.4581392
 20
-10933.60575413
 10
55754.52662006
 20
-10924.67848906
  0
HATCH
  5
68E
100
AcDbEntity
  8
Ech.1_5
 62
     9
  6
CONTINUOUS
100
AcDbHatch
 10
0.0
 20
0.0
 30
0.0
210
0.0
220
0.0
230
1.0
  2
SOLID
 70
     1
 71
     1
 91
        1
 92
        7
 72
     0
 73
     1
 93
       27
 10
55754.58655584
 20
-10918.03920797
 10
55754.73325106
 20
-10904.57099043
 10
55754.8558267
 20
-10894.5173306
 10
55754.97987411
 20
-10884.46370376
 10
55755.09667816
 20
-10874.41008921
 10
55755.19752372
 20
-10864.35646628
 10
55755.27369567
 20
-10854.30281425
 10
55755.31647888
 20
-10844.24911245
 10
55755.31802235
 20
-10834.58501754
 10
55755.27252557
 20
-10824.14148431
 10
55755.19898079
 20
-10814.08755858
 10
55755.11728871
 20
-10804.03358276
 10
55755.04821387
 20
-10793.97957658
 10
55755.01252081
 20
-10783.92555979
 10
55755.04451073
 20
-10771.63821027
 10
55755.12003691
 20
-10763.8175782
 10
55755.26202258
 20
-10753.76370073
 10
55755.42296315
 20
-10743.71000073
 10
55755.56879054
 20
-10733.65655931
 10
55755.66543663
 20
-10723.60345759
 10
55755.68031672
 20
-10713.95101239
 10
55755.58831382
 20
-10703.49852128
 10
55755.4935506
 20
-10697.10573047
 10
55747.08994482
 20
-10697.10573047
 10
55747.08994482
 20
-10933.60575413
 10
55754.4581392
 20
-10933.60575413
 10
55754.52662006
 20
-10924.67848906
 97
        1
330
68D
 75
     0
 76
     2
 47
0.775229
 98
        1
 10
0.0
 20
0.0
  0
LWPOLYLINE
  5
68F
102
{ACAD_REACTORS
330
690
102
}
100
AcDbEntity
  8
Ech.1_5
 62
     9
  6
CONTINUOUS
370
    15
100
AcDbPolyline
 90
       35
 70
     1
 43
0.0
 10
55744.41750288
 20
-10939.17379848
 10
55734.37613237
 20
-10939.71376247
 10
55724.33331013
 20
-10940.19756575
 10
55714.28831031
 20
-10940.59712796
 10
55706.19133583
 20
-10940.83871319
 10
55694.18935354
 20
-10941.05178909
 10
55684.13595867
 20
-10941.13723852
 10
55674.08118677
 20
-10941.18524584
 10
55664.02600012
 20
-10941.24025143
 10
55656.80585227
 20
-10941.30890413
 10
55643.91777919
 20
-10941.5202663
 10
55633.86502225
 20
-10941.72948224
 10
55623.81275893
 20
-10941.9365853
 10
55613.7606628
 20
-10942.10412313
 10
55603.30817169
 20
-10942.19612603
 10
55593.65572649
 20
-10942.18124594
 10
55583.60262477
 20
-10942.08459985
 10
55573.54918335
 20
-10941.93877246
 10
55563.49548335
 20
-10941.77783189
 10
55553.44160588
 20
-10941.63584622
 10
55545.62097381
 20
-10941.56032004
 10
55533.33362429
 20
-10941.52833012
 10
55523.2796075
 20
-10941.56402318
 10
55513.22560132
 20
-10941.63309802
 10
55503.1716255
 20
-10941.7147901
 10
55493.11769977
 20
-10941.78833488
 10
55482.67416654
 20
-10941.83383166
 10
55473.01007162
 20
-10941.83228819
 10
55462.95636982
 20
-10941.78950498
 10
55452.9027178
 20
-10941.71333303
 10
55442.84909487
 20
-10941.61248747
 10
55434.56398876
 20
-10941.51623015
 10
55434.56398876
 20
-10933.60575413
 10
55754.4581392
 20
-10933.60575413
 10
55754.45814752
 20
-10938.60575413
  0
HATCH
  5
690
100
AcDbEntity
  8
Ech.1_5
 62
     9
  6
CONTINUOUS
100
AcDbHatch
 10
0.0
 20
0.0
 30
0.0
210
0.0
220
0.0
230
1.0
  2
SOLID
 70
     1
 71
     1
 91
        1
 92
        7
 72
     0
 73
     1
 93
       35
 10
55744.41750288
 20
-10939.17379848
 10
55734.37613237
 20
-10939.71376247
 10
55724.33331013
 20
-10940.19756575
 10
55714.28831031
 20
-10940.59712796
 10
55706.19133583
 20
-10940.83871319
 10
55694.18935354
 20
-10941.05178909
 10
55684.13595867
 20
-10941.13723852
 10
55674.08118677
 20
-10941.18524584
 10
55664.02600012
 20
-10941.24025143
 10
55656.80585227
 20
-10941.30890413
 10
55643.91777919
 20
-10941.5202663
 10
55633.86502225
 20
-10941.72948224
 10
55623.81275893
 20
-10941.9365853
 10
55613.7606628
 20
-10942.10412313
 10
55603.30817169
 20
-10942.19612603
 10
55593.65572649
 20
-10942.18124594
 10
55583.60262477
 20
-10942.08459985
 10
55573.54918335
 20
-10941.93877246
 10
55563.49548335
 20
-10941.77783189
 10
55553.44160588
 20
-10941.63584622
 10
55545.62097381
 20
-10941.56032004
 10
55533.33362429
 20
-10941.52833012
 10
55523.2796075
 20
-10941.56402318
 10
55513.22560132
 20
-10941.63309802
 10
55503.1716255
 20
-10941.7147901
 10
55493.11769977
 20
-10941.78833488
 10
55482.67416654
 20
-10941.83383166
 10
55473.01007162
 20
-10941.83228819
 10
55462.95636982
 20
-10941.78950498
 10
55452.9027178
 20
-10941.71333303
 10
55442.84909487
 20
-10941.61248747
 10
55434.56398876
 20
-10941.51623015
 10
55434.56398876
 20
-10933.60575413
 10
55754.4581392
 20
-10933.60575413
 10
55754.45814752
 20
-10938.60575413
 97
        1
330
68F
 75
     0
 76
     2
 47
0.775229
 98
        1
 10
0.0
 20
0.0
  0
LWPOLYLINE
  5
691
100
AcDbEntity
  8
Ech.1_5
 62
     9
  6
CONTINUOUS
370
    -3
100
AcDbPolyline
 90
       62
 70
     0
 43
0.0
 10
55434.56398076
 20
-10671.93908746
 42
-1.14028181
 10
55450.94669468
 20
-10674.0959177
 10
55443.18126684
 20
-10703.11559056
 42
1.30322619
 10
55459.28002801
 20
-10703.11559056
 10
55451.51460017
 20
-10674.0959177
 42
-1.30322619
 10
55467.61336134
 20
-10674.0959177
 10
55459.84793351
 20
-10703.11559056
 42
1.30322619
 10
55475.94669468
 20
-10703.11559056
 10
55468.18126684
 20
-10674.0959177
 42
-1.30322619
 10
55484.28002801
 20
-10674.0959177
 10
55476.51460017
 20
-10703.11559056
 42
1.30322619
 10
55492.61336134
 20
-10703.11559056
 10
55484.84793351
 20
-10674.0959177
 42
-1.30322619
 10
55500.94669468
 20
-10674.0959177
 10
55493.18126684
 20
-10703.11559056
 42
1.30322619
 10
55509.28002801
 20
-10703.11559056
 10
55501.51460017
 20
-10674.0959177
 42
-1.30322619
 10
55517.61336134
 20
-10674.0959177
 10
55509.84793351
 20
-10703.11559056
 42
1.30322619
 10
55525.94669468
 20
-10703.11559056
 10
55518.18126684
 20
-10674.0959177
 42
-1.30322619
 10
55534.28002801
 20
-10674.0959177
 10
55526.51460017
 20
-10703.11559056
 42
1.30322619
 10
55542.61336134
 20
-10703.11559056
 10
55534.84793351
 20
-10674.0959177
 42
-1.30322619
 10
55550.94669468
 20
-10674.0959177
 10
55543.18126684
 20
-10703.11559056
 42
1.30322619
 10
55559.28002801
 20
-10703.11559056
 10
55551.51460017
 20
-10674.0959177
 42
-1.30322619
 10
55567.61336134
 20
-10674.0959177
 10
55559.84793351
 20
-10703.11559056
 42
1.30322619
 10
55575.94669468
 20
-10703.11559056
 10
55568.18126684
 20
-10674.0959177
 42
-1.30322619
 10
55584.28002801
 20
-10674.0959177
 10
55576.51460017
 20
-10703.11559056
 42
1.30322619
 10
55592.61336134
 20
-10703.11559056
 10
55584.84793351
 20
-10674.0959177
 42
-1.30322619
 10
55600.94669468
 20
-10674.0959177
 10
55593.18126684
 20
-10703.11559056
 42
1.30322619
 10
55609.28002801
 20
-10703.11559056
 10
55601.51460017
 20
-10674.0959177
 42
-1.30322619
 10
55617.61336134
 20
-10674.0959177
 10
55609.84793351
 20
-10703.11559056
 42
1.30322619
 10
55625.94669468
 20
-10703.11559056
 10
55618.18126684
 20
-10674.0959177
 42
-1.30322619
 10
55634.28002801
 20
-10674.0959177
 10
55626.51460017
 20
-10703.11559056
 42
1.30322619
 10
55642.61336134
 20
-10703.11559056
 10
55634.84793351
 20
-10674.0959177
 42
-1.30322619
 10
55650.94669468
 20
-10674.0959177
 10
55643.18126684
 20
-10703.11559056
 42
1.30322619
 10
55659.28002801
 20
-10703.11559056
 10
55651.51460017
 20
-10674.0959177
 42
-1.30322619
 10
55667.61336134
 20
-10674.0959177
 10
55659.84793351
 20
-10703.11559056
 42
1.30322619
 10
55675.94669468
 20
-10703.11559056
 10
55668.18126684
 20
-10674.0959177
 42
-1.30322619
 10
55684.28002801
 20
-10674.0959177
 10
55676.51460017
 20
-10703.11559056
 42
1.30322619
 10
55692.61336134
 20
-10703.11559056
 10
55684.84793351
 20
-10674.0959177
 42
-0.83977392
 10
55699.7311325
 20
-10667.17008647
  0
LWPOLYLINE
  5
692
100
AcDbEntity
  8
Ech.1_5
 62
     1
  6
CADWORK_22
 48
-5.0
370
    35
100
AcDbPolyline
 90
        3
 70
     0
 43
0.0
 10
55434.56398876
 20
-10953.60575413
 10
55719.73054173
 20
-10953.60575413
 10
55719.73054173
 20
-11054.12636481
  0
LWPOLYLINE
  5
693
100
AcDbEntity
  8
Ech.1_5
 62
   190
  6
CONTINUOUS
370
    -3
100
AcDbPolyline
 90
      172
 70
     0
 43
0.0
 10
55519.72599442
 20
-10951.67721508
 42
1.14028181
 10
55524.2866878
 20
-10951.06769238
 10
55522.10851992
 20
-10942.99121833
 42
-1.30322619
 10
55526.5913218
 20
-10942.9824336
 10
55524.44482468
 20
-10951.06738249
 42
1.30322619
 10
55528.92762655
 20
-10951.05859776
 10
55526.74945868
 20
-10942.98212371
 42
-1.30322619
 10
55531.23226055
 20
-10942.97333898
 10
55529.08576343
 20
-10951.05828787
 42
1.30322619
 10
55533.56856531
 20
-10951.04950314
 10
55531.39039743
 20
-10942.97302909
 42
-1.30322619
 10
55535.87319931
 20
-10942.96424436
 10
55533.72670219
 20
-10951.04919324
 42
1.30322619
 10
55538.20950406
 20
-10951.04040851
 10
55536.03133618
 20
-10942.96393447
 42
-1.30322619
 10
55540.51413806
 20
-10942.95514974
 10
55538.36764094
 20
-10951.04009862
 42
1.30322619
 10
55542.85044282
 20
-10951.03131389
 10
55540.67227494
 20
-10942.95483984
 42
-1.30322619
 10
55545.15507681
 20
-10942.94605511
 10
55543.00857969
 20
-10951.031004
 42
1.30322619
 10
55547.49138157
 20
-10951.02221927
 10
55545.31321369
 20
-10942.94574522
 42
-1.30322619
 10
55549.79601557
 20
-10942.93696049
 10
55547.64951845
 20
-10951.02190937
 42
1.30322619
 10
55552.13232032
 20
-10951.01312464
 10
55549.95415244
 20
-10942.9366506
 42
-1.30322619
 10
55554.43695432
 20
-10942.92786587
 10
55552.2904572
 20
-10951.01281475
 42
1.30322619
 10
55556.77325908
 20
-10951.00403002
 10
55554.5950912
 20
-10942.92755597
 42
-1.30322619
 10
55559.07789307
 20
-10942.91877124
 10
55556.93139595
 20
-10951.00372013
 42
1.30322619
 10
55561.41419783
 20
-10950.9949354
 10
55559.23602995
 20
-10942.91846135
 42
-1.30322619
 10
55563.71883183
 20
-10942.90967662
 10
55561.57233471
 20
-10950.9946255
 42
1.30322619
 10
55566.05513658
 20
-10950.98584077
 10
55563.87696871
 20
-10942.90936673
 42
-1.30322619
 10
55568.35977058
 20
-10942.900582
 10
55566.21327346
 20
-10950.98553088
 42
1.30322619
 10
55570.69607534
 20
-10950.97674615
 10
55568.51790746
 20
-10942.9002721
 42
-1.30322619
 10
55573.00070934
 20
-10942.89148737
 10
55570.85421222
 20
-10950.97643626
 42
1.30322619
 10
55575.33701409
 20
-10950.96765153
 10
55573.15884621
 20
-10942.89117748
 42
-1.30322619
 10
55577.64164809
 20
-10942.88239275
 10
55575.49515097
 20
-10950.96734163
 42
1.30322619
 10
55579.97795285
 20
-10950.9585569
 10
55577.79978497
 20
-10942.88208286
 42
-1.30322619
 10
55582.28258684
 20
-10942.87329813
 10
55580.13608972
 20
-10950.95824701
 42
1.30322619
 10
55584.6188916
 20
-10950.94946228
 10
55582.44072372
 20
-10942.87298823
 42
-1.30322619
 10
55586.9235256
 20
-10942.8642035
 10
55584.77702848
 20
-10950.94915239
 42
1.30322619
 10
55589.25983035
 20
-10950.94036766
 10
55587.08166247
 20
-10942.86389361
 42
-1.30322619
 10
55591.56446435
 20
-10942.85510888
 10
55589.41796723
 20
-10950.94005776
 42
1.30322619
 10
55593.90076911
 20
-10950.93127303
 10
55591.72260123
 20
-10942.85479899
 42
-1.30322619
 10
55596.2054031
 20
-10942.84601426
 10
55594.05890598
 20
-10950.93096314
 42
1.30322619
 10
55598.54170786
 20
-10950.92217841
 10
55596.36353998
 20
-10942.84570436
 42
-1.30322619
 10
55600.84634186
 20
-10942.83691963
 10
55598.69984474
 20
-10950.92186852
 42
1.30322619
 10
55603.18264661
 20
-10950.91308379
 10
55601.00447874
 20
-10942.83660974
 42
-1.30322619
 10
55605.48728061
 20
-10942.82782501
 10
55603.34078349
 20
-10950.9127739
 42
1.30322619
 10
55607.82358537
 20
-10950.90398917
 10
55605.64541749
 20
-10942.82751512
 42
-1.30322619
 10
55610.12821937
 20
-10942.81873039
 10
55607.98172225
 20
-10950.90367927
 42
1.30322619
 10
55612.46452412
 20
-10950.89489454
 10
55610.28635624
 20
-10942.81842049
 42
-1.30322619
 10
55614.76915812
 20
-10942.80963576
 10
55612.622661
 20
-10950.89458465
 42
1.30322619
 10
55617.10546288
 20
-10950.88579992
 10
55614.927295
 20
-10942.80932587
 42
-1.30322619
 10
55619.41009687
 20
-10942.80054114
 10
55617.26359975
 20
-10950.88549003
 42
1.30322619
 10
55621.74640163
 20
-10950.8767053
 10
55619.56823375
 20
-10942.80023125
 42
-1.30322619
 10
55624.05103563
 20
-10942.79144652
 10
55621.90453851
 20
-10950.8763954
 42
1.30322619
 10
55626.38734038
 20
-10950.86761067
 10
55624.2091725
 20
-10942.79113662
 42
-1.30322619
 10
55628.69197438
 20
-10942.78235189
 10
55626.54547726
 20
-10950.86730078
 42
1.30322619
 10
55631.02827914
 20
-10950.85851605
 10
55628.85011126
 20
-10942.782042
 42
-1.30322619
 10
55633.33291313
 20
-10942.77325727
 10
55631.18641601
 20
-10950.85820616
 42
1.30322619
 10
55635.66921789
 20
-10950.84942143
 10
55633.49105001
 20
-10942.77294738
 42
-1.30322619
 10
55637.97385189
 20
-10942.76416265
 10
55635.82735477
 20
-10950.84911153
 42
1.30322619
 10
55640.31015664
 20
-10950.8403268
 10
55638.13198877
 20
-10942.76385275
 42
-1.30322619
 10
55642.61479064
 20
-10942.75506802
 10
55640.46829352
 20
-10950.84001691
 42
1.30322619
 10
55644.9510954
 20
-10950.83123218
 10
55642.77292752
 20
-10942.75475813
 42
-1.30322619
 10
55647.2557294
 20
-10942.7459734
 10
55645.10923228
 20
-10950.83092229
 42
1.30322619
 10
55649.59203415
 20
-10950.82213756
 10
55647.41386627
 20
-10942.74566351
 42
-1.30322619
 10
55651.89666815
 20
-10942.73687878
 10
55649.75017103
 20
-10950.82182766
 42
1.30322619
 10
55654.23297291
 20
-10950.81304293
 10
55652.05480503
 20
-10942.73656889
 42
-1.30322619
 10
55656.5376069
 20
-10942.72778416
 10
55654.39110978
 20
-10950.81273304
 42
1.30322619
 10
55658.87391166
 20
-10950.80394831
 10
55656.69574378
 20
-10942.72747426
 42
-1.30322619
 10
55661.17854566
 20
-10942.71868953
 10
55659.03204854
 20
-10950.80363842
 42
1.30322619
 10
55663.51485041
 20
-10950.79485369
 10
55661.33668253
 20
-10942.71837964
 42
-1.30322619
 10
55665.81948441
 20
-10942.70959491
 10
55663.67298729
 20
-10950.79454379
 42
1.30322619
 10
55668.15578917
 20
-10950.78575906
 10
55665.97762129
 20
-10942.70928502
 42
-1.30322619
 10
55670.46042316
 20
-10942.70050029
 10
55668.31392605
 20
-10950.78544917
 42
1.30322619
 10
55672.79672792
 20
-10950.77666444
 10
55670.61856004
 20
-10942.70019039
 42
-1.30322619
 10
55675.10136192
 20
-10942.69140566
 10
55672.9548648
 20
-10950.77635455
 42
1.30322619
 10
55677.43766667
 20
-10950.76756982
 10
55675.2594988
 20
-10942.69109577
 42
-1.30322619
 10
55679.74230067
 20
-10942.68231104
 10
55677.59580355
 20
-10950.76725992
 42
1.30322619
 10
55682.07860543
 20
-10950.75847519
 10
55679.90043755
 20
-10942.68200115
 42
-1.30322619
 10
55684.38323943
 20
-10942.67321642
 10
55682.23674231
 20
-10950.7581653
 42
1.30322619
 10
55686.71954418
 20
-10950.74938057
 10
55684.5413763
 20
-10942.67290652
 42
-1.30322619
 10
55689.02417818
 20
-10942.66412179
 10
55686.87768106
 20
-10950.74907068
 42
1.30322619
 10
55691.36048294
 20
-10950.74028595
 10
55689.18231506
 20
-10942.6638119
 42
-1.30322619
 10
55693.66511693
 20
-10942.65502717
 10
55691.51861981
 20
-10950.73997605
 42
1.30322619
 10
55696.00142169
 20
-10950.73119132
 10
55693.82325381
 20
-10942.65471728
 42
-1.30322619
 10
55698.30605569
 20
-10942.64593255
 10
55696.15955857
 20
-10950.73088143
 42
1.30322619
 10
55700.64236044
 20
-10950.7220967
 10
55698.46419256
 20
-10942.64562265
 42
-1.30322619
 10
55702.94699444
 20
-10942.63683792
 10
55700.80049732
 20
-10950.72178681
 42
1.30322619
 10
55705.2832992
 20
-10950.71300208
 10
55703.10513132
 20
-10942.63652803
 42
-1.30322619
 10
55707.58793319
 20
-10942.6277433
 10
55705.44143608
 20
-10950.71269218
 42
1.30322619
 10
55709.92423795
 20
-10950.70390745
 10
55707.74607007
 20
-10942.62743341
 42
-1.30322619
 10
55712.22887195
 20
-10942.61864868
 10
55710.08237483
 20
-10950.70359756
 42
1.30322619
 10
55714.5651767
 20
-10950.69481283
 10
55712.38700883
 20
-10942.61833878
 42
-1.30322619
 10
55716.8698107
 20
-10942.60955405
 10
55714.72331358
 20
-10950.69450294
 42
1.30322619
 10
55719.20611546
 20
-10950.68571821
 10
55717.02794758
 20
-10942.60924416
 42
-0.55385991
 10
55719.70334022
 20
-10939.7249647
  0
LWPOLYLINE
  5
694
100
AcDbEntity
  8
Ech.1_5
 62
   190
  6
CONTINUOUS
370
    -3
100
AcDbPolyline
 90
      172
 70
     0
 43
0.0
 10
56296.58247551
 20
-10951.67721508
 42
-1.14028181
 10
56292.02178213
 20
-10951.06769238
 10
56294.19995001
 20
-10942.99121833
 42
1.30322619
 10
56289.71714813
 20
-10942.9824336
 10
56291.86364525
 20
-10951.06738249
 42
-1.30322619
 10
56287.38084338
 20
-10951.05859776
 10
56289.55901126
 20
-10942.98212371
 42
1.30322619
 10
56285.07620938
 20
-10942.97333898
 10
56287.2227065
 20
-10951.05828787
 42
-1.30322619
 10
56282.73990462
 20
-10951.04950314
 10
56284.9180725
 20
-10942.97302909
 42
1.30322619
 10
56280.43527063
 20
-10942.96424436
 10
56282.58176775
 20
-10951.04919324
 42
-1.30322619
 10
56278.09896587
 20
-10951.04040851
 10
56280.27713375
 20
-10942.96393447
 42
1.30322619
 10
56275.79433187
 20
-10942.95514974
 10
56277.94082899
 20
-10951.04009862
 42
-1.30322619
 10
56273.45802712
 20
-10951.03131389
 10
56275.63619499
 20
-10942.95483984
 42
1.30322619
 10
56271.15339312
 20
-10942.94605511
 10
56273.29989024
 20
-10951.031004
 42
-1.30322619
 10
56268.81708836
 20
-10951.02221927
 10
56270.99525624
 20
-10942.94574522
 42
1.30322619
 10
56266.51245437
 20
-10942.93696049
 10
56268.65895148
 20
-10951.02190937
 42
-1.30322619
 10
56264.17614961
 20
-10951.01312464
 10
56266.35431749
 20
-10942.9366506
 42
1.30322619
 10
56261.87151561
 20
-10942.92786587
 10
56264.01801273
 20
-10951.01281475
 42
-1.30322619
 10
56259.53521086
 20
-10951.00403002
 10
56261.71337873
 20
-10942.92755597
 42
1.30322619
 10
56257.23057686
 20
-10942.91877124
 10
56259.37707398
 20
-10951.00372013
 42
-1.30322619
 10
56254.8942721
 20
-10950.9949354
 10
56257.07243998
 20
-10942.91846135
 42
1.30322619
 10
56252.5896381
 20
-10942.90967662
 10
56254.73613522
 20
-10950.9946255
 42
-1.30322619
 10
56250.25333335
 20
-10950.98584077
 10
56252.43150123
 20
-10942.90936673
 42
1.30322619
 10
56247.94869935
 20
-10942.900582
 10
56250.09519647
 20
-10950.98553088
 42
-1.30322619
 10
56245.61239459
 20
-10950.97674615
 10
56247.79056247
 20
-10942.9002721
 42
1.30322619
 10
56243.3077606
 20
-10942.89148737
 10
56245.45425772
 20
-10950.97643626
 42
-1.30322619
 10
56240.97145584
 20
-10950.96765153
 10
56243.14962372
 20
-10942.89117748
 42
1.30322619
 10
56238.66682184
 20
-10942.88239275
 10
56240.81331896
 20
-10950.96734163
 42
-1.30322619
 10
56236.33051709
 20
-10950.9585569
 10
56238.50868496
 20
-10942.88208286
 42
1.30322619
 10
56234.02588309
 20
-10942.87329813
 10
56236.17238021
 20
-10950.95824701
 42
-1.30322619
 10
56231.68957833
 20
-10950.94946228
 10
56233.86774621
 20
-10942.87298823
 42
1.30322619
 10
56229.38494434
 20
-10942.8642035
 10
56231.53144145
 20
-10950.94915239
 42
-1.30322619
 10
56227.04863958
 20
-10950.94036766
 10
56229.22680746
 20
-10942.86389361
 42
1.30322619
 10
56224.74400558
 20
-10942.85510888
 10
56226.8905027
 20
-10950.94005776
 42
-1.30322619
 10
56222.40770083
 20
-10950.93127303
 10
56224.5858687
 20
-10942.85479899
 42
1.30322619
 10
56220.10306683
 20
-10942.84601426
 10
56222.24956395
 20
-10950.93096314
 42
-1.30322619
 10
56217.76676207
 20
-10950.92217841
 10
56219.94492995
 20
-10942.84570436
 42
1.30322619
 10
56215.46212807
 20
-10942.83691963
 10
56217.60862519
 20
-10950.92186852
 42
-1.30322619
 10
56213.12582332
 20
-10950.91308379
 10
56215.3039912
 20
-10942.83660974
 42
1.30322619
 10
56210.82118932
 20
-10942.82782501
 10
56212.96768644
 20
-10950.9127739
 42
-1.30322619
 10
56208.48488456
 20
-10950.90398917
 10
56210.66305244
 20
-10942.82751512
 42
1.30322619
 10
56206.18025057
 20
-10942.81873039
 10
56208.32674769
 20
-10950.90367927
 42
-1.30322619
 10
56203.84394581
 20
-10950.89489454
 10
56206.02211369
 20
-10942.81842049
 42
1.30322619
 10
56201.53931181
 20
-10942.80963576
 10
56203.68580893
 20
-10950.89458465
 42
-1.30322619
 10
56199.20300706
 20
-10950.88579992
 10
56201.38117493
 20
-10942.80932587
 42
1.30322619
 10
56196.89837306
 20
-10942.80054114
 10
56199.04487018
 20
-10950.88549003
 42
-1.30322619
 10
56194.5620683
 20
-10950.8767053
 10
56196.74023618
 20
-10942.80023125
 42
1.30322619
 10
56192.25743431
 20
-10942.79144652
 10
56194.40393142
 20
-10950.8763954
 42
-1.30322619
 10
56189.92112955
 20
-10950.86761067
 10
56192.09929743
 20
-10942.79113662
 42
1.30322619
 10
56187.61649555
 20
-10942.78235189
 10
56189.76299267
 20
-10950.86730078
 42
-1.30322619
 10
56185.2801908
 20
-10950.85851605
 10
56187.45835867
 20
-10942.782042
 42
1.30322619
 10
56182.9755568
 20
-10942.77325727
 10
56185.12205392
 20
-10950.85820616
 42
-1.30322619
 10
56180.63925204
 20
-10950.84942143
 10
56182.81741992
 20
-10942.77294738
 42
1.30322619
 10
56178.33461804
 20
-10942.76416265
 10
56180.48111516
 20
-10950.84911153
 42
-1.30322619
 10
56175.99831329
 20
-10950.8403268
 10
56178.17648117
 20
-10942.76385275
 42
1.30322619
 10
56173.69367929
 20
-10942.75506802
 10
56175.84017641
 20
-10950.84001691
 42
-1.30322619
 10
56171.35737453
 20
-10950.83123218
 10
56173.53554241
 20
-10942.75475813
 42
1.30322619
 10
56169.05274054
 20
-10942.7459734
 10
56171.19923766
 20
-10950.83092229
 42
-1.30322619
 10
56166.71643578
 20
-10950.82213756
 10
56168.89460366
 20
-10942.74566351
 42
1.30322619
 10
56164.41180178
 20
-10942.73687878
 10
56166.5582989
 20
-10950.82182766
 42
-1.30322619
 10
56162.07549703
 20
-10950.81304293
 10
56164.2536649
 20
-10942.73656889
 42
1.30322619
 10
56159.77086303
 20
-10942.72778416
 10
56161.91736015
 20
-10950.81273304
 42
-1.30322619
 10
56157.43455827
 20
-10950.80394831
 10
56159.61272615
 20
-10942.72747426
 42
1.30322619
 10
56155.12992428
 20
-10942.71868953
 10
56157.27642139
 20
-10950.80363842
 42
-1.30322619
 10
56152.79361952
 20
-10950.79485369
 10
56154.9717874
 20
-10942.71837964
 42
1.30322619
 10
56150.48898552
 20
-10942.70959491
 10
56152.63548264
 20
-10950.79454379
 42
-1.30322619
 10
56148.15268077
 20
-10950.78575906
 10
56150.33084864
 20
-10942.70928502
 42
1.30322619
 10
56145.84804677
 20
-10942.70050029
 10
56147.99454389
 20
-10950.78544917
 42
-1.30322619
 10
56143.51174201
 20
-10950.77666444
 10
56145.68990989
 20
-10942.70019039
 42
1.30322619
 10
56141.20710801
 20
-10942.69140566
 10
56143.35360513
 20
-10950.77635455
 42
-1.30322619
 10
56138.87080326
 20
-10950.76756982
 10
56141.04897114
 20
-10942.69109577
 42
1.30322619
 10
56136.56616926
 20
-10942.68231104
 10
56138.71266638
 20
-10950.76725992
 42
-1.30322619
 10
56134.2298645
 20
-10950.75847519
 10
56136.40803238
 20
-10942.68200115
 42
1.30322619
 10
56131.92523051
 20
-10942.67321642
 10
56134.07172763
 20
-10950.7581653
 42
-1.30322619
 10
56129.58892575
 20
-10950.74938057
 10
56131.76709363
 20
-10942.67290652
 42
1.30322619
 10
56127.28429175
 20
-10942.66412179
 10
56129.43078887
 20
-10950.74907068
 42
-1.30322619
 10
56124.947987
 20
-10950.74028595
 10
56127.12615487
 20
-10942.6638119
 42
1.30322619
 10
56122.643353
 20
-10942.65502717
 10
56124.78985012
 20
-10950.73997605
 42
-1.30322619
 10
56120.30704824
 20
-10950.73119132
 10
56122.48521612
 20
-10942.65471728
 42
1.30322619
 10
56118.00241425
 20
-10942.64593255
 10
56120.14891136
 20
-10950.73088143
 42
-1.30322619
 10
56115.66610949
 20
-10950.7220967
 10
56117.84427737
 20
-10942.64562265
 42
1.30322619
 10
56113.36147549
 20
-10942.63683792
 10
56115.50797261
 20
-10950.72178681
 42
-1.30322619
 10
56111.02517074
 20
-10950.71300208
 10
56113.20333861
 20
-10942.63652803
 42
1.30322619
 10
56108.72053674
 20
-10942.6277433
 10
56110.86703386
 20
-10950.71269218
 42
-1.30322619
 10
56106.38423198
 20
-10950.70390745
 10
56108.56239986
 20
-10942.62743341
 42
1.30322619
 10
56104.07959798
 20
-10942.61864868
 10
56106.2260951
 20
-10950.70359756
 42
-1.30322619
 10
56101.74329323
 20
-10950.69481283
 10
56103.92146111
 20
-10942.61833878
 42
1.30322619
 10
56099.43865923
 20
-10942.60955405
 10
56101.58515635
 20
-10950.69450294
 42
-1.30322619
 10
56097.10235447
 20
-10950.68571821
 10
56099.28052235
 20
-10942.60924416
 42
0.55385991
 10
56096.60512971
 20
-10939.7249647
  0
LINE
  5
695
100
AcDbEntity
  8
Ech.1_5
 62
     7
  6
CONTINUOUS
100
AcDbLine
 10
55844.24645841
 20
-10647.14736332
 30
0.0
 11
55907.16057531
 21
-10647.14736981
 31
0.0
  0
LINE
  5
696
100
AcDbEntity
  8
Ech.1_5
 62
     7
  6
CONTINUOUS
100
AcDbLine
 10
55844.24645841
 20
-10631.14736332
 30
0.0
 11
55907.16057531
 21
-10631.14736981
 31
0.0
  0
LINE
  5
697
100
AcDbEntity
  8
Ech.1_5
 62
     7
  6
CONTINUOUS
100
AcDbLine
 10
55844.24645841
 20
-10627.14736332
 30
0.0
 11
55907.16057531
 21
-10627.14736981
 31
0.0
  0
LINE
  5
698
100
AcDbEntity
  8
Ech.1_5
 62
     7
  6
CONTINUOUS
100
AcDbLine
 10
55853.74645841
 20
-10631.14736332
 30
0.0
 11
55853.74645841
 21
-10647.14736332
 31
0.0
  0
LINE
  5
699
100
AcDbEntity
  8
Ech.1_5
 62
     7
  6
CONTINUOUS
100
AcDbLine
 10
55844.24645841
 20
-10627.14736332
 30
0.0
 11
55844.24645841
 21
-10651.14736332
 31
0.0
  0
LINE
  5
69A
100
AcDbEntity
  8
Ech.1_5
 62
     7
  6
CONTINUOUS
100
AcDbLine
 10
55842.24645841
 20
-10633.14736332
 30
0.0
 11
55843.44645841
 21
-10633.14736332
 31
0.0
  0
LINE
  5
69B
100
AcDbEntity
  8
Ech.1_5
 62
     7
  6
CONTINUOUS
100
AcDbLine
 10
55842.24645841
 20
-10645.14736332
 30
0.0
 11
55843.44645841
 21
-10645.14736332
 31
0.0
  0
LINE
  5
69C
100
AcDbEntity
  8
Ech.1_5
 62
     7
  6
CONTINUOUS
100
AcDbLine
 10
55842.24645841
 20
-10651.14736332
 30
0.0
 11
55839.24646706
 21
-10627.14735899
 31
0.0
  0
LINE
  5
69D
100
AcDbEntity
  8
Ech.1_5
 62
     7
  6
CONTINUOUS
100
AcDbLine
 10
55842.24645841
 20
-10627.14736332
 30
0.0
 11
55839.24646706
 21
-10651.14736332
 31
0.0
  0
LINE
  5
69E
100
AcDbEntity
  8
Ech.1_5
 62
     7
  6
CONTINUOUS
100
AcDbLine
 10
55839.24646706
 20
-10651.14736332
 30
0.0
 11
55839.24645841
 21
-10627.14736332
 31
0.0
  0
LINE
  5
69F
100
AcDbEntity
  8
Ech.1_5
 62
     7
  6
CONTINUOUS
100
AcDbLine
 10
55839.24645841
 20
-10627.14736332
 30
0.0
 11
55842.24645841
 21
-10627.14736332
 31
0.0
  0
LINE
  5
6A0
100
AcDbEntity
  8
Ech.1_5
 62
     7
  6
CONTINUOUS
100
AcDbLine
 10
55842.24645841
 20
-10627.14736332
 30
0.0
 11
55842.24645841
 21
-10651.14736332
 31
0.0
  0
LINE
  5
6A1
100
AcDbEntity
  8
Ech.1_5
 62
     7
  6
CONTINUOUS
100
AcDbLine
 10
55842.24645841
 20
-10651.14736332
 30
0.0
 11
55839.24645841
 21
-10651.14736332
 31
0.0
  0
LINE
  5
6A2
100
AcDbEntity
  8
Ech.1_5
 62
     7
  6
CONTINUOUS
100
AcDbLine
 10
55784.88319944
 20
-10615.45026701
 30
0.0
 11
55818.83660362
 21
-10617.22968952
 31
0.0
  0
LINE
  5
6A3
100
AcDbEntity
  8
Ech.1_5
 62
     7
  6
CENTER
100
AcDbLine
 10
55772.11729146
 20
-10615.0129683
 30
0.0
 11
55772.11729146
 21
-10639.95037264
 31
0.0
  0
ARC
  5
6A4
100
AcDbEntity
  8
Ech.1_5
 62
     7
  6
CONTINUOUS
100
AcDbCircle
 10
55773.30656845
 20
-10618.3483647
 30
0.0
 40
6.59090909
100
AcDbArc
 50
96.52728338
 51
257.47271662
  0
LINE
  5
6A5
100
AcDbEntity
  8
Ech.1_5
 62
     7
  6
CONTINUOUS
100
AcDbLine
 10
55783.38737832
 20
-10624.88491163
 30
0.0
 11
55784.0154098
 21
-10612.90135722
 31
0.0
  0
LINE
  5
6A6
100
AcDbEntity
  8
Ech.1_5
 62
     7
  6
CONTINUOUS
100
AcDbLine
 10
55784.41217583
 20
-10624.43793282
 30
0.0
 11
55784.98787135
 21
-10613.45300794
 31
0.0
  0
LINE
  5
6A7
100
AcDbEntity
  8
Ech.1_5
 62
     7
  6
CONTINUOUS
100
AcDbLine
 10
55764.11729146
 20
-10625.89789056
 30
0.0
 11
55764.11729146
 21
-10613.57328109
 31
0.0
  0
LINE
  5
6A8
100
AcDbEntity
  8
Ech.1_5
 62
     7
  6
CONTINUOUS
100
AcDbLine
 10
55779.11401903
 20
-10612.14380004
 30
0.0
 11
55778.26741344
 21
-10611.08554304
 31
0.0
  0
LINE
  5
6A9
100
AcDbEntity
  8
Ech.1_5
 62
     7
  6
CONTINUOUS
100
AcDbLine
 10
55783.54226301
 20
-10612.37587447
 30
0.0
 11
55772.55733812
 21
-10611.80017895
 31
0.0
  0
ARC
  5
6AA
100
AcDbEntity
  8
Ech.1_5
 62
     7
  6
CONTINUOUS
100
AcDbCircle
 10
55783.51609503
 20
-10612.87518924
 30
0.0
 40
0.5
100
AcDbArc
 50
357.0
 51
87.0
  0
LINE
  5
6AB
100
AcDbEntity
  8
Ech.1_5
 62
     7
  6
CONTINUOUS
100
AcDbLine
 10
55784.98787135
 20
-10613.45300794
 30
0.0
 11
55783.98924182
 21
-10613.40067198
 31
0.0
  0
LINE
  5
6AC
100
AcDbEntity
  8
Ech.1_5
 62
     7
  6
CONTINUOUS
100
AcDbLine
 10
55777.11729146
 20
-10612.03915598
 30
0.0
 11
55777.11729146
 21
-10610.89789056
 31
0.0
  0
LINE
  5
6AD
100
AcDbEntity
  8
Ech.1_5
 62
     7
  6
CONTINUOUS
100
AcDbLine
 10
55766.35760388
 20
-10610.89789056
 30
0.0
 11
55777.87697903
 21
-10610.89789056
 31
0.0
  0
ARC
  5
6AE
100
AcDbEntity
  8
Ech.1_5
 62
     7
  6
CONTINUOUS
100
AcDbCircle
 10
55777.87697903
 20
-10611.39789056
 30
0.0
 40
0.5
100
AcDbArc
 50
38.65980825
 51
90.00000002
  0
ARC
  5
6AF
100
AcDbEntity
  8
Ech.1_5
 62
     7
  6
CONTINUOUS
100
AcDbCircle
 10
55764.61729146
 20
-10613.57328109
 30
0.0
 40
0.5
100
AcDbArc
 50
141.34019175
 51
180.0
  0
ARC
  5
6B0
100
AcDbEntity
  8
Ech.1_5
 62
     7
  6
CONTINUOUS
100
AcDbCircle
 10
55764.61729146
 20
-10613.57328109
 30
0.0
 40
0.5
100
AcDbArc
 50
141.34019175
 51
180.0
  0
ARC
  5
6B1
100
AcDbEntity
  8
Ech.1_5
 62
     7
  6
CONTINUOUS
100
AcDbCircle
 10
55766.35760388
 20
-10611.39789056
 30
0.0
 40
0.5
100
AcDbArc
 50
89.99999999
 51
141.34019175
  0
LINE
  5
6B2
100
AcDbEntity
  8
Ech.1_5
 62
     7
  6
CONTINUOUS
100
AcDbLine
 10
55767.11729146
 20
-10616.02490326
 30
0.0
 11
55767.11729146
 21
-10610.89789056
 31
0.0
  0
LINE
  5
6B3
100
AcDbEntity
  8
Ech.1_5
 62
     7
  6
CONTINUOUS
100
AcDbLine
 10
55764.22685705
 20
-10613.26093357
 30
0.0
 11
55765.96716947
 21
-10611.08554304
 31
0.0
  0
LINE
  5
6B4
100
AcDbEntity
  8
Ech.1_5
 62
     7
  6
CENTER
100
AcDbLine
 10
55767.64694011
 20
-10618.05175615
 30
0.0
 11
55821.64931638
 21
-10620.88190076
 31
0.0
  0
LINE
  5
6B5
100
AcDbEntity
  8
Ech.1_5
 62
     7
  6
CONTINUOUS
100
AcDbLine
 10
55784.51684775
 20
-10622.44067375
 30
0.0
 11
55818.47025193
 21
-10624.22009626
 31
0.0
  0
ARC
  5
6B6
100
AcDbEntity
  8
Ech.1_5
 62
     7
  6
CONTINUOUS
100
AcDbCircle
 10
55813.01338732
 20
-10620.4293109
 30
0.0
 40
6.64435287
100
AcDbArc
 50
325.21298885
 51
28.78701115
  0
LINE
  5
6B7
100
AcDbEntity
  8
Ech.1_5
 62
     7
  6
CONTINUOUS
100
AcDbLine
 10
55818.47025193
 20
-10624.22009626
 30
0.0
 11
55818.83660362
 21
-10617.22968952
 31
0.0
  0
LINE
  5
6B8
100
AcDbEntity
  8
Ech.1_5
 62
     7
  6
CONTINUOUS
100
AcDbLine
 10
55782.86189558
 20
-10625.35805842
 30
0.0
 11
55771.87697069
 21
-10624.7823629
 31
0.0
  0
LINE
  5
6B9
100
AcDbEntity
  8
Ech.1_5
 62
     7
  6
CONTINUOUS
100
AcDbLine
 10
55781.61729146
 20
-10628.89789056
 30
0.0
 11
55762.61729146
 21
-10628.89789056
 31
0.0
  0
LINE
  5
6BA
100
AcDbEntity
  8
Ech.1_5
 62
     7
  6
CONTINUOUS
100
AcDbLine
 10
55781.11729146
 20
-10625.89789056
 30
0.0
 11
55763.11729146
 21
-10625.89789056
 31
0.0
  0
LINE
  5
6BB
100
AcDbEntity
  8
Ech.1_5
 62
     7
  6
CONTINUOUS
100
AcDbLine
 10
55780.11729146
 20
-10625.89789056
 30
0.0
 11
55780.11729146
 21
-10625.21421982
 31
0.0
  0
ARC
  5
6BC
100
AcDbEntity
  8
Ech.1_5
 62
     7
  6
CONTINUOUS
100
AcDbCircle
 10
55782.88806355
 20
-10624.85874365
 30
0.0
 40
0.5
100
AcDbArc
 50
267.0
 51
357.0
  0
LINE
  5
6BD
100
AcDbEntity
  8
Ech.1_5
 62
     7
  6
CONTINUOUS
100
AcDbLine
 10
55784.41217583
 20
-10624.43793282
 30
0.0
 11
55783.4135463
 21
-10624.38559687
 31
0.0
  0
ARC
  5
6BE
100
AcDbEntity
  8
Ech.1_5
 62
     7
  6
CONTINUOUS
100
AcDbCircle
 10
55781.11729146
 20
-10626.39789056
 30
0.0
 40
0.5
100
AcDbArc
 50
360.0
 51
90.0
  0
LINE
  5
6BF
100
AcDbEntity
  8
Ech.1_5
 62
     7
  6
CONTINUOUS
100
AcDbLine
 10
55780.11729146
 20
-10628.89789056
 30
0.0
 11
55780.11729146
 21
-10625.89789056
 31
0.0
  0
LINE
  5
6C0
100
AcDbEntity
  8
Ech.1_5
 62
     7
  6
CONTINUOUS
100
AcDbLine
 10
55781.61729146
 20
-10626.39789056
 30
0.0
 11
55781.61729146
 21
-10628.89789056
 31
0.0
  0
LINE
  5
6C1
100
AcDbEntity
  8
Ech.1_5
 62
     7
  6
CONTINUOUS
100
AcDbLine
 10
55769.11729146
 20
-10633.89789056
 30
0.0
 11
55769.11729146
 21
-10628.89789056
 31
0.0
  0
LINE
  5
6C2
100
AcDbEntity
  8
Ech.1_5
 62
     7
  6
CONTINUOUS
100
AcDbLine
 10
55775.11729146
 20
-10633.89789056
 30
0.0
 11
55775.11729146
 21
-10628.89789056
 31
0.0
  0
ARC
  5
6C3
100
AcDbEntity
  8
Ech.1_5
 62
     7
  6
CONTINUOUS
100
AcDbCircle
 10
55772.11729146
 20
-10629.8753606
 30
0.0
 40
5.01804218
100
AcDbArc
 50
233.2844502
 51
306.7155498
  0
LINE
  5
6C4
100
AcDbEntity
  8
Ech.1_5
 62
     7
  6
CONTINUOUS
100
AcDbLine
 10
55775.11729146
 20
-10633.89789056
 30
0.0
 11
55769.11729146
 21
-10633.89789056
 31
0.0
  0
LINE
  5
6C5
100
AcDbEntity
  8
Ech.1_5
 62
     7
  6
CONTINUOUS
100
AcDbLine
 10
55777.11729146
 20
-10625.89789056
 30
0.0
 11
55777.11729146
 21
-10625.05699648
 31
0.0
  0
LINE
  5
6C6
100
AcDbEntity
  8
Ech.1_5
 62
     7
  6
CONTINUOUS
100
AcDbLine
 10
55775.11729146
 20
-10627.89789056
 30
0.0
 11
55769.11729146
 21
-10627.89789056
 31
0.0
  0
LINE
  5
6C7
100
AcDbEntity
  8
Ech.1_5
 62
     7
  6
CONTINUOUS
100
AcDbLine
 10
55775.11729146
 20
-10628.89789056
 30
0.0
 11
55775.11729146
 21
-10627.89789056
 31
0.0
  0
LINE
  5
6C8
100
AcDbEntity
  8
Ech.1_5
 62
     7
  6
CONTINUOUS
100
AcDbLine
 10
55769.11729146
 20
-10628.89789056
 30
0.0
 11
55769.11729146
 21
-10627.89789056
 31
0.0
  0
LINE
  5
6C9
100
AcDbEntity
  8
Ech.1_5
 62
     7
  6
CONTINUOUS
100
AcDbLine
 10
55776.11729146
 20
-10626.19789056
 30
0.0
 11
55768.11729146
 21
-10626.19789056
 31
0.0
  0
LINE
  5
6CA
100
AcDbEntity
  8
Ech.1_5
 62
     7
  6
CONTINUOUS
100
AcDbLine
 10
55776.11729146
 20
-10626.19789056
 30
0.0
 11
55776.11729146
 21
-10625.89789056
 31
0.0
  0
ARC
  5
6CB
100
AcDbEntity
  8
Ech.1_5
 62
     7
  6
CONTINUOUS
100
AcDbCircle
 10
55763.11729146
 20
-10626.39789056
 30
0.0
 40
0.5
100
AcDbArc
 50
90.0
 51
180.0
  0
LINE
  5
6CC
100
AcDbEntity
  8
Ech.1_5
 62
     7
  6
CONTINUOUS
100
AcDbLine
 10
55768.11729146
 20
-10626.19789056
 30
0.0
 11
55768.11729146
 21
-10625.89789056
 31
0.0
  0
LINE
  5
6CD
100
AcDbEntity
  8
Ech.1_5
 62
     7
  6
CONTINUOUS
100
AcDbLine
 10
55767.11729146
 20
-10625.89789056
 30
0.0
 11
55767.11729146
 21
-10620.5471714
 31
0.0
  0
LINE
  5
6CE
100
AcDbEntity
  8
Ech.1_5
 62
     7
  6
CONTINUOUS
100
AcDbLine
 10
55764.11729146
 20
-10628.89789056
 30
0.0
 11
55764.11729146
 21
-10625.89789056
 31
0.0
  0
LINE
  5
6CF
100
AcDbEntity
  8
Ech.1_5
 62
     7
  6
CONTINUOUS
100
AcDbLine
 10
55762.61729146
 20
-10626.39789056
 30
0.0
 11
55762.61729146
 21
-10628.89789056
 31
0.0
  0
ARC
  5
6D0
100
AcDbEntity
  8
Ech.1_5
 62
     7
  6
CONTINUOUS
100
AcDbCircle
 10
55842.24647139
 20
-10651.14736548
 30
0.0
 40
3.0
100
AcDbArc
 50
180.0000413
 51
270.0
  0
LINE
  5
6D1
100
AcDbEntity
  8
Ech.1_5
 62
     7
  6
CONTINUOUS
100
AcDbLine
 10
55842.24647139
 20
-10654.14736548
 30
0.0
 11
55852.3148713
 21
-10654.14736548
 31
0.0
  0
ARC
  5
6D2
100
AcDbEntity
  8
Ech.1_5
 62
     7
  6
CONTINUOUS
100
AcDbCircle
 10
55852.3148713
 20
-10656.14736548
 30
0.0
 40
2.0
100
AcDbArc
 50
359.98591679
 51
90.0
  0
ARC
  5
6D3
100
AcDbEntity
  8
Ech.1_5
 62
     7
  6
CONTINUOUS
100
AcDbCircle
 10
55854.27647139
 20
-10657.64736548
 30
0.0
 40
1.5
100
AcDbArc
 50
10.91126456
 51
88.53307366
  0
LINE
  5
6D4
100
AcDbEntity
  8
Ech.1_5
 62
     7
  6
CONTINUOUS
100
AcDbLine
 10
55855.74935366
 20
-10657.36343274
 30
0.0
 11
55855.74935366
 21
-10659.30750071
 31
0.0
  0
ARC
  5
6D5
100
AcDbEntity
  8
Ech.1_5
 62
     7
  6
CONTINUOUS
100
AcDbCircle
 10
55854.74935366
 20
-10659.30750071
 30
0.0
 40
1.0
100
AcDbArc
 50
324.35653925
 51
2.5012899795075E-09
  0
ARC
  5
6D6
100
AcDbEntity
  8
Ech.1_5
 62
     7
  6
CONTINUOUS
100
AcDbCircle
 10
55845.81010502
 20
-10652.89736548
 30
0.0
 40
12.0
100
AcDbArc
 50
270.0
 51
324.35653925
  0
LINE
  5
6D7
100
AcDbEntity
  8
Ech.1_5
 62
     7
  6
CONTINUOUS
100
AcDbLine
 10
55845.81010502
 20
-10664.89736548
 30
0.0
 11
55845.31010502
 21
-10664.89736548
 31
0.0
  0
LINE
  5
6D8
100
AcDbEntity
  8
Ech.1_5
 62
     7
  6
CONTINUOUS
100
AcDbLine
 10
55845.31010502
 20
-10664.89736548
 30
0.0
 11
55845.31010502
 21
-10666.89736548
 31
0.0
  0
LINE
  5
6D9
100
AcDbEntity
  8
Ech.1_5
 62
     7
  6
CONTINUOUS
100
AcDbLine
 10
55845.31010502
 20
-10666.89736548
 30
0.0
 11
55844.31010502
 21
-10667.89736548
 31
0.0
  0
LINE
  5
6DA
100
AcDbEntity
  8
Ech.1_5
 62
     7
  6
CONTINUOUS
100
AcDbLine
 10
55844.31010502
 20
-10667.89736548
 30
0.0
 11
55810.96361688
 21
-10667.89709603
 31
0.0
  0
LINE
  5
6DB
100
AcDbEntity
  8
Ech.1_5
 62
     7
  6
CONTINUOUS
100
AcDbLine
 10
55810.96361688
 20
-10667.89709603
 30
0.0
 11
55808.7985589
 21
-10664.14710561
 31
0.0
  0
LINE
  5
6DC
100
AcDbEntity
  8
Ech.1_5
 62
     7
  6
CONTINUOUS
100
AcDbLine
 10
55808.7985589
 20
-10664.14710561
 30
0.0
 11
55814.21469529
 21
-10664.14710561
 31
0.0
  0
LINE
  5
6DD
100
AcDbEntity
  8
Ech.1_5
 62
     7
  6
CONTINUOUS
100
AcDbLine
 10
55814.21469529
 20
-10664.14710561
 30
0.0
 11
55814.21469529
 21
-10661.24710559
 31
0.0
  0
LINE
  5
6DE
100
AcDbEntity
  8
Ech.1_5
 62
     7
  6
CONTINUOUS
100
AcDbLine
 10
55814.21469529
 20
-10661.24710559
 30
0.0
 11
55804.74866995
 21
-10661.24710559
 31
0.0
  0
ARC
  5
6DF
100
AcDbEntity
  8
Ech.1_5
 62
     7
  6
CONTINUOUS
100
AcDbCircle
 10
55804.74866995
 20
-10660.24710559
 30
0.0
 40
1.0
100
AcDbArc
 50
180.00000082
 51
270.0
  0
LINE
  5
6E0
100
AcDbEntity
  8
Ech.1_5
 62
     7
  6
CONTINUOUS
100
AcDbLine
 10
55803.74866995
 20
-10660.2471056
 30
0.0
 11
55803.74866991
 21
-10657.90798144
 31
0.0
  0
LINE
  5
6E1
100
AcDbEntity
  8
Ech.1_5
 62
     7
  6
CONTINUOUS
100
AcDbLine
 10
55803.74866991
 20
-10657.90798144
 30
0.0
 11
55809.74867023
 21
-10653.70796305
 31
0.0
  0
LINE
  5
6E2
100
AcDbEntity
  8
Ech.1_5
 62
     7
  6
CONTINUOUS
100
AcDbLine
 10
55809.74867023
 20
-10653.70796305
 30
0.0
 11
55809.74867023
 21
-10649.50798138
 31
0.0
  0
LINE
  5
6E3
100
AcDbEntity
  8
Ech.1_5
 62
     7
  6
CONTINUOUS
100
AcDbLine
 10
55809.74867023
 20
-10649.50798138
 30
0.0
 11
55801.74866958
 21
-10648.09736542
 31
0.0
  0
LINE
  5
6E4
100
AcDbEntity
  8
Ech.1_5
 62
     7
  6
CONTINUOUS
100
AcDbLine
 10
55801.74866958
 20
-10648.09736542
 30
0.0
 11
55801.74866882
 21
-10646.09736764
 31
0.0
  0
LINE
  5
6E5
100
AcDbEntity
  8
Ech.1_5
 62
     7
  6
CONTINUOUS
100
AcDbLine
 10
55801.74866882
 20
-10646.09736764
 30
0.0
 11
55803.94866991
 21
-10646.09736764
 31
0.0
  0
LINE
  5
6E6
100
AcDbEntity
  8
Ech.1_5
 62
     7
  6
CONTINUOUS
100
AcDbLine
 10
55803.94866991
 20
-10646.09736764
 30
0.0
 11
55803.94866991
 21
-10644.09736764
 31
0.0
  0
LINE
  5
6E7
100
AcDbEntity
  8
Ech.1_5
 62
     7
  6
CONTINUOUS
100
AcDbLine
 10
55803.94866991
 20
-10644.09736764
 30
0.0
 11
55813.24866991
 21
-10644.09736764
 31
0.0
  0
LINE
  5
6E8
100
AcDbEntity
  8
Ech.1_5
 62
     7
  6
CONTINUOUS
100
AcDbLine
 10
55813.24866991
 20
-10644.09736764
 30
0.0
 11
55813.24866991
 21
-10631.89736764
 31
0.0
  0
LINE
  5
6E9
100
AcDbEntity
  8
Ech.1_5
 62
     7
  6
CONTINUOUS
100
AcDbLine
 10
55813.24866991
 20
-10631.89736764
 30
0.0
 11
55803.94866991
 21
-10631.89736764
 31
0.0
  0
LINE
  5
6EA
100
AcDbEntity
  8
Ech.1_5
 62
     7
  6
CONTINUOUS
100
AcDbLine
 10
55803.94866991
 20
-10631.89736764
 30
0.0
 11
55803.94866991
 21
-10629.89736764
 31
0.0
  0
LINE
  5
6EB
100
AcDbEntity
  8
Ech.1_5
 62
     7
  6
CONTINUOUS
100
AcDbLine
 10
55803.94866991
 20
-10629.89736764
 30
0.0
 11
55801.74866294
 21
-10629.89736764
 31
0.0
  0
LINE
  5
6EC
100
AcDbEntity
  8
Ech.1_5
 62
     7
  6
CONTINUOUS
100
AcDbLine
 10
55801.74866294
 20
-10629.89736764
 30
0.0
 11
55801.74866261
 21
-10628.89736548
 31
0.0
  0
LINE
  5
6ED
100
AcDbEntity
  8
Ech.1_5
 62
     7
  6
CONTINUOUS
100
AcDbLine
 10
55801.74866261
 20
-10628.89736548
 30
0.0
 11
55807.24866261
 21
-10628.89736548
 31
0.0
  0
LINE
  5
6EE
100
AcDbEntity
  8
Ech.1_5
 62
     7
  6
CONTINUOUS
100
AcDbLine
 10
55807.24866261
 20
-10628.89736548
 30
0.0
 11
55807.24866261
 21
-10625.89736548
 31
0.0
  0
LINE
  5
6EF
100
AcDbEntity
  8
Ech.1_5
 62
     7
  6
CONTINUOUS
100
AcDbLine
 10
55807.24866261
 20
-10625.89736548
 30
0.0
 11
55785.74866261
 21
-10625.89736548
 31
0.0
  0
ARC
  5
6F0
100
AcDbEntity
  8
Ech.1_5
 62
     7
  6
CONTINUOUS
100
AcDbCircle
 10
55785.74866261
 20
-10623.89736548
 30
0.0
 40
2.0
100
AcDbArc
 50
180.0
 51
270.0
  0
LINE
  5
6F1
100
AcDbEntity
  8
Ech.1_5
 62
     7
  6
CONTINUOUS
100
AcDbLine
 10
55783.74866261
 20
-10623.89736548
 30
0.0
 11
55783.74866261
 21
-10615.39736557
 31
0.0
  0
ARC
  5
6F2
100
AcDbEntity
  8
Ech.1_5
 62
     7
  6
CONTINUOUS
100
AcDbCircle
 10
55788.74866261
 20
-10615.39736557
 30
0.0
 40
5.0
100
AcDbArc
 50
89.99999541
 51
180.0
  0
LINE
  5
6F3
100
AcDbEntity
  8
Ech.1_5
 62
     7
  6
CONTINUOUS
100
AcDbLine
 10
55788.74866302
 20
-10610.39736557
 30
0.0
 11
55844.31011052
 21
-10610.39737098
 31
0.0
  0
LINE
  5
6F4
100
AcDbEntity
  8
Ech.1_5
 62
     7
  6
CONTINUOUS
100
AcDbLine
 10
55844.31011052
 20
-10610.39737098
 30
0.0
 11
55845.31010502
 21
-10611.39736548
 31
0.0
  0
LINE
  5
6F5
100
AcDbEntity
  8
Ech.1_5
 62
     7
  6
CONTINUOUS
100
AcDbLine
 10
55845.31010502
 20
-10611.39736548
 30
0.0
 11
55845.31010502
 21
-10613.39736548
 31
0.0
  0
LINE
  5
6F6
100
AcDbEntity
  8
Ech.1_5
 62
     7
  6
CONTINUOUS
100
AcDbLine
 10
55845.31010502
 20
-10613.39736548
 30
0.0
 11
55845.81010502
 21
-10613.39736548
 31
0.0
  0
ARC
  5
6F7
100
AcDbEntity
  8
Ech.1_5
 62
     7
  6
CONTINUOUS
100
AcDbCircle
 10
55845.81010502
 20
-10625.39736548
 30
0.0
 40
12.0
100
AcDbArc
 50
35.64346075
 51
90.0
  0
ARC
  5
6F8
100
AcDbEntity
  8
Ech.1_5
 62
     7
  6
CONTINUOUS
100
AcDbCircle
 10
55854.74935366
 20
-10618.98723025
 30
0.0
 40
1.0
100
AcDbArc
 50
4.1688166309352E-09
 51
35.64346074
  0
LINE
  5
6F9
100
AcDbEntity
  8
Ech.1_5
 62
     7
  6
CONTINUOUS
100
AcDbLine
 10
55855.74935366
 20
-10618.98723025
 30
0.0
 11
55855.74935366
 21
-10620.93129822
 31
0.0
  0
ARC
  5
6FA
100
AcDbEntity
  8
Ech.1_5
 62
     7
  6
CONTINUOUS
100
AcDbCircle
 10
55854.27647139
 20
-10620.64736548
 30
0.0
 40
1.5
100
AcDbArc
 50
271.46692634
 51
349.08873545
  0
ARC
  5
6FB
100
AcDbEntity
  8
Ech.1_5
 62
     7
  6
CONTINUOUS
100
AcDbCircle
 10
55852.3148713
 20
-10622.14736548
 30
0.0
 40
2.0
100
AcDbArc
 50
270.0
 51
0.01408321
  0
LINE
  5
6FC
100
AcDbEntity
  8
Ech.1_5
 62
     7
  6
CONTINUOUS
100
AcDbLine
 10
55852.3148713
 20
-10624.14736548
 30
0.0
 11
55842.24645409
 21
-10624.14736548
 31
0.0
  0
ARC
  5
6FD
100
AcDbEntity
  8
Ech.1_5
 62
     7
  6
CONTINUOUS
100
AcDbCircle
 10
55842.24645409
 20
-10627.14736548
 30
0.0
 40
3.0
100
AcDbArc
 50
90.0
 51
180.0000413
  0
LINE
  5
6FE
100
AcDbEntity
  8
Ech.1_5
 62
     7
  6
CONTINUOUS
100
AcDbLine
 10
55839.24645409
 20
-10627.14736764
 30
0.0
 11
55839.24647139
 21
-10651.14736764
 31
0.0
  0
LWPOLYLINE
  5
6FF
100
AcDbEntity
  8
Ech.1_5
 62
     7
  6
CONTINUOUS
100
AcDbPolyline
 90
        5
 70
     0
 43
0.0
 10
55786.92878984
 20
-10626.49736548
 42
-0.73157417
 10
55786.86522854
 20
-10627.95166293
 42
0.1352145
 10
55785.55837954
 20
-10627.71817383
 42
-0.92591457
 10
55785.55837954
 20
-10626.49736548
 10
55786.92878984
 20
-10626.49736548
  0
LWPOLYLINE
  5
700
100
AcDbEntity
  8
Ech.1_5
 62
     7
  6
CONTINUOUS
100
AcDbPolyline
 90
       65
 70
     0
 43
0.0
 10
55786.85826043
 20
-10627.94834789
 10
55786.89605228
 20
-10627.95812338
 10
55786.93356412
 20
-10627.96755018
 10
55786.97051786
 20
-10627.97628199
 10
55787.00663542
 20
-10627.98397253
 10
55787.04163874
 20
-10627.99027551
 10
55787.07524972
 20
-10627.99484466
 10
55787.1071903
 20
-10627.99733367
 10
55787.13718239
 20
-10627.99739627
 10
55787.16494792
 20
-10627.99468617
 10
55787.1902088
 20
-10627.98885709
 10
55787.21268696
 20
-10627.97956274
 10
55787.23210432
 20
-10627.96645683
 10
55787.24818281
 20
-10627.94919309
 10
55787.26075674
 20
-10627.92756088
 10
55787.2701778
 20
-10627.90197396
 10
55787.2769464
 20
-10627.87302563
 10
55787.28156295
 20
-10627.84130916
 10
55787.28452791
 20
-10627.80741785
 10
55787.28634168
 20
-10627.771945
 10
55787.2875047
 20
-10627.7354839
 10
55787.2885174
 20
-10627.69862784
 10
55787.28988019
 20
-10627.66197012
 10
55787.29209353
 20
-10627.62610402
 10
55787.29565781
 20
-10627.59162285
 10
55787.30107349
 20
-10627.5591199
 10
55787.30884098
 20
-10627.52918846
 10
55787.31946071
 20
-10627.50242182
 10
55787.33343312
 20
-10627.47941328
 10
55787.35125862
 20
-10627.46075613
 10
55787.37343764
 20
-10627.44704367
 10
55787.40042859
 20
-10627.43886931
 10
55787.43085126
 20
-10627.43683206
 10
55787.46081149
 20
-10627.44153855
 10
55787.48702685
 20
-10627.45330189
 10
55787.50910998
 20
-10627.47136159
 10
55787.52733398
 20
-10627.49471223
 10
55787.54197199
 20
-10627.52234841
 10
55787.55329712
 20
-10627.55326469
 10
55787.56158248
 20
-10627.58645567
 10
55787.56710121
 20
-10627.62091593
 10
55787.57012716
 20
-10627.65564546
 10
55787.57098292
 20
-10627.68999152
 10
55787.57006844
 20
-10627.72385309
 10
55787.56779053
 20
-10627.75717818
 10
55787.56455601
 20
-10627.78991484
 10
55787.56077171
 20
-10627.82201109
 10
55787.55684445
 20
-10627.85341495
 10
55787.55318105
 20
-10627.88407446
 10
55787.55018833
 20
-10627.91393765
 10
55787.54827312
 20
-10627.94295255
 10
55787.54784223
 20
-10627.97106719
 10
55787.54930249
 20
-10627.99822959
 10
55787.55306072
 20
-10628.02438778
 10
55787.55952374
 20
-10628.0494898
 10
55787.56909838
 20
-10628.07348367
 10
55787.5820719
 20
-10628.09634419
 10
55787.59821324
 20
-10628.11816218
 10
55787.61715087
 20
-10628.13905991
 10
55787.63851326
 20
-10628.15915965
 10
55787.6619289
 20
-10628.17858367
 10
55787.68702624
 20
-10628.19745424
 10
55787.71343376
 20
-10628.21589363
 10
55787.74077995
 20
-10628.23402411
 10
55787.76869326
 20
-10628.25196794
  0
LWPOLYLINE
  5
701
100
AcDbEntity
  8
Ech.1_5
 62
     7
  6
CONTINUOUS
100
AcDbPolyline
 90
       40
 70
     0
 43
0.0
 10
55786.85826043
 20
-10627.94834789
 42
0.20099848
 10
55784.92881726
 20
-10627.85991881
 42
-0.55145662
 10
55784.79488447
 20
-10627.75661336
 42
0.1294239
 10
55784.61062732
 20
-10626.6382054
 42
-0.54354517
 10
55784.70190767
 20
-10626.49736548
 10
55786.92878984
 20
-10626.49736548
 10
55786.92878984
 20
-10626.49736548
 10
55787.42878984
 20
-10626.99736548
 10
55787.92878984
 20
-10626.49736548
 10
55801.04866261
 20
-10626.49736548
 42
-0.41421356
 10
55801.14866261
 20
-10626.59736548
 10
55801.14866261
 20
-10629.79736548
 42
0.41421356
 10
55801.24866261
 20
-10629.89736548
 10
55801.64866261
 20
-10629.89736548
 42
0.41421356
 10
55801.74866261
 20
-10629.79736548
 10
55801.74866261
 20
-10626.99736548
 42
-0.41421356
 10
55801.84866261
 20
-10626.89736548
 10
55804.29801879
 20
-10626.89736548
 42
-0.74863712
 10
55804.35207284
 20
-10627.08149728
 10
55802.3955936
 20
-10628.33852065
 42
0.41421356
 10
55802.36551586
 20
-10628.4767065
 10
55802.58173208
 20
-10628.81323368
 42
0.41421356
 10
55802.71991793
 20
-10628.84331143
 10
55805.70271667
 20
-10626.92688541
 42
0.25526652
 10
55805.74866261
 20
-10626.84275361
 10
55805.74866261
 20
-10625.99736548
 42
0.41421356
 10
55805.64866261
 20
-10625.89736548
 10
55784.04866261
 20
-10625.89736548
 42
0.41421356
 10
55783.94866261
 20
-10625.99736548
 10
55783.94866261
 20
-10626.46398394
 42
0.16012282
 10
55783.96816138
 20
-10626.52330975
 42
-0.24300643
 10
55784.21795642
 20
-10628.08780415
 42
-0.06909489
 10
55784.20583338
 20
-10628.11249518
 42
0.7595554
 10
55784.61198678
 20
-10628.59003302
 42
-0.27525427
 10
55786.64972932
 20
-10628.40283926
 42
0.2097
 10
55790.85331828
 20
-10628.47102906
 42
0.9750995
 10
55790.65990427
 20
-10628.00995312
 42
-0.15529906
 10
55787.80070413
 20
-10628.26524772
 42
-0.06565639
 10
55787.77614157
 20
-10628.25627588
 42
-0.02152096
 10
55787.76869326
 20
-10628.25196794
  0
LINE
  5
702
100
AcDbEntity
  8
Ech.1_5
 62
     7
  6
CONTINUOUS
100
AcDbLine
 10
55804.74866995
 20
-10661.24710559
 30
0.0
 11
55805.64866995
 21
-10661.2471182
 31
0.0
  0
LINE
  5
703
100
AcDbEntity
  8
Ech.1_5
 62
     7
  6
CONTINUOUS
100
AcDbLine
 10
55805.64865314
 20
-10662.4471182
 30
0.0
 11
55807.75008266
 21
-10662.44714763
 31
0.0
  0
LINE
  5
704
100
AcDbEntity
  8
Ech.1_5
 62
     7
  6
CONTINUOUS
100
AcDbLine
 10
55808.60624724
 20
-10661.24715964
 30
0.0
 11
55809.10624724
 21
-10661.24716664
 31
0.0
  0
LINE
  5
705
100
AcDbEntity
  8
Ech.1_5
 62
     7
  6
CONTINUOUS
100
AcDbLine
 10
55805.64865314
 20
-10662.4471182
 30
0.0
 11
55805.64866996
 21
-10661.2471182
 31
0.0
  0
LINE
  5
706
100
AcDbEntity
  8
Ech.1_5
 62
     7
  6
CONTINUOUS
100
AcDbLine
 10
55805.64866995
 20
-10661.2471182
 30
0.0
 11
55808.60624724
 21
-10661.24715964
 31
0.0
  0
LINE
  5
707
100
AcDbEntity
  8
Ech.1_5
 62
     7
  6
CONTINUOUS
100
AcDbLine
 10
55811.77143815
 20
-10662.44720395
 30
0.0
 11
55811.79983777
 21
-10662.44720434
 31
0.0
  0
LINE
  5
708
100
AcDbEntity
  8
Ech.1_5
 62
     7
  6
CONTINUOUS
100
AcDbLine
 10
55812.54222095
 20
-10662.44721474
 30
0.0
 11
55813.44581043
 21
-10662.44722739
 31
0.0
  0
LINE
  5
709
100
AcDbEntity
  8
Ech.1_5
 62
     7
  6
CONTINUOUS
100
AcDbLine
 10
55810.67013095
 20
-10662.44718852
 30
0.0
 11
55811.77143815
 21
-10662.44720395
 31
0.0
  0
ARC
  5
70A
100
AcDbEntity
  8
Ech.1_5
 62
     7
  6
CONTINUOUS
100
AcDbCircle
 10
55812.44580999
 20
-10662.47926366
 30
0.0
 40
1.0
100
AcDbArc
 50
329.99915113
 51
359.99919763
  0
ARC
  5
70B
100
AcDbEntity
  8
Ech.1_5
 62
     7
  6
CONTINUOUS
100
AcDbCircle
 10
55812.64581604
 20
-10662.0472161
 30
0.0
 40
0.8
100
AcDbArc
 50
359.99919762
 51
89.99234457
  0
LINE
  5
70C
100
AcDbEntity
  8
Ech.1_5
 62
     7
  6
CONTINUOUS
100
AcDbLine
 10
55813.44580999
 20
-10662.47927766
 30
0.0
 11
55813.44581604
 21
-10662.0472273
 31
0.0
  0
LINE
  5
70D
100
AcDbEntity
  8
Ech.1_5
 62
     7
  6
CONTINUOUS
100
AcDbLine
 10
55812.64592293
 20
-10661.2472161
 30
0.0
 11
55812.44711273
 21
-10661.24721332
 31
0.0
  0
LINE
  5
70E
100
AcDbEntity
  8
Ech.1_5
 62
     7
  6
CONTINUOUS
100
AcDbLine
 10
55812.44711273
 20
-10661.24721332
 30
0.0
 11
55812.30736501
 21
-10661.24721137
 31
0.0
  0
LINE
  5
70F
100
AcDbEntity
  8
Ech.1_5
 62
     7
  6
CONTINUOUS
100
AcDbLine
 10
55811.79983777
 20
-10662.44720434
 30
0.0
 11
55812.54222095
 21
-10662.44721474
 31
0.0
  0
LINE
  5
710
100
AcDbEntity
  8
Ech.1_5
 62
     7
  6
CONTINUOUS
100
AcDbLine
 10
55807.75008266
 20
-10662.44714763
 30
0.0
 11
55810.67013095
 21
-10662.44718852
 31
0.0
  0
LINE
  5
711
100
AcDbEntity
  8
Ech.1_5
 62
     7
  6
CONTINUOUS
100
AcDbLine
 10
55812.30736501
 20
-10661.24721137
 30
0.0
 11
55809.10624724
 21
-10661.24716664
 31
0.0
  0
HATCH
  5
712
100
AcDbEntity
  8
Ech.1_5
 62
     7
100
AcDbHatch
 10
0.0
 20
0.0
 30
0.0
210
0.0
220
0.0
230
1.0
  2
_USER_1
 70
     0
 71
     0
 91
        1
 92
        7
 72
     0
 73
     1
 93
       19
 10
55813.44581604
 20
-10662.0472273
 10
55813.44581043
 20
-10662.44722739
 10
55805.64865314
 20
-10662.4471182
 10
55805.64866996
 20
-10661.2471182
 10
55808.60624724
 20
-10661.24715964
 10
55809.10624724
 20
-10661.24716664
 10
55812.30736501
 20
-10661.24721137
 10
55812.44711273
 20
-10661.24721332
 10
55812.64592293
 20
-10661.2472161
 10
55812.7597651
 20
-10661.25537292
 10
55812.87128795
 20
-10661.27964693
 10
55812.97822154
 20
-10661.31954407
 10
55813.07838934
 20
-10661.37425225
 10
55813.16975253
 20
-10661.44265795
 10
55813.25045151
 20
-10661.52336885
 10
55813.31884373
 20
-10661.61474214
 10
55813.37353713
 20
-10661.71491801
 10
55813.41341847
 20
-10661.82185749
 10
55813.43767602
 20
-10661.93338392
 97
        0
 75
     0
 76
     2
 52
0.0
 41
1.0
 77
     0
 78
     1
 53
135.00079346
 43
0.0
 44
0.0
 45
-1.76774247
 46
-1.76779143
 79
     2
 49
50.0
 49
0.0
 47
0.775229
 98
        1
 10
0.0
 20
0.0
  0
ARC
  5
713
100
AcDbEntity
  8
Ech.1_5
 62
     7
  6
CONTINUOUS
100
AcDbCircle
 10
55807.45005753
 20
-10664.24137928
 30
0.0
 40
0.3
100
AcDbArc
 50
269.99919763
 51
359.99919763
  0
LINE
  5
714
100
AcDbEntity
  8
Ech.1_5
 62
     7
  6
CONTINUOUS
100
AcDbLine
 10
55805.94862381
 20
-10664.54135826
 30
0.0
 11
55807.45005333
 21
-10664.54137928
 31
0.0
  0
ARC
  5
715
100
AcDbEntity
  8
Ech.1_5
 62
     7
  6
CONTINUOUS
100
AcDbCircle
 10
55808.3988703
 20
-10665.64139257
 30
0.0
 40
0.3
100
AcDbArc
 50
29.99919762
 51
89.99919763
  0
ARC
  5
716
100
AcDbEntity
  8
Ech.1_5
 62
     7
  6
CONTINUOUS
100
AcDbCircle
 10
55805.92250598
 20
-10665.64135789
 30
0.0
 40
0.3
100
AcDbArc
 50
89.99919762
 51
171.66297769
  0
ARC
  5
717
100
AcDbEntity
  8
Ech.1_5
 62
     7
  6
CONTINUOUS
100
AcDbCircle
 10
55805.94862802
 20
-10664.24135826
 30
0.0
 40
0.3
100
AcDbArc
 50
179.99919764
 51
269.99919762
  0
ARC
  5
718
100
AcDbEntity
  8
Ech.1_5
 62
     7
  6
CONTINUOUS
100
AcDbCircle
 10
55809.61466027
 20
-10663.74717364
 30
0.0
 40
1.0
100
AcDbArc
 50
179.99919763
 51
209.99919762
  0
ARC
  5
719
100
AcDbEntity
  8
Ech.1_5
 62
     7
  6
CONTINUOUS
100
AcDbCircle
 10
55809.40714026
 20
-10666.38779958
 30
0.0
 40
0.2
100
AcDbArc
 50
209.99919762
 51
269.99919763
  0
LINE
  5
71A
100
AcDbEntity
  8
Ech.1_5
 62
     7
  6
CONTINUOUS
100
AcDbLine
 10
55808.3988745
 20
-10665.34139257
 30
0.0
 11
55805.92251018
 21
-10665.34135789
 31
0.0
  0
LINE
  5
71B
100
AcDbEntity
  8
Ech.1_5
 62
     7
  6
CONTINUOUS
100
AcDbLine
 10
55809.23393378
 20
-10666.48779716
 30
0.0
 11
55808.65868002
 21
-10665.49139621
 31
0.0
  0
ARC
  5
71C
100
AcDbEntity
  8
Ech.1_5
 62
     7
  6
CONTINUOUS
100
AcDbCircle
 10
55805.46381855
 20
-10667.52434949
 30
0.0
 40
0.71967841
100
AcDbArc
 50
186.3682794
 51
272.15422193
  0
ARC
  5
71D
100
AcDbEntity
  8
Ech.1_5
 62
     7
  6
CONTINUOUS
100
AcDbCircle
 10
55805.66297415
 20
-10667.83483684
 30
0.0
 40
0.2
100
AcDbArc
 50
94.75462476
 51
160.23931181
  0
ARC
  5
71E
100
AcDbEntity
  8
Ech.1_5
 62
     7
  6
CONTINUOUS
100
AcDbCircle
 10
55808.25253369
 20
-10667.95040277
 30
0.0
 40
0.3
100
AcDbArc
 50
41.62452239
 51
94.75462473
  0
ARC
  5
71F
100
AcDbEntity
  8
Ech.1_5
 62
     7
  6
CONTINUOUS
100
AcDbCircle
 10
55805.37776456
 20
-10667.64332463
 30
0.0
 40
0.15734085
100
AcDbArc
 50
100.68854034
 51
308.05468956
  0
ARC
  5
720
100
AcDbEntity
  8
Ech.1_5
 62
     7
  6
CONTINUOUS
100
AcDbCircle
 10
55808.63915359
 20
-10667.67136776
 30
0.0
 40
0.18089908
100
AcDbArc
 50
206.16228875
 51
94.07750255
  0
LINE
  5
721
100
AcDbEntity
  8
Ech.1_5
 62
     7
  6
CONTINUOUS
100
AcDbLine
 10
55805.64639642
 20
-10667.63552508
 30
0.0
 11
55808.2276671
 21
-10667.65143513
 31
0.0
  0
LINE
  5
722
100
AcDbEntity
  8
Ech.1_5
 62
     7
  6
CONTINUOUS
100
AcDbLine
 10
55805.62567629
 20
-10665.59785922
 30
0.0
 11
55805.34858254
 21
-10667.48871366
 31
0.0
  0
ARC
  5
723
100
AcDbEntity
  8
Ech.1_5
 62
     7
  6
CONTINUOUS
100
AcDbCircle
 10
55810.30743302
 20
-10667.14718342
 30
0.0
 40
0.1
100
AcDbArc
 50
273.32793489
 51
29.99919763
  0
ARC
  5
724
100
AcDbEntity
  8
Ech.1_5
 62
     7
  6
CONTINUOUS
100
AcDbCircle
 10
55810.26683595
 20
-10666.44902545
 30
0.0
 40
0.79933731
100
AcDbArc
 50
262.62351877
 51
273.32793487
  0
ARC
  5
725
100
AcDbEntity
  8
Ech.1_5
 62
     7
  6
CONTINUOUS
100
AcDbCircle
 10
55811.49247191
 20
-10663.44871745
 30
0.0
 40
0.3
100
AcDbArc
 50
123.72102228
 51
293.65562081
  0
LINE
  5
726
100
AcDbEntity
  8
Ech.1_5
 62
     7
  6
CONTINUOUS
100
AcDbLine
 10
55810.39403626
 20
-10667.09718463
 30
0.0
 11
55808.74862786
 21
-10664.24716151
 31
0.0
  0
ARC
  5
727
100
AcDbEntity
  8
Ech.1_5
 62
     7
  6
CONTINUOUS
100
AcDbCircle
 10
55809.49605035
 20
-10663.45667516
 30
0.0
 40
0.3
100
AcDbArc
 50
130.57753821
 51
300.51213674
  0
LINE
  5
728
100
AcDbEntity
  8
Ech.1_5
 62
     7
  6
CONTINUOUS
100
AcDbLine
 10
55813.31182798
 20
-10662.97927649
 30
0.0
 11
55811.61284343
 21
-10663.72350955
 31
0.0
  0
LINE
  5
729
100
AcDbEntity
  8
Ech.1_5
 62
     7
  6
CONTINUOUS
100
AcDbLine
 10
55804.74858092
 20
-10667.60417531
 30
0.0
 11
55804.74866995
 21
-10661.24710559
 31
0.0
  0
LINE
  5
72A
100
AcDbEntity
  8
Ech.1_5
 62
     7
  6
CONTINUOUS
100
AcDbLine
 10
55807.75008266
 20
-10662.44714763
 30
0.0
 11
55807.75005753
 21
-10664.24138348
 31
0.0
  0
LINE
  5
72B
100
AcDbEntity
  8
Ech.1_5
 62
     7
  6
CONTINUOUS
100
AcDbLine
 10
55805.64862802
 20
-10664.24135406
 30
0.0
 11
55805.64865314
 21
-10662.4471182
 31
0.0
  0
LINE
  5
72C
100
AcDbEntity
  8
Ech.1_5
 62
     7
  6
CONTINUOUS
100
AcDbLine
 10
55808.61467847
 20
-10662.44715974
 30
0.0
 11
55808.61466027
 21
-10663.74715963
 31
0.0
  0
LINE
  5
72D
100
AcDbEntity
  8
Ech.1_5
 62
     7
  6
CONTINUOUS
100
AcDbLine
 10
55812.45257595
 20
-10662.44721349
 30
0.0
 11
55811.32592702
 21
-10663.1991923
 31
0.0
  0
LINE
  5
72E
100
AcDbEntity
  8
Ech.1_5
 62
     7
  6
CONTINUOUS
100
AcDbLine
 10
55810.21358062
 20
-10662.44718213
 30
0.0
 11
55809.3009074
 21
-10663.22881725
 31
0.0
  0
LINE
  5
72F
100
AcDbEntity
  8
Ech.1_5
 62
     7
  6
CONTINUOUS
100
AcDbLine
 10
55811.79983777
 20
-10662.44720434
 30
0.0
 11
55809.64836661
 21
-10663.71513165
 31
0.0
  0
ARC
  5
730
100
AcDbEntity
  8
Ech.1_5
 62
     7
  6
CONTINUOUS
100
AcDbCircle
 10
55810.14718266
 20
-10667.89638087
 30
0.0
 40
0.35
100
AcDbArc
 50
44.75462472
 51
82.47710657
  0
ARC
  5
731
100
AcDbEntity
  8
Ech.1_5
 62
     7
  6
CONTINUOUS
100
AcDbCircle
 10
55810.14718266
 20
-10667.89638087
 30
0.0
 40
0.35
100
AcDbArc
 50
274.75462476
 51
314.75462472
  0
ARC
  5
732
100
AcDbEntity
  8
Ech.1_5
 62
     7
  6
CONTINUOUS
100
AcDbCircle
 10
55810.14718266
 20
-10667.89638087
 30
0.0
 40
0.35
100
AcDbArc
 50
314.75462474
 51
44.75462474
  0
LINE
  5
733
100
AcDbEntity
  8
Ech.1_5
 62
     7
  6
CONTINUOUS
100
AcDbLine
 10
55805.49087083
 20
-10668.24351928
 30
0.0
 11
55810.17619368
 21
-10668.24517646
 31
0.0
  0
LINE
  5
734
100
AcDbEntity
  8
Ech.1_5
 62
     7
  6
CONTINUOUS
100
AcDbLine
 10
55810.19300547
 20
-10667.54939345
 30
0.0
 11
55809.35672637
 21
-10667.31552536
 31
0.0
  0
ARC
  5
735
100
AcDbEntity
  8
Ech.1_5
 62
     7
  6
CONTINUOUS
100
AcDbCircle
 10
55809.37688372
 20
-10666.71497272
 30
0.0
 40
0.13072221
100
AcDbArc
 50
175.44010615
 51
76.61841135
  0
LINE
  5
736
100
AcDbEntity
  8
Ech.1_5
 62
     7
  6
CONTINUOUS
100
AcDbLine
 10
55810.16421022
 20
-10667.2417474
 30
0.0
 11
55809.18941813
 21
-10667.07568995
 31
0.0
  0
LINE
  5
737
100
AcDbEntity
  8
Ech.1_5
 62
     7
  6
CONTINUOUS
100
AcDbLine
 10
55808.62629062
 20
-10667.49092658
 30
0.0
 11
55807.94903696
 21
-10667.39577674
 31
0.0
  0
ARC
  5
738
100
AcDbEntity
  8
Ech.1_5
 62
     7
  6
CONTINUOUS
100
AcDbCircle
 10
55808.0286059
 20
-10666.54331451
 30
0.0
 40
0.85616766
100
AcDbArc
 50
220.10312529
 51
264.66745481
  0
ARC
  5
739
100
AcDbEntity
  8
Ech.1_5
 62
     7
  6
CONTINUOUS
100
AcDbCircle
 10
55807.45022364
 20
-10667.03041152
 30
0.0
 40
0.1
100
AcDbArc
 50
138.94922935
 51
220.10312531
  0
ARC
  5
73A
100
AcDbEntity
  8
Ech.1_5
 62
     7
  6
CONTINUOUS
100
AcDbCircle
 10
55808.0286059
 20
-10666.54331451
 30
0.0
 40
0.85616766
100
AcDbArc
 50
146.09413302
 51
179.34195758
  0
ARC
  5
73B
100
AcDbEntity
  8
Ech.1_5
 62
     7
  6
CONTINUOUS
100
AcDbCircle
 10
55807.40102064
 20
-10666.12150143
 30
0.0
 40
0.1
100
AcDbArc
 50
65.1272658
 51
146.09413298
  0
ARC
  5
73C
100
AcDbEntity
  8
Ech.1_5
 62
     7
  6
CONTINUOUS
100
AcDbCircle
 10
55808.0286059
 20
-10666.54331451
 30
0.0
 40
0.45616766
100
AcDbArc
 50
108.45221529
 51
264.66745481
  0
ARC
  5
73D
100
AcDbEntity
  8
Ech.1_5
 62
     7
  6
CONTINUOUS
100
AcDbCircle
 10
55806.32790009
 20
-10677.25626447
 30
0.0
 40
10.39192391
100
AcDbArc
 50
73.05463793
 51
80.8176593
  0
ARC
  5
73E
100
AcDbEntity
  8
Ech.1_5
 62
     7
  6
CONTINUOUS
100
AcDbCircle
 10
55809.22364716
 20
-10666.66870062
 30
0.0
 40
0.40842618
100
AcDbArc
 50
226.93764348
 51
265.19256515
  0
LINE
  5
73F
100
AcDbEntity
  8
Ech.1_5
 62
     7
  6
CONTINUOUS
100
AcDbLine
 10
55809.24657528
 20
-10666.70458015
 30
0.0
 11
55808.46122879
 21
-10665.80173168
 31
0.0
  0
LINE
  5
740
100
AcDbEntity
  8
Ech.1_5
 62
     7
  6
CONTINUOUS
100
AcDbLine
 10
55808.94477625
 20
-10666.96710129
 30
0.0
 11
55808.21883095
 21
-10666.13254149
 31
0.0
  0
ARC
  5
741
100
AcDbEntity
  8
Ech.1_5
 62
     7
  6
CONTINUOUS
100
AcDbCircle
 10
55808.01326828
 20
-10666.70499665
 30
0.0
 40
1.00824413
100
AcDbArc
 50
63.62158809
 51
101.93839713
  0
LINE
  5
742
100
AcDbEntity
  8
Ech.1_5
 62
     7
  6
CONTINUOUS
100
AcDbLine
 10
55844.24645841
 20
-10651.14736332
 30
0.0
 11
55907.16057531
 21
-10651.14736332
 31
0.0
  0
ARC
  5
743
100
AcDbEntity
  8
Ech.1_5
 62
     7
  6
CONTINUOUS
100
AcDbCircle
 10
55808.01326828
 20
-10666.70499665
 30
0.0
 40
0.60824413
100
AcDbArc
 50
70.24731718
 51
102.24902159
  0
ARC
  5
744
100
AcDbEntity
  8
Ech.1_5
 62
     7
  6
CONTINUOUS
100
AcDbCircle
 10
55807.22266287
 20
-10666.83224167
 30
0.0
 40
0.20175353
100
AcDbArc
 50
318.94922937
 51
80.4958535
  0
ARC
  5
745
100
AcDbEntity
  8
Ech.1_5
 62
     7
  6
CONTINUOUS
100
AcDbCircle
 10
55807.27248811
 20
-10666.53463011
 30
0.0
 40
0.1
100
AcDbArc
 50
179.34195755
 51
260.49585354
  0
ARC
  5
746
100
AcDbEntity
  8
Ech.1_5
 62
     7
  6
CONTINUOUS
100
AcDbCircle
 10
55807.52720187
 20
-10665.84932815
 30
0.0
 40
0.2
100
AcDbArc
 50
245.1272658
 51
6.30202509
  0
ARC
  5
747
100
AcDbEntity
  8
Ech.1_5
 62
     7
  6
CONTINUOUS
100
AcDbCircle
 10
55807.825389
 20
-10665.81639732
 30
0.0
 40
0.1
100
AcDbArc
 50
101.93839714
 51
186.30202513
  0
LWPOLYLINE
  5
748
100
AcDbEntity
  8
Ech.1_5
 62
     7
  6
CONTINUOUS
100
AcDbPolyline
 90
       99
 70
     0
 43
0.0
 10
55853.47060605
 20
-10625.9205659
 10
55850.09999003
 20
-10627.14736981
 10
55845.14645841
 20
-10627.14736981
 10
55844.84645841
 20
-10626.84736981
 10
55844.14645841
 20
-10626.84736981
 42
0.95548796
 10
55844.11009478
 20
-10627.64571348
 42
-0.38779458
 10
55844.24645841
 20
-10627.79509236
 10
55844.24645841
 20
-10631.03025334
 42
-0.34415073
 10
55844.13283876
 20
-10631.17577472
 10
55843.56007807
 20
-10631.31896489
 42
0.34415073
 10
55843.44645841
 20
-10631.46448627
 10
55843.44645841
 20
-10646.83025334
 42
0.34415073
 10
55843.56007807
 20
-10646.97577472
 10
55844.13283876
 20
-10647.11896489
 42
-0.34415073
 10
55844.24645841
 20
-10647.26448627
 10
55844.24645841
 20
-10650.49964725
 42
-0.38779458
 10
55844.11009478
 20
-10650.64902613
 42
0.95548796
 10
55844.14645841
 20
-10651.44736981
 10
55844.84645841
 20
-10651.44736981
 10
55845.14645841
 20
-10651.14736981
 10
55850.09999003
 20
-10651.14736981
 10
55853.44519251
 20
-10652.36492394
 42
1.10738051
 10
55853.53572186
 20
-10652.11619659
 10
55852.23413224
 20
-10651.7876633
 42
-0.93251509
 10
55852.34713825
 20
-10651.14916994
 10
55854.76814056
 20
-10651.47601376
 42
0.18531675
 10
55855.42202649
 20
-10651.32133461
 42
-0.15081813
 10
55855.98564503
 20
-10651.14736981
 10
55856.27690674
 20
-10651.14736981
 10
55857.27690674
 20
-10651.14736981
 42
-0.30843151
 10
55857.63251952
 20
-10651.40459398
 42
-0.26795044
 10
55855.39095956
 20
-10656.67122547
 42
-0.52171267
 10
55855.14851737
 20
-10656.62921384
 42
0.15565301
 10
55854.04609383
 20
-10655.79815631
 10
55854.24645841
 20
-10654.1407559
 42
0.31529879
 10
55854.11486244
 20
-10653.95281738
 10
55851.43951003
 20
-10652.97906874
 42
0.87140053
 10
55851.39321471
 20
-10653.06664514
 10
55852.11171813
 20
-10653.58340548
 42
-1.00812133
 10
55851.80252828
 20
-10654.10363669
 10
55849.49772897
 20
-10652.62641269
 42
0.14346618
 10
55849.22792328
 20
-10652.54736981
 10
55847.64668769
 20
-10652.54736981
 42
0.72472287
 10
55847.58752409
 20
-10652.72799033
 10
55848.47585137
 20
-10653.37989181
 42
-0.94855512
 10
55848.01018274
 20
-10654.08952799
 10
55846.06036341
 20
-10652.64555767
 42
0.16072186
 10
55845.76279492
 20
-10652.54736981
 10
55844.204958
 20
-10652.54736981
 42
-0.08748866
 10
55844.13655398
 20
-10652.53530833
 10
55842.34515539
 20
-10651.88329257
 42
-0.31529879
 10
55842.24645841
 20
-10651.74233868
 10
55842.24645841
 20
-10650.36448627
 42
-0.34415073
 10
55842.36007807
 20
-10650.21896489
 10
55842.93283876
 20
-10650.07577472
 42
0.34415073
 10
55843.04645841
 20
-10649.93025334
 10
55843.04645841
 20
-10648.16448627
 42
0.34415073
 10
55842.93283876
 20
-10648.01896489
 10
55842.36007807
 20
-10647.87577472
 42
-0.34415073
 10
55842.24645841
 20
-10647.73025334
 10
55842.24645841
 20
-10630.56448627
 42
-0.34415073
 10
55842.36007807
 20
-10630.41896489
 10
55842.93283876
 20
-10630.27577472
 42
0.34415073
 10
55843.04645841
 20
-10630.13025334
 10
55843.04645841
 20
-10628.36448627
 42
0.34415073
 10
55842.93283876
 20
-10628.21896489
 10
55842.36007807
 20
-10628.07577472
 42
-0.34415073
 10
55842.24645841
 20
-10627.93025334
 10
55842.24645841
 20
-10626.55240094
 42
-0.31529879
 10
55842.34515539
 20
-10626.41144704
 10
55844.13655398
 20
-10625.75943128
 42
-0.08748866
 10
55844.204958
 20
-10625.74736981
 10
55845.76279492
 20
-10625.74736981
 42
0.16072186
 10
55846.06036341
 20
-10625.64918194
 10
55848.01018274
 20
-10624.20521162
 42
-0.94855512
 10
55848.47585137
 20
-10624.9148478
 10
55847.58752409
 20
-10625.56674928
 42
0.72472287
 10
55847.64668769
 20
-10625.74736981
 10
55849.22792328
 20
-10625.74736981
 42
0.14346618
 10
55849.49772897
 20
-10625.66832692
 10
55851.80252828
 20
-10624.19110293
 42
-1.00812133
 10
55852.11171813
 20
-10624.71133413
 10
55851.39321471
 20
-10625.22809447
 42
0.87140053
 10
55851.43951003
 20
-10625.31567087
 10
55854.11486244
 20
-10624.34192223
 42
0.31529879
 10
55854.24645841
 20
-10624.15398371
 10
55854.04609383
 20
-10622.49654298
 42
0.15565608
 10
55855.14849909
 20
-10621.66550651
 42
-0.52171267
 10
55855.39094128
 20
-10621.62349488
 42
-0.26794928
 10
55857.63251952
 20
-10626.89014563
 42
-0.30843151
 10
55857.27690674
 20
-10627.14736981
 10
55856.27690674
 20
-10627.14736981
 10
55855.98564503
 20
-10627.14736981
 42
-0.15081813
 10
55855.42202649
 20
-10626.973405
 42
0.18531675
 10
55854.76814056
 20
-10626.81872585
 10
55852.34713825
 20
-10627.14556967
 42
-0.93251509
 10
55852.23413224
 20
-10626.50707631
 10
55853.53572186
 20
-10626.17854302
 42
1.10738051
 10
55853.44519251
 20
-10625.92981567
  0
LWPOLYLINE
  5
749
100
AcDbEntity
  8
Ech.1_5
 62
     7
  6
CONTINUOUS
100
AcDbPolyline
 90
       25
 70
     0
 43
0.0
 10
55782.74556791
 20
-10686.39800614
 10
55764.72396412
 20
-10686.3979272
 42
-0.40824515
 10
55763.74443676
 20
-10685.39808305
 10
55763.74450662
 20
-10684.09812281
 10
55758.74452059
 20
-10684.09806693
 42
-0.41421487
 10
55757.74453457
 20
-10683.09804849
 10
55757.74533096
 20
-10639.89815987
 42
0.41422032
 10
55756.74533096
 20
-10638.89813678
 10
55753.24536589
 20
-10638.89813678
 42
-0.41421356
 10
55751.74536589
 20
-10637.39813678
 10
55751.74536589
 20
-10634.89810396
 42
-0.41421036
 10
55757.74530024
 20
-10628.89810396
 10
55796.74838518
 20
-10628.89767717
 42
-0.41421752
 10
55797.7483987
 20
-10629.89767717
 10
55797.7483987
 20
-10659.88716288
 42
-0.36397023
 10
55796.92204688
 20
-10660.87197063
 10
55794.4671896
 20
-10661.3048282
 42
0.31529879
 10
55793.65603002
 20
-10662.11598778
 10
55792.75534454
 20
-10667.22402899
 42
0.46630766
 10
55793.74015229
 20
-10668.39767717
 10
55814.75338955
 20
-10668.39767717
 42
-0.44001053
 10
55815.74958425
 20
-10669.48483291
 10
55814.429589
 20
-10684.5724477
 42
-0.38887999
 10
55812.43719084
 20
-10686.39813621
 10
55782.74556791
 20
-10686.39800614
  0
LWPOLYLINE
  5
74A
102
{ACAD_REACTORS
330
74B
102
}
100
AcDbEntity
  8
Ech.1_5
 62
   190
  6
CONTINUOUS
370
    -3
100
AcDbPolyline
 90
        4
 70
     1
 43
0.0
 10
55757.74533096
 20
-10639.89815987
 10
55757.74533096
 20
-10679.39834226
 10
55739.73345231
 20
-10679.39834226
 10
55739.73345231
 20
-10639.89815987
  0
HATCH
  5
74B
100
AcDbEntity
  8
Ech.1_5
 62
   190
  6
CONTINUOUS
100
AcDbHatch
 10
0.0
 20
0.0
 30
0.0
210
0.0
220
0.0
230
1.0
  2
ANSI37
 70
     0
 71
     1
 91
        1
 92
        7
 72
     0
 73
     1
 93
        4
 10
55757.74533096
 20
-10639.89815987
 10
55757.74533096
 20
-10679.39834226
 10
55739.73345231
 20
-10679.39834226
 10
55739.73345231
 20
-10639.89815987
 97
        1
330
74A
 75
     0
 76
     2
 52
0.0
 41
1.57480317
 77
     0
 78
     2
 53
45.0
 43
0.0
 44
0.0
 45
3.53553391
 46
-3.53553391
 79
     0
 53
-45.0
 43
0.0
 44
0.0
 45
3.53553391
 46
3.53553391
 79
     0
 47
0.775229
 98
        1
 10
0.0
 20
0.0
  0
LWPOLYLINE
  5
74C
102
{ACAD_REACTORS
330
74D
102
}
100
AcDbEntity
  8
Ech.1_5
 62
   190
  6
CONTINUOUS
100
AcDbPolyline
 90
       24
 70
     1
 43
0.0
 10
55725.02351951
 20
-10697.1056004
 10
55707.00191573
 20
-10697.10552146
 42
-0.40824515
 10
55706.02238837
 20
-10696.10567731
 10
55706.02245823
 20
-10694.80571708
 10
55701.0224722
 20
-10694.80566119
 42
-0.41421487
 10
55700.02248617
 20
-10693.80564275
 10
55700.02328257
 20
-10650.60575413
 42
0.41422032
 10
55699.02328257
 20
-10649.60573105
 10
55695.5233175
 20
-10649.60573105
 42
-0.41421356
 10
55694.0233175
 20
-10648.10573105
 10
55694.0233175
 20
-10645.60569822
 42
-0.41421036
 10
55700.02325185
 20
-10639.60569822
 10
55739.02633679
 20
-10639.60527143
 42
-0.41421752
 10
55740.02635031
 20
-10640.60527143
 10
55740.02635031
 20
-10670.59475714
 42
-0.36397023
 10
55739.19999848
 20
-10671.57956489
 10
55736.74514121
 20
-10672.01242246
 42
0.31529879
 10
55735.93398163
 20
-10672.82358204
 10
55735.03329615
 20
-10677.93162325
 42
0.46630766
 10
55736.0181039
 20
-10679.10527143
 10
55757.03134116
 20
-10679.10527143
 42
-0.44001053
 10
55758.02753586
 20
-10680.19242717
 10
55756.70754061
 20
-10695.28004196
 42
-0.38887999
 10
55754.71514245
 20
-10697.10573047
  0
HATCH
  5
74D
100
AcDbEntity
  8
Ech.1_5
 62
   190
  6
CONTINUOUS
100
AcDbHatch
 10
0.0
 20
0.0
 30
0.0
210
0.0
220
0.0
230
1.0
  2
ANSI31
 70
     0
 71
     1
 91
        1
 92
        7
 72
     1
 73
     1
 93
       24
 10
55725.02351951
 20
-10697.1056004
 42
0.0
 10
55707.00191573
 20
-10697.10552146
 42
-0.40824515
 10
55706.02238837
 20
-10696.10567731
 42
0.0
 10
55706.02245823
 20
-10694.80571708
 42
0.0
 10
55701.0224722
 20
-10694.80566119
 42
-0.41421487
 10
55700.02248617
 20
-10693.80564275
 42
0.0
 10
55700.02328257
 20
-10650.60575413
 42
0.41422032
 10
55699.02328257
 20
-10649.60573105
 42
0.0
 10
55695.5233175
 20
-10649.60573105
 42
-0.41421356
 10
55694.0233175
 20
-10648.10573105
 42
0.0
 10
55694.0233175
 20
-10645.60569822
 42
-0.41421036
 10
55700.02325185
 20
-10639.60569822
 42
0.0
 10
55739.02633679
 20
-10639.60527143
 42
-0.41421752
 10
55740.02635031
 20
-10640.60527143
 42
0.0
 10
55740.02635031
 20
-10670.59475714
 42
-0.36397023
 10
55739.19999848
 20
-10671.57956489
 42
0.0
 10
55736.74514121
 20
-10672.01242246
 42
0.31529879
 10
55735.93398163
 20
-10672.82358204
 42
0.0
 10
55735.03329615
 20
-10677.93162325
 42
0.46630766
 10
55736.0181039
 20
-10679.10527143
 42
0.0
 10
55757.03134116
 20
-10679.10527143
 42
-0.44001053
 10
55758.02753586
 20
-10680.19242717
 42
0.0
 10
55756.70754061
 20
-10695.28004196
 42
-0.38887999
 10
55754.71514245
 20
-10697.10573047
 42
0.0
 97
        1
330
74C
 75
     0
 76
     2
 52
0.0
 41
1.57481302
 77
     0
 78
     1
 53
45.0
 43
0.0
 44
0.0
 45
3.53553391
 46
-3.53553391
 79
     0
 47
0.775229
 98
        1
 10
0.0
 20
0.0
  0
LINE
  5
74E
100
AcDbEntity
  8
Ech.1_5
 62
     7
  6
CONTINUOUS
100
AcDbLine
 10
55972.06201152
 20
-10647.14736332
 30
0.0
 11
55909.14789462
 21
-10647.14736981
 31
0.0
  0
LINE
  5
74F
100
AcDbEntity
  8
Ech.1_5
 62
     7
  6
CONTINUOUS
100
AcDbLine
 10
55972.06201152
 20
-10631.14736332
 30
0.0
 11
55909.14789462
 21
-10631.14736981
 31
0.0
  0
LINE
  5
750
100
AcDbEntity
  8
Ech.1_5
 62
     7
  6
CONTINUOUS
100
AcDbLine
 10
55972.06201152
 20
-10627.14736332
 30
0.0
 11
55909.14789462
 21
-10627.14736981
 31
0.0
  0
LINE
  5
751
100
AcDbEntity
  8
Ech.1_5
 62
     7
  6
CONTINUOUS
100
AcDbLine
 10
55962.56201152
 20
-10631.14736332
 30
0.0
 11
55962.56201152
 21
-10647.14736332
 31
0.0
  0
LINE
  5
752
100
AcDbEntity
  8
Ech.1_5
 62
     7
  6
CONTINUOUS
100
AcDbLine
 10
55972.06201152
 20
-10627.14736332
 30
0.0
 11
55972.06201152
 21
-10651.14736332
 31
0.0
  0
LINE
  5
753
100
AcDbEntity
  8
Ech.1_5
 62
     7
  6
CONTINUOUS
100
AcDbLine
 10
55974.06201152
 20
-10633.14736332
 30
0.0
 11
55972.86201152
 21
-10633.14736332
 31
0.0
  0
LINE
  5
754
100
AcDbEntity
  8
Ech.1_5
 62
     7
  6
CONTINUOUS
100
AcDbLine
 10
55974.06201152
 20
-10645.14736332
 30
0.0
 11
55972.86201152
 21
-10645.14736332
 31
0.0
  0
LINE
  5
755
100
AcDbEntity
  8
Ech.1_5
 62
     7
  6
CONTINUOUS
100
AcDbLine
 10
55974.06201152
 20
-10651.14736332
 30
0.0
 11
55977.06200287
 21
-10627.14735899
 31
0.0
  0
LINE
  5
756
100
AcDbEntity
  8
Ech.1_5
 62
     7
  6
CONTINUOUS
100
AcDbLine
 10
55974.06201152
 20
-10627.14736332
 30
0.0
 11
55977.06200287
 21
-10651.14736332
 31
0.0
  0
LINE
  5
757
100
AcDbEntity
  8
Ech.1_5
 62
     7
  6
CONTINUOUS
100
AcDbLine
 10
55977.06200287
 20
-10651.14736332
 30
0.0
 11
55977.06201152
 21
-10627.14736332
 31
0.0
  0
LINE
  5
758
100
AcDbEntity
  8
Ech.1_5
 62
     7
  6
CONTINUOUS
100
AcDbLine
 10
55977.06201152
 20
-10627.14736332
 30
0.0
 11
55974.06201152
 21
-10627.14736332
 31
0.0
  0
LINE
  5
759
100
AcDbEntity
  8
Ech.1_5
 62
     7
  6
CONTINUOUS
100
AcDbLine
 10
55974.06201152
 20
-10627.14736332
 30
0.0
 11
55974.06201152
 21
-10651.14736332
 31
0.0
  0
LINE
  5
75A
100
AcDbEntity
  8
Ech.1_5
 62
     7
  6
CONTINUOUS
100
AcDbLine
 10
55974.06201152
 20
-10651.14736332
 30
0.0
 11
55977.06201152
 21
-10651.14736332
 31
0.0
  0
LINE
  5
75B
100
AcDbEntity
  8
Ech.1_5
 62
     7
  6
CONTINUOUS
100
AcDbLine
 10
56031.42527049
 20
-10615.45026701
 30
0.0
 11
55997.47186631
 21
-10617.22968952
 31
0.0
  0
LINE
  5
75C
100
AcDbEntity
  8
Ech.1_5
 62
     7
  6
CENTER
100
AcDbLine
 10
56044.19117848
 20
-10615.0129683
 30
0.0
 11
56044.19117848
 21
-10639.95037264
 31
0.0
  0
ARC
  5
75D
100
AcDbEntity
  8
Ech.1_5
 62
     7
  6
CONTINUOUS
100
AcDbCircle
 10
56043.00190149
 20
-10618.3483647
 30
0.0
 40
6.59090909
100
AcDbArc
 50
282.52728338
 51
83.47271662
  0
LINE
  5
75E
100
AcDbEntity
  8
Ech.1_5
 62
     7
  6
CONTINUOUS
100
AcDbLine
 10
56032.92109161
 20
-10624.88491163
 30
0.0
 11
56032.29306014
 21
-10612.90135722
 31
0.0
  0
LINE
  5
75F
100
AcDbEntity
  8
Ech.1_5
 62
     7
  6
CONTINUOUS
100
AcDbLine
 10
56031.8962941
 20
-10624.43793282
 30
0.0
 11
56031.32059858
 21
-10613.45300794
 31
0.0
  0
LINE
  5
760
100
AcDbEntity
  8
Ech.1_5
 62
     7
  6
CONTINUOUS
100
AcDbLine
 10
56052.19117848
 20
-10625.89789056
 30
0.0
 11
56052.19117848
 21
-10613.57328109
 31
0.0
  0
LINE
  5
761
100
AcDbEntity
  8
Ech.1_5
 62
     7
  6
CONTINUOUS
100
AcDbLine
 10
56037.1944509
 20
-10612.14380004
 30
0.0
 11
56038.0410565
 21
-10611.08554304
 31
0.0
  0
LINE
  5
762
100
AcDbEntity
  8
Ech.1_5
 62
     7
  6
CONTINUOUS
100
AcDbLine
 10
56032.76620693
 20
-10612.37587447
 30
0.0
 11
56043.75113181
 21
-10611.80017895
 31
0.0
  0
ARC
  5
763
100
AcDbEntity
  8
Ech.1_5
 62
     7
  6
CONTINUOUS
100
AcDbCircle
 10
56032.7923749
 20
-10612.87518924
 30
0.0
 40
0.5
100
AcDbArc
 50
93.0
 51
183.0
  0
LINE
  5
764
100
AcDbEntity
  8
Ech.1_5
 62
     7
  6
CONTINUOUS
100
AcDbLine
 10
56031.32059858
 20
-10613.45300794
 30
0.0
 11
56032.31922811
 21
-10613.40067198
 31
0.0
  0
LINE
  5
765
100
AcDbEntity
  8
Ech.1_5
 62
     7
  6
CONTINUOUS
100
AcDbLine
 10
56039.19117848
 20
-10612.03915598
 30
0.0
 11
56039.19117848
 21
-10610.89789056
 31
0.0
  0
LINE
  5
766
100
AcDbEntity
  8
Ech.1_5
 62
     7
  6
CONTINUOUS
100
AcDbLine
 10
56049.95086605
 20
-10610.89789056
 30
0.0
 11
56038.4314909
 21
-10610.89789056
 31
0.0
  0
ARC
  5
767
100
AcDbEntity
  8
Ech.1_5
 62
     7
  6
CONTINUOUS
100
AcDbCircle
 10
56038.4314909
 20
-10611.39789056
 30
0.0
 40
0.5
100
AcDbArc
 50
89.99999999
 51
141.34019175
  0
ARC
  5
768
100
AcDbEntity
  8
Ech.1_5
 62
     7
  6
CONTINUOUS
100
AcDbCircle
 10
56051.69117848
 20
-10613.57328109
 30
0.0
 40
0.5
100
AcDbArc
 50
360.0
 51
38.65980825
  0
ARC
  5
769
100
AcDbEntity
  8
Ech.1_5
 62
     7
  6
CONTINUOUS
100
AcDbCircle
 10
56051.69117848
 20
-10613.57328109
 30
0.0
 40
0.5
100
AcDbArc
 50
360.0
 51
38.65980825
  0
ARC
  5
76A
100
AcDbEntity
  8
Ech.1_5
 62
     7
  6
CONTINUOUS
100
AcDbCircle
 10
56049.95086605
 20
-10611.39789056
 30
0.0
 40
0.5
100
AcDbArc
 50
38.65980825
 51
90.00000002
  0
LINE
  5
76B
100
AcDbEntity
  8
Ech.1_5
 62
     7
  6
CONTINUOUS
100
AcDbLine
 10
56049.19117848
 20
-10616.02490326
 30
0.0
 11
56049.19117848
 21
-10610.89789056
 31
0.0
  0
LINE
  5
76C
100
AcDbEntity
  8
Ech.1_5
 62
     7
  6
CONTINUOUS
100
AcDbLine
 10
56052.08161288
 20
-10613.26093357
 30
0.0
 11
56050.34130046
 21
-10611.08554304
 31
0.0
  0
LINE
  5
76D
100
AcDbEntity
  8
Ech.1_5
 62
     7
  6
CENTER
100
AcDbLine
 10
56048.66152983
 20
-10618.05175615
 30
0.0
 11
55994.65915355
 21
-10620.88190076
 31
0.0
  0
LINE
  5
76E
100
AcDbEntity
  8
Ech.1_5
 62
     7
  6
CONTINUOUS
100
AcDbLine
 10
56031.79162219
 20
-10622.44067375
 30
0.0
 11
55997.838218
 21
-10624.22009626
 31
0.0
  0
ARC
  5
76F
100
AcDbEntity
  8
Ech.1_5
 62
     7
  6
CONTINUOUS
100
AcDbCircle
 10
56003.29508261
 20
-10620.4293109
 30
0.0
 40
6.64435287
100
AcDbArc
 50
151.21298885
 51
214.78701115
  0
LINE
  5
770
100
AcDbEntity
  8
Ech.1_5
 62
     7
  6
CONTINUOUS
100
AcDbLine
 10
55997.838218
 20
-10624.22009626
 30
0.0
 11
55997.47186631
 21
-10617.22968952
 31
0.0
  0
LINE
  5
771
100
AcDbEntity
  8
Ech.1_5
 62
     7
  6
CONTINUOUS
100
AcDbLine
 10
56033.44657436
 20
-10625.35805842
 30
0.0
 11
56044.43149924
 21
-10624.7823629
 31
0.0
  0
LINE
  5
772
100
AcDbEntity
  8
Ech.1_5
 62
     7
  6
CONTINUOUS
100
AcDbLine
 10
56034.69117848
 20
-10628.89789056
 30
0.0
 11
56053.69117848
 21
-10628.89789056
 31
0.0
  0
LINE
  5
773
100
AcDbEntity
  8
Ech.1_5
 62
     7
  6
CONTINUOUS
100
AcDbLine
 10
56035.19117848
 20
-10625.89789056
 30
0.0
 11
56053.19117848
 21
-10625.89789056
 31
0.0
  0
LINE
  5
774
100
AcDbEntity
  8
Ech.1_5
 62
     7
  6
CONTINUOUS
100
AcDbLine
 10
56036.19117848
 20
-10625.89789056
 30
0.0
 11
56036.19117848
 21
-10625.21421982
 31
0.0
  0
ARC
  5
775
100
AcDbEntity
  8
Ech.1_5
 62
     7
  6
CONTINUOUS
100
AcDbCircle
 10
56033.42040638
 20
-10624.85874365
 30
0.0
 40
0.5
100
AcDbArc
 50
182.99999999
 51
273.0
  0
LINE
  5
776
100
AcDbEntity
  8
Ech.1_5
 62
     7
  6
CONTINUOUS
100
AcDbLine
 10
56031.8962941
 20
-10624.43793282
 30
0.0
 11
56032.89492363
 21
-10624.38559687
 31
0.0
  0
ARC
  5
777
100
AcDbEntity
  8
Ech.1_5
 62
     7
  6
CONTINUOUS
100
AcDbCircle
 10
56035.19117848
 20
-10626.39789056
 30
0.0
 40
0.5
100
AcDbArc
 50
90.0
 51
180.0
  0
LINE
  5
778
100
AcDbEntity
  8
Ech.1_5
 62
     7
  6
CONTINUOUS
100
AcDbLine
 10
56036.19117848
 20
-10628.89789056
 30
0.0
 11
56036.19117848
 21
-10625.89789056
 31
0.0
  0
LINE
  5
779
100
AcDbEntity
  8
Ech.1_5
 62
     7
  6
CONTINUOUS
100
AcDbLine
 10
56034.69117848
 20
-10626.39789056
 30
0.0
 11
56034.69117848
 21
-10628.89789056
 31
0.0
  0
LINE
  5
77A
100
AcDbEntity
  8
Ech.1_5
 62
     7
  6
CONTINUOUS
100
AcDbLine
 10
56047.19117848
 20
-10633.89789056
 30
0.0
 11
56047.19117848
 21
-10628.89789056
 31
0.0
  0
LINE
  5
77B
100
AcDbEntity
  8
Ech.1_5
 62
     7
  6
CONTINUOUS
100
AcDbLine
 10
56041.19117848
 20
-10633.89789056
 30
0.0
 11
56041.19117848
 21
-10628.89789056
 31
0.0
  0
ARC
  5
77C
100
AcDbEntity
  8
Ech.1_5
 62
     7
  6
CONTINUOUS
100
AcDbCircle
 10
56044.19117848
 20
-10629.8753606
 30
0.0
 40
5.01804218
100
AcDbArc
 50
233.2844502
 51
306.7155498
  0
LINE
  5
77D
100
AcDbEntity
  8
Ech.1_5
 62
     7
  6
CONTINUOUS
100
AcDbLine
 10
56041.19117848
 20
-10633.89789056
 30
0.0
 11
56047.19117848
 21
-10633.89789056
 31
0.0
  0
LINE
  5
77E
100
AcDbEntity
  8
Ech.1_5
 62
     7
  6
CONTINUOUS
100
AcDbLine
 10
56039.19117848
 20
-10625.89789056
 30
0.0
 11
56039.19117848
 21
-10625.05699648
 31
0.0
  0
LINE
  5
77F
100
AcDbEntity
  8
Ech.1_5
 62
     7
  6
CONTINUOUS
100
AcDbLine
 10
56041.19117848
 20
-10627.89789056
 30
0.0
 11
56047.19117848
 21
-10627.89789056
 31
0.0
  0
LINE
  5
780
100
AcDbEntity
  8
Ech.1_5
 62
     7
  6
CONTINUOUS
100
AcDbLine
 10
56041.19117848
 20
-10628.89789056
 30
0.0
 11
56041.19117848
 21
-10627.89789056
 31
0.0
  0
LINE
  5
781
100
AcDbEntity
  8
Ech.1_5
 62
     7
  6
CONTINUOUS
100
AcDbLine
 10
56047.19117848
 20
-10628.89789056
 30
0.0
 11
56047.19117848
 21
-10627.89789056
 31
0.0
  0
LINE
  5
782
100
AcDbEntity
  8
Ech.1_5
 62
     7
  6
CONTINUOUS
100
AcDbLine
 10
56040.19117848
 20
-10626.19789056
 30
0.0
 11
56048.19117848
 21
-10626.19789056
 31
0.0
  0
LINE
  5
783
100
AcDbEntity
  8
Ech.1_5
 62
     7
  6
CONTINUOUS
100
AcDbLine
 10
56040.19117848
 20
-10626.19789056
 30
0.0
 11
56040.19117848
 21
-10625.89789056
 31
0.0
  0
ARC
  5
784
100
AcDbEntity
  8
Ech.1_5
 62
     7
  6
CONTINUOUS
100
AcDbCircle
 10
56053.19117848
 20
-10626.39789056
 30
0.0
 40
0.5
100
AcDbArc
 50
360.0
 51
90.0
  0
LINE
  5
785
100
AcDbEntity
  8
Ech.1_5
 62
     7
  6
CONTINUOUS
100
AcDbLine
 10
56048.19117848
 20
-10626.19789056
 30
0.0
 11
56048.19117848
 21
-10625.89789056
 31
0.0
  0
LINE
  5
786
100
AcDbEntity
  8
Ech.1_5
 62
     7
  6
CONTINUOUS
100
AcDbLine
 10
56049.19117848
 20
-10625.89789056
 30
0.0
 11
56049.19117848
 21
-10620.5471714
 31
0.0
  0
LINE
  5
787
100
AcDbEntity
  8
Ech.1_5
 62
     7
  6
CONTINUOUS
100
AcDbLine
 10
56052.19117848
 20
-10628.89789056
 30
0.0
 11
56052.19117848
 21
-10625.89789056
 31
0.0
  0
LINE
  5
788
100
AcDbEntity
  8
Ech.1_5
 62
     7
  6
CONTINUOUS
100
AcDbLine
 10
56053.69117848
 20
-10626.39789056
 30
0.0
 11
56053.69117848
 21
-10628.89789056
 31
0.0
  0
ARC
  5
789
100
AcDbEntity
  8
Ech.1_5
 62
     7
  6
CONTINUOUS
100
AcDbCircle
 10
55974.06199854
 20
-10651.14736548
 30
0.0
 40
3.0
100
AcDbArc
 50
270.0
 51
359.9999587
  0
LINE
  5
78A
100
AcDbEntity
  8
Ech.1_5
 62
     7
  6
CONTINUOUS
100
AcDbLine
 10
55974.06199854
 20
-10654.14736548
 30
0.0
 11
55963.99359864
 21
-10654.14736548
 31
0.0
  0
ARC
  5
78B
100
AcDbEntity
  8
Ech.1_5
 62
     7
  6
CONTINUOUS
100
AcDbCircle
 10
55963.99359864
 20
-10656.14736548
 30
0.0
 40
2.0
100
AcDbArc
 50
90.0
 51
180.01408321
  0
ARC
  5
78C
100
AcDbEntity
  8
Ech.1_5
 62
     7
  6
CONTINUOUS
100
AcDbCircle
 10
55962.03199854
 20
-10657.64736548
 30
0.0
 40
1.5
100
AcDbArc
 50
91.46692634
 51
169.08873544
  0
LINE
  5
78D
100
AcDbEntity
  8
Ech.1_5
 62
     7
  6
CONTINUOUS
100
AcDbLine
 10
55960.55911627
 20
-10657.36343274
 30
0.0
 11
55960.55911627
 21
-10659.30750071
 31
0.0
  0
ARC
  5
78E
100
AcDbEntity
  8
Ech.1_5
 62
     7
  6
CONTINUOUS
100
AcDbCircle
 10
55961.55911627
 20
-10659.30750071
 30
0.0
 40
1.0
100
AcDbArc
 50
180.0
 51
215.64346075
  0
ARC
  5
78F
100
AcDbEntity
  8
Ech.1_5
 62
     7
  6
CONTINUOUS
100
AcDbCircle
 10
55970.49836491
 20
-10652.89736548
 30
0.0
 40
12.0
100
AcDbArc
 50
215.64346075
 51
270.0
  0
LINE
  5
790
100
AcDbEntity
  8
Ech.1_5
 62
     7
  6
CONTINUOUS
100
AcDbLine
 10
55970.49836491
 20
-10664.89736548
 30
0.0
 11
55970.99836491
 21
-10664.89736548
 31
0.0
  0
LINE
  5
791
100
AcDbEntity
  8
Ech.1_5
 62
     7
  6
CONTINUOUS
100
AcDbLine
 10
55970.99836491
 20
-10664.89736548
 30
0.0
 11
55970.99836491
 21
-10666.89736548
 31
0.0
  0
LINE
  5
792
100
AcDbEntity
  8
Ech.1_5
 62
     7
  6
CONTINUOUS
100
AcDbLine
 10
55970.99836491
 20
-10666.89736548
 30
0.0
 11
55971.99836491
 21
-10667.89736548
 31
0.0
  0
LINE
  5
793
100
AcDbEntity
  8
Ech.1_5
 62
     7
  6
CONTINUOUS
100
AcDbLine
 10
55971.99836491
 20
-10667.89736548
 30
0.0
 11
56005.34485305
 21
-10667.89709603
 31
0.0
  0
LINE
  5
794
100
AcDbEntity
  8
Ech.1_5
 62
     7
  6
CONTINUOUS
100
AcDbLine
 10
56005.34485305
 20
-10667.89709603
 30
0.0
 11
56007.50991103
 21
-10664.14710561
 31
0.0
  0
LINE
  5
795
100
AcDbEntity
  8
Ech.1_5
 62
     7
  6
CONTINUOUS
100
AcDbLine
 10
56007.50991103
 20
-10664.14710561
 30
0.0
 11
56002.09377464
 21
-10664.14710561
 31
0.0
  0
LINE
  5
796
100
AcDbEntity
  8
Ech.1_5
 62
     7
  6
CONTINUOUS
100
AcDbLine
 10
56002.09377464
 20
-10664.14710561
 30
0.0
 11
56002.09377464
 21
-10661.24710559
 31
0.0
  0
LINE
  5
797
100
AcDbEntity
  8
Ech.1_5
 62
     7
  6
CONTINUOUS
100
AcDbLine
 10
56002.09377464
 20
-10661.24710559
 30
0.0
 11
56011.55979999
 21
-10661.24710559
 31
0.0
  0
ARC
  5
798
100
AcDbEntity
  8
Ech.1_5
 62
     7
  6
CONTINUOUS
100
AcDbCircle
 10
56011.55979999
 20
-10660.24710559
 30
0.0
 40
1.0
100
AcDbArc
 50
270.0
 51
359.99999918
  0
LINE
  5
799
100
AcDbEntity
  8
Ech.1_5
 62
     7
  6
CONTINUOUS
100
AcDbLine
 10
56012.55979999
 20
-10660.2471056
 30
0.0
 11
56012.55980002
 21
-10657.90798144
 31
0.0
  0
LINE
  5
79A
100
AcDbEntity
  8
Ech.1_5
 62
     7
  6
CONTINUOUS
100
AcDbLine
 10
56012.55980002
 20
-10657.90798144
 30
0.0
 11
56006.5597997
 21
-10653.70796305
 31
0.0
  0
LINE
  5
79B
100
AcDbEntity
  8
Ech.1_5
 62
     7
  6
CONTINUOUS
100
AcDbLine
 10
56006.5597997
 20
-10653.70796305
 30
0.0
 11
56006.5597997
 21
-10649.50798138
 31
0.0
  0
LINE
  5
79C
100
AcDbEntity
  8
Ech.1_5
 62
     7
  6
CONTINUOUS
100
AcDbLine
 10
56006.5597997
 20
-10649.50798138
 30
0.0
 11
56014.55980036
 21
-10648.09736542
 31
0.0
  0
LINE
  5
79D
100
AcDbEntity
  8
Ech.1_5
 62
     7
  6
CONTINUOUS
100
AcDbLine
 10
56014.55980036
 20
-10648.09736542
 30
0.0
 11
56014.55980111
 21
-10646.09736764
 31
0.0
  0
LINE
  5
79E
100
AcDbEntity
  8
Ech.1_5
 62
     7
  6
CONTINUOUS
100
AcDbLine
 10
56014.55980111
 20
-10646.09736764
 30
0.0
 11
56012.35980002
 21
-10646.09736764
 31
0.0
  0
LINE
  5
79F
100
AcDbEntity
  8
Ech.1_5
 62
     7
  6
CONTINUOUS
100
AcDbLine
 10
56012.35980002
 20
-10646.09736764
 30
0.0
 11
56012.35980002
 21
-10644.09736764
 31
0.0
  0
LINE
  5
7A0
100
AcDbEntity
  8
Ech.1_5
 62
     7
  6
CONTINUOUS
100
AcDbLine
 10
56012.35980002
 20
-10644.09736764
 30
0.0
 11
56003.05980002
 21
-10644.09736764
 31
0.0
  0
LINE
  5
7A1
100
AcDbEntity
  8
Ech.1_5
 62
     7
  6
CONTINUOUS
100
AcDbLine
 10
56003.05980002
 20
-10644.09736764
 30
0.0
 11
56003.05980002
 21
-10631.89736764
 31
0.0
  0
LINE
  5
7A2
100
AcDbEntity
  8
Ech.1_5
 62
     7
  6
CONTINUOUS
100
AcDbLine
 10
56003.05980002
 20
-10631.89736764
 30
0.0
 11
56012.35980002
 21
-10631.89736764
 31
0.0
  0
LINE
  5
7A3
100
AcDbEntity
  8
Ech.1_5
 62
     7
  6
CONTINUOUS
100
AcDbLine
 10
56012.35980002
 20
-10631.89736764
 30
0.0
 11
56012.35980002
 21
-10629.89736764
 31
0.0
  0
LINE
  5
7A4
100
AcDbEntity
  8
Ech.1_5
 62
     7
  6
CONTINUOUS
100
AcDbLine
 10
56012.35980002
 20
-10629.89736764
 30
0.0
 11
56014.55980699
 21
-10629.89736764
 31
0.0
  0
LINE
  5
7A5
100
AcDbEntity
  8
Ech.1_5
 62
     7
  6
CONTINUOUS
100
AcDbLine
 10
56014.55980699
 20
-10629.89736764
 30
0.0
 11
56014.55980732
 21
-10628.89736548
 31
0.0
  0
LINE
  5
7A6
100
AcDbEntity
  8
Ech.1_5
 62
     7
  6
CONTINUOUS
100
AcDbLine
 10
56014.55980732
 20
-10628.89736548
 30
0.0
 11
56009.05980732
 21
-10628.89736548
 31
0.0
  0
LINE
  5
7A7
100
AcDbEntity
  8
Ech.1_5
 62
     7
  6
CONTINUOUS
100
AcDbLine
 10
56009.05980732
 20
-10628.89736548
 30
0.0
 11
56009.05980732
 21
-10625.89736548
 31
0.0
  0
LINE
  5
7A8
100
AcDbEntity
  8
Ech.1_5
 62
     7
  6
CONTINUOUS
100
AcDbLine
 10
56009.05980732
 20
-10625.89736548
 30
0.0
 11
56030.55980732
 21
-10625.89736548
 31
0.0
  0
ARC
  5
7A9
100
AcDbEntity
  8
Ech.1_5
 62
     7
  6
CONTINUOUS
100
AcDbCircle
 10
56030.55980732
 20
-10623.89736548
 30
0.0
 40
2.0
100
AcDbArc
 50
270.0
 51
9.3798374223683E-10
  0
LINE
  5
7AA
100
AcDbEntity
  8
Ech.1_5
 62
     7
  6
CONTINUOUS
100
AcDbLine
 10
56032.55980732
 20
-10623.89736548
 30
0.0
 11
56032.55980732
 21
-10615.39736557
 31
0.0
  0
ARC
  5
7AB
100
AcDbEntity
  8
Ech.1_5
 62
     7
  6
CONTINUOUS
100
AcDbCircle
 10
56027.55980732
 20
-10615.39736557
 30
0.0
 40
5.0
100
AcDbArc
 50
360.0
 51
90.00000459
  0
LINE
  5
7AC
100
AcDbEntity
  8
Ech.1_5
 62
     7
  6
CONTINUOUS
100
AcDbLine
 10
56027.55980692
 20
-10610.39736557
 30
0.0
 11
55971.99835941
 21
-10610.39737098
 31
0.0
  0
LINE
  5
7AD
100
AcDbEntity
  8
Ech.1_5
 62
     7
  6
CONTINUOUS
100
AcDbLine
 10
55971.99835941
 20
-10610.39737098
 30
0.0
 11
55970.99836491
 21
-10611.39736548
 31
0.0
  0
LINE
  5
7AE
100
AcDbEntity
  8
Ech.1_5
 62
     7
  6
CONTINUOUS
100
AcDbLine
 10
55970.99836491
 20
-10611.39736548
 30
0.0
 11
55970.99836491
 21
-10613.39736548
 31
0.0
  0
LINE
  5
7AF
100
AcDbEntity
  8
Ech.1_5
 62
     7
  6
CONTINUOUS
100
AcDbLine
 10
55970.99836491
 20
-10613.39736548
 30
0.0
 11
55970.49836491
 21
-10613.39736548
 31
0.0
  0
ARC
  5
7B0
100
AcDbEntity
  8
Ech.1_5
 62
     7
  6
CONTINUOUS
100
AcDbCircle
 10
55970.49836491
 20
-10625.39736548
 30
0.0
 40
12.0
100
AcDbArc
 50
90.0
 51
144.35653925
  0
ARC
  5
7B1
100
AcDbEntity
  8
Ech.1_5
 62
     7
  6
CONTINUOUS
100
AcDbCircle
 10
55961.55911627
 20
-10618.98723025
 30
0.0
 40
1.0
100
AcDbArc
 50
144.35653926
 51
180.0
  0
LINE
  5
7B2
100
AcDbEntity
  8
Ech.1_5
 62
     7
  6
CONTINUOUS
100
AcDbLine
 10
55960.55911627
 20
-10618.98723025
 30
0.0
 11
55960.55911627
 21
-10620.93129822
 31
0.0
  0
ARC
  5
7B3
100
AcDbEntity
  8
Ech.1_5
 62
     7
  6
CONTINUOUS
100
AcDbCircle
 10
55962.03199854
 20
-10620.64736548
 30
0.0
 40
1.5
100
AcDbArc
 50
190.91126455
 51
268.53307366
  0
ARC
  5
7B4
100
AcDbEntity
  8
Ech.1_5
 62
     7
  6
CONTINUOUS
100
AcDbCircle
 10
55963.99359864
 20
-10622.14736548
 30
0.0
 40
2.0
100
AcDbArc
 50
179.98591679
 51
270.0
  0
LINE
  5
7B5
100
AcDbEntity
  8
Ech.1_5
 62
     7
  6
CONTINUOUS
100
AcDbLine
 10
55963.99359864
 20
-10624.14736548
 30
0.0
 11
55974.06201584
 21
-10624.14736548
 31
0.0
  0
ARC
  5
7B6
100
AcDbEntity
  8
Ech.1_5
 62
     7
  6
CONTINUOUS
100
AcDbCircle
 10
55974.06201584
 20
-10627.14736548
 30
0.0
 40
3.0
100
AcDbArc
 50
359.9999587
 51
90.0
  0
LINE
  5
7B7
100
AcDbEntity
  8
Ech.1_5
 62
     7
  6
CONTINUOUS
100
AcDbLine
 10
55977.06201584
 20
-10627.14736764
 30
0.0
 11
55977.06199854
 21
-10651.14736764
 31
0.0
  0
LWPOLYLINE
  5
7B8
100
AcDbEntity
  8
Ech.1_5
 62
     7
  6
CONTINUOUS
100
AcDbPolyline
 90
        5
 70
     0
 43
0.0
 10
56029.37968009
 20
-10626.49736548
 42
0.73157417
 10
56029.44324139
 20
-10627.95166293
 42
-0.1352145
 10
56030.75009039
 20
-10627.71817383
 42
0.92591457
 10
56030.75009039
 20
-10626.49736548
 10
56029.37968009
 20
-10626.49736548
  0
LWPOLYLINE
  5
7B9
100
AcDbEntity
  8
Ech.1_5
 62
     7
  6
CONTINUOUS
100
AcDbPolyline
 90
       65
 70
     0
 43
0.0
 10
56029.45020951
 20
-10627.94834789
 10
56029.41241765
 20
-10627.95812338
 10
56029.37490582
 20
-10627.96755018
 10
56029.33795208
 20
-10627.97628199
 10
56029.30183451
 20
-10627.98397253
 10
56029.26683119
 20
-10627.99027551
 10
56029.23322021
 20
-10627.99484466
 10
56029.20127963
 20
-10627.99733367
 10
56029.17128754
 20
-10627.99739627
 10
56029.14352202
 20
-10627.99468617
 10
56029.11826113
 20
-10627.98885709
 10
56029.09578297
 20
-10627.97956274
 10
56029.07636561
 20
-10627.96645683
 10
56029.06028712
 20
-10627.94919309
 10
56029.04771319
 20
-10627.92756088
 10
56029.03829213
 20
-10627.90197396
 10
56029.03152354
 20
-10627.87302563
 10
56029.02690698
 20
-10627.84130916
 10
56029.02394203
 20
-10627.80741785
 10
56029.02212825
 20
-10627.771945
 10
56029.02096523
 20
-10627.7354839
 10
56029.01995254
 20
-10627.69862784
 10
56029.01858974
 20
-10627.66197012
 10
56029.01637641
 20
-10627.62610402
 10
56029.01281212
 20
-10627.59162285
 10
56029.00739644
 20
-10627.5591199
 10
56028.99962895
 20
-10627.52918846
 10
56028.98900922
 20
-10627.50242182
 10
56028.97503682
 20
-10627.47941328
 10
56028.95721132
 20
-10627.46075613
 10
56028.93503229
 20
-10627.44704367
 10
56028.90804135
 20
-10627.43886931
 10
56028.87761867
 20
-10627.43683206
 10
56028.84765844
 20
-10627.44153855
 10
56028.82144308
 20
-10627.45330189
 10
56028.79935996
 20
-10627.47136159
 10
56028.78113595
 20
-10627.49471223
 10
56028.76649794
 20
-10627.52234841
 10
56028.75517281
 20
-10627.55326469
 10
56028.74688745
 20
-10627.58645567
 10
56028.74136873
 20
-10627.62091593
 10
56028.73834277
 20
-10627.65564546
 10
56028.73748701
 20
-10627.68999152
 10
56028.73840149
 20
-10627.72385309
 10
56028.7406794
 20
-10627.75717818
 10
56028.74391392
 20
-10627.78991484
 10
56028.74769822
 20
-10627.82201109
 10
56028.75162548
 20
-10627.85341495
 10
56028.75528888
 20
-10627.88407446
 10
56028.7582816
 20
-10627.91393765
 10
56028.76019681
 20
-10627.94295255
 10
56028.7606277
 20
-10627.97106719
 10
56028.75916744
 20
-10627.99822959
 10
56028.75540921
 20
-10628.02438778
 10
56028.74894619
 20
-10628.0494898
 10
56028.73937155
 20
-10628.07348367
 10
56028.72639803
 20
-10628.09634419
 10
56028.71025669
 20
-10628.11816218
 10
56028.69131906
 20
-10628.13905991
 10
56028.66995667
 20
-10628.15915965
 10
56028.64654104
 20
-10628.17858367
 10
56028.62144369
 20
-10628.19745424
 10
56028.59503617
 20
-10628.21589363
 10
56028.56768999
 20
-10628.23402411
 10
56028.53977667
 20
-10628.25196794
  0
LWPOLYLINE
  5
7BA
100
AcDbEntity
  8
Ech.1_5
 62
     7
  6
CONTINUOUS
100
AcDbPolyline
 90
       40
 70
     0
 43
0.0
 10
56029.45020951
 20
-10627.94834789
 42
-0.20099848
 10
56031.37965267
 20
-10627.85991881
 42
0.55145662
 10
56031.51358546
 20
-10627.75661336
 42
-0.1294239
 10
56031.69784261
 20
-10626.6382054
 42
0.54354517
 10
56031.60656227
 20
-10626.49736548
 10
56029.37968009
 20
-10626.49736548
 10
56029.37968009
 20
-10626.49736548
 10
56028.87968009
 20
-10626.99736548
 10
56028.37968009
 20
-10626.49736548
 10
56015.25980732
 20
-10626.49736548
 42
0.41421356
 10
56015.15980732
 20
-10626.59736548
 10
56015.15980732
 20
-10629.79736548
 42
-0.41421356
 10
56015.05980732
 20
-10629.89736548
 10
56014.65980732
 20
-10629.89736548
 42
-0.41421356
 10
56014.55980732
 20
-10629.79736548
 10
56014.55980732
 20
-10626.99736548
 42
0.41421356
 10
56014.45980732
 20
-10626.89736548
 10
56012.01045114
 20
-10626.89736548
 42
0.74863712
 10
56011.95639709
 20
-10627.08149728
 10
56013.91287633
 20
-10628.33852065
 42
-0.41421356
 10
56013.94295407
 20
-10628.4767065
 10
56013.72673785
 20
-10628.81323368
 42
-0.41421356
 10
56013.588552
 20
-10628.84331143
 10
56010.60575326
 20
-10626.92688541
 42
-0.25526652
 10
56010.55980732
 20
-10626.84275361
 10
56010.55980732
 20
-10625.99736548
 42
-0.41421356
 10
56010.65980732
 20
-10625.89736548
 10
56032.25980732
 20
-10625.89736548
 42
-0.41421356
 10
56032.35980732
 20
-10625.99736548
 10
56032.35980732
 20
-10626.46398394
 42
-0.16012282
 10
56032.34030855
 20
-10626.52330975
 42
0.24300643
 10
56032.09051352
 20
-10628.08780415
 42
0.06909489
 10
56032.10263655
 20
-10628.11249518
 42
-0.7595554
 10
56031.69648315
 20
-10628.59003302
 42
0.27525427
 10
56029.65874061
 20
-10628.40283926
 42
-0.2097
 10
56025.45515166
 20
-10628.47102906
 42
-0.9750995
 10
56025.64856566
 20
-10628.00995312
 42
0.15529906
 10
56028.5077658
 20
-10628.26524772
 42
0.06565639
 10
56028.53232836
 20
-10628.25627588
 42
0.02152096
 10
56028.53977667
 20
-10628.25196794
  0
LINE
  5
7BB
100
AcDbEntity
  8
Ech.1_5
 62
     7
  6
CONTINUOUS
100
AcDbLine
 10
56011.55979999
 20
-10661.24710559
 30
0.0
 11
56010.65979999
 21
-10661.2471182
 31
0.0
  0
LINE
  5
7BC
100
AcDbEntity
  8
Ech.1_5
 62
     7
  6
CONTINUOUS
100
AcDbLine
 10
56010.65981679
 20
-10662.4471182
 30
0.0
 11
56008.55838728
 21
-10662.44714763
 31
0.0
  0
LINE
  5
7BD
100
AcDbEntity
  8
Ech.1_5
 62
     7
  6
CONTINUOUS
100
AcDbLine
 10
56007.70222269
 20
-10661.24715964
 30
0.0
 11
56007.20222269
 21
-10661.24716664
 31
0.0
  0
LINE
  5
7BE
100
AcDbEntity
  8
Ech.1_5
 62
     7
  6
CONTINUOUS
100
AcDbLine
 10
56010.65981679
 20
-10662.4471182
 30
0.0
 11
56010.65979998
 21
-10661.2471182
 31
0.0
  0
LINE
  5
7BF
100
AcDbEntity
  8
Ech.1_5
 62
     7
  6
CONTINUOUS
100
AcDbLine
 10
56010.65979999
 20
-10661.2471182
 30
0.0
 11
56007.70222269
 21
-10661.24715964
 31
0.0
  0
LINE
  5
7C0
100
AcDbEntity
  8
Ech.1_5
 62
     7
  6
CONTINUOUS
100
AcDbLine
 10
56004.53703178
 20
-10662.44720395
 30
0.0
 11
56004.50863216
 21
-10662.44720434
 31
0.0
  0
LINE
  5
7C1
100
AcDbEntity
  8
Ech.1_5
 62
     7
  6
CONTINUOUS
100
AcDbLine
 10
56003.76624898
 20
-10662.44721474
 30
0.0
 11
56002.8626595
 21
-10662.44722739
 31
0.0
  0
LINE
  5
7C2
100
AcDbEntity
  8
Ech.1_5
 62
     7
  6
CONTINUOUS
100
AcDbLine
 10
56005.63833898
 20
-10662.44718852
 30
0.0
 11
56004.53703178
 21
-10662.44720395
 31
0.0
  0
ARC
  5
7C3
100
AcDbEntity
  8
Ech.1_5
 62
     7
  6
CONTINUOUS
100
AcDbCircle
 10
56003.86265995
 20
-10662.47926366
 30
0.0
 40
1.0
100
AcDbArc
 50
180.00080237
 51
210.00084887
  0
ARC
  5
7C4
100
AcDbEntity
  8
Ech.1_5
 62
     7
  6
CONTINUOUS
100
AcDbCircle
 10
56003.6626539
 20
-10662.0472161
 30
0.0
 40
0.8
100
AcDbArc
 50
90.00765543
 51
180.00080238
  0
LINE
  5
7C5
100
AcDbEntity
  8
Ech.1_5
 62
     7
  6
CONTINUOUS
100
AcDbLine
 10
56002.86265995
 20
-10662.47927766
 30
0.0
 11
56002.8626539
 21
-10662.0472273
 31
0.0
  0
LINE
  5
7C6
100
AcDbEntity
  8
Ech.1_5
 62
     7
  6
CONTINUOUS
100
AcDbLine
 10
56003.66254701
 20
-10661.2472161
 30
0.0
 11
56003.8613572
 21
-10661.24721332
 31
0.0
  0
LINE
  5
7C7
100
AcDbEntity
  8
Ech.1_5
 62
     7
  6
CONTINUOUS
100
AcDbLine
 10
56003.8613572
 20
-10661.24721332
 30
0.0
 11
56004.00110492
 21
-10661.24721137
 31
0.0
  0
LINE
  5
7C8
100
AcDbEntity
  8
Ech.1_5
 62
     7
  6
CONTINUOUS
100
AcDbLine
 10
56004.50863216
 20
-10662.44720434
 30
0.0
 11
56003.76624898
 21
-10662.44721474
 31
0.0
  0
LINE
  5
7C9
100
AcDbEntity
  8
Ech.1_5
 62
     7
  6
CONTINUOUS
100
AcDbLine
 10
56008.55838728
 20
-10662.44714763
 30
0.0
 11
56005.63833898
 21
-10662.44718852
 31
0.0
  0
LINE
  5
7CA
100
AcDbEntity
  8
Ech.1_5
 62
     7
  6
CONTINUOUS
100
AcDbLine
 10
56004.00110492
 20
-10661.24721137
 30
0.0
 11
56007.20222269
 21
-10661.24716664
 31
0.0
  0
HATCH
  5
7CB
100
AcDbEntity
  8
Ech.1_5
 62
     7
100
AcDbHatch
 10
0.0
 20
0.0
 30
0.0
210
0.0
220
0.0
230
1.0
  2
_USER_1
 70
     0
 71
     0
 91
        1
 92
        7
 72
     0
 73
     1
 93
       19
 10
56002.8626539
 20
-10662.0472273
 10
56002.8626595
 20
-10662.44722739
 10
56010.65981679
 20
-10662.4471182
 10
56010.65979998
 20
-10661.2471182
 10
56007.70222269
 20
-10661.24715964
 10
56007.20222269
 20
-10661.24716664
 10
56004.00110492
 20
-10661.24721137
 10
56003.8613572
 20
-10661.24721332
 10
56003.66254701
 20
-10661.2472161
 10
56003.54870484
 20
-10661.25537292
 10
56003.43718199
 20
-10661.27964693
 10
56003.3302484
 20
-10661.31954407
 10
56003.23008059
 20
-10661.37425225
 10
56003.1387174
 20
-10661.44265795
 10
56003.05801842
 20
-10661.52336885
 10
56002.9896262
 20
-10661.61474214
 10
56002.93493281
 20
-10661.71491801
 10
56002.89505146
 20
-10661.82185749
 10
56002.87079391
 20
-10661.93338392
 97
        0
 75
     0
 76
     2
 52
0.0
 41
1.0
 77
     0
 78
     1
 53
135.00079346
 43
0.0
 44
0.0
 45
-1.76774247
 46
-1.76779143
 79
     2
 49
50.0
 49
0.0
 47
0.775229
 98
        1
 10
0.0
 20
0.0
  0
ARC
  5
7CC
100
AcDbEntity
  8
Ech.1_5
 62
     7
  6
CONTINUOUS
100
AcDbCircle
 10
56008.8584124
 20
-10664.24137928
 30
0.0
 40
0.3
100
AcDbArc
 50
180.00080237
 51
270.00080237
  0
LINE
  5
7CD
100
AcDbEntity
  8
Ech.1_5
 62
     7
  6
CONTINUOUS
100
AcDbLine
 10
56010.35984612
 20
-10664.54135826
 30
0.0
 11
56008.8584166
 21
-10664.54137928
 31
0.0
  0
ARC
  5
7CE
100
AcDbEntity
  8
Ech.1_5
 62
     7
  6
CONTINUOUS
100
AcDbCircle
 10
56007.90959963
 20
-10665.64139257
 30
0.0
 40
0.3
100
AcDbArc
 50
90.00080237
 51
150.00080238
  0
ARC
  5
7CF
100
AcDbEntity
  8
Ech.1_5
 62
     7
  6
CONTINUOUS
100
AcDbCircle
 10
56010.38596395
 20
-10665.64135789
 30
0.0
 40
0.3
100
AcDbArc
 50
8.33702231
 51
90.00080238
  0
ARC
  5
7D0
100
AcDbEntity
  8
Ech.1_5
 62
     7
  6
CONTINUOUS
100
AcDbCircle
 10
56010.35984192
 20
-10664.24135826
 30
0.0
 40
0.3
100
AcDbArc
 50
270.00080238
 51
0.00080237
  0
ARC
  5
7D1
100
AcDbEntity
  8
Ech.1_5
 62
     7
  6
CONTINUOUS
100
AcDbCircle
 10
56006.69380967
 20
-10663.74717364
 30
0.0
 40
1.0
100
AcDbArc
 50
330.00080238
 51
0.00080237
  0
ARC
  5
7D2
100
AcDbEntity
  8
Ech.1_5
 62
     7
  6
CONTINUOUS
100
AcDbCircle
 10
56006.90132967
 20
-10666.38779958
 30
0.0
 40
0.2
100
AcDbArc
 50
270.00080236
 51
330.00080237
  0
LINE
  5
7D3
100
AcDbEntity
  8
Ech.1_5
 62
     7
  6
CONTINUOUS
100
AcDbLine
 10
56007.90959543
 20
-10665.34139257
 30
0.0
 11
56010.38595975
 21
-10665.34135789
 31
0.0
  0
LINE
  5
7D4
100
AcDbEntity
  8
Ech.1_5
 62
     7
  6
CONTINUOUS
100
AcDbLine
 10
56007.07453616
 20
-10666.48779716
 30
0.0
 11
56007.64978991
 21
-10665.49139621
 31
0.0
  0
ARC
  5
7D5
100
AcDbEntity
  8
Ech.1_5
 62
     7
  6
CONTINUOUS
100
AcDbCircle
 10
56010.84465139
 20
-10667.52434949
 30
0.0
 40
0.71967841
100
AcDbArc
 50
267.84577807
 51
353.6317206
  0
ARC
  5
7D6
100
AcDbEntity
  8
Ech.1_5
 62
     7
  6
CONTINUOUS
100
AcDbCircle
 10
56010.64549578
 20
-10667.83483684
 30
0.0
 40
0.2
100
AcDbArc
 50
19.76068819
 51
85.24537524
  0
ARC
  5
7D7
100
AcDbEntity
  8
Ech.1_5
 62
     7
  6
CONTINUOUS
100
AcDbCircle
 10
56008.05593624
 20
-10667.95040277
 30
0.0
 40
0.3
100
AcDbArc
 50
85.24537527
 51
138.37547761
  0
ARC
  5
7D8
100
AcDbEntity
  8
Ech.1_5
 62
     7
  6
CONTINUOUS
100
AcDbCircle
 10
56010.93070537
 20
-10667.64332463
 30
0.0
 40
0.15734085
100
AcDbArc
 50
231.94531044
 51
79.31145966
  0
ARC
  5
7D9
100
AcDbEntity
  8
Ech.1_5
 62
     7
  6
CONTINUOUS
100
AcDbCircle
 10
56007.66931634
 20
-10667.67136776
 30
0.0
 40
0.18089908
100
AcDbArc
 50
85.92249745
 51
333.83771125
  0
LINE
  5
7DA
100
AcDbEntity
  8
Ech.1_5
 62
     7
  6
CONTINUOUS
100
AcDbLine
 10
56010.66207351
 20
-10667.63552508
 30
0.0
 11
56008.08080284
 21
-10667.65143513
 31
0.0
  0
LINE
  5
7DB
100
AcDbEntity
  8
Ech.1_5
 62
     7
  6
CONTINUOUS
100
AcDbLine
 10
56010.68279365
 20
-10665.59785922
 30
0.0
 11
56010.95988739
 21
-10667.48871366
 31
0.0
  0
ARC
  5
7DC
100
AcDbEntity
  8
Ech.1_5
 62
     7
  6
CONTINUOUS
100
AcDbCircle
 10
56006.00103691
 20
-10667.14718342
 30
0.0
 40
0.1
100
AcDbArc
 50
150.00080237
 51
266.67206511
  0
ARC
  5
7DD
100
AcDbEntity
  8
Ech.1_5
 62
     7
  6
CONTINUOUS
100
AcDbCircle
 10
56006.04163398
 20
-10666.44902545
 30
0.0
 40
0.79933731
100
AcDbArc
 50
266.67206513
 51
277.37648123
  0
ARC
  5
7DE
100
AcDbEntity
  8
Ech.1_5
 62
     7
  6
CONTINUOUS
100
AcDbCircle
 10
56004.81599802
 20
-10663.44871745
 30
0.0
 40
0.3
100
AcDbArc
 50
246.34437919
 51
56.27897773
  0
LINE
  5
7DF
100
AcDbEntity
  8
Ech.1_5
 62
     7
  6
CONTINUOUS
100
AcDbLine
 10
56005.91443367
 20
-10667.09718463
 30
0.0
 11
56007.55984207
 21
-10664.24716151
 31
0.0
  0
ARC
  5
7E0
100
AcDbEntity
  8
Ech.1_5
 62
     7
  6
CONTINUOUS
100
AcDbCircle
 10
56006.81241958
 20
-10663.45667516
 30
0.0
 40
0.3
100
AcDbArc
 50
239.48786327
 51
49.42246178
  0
LINE
  5
7E1
100
AcDbEntity
  8
Ech.1_5
 62
     7
  6
CONTINUOUS
100
AcDbLine
 10
56002.99664195
 20
-10662.97927649
 30
0.0
 11
56004.6956265
 21
-10663.72350955
 31
0.0
  0
LINE
  5
7E2
100
AcDbEntity
  8
Ech.1_5
 62
     7
  6
CONTINUOUS
100
AcDbLine
 10
56011.55988901
 20
-10667.60417531
 30
0.0
 11
56011.55979999
 21
-10661.24710559
 31
0.0
  0
LINE
  5
7E3
100
AcDbEntity
  8
Ech.1_5
 62
     7
  6
CONTINUOUS
100
AcDbLine
 10
56008.55838728
 20
-10662.44714763
 30
0.0
 11
56008.5584124
 21
-10664.24138348
 31
0.0
  0
LINE
  5
7E4
100
AcDbEntity
  8
Ech.1_5
 62
     7
  6
CONTINUOUS
100
AcDbLine
 10
56010.65984192
 20
-10664.24135406
 30
0.0
 11
56010.65981679
 21
-10662.4471182
 31
0.0
  0
LINE
  5
7E5
100
AcDbEntity
  8
Ech.1_5
 62
     7
  6
CONTINUOUS
100
AcDbLine
 10
56007.69379146
 20
-10662.44715974
 30
0.0
 11
56007.69380967
 21
-10663.74715963
 31
0.0
  0
LINE
  5
7E6
100
AcDbEntity
  8
Ech.1_5
 62
     7
  6
CONTINUOUS
100
AcDbLine
 10
56003.85589398
 20
-10662.44721349
 30
0.0
 11
56004.98254292
 21
-10663.1991923
 31
0.0
  0
LINE
  5
7E7
100
AcDbEntity
  8
Ech.1_5
 62
     7
  6
CONTINUOUS
100
AcDbLine
 10
56006.09488931
 20
-10662.44718213
 30
0.0
 11
56007.00756253
 21
-10663.22881725
 31
0.0
  0
LINE
  5
7E8
100
AcDbEntity
  8
Ech.1_5
 62
     7
  6
CONTINUOUS
100
AcDbLine
 10
56004.50863216
 20
-10662.44720434
 30
0.0
 11
56006.66010332
 21
-10663.71513165
 31
0.0
  0
ARC
  5
7E9
100
AcDbEntity
  8
Ech.1_5
 62
     7
  6
CONTINUOUS
100
AcDbCircle
 10
56006.16128728
 20
-10667.89638087
 30
0.0
 40
0.35
100
AcDbArc
 50
97.52289343
 51
135.24537528
  0
ARC
  5
7EA
100
AcDbEntity
  8
Ech.1_5
 62
     7
  6
CONTINUOUS
100
AcDbCircle
 10
56006.16128728
 20
-10667.89638087
 30
0.0
 40
0.35
100
AcDbArc
 50
225.24537528
 51
265.24537524
  0
ARC
  5
7EB
100
AcDbEntity
  8
Ech.1_5
 62
     7
  6
CONTINUOUS
100
AcDbCircle
 10
56006.16128728
 20
-10667.89638087
 30
0.0
 40
0.35
100
AcDbArc
 50
135.24537526
 51
225.24537526
  0
LINE
  5
7EC
100
AcDbEntity
  8
Ech.1_5
 62
     7
  6
CONTINUOUS
100
AcDbLine
 10
56010.8175991
 20
-10668.24351928
 30
0.0
 11
56006.13227625
 21
-10668.24517646
 31
0.0
  0
LINE
  5
7ED
100
AcDbEntity
  8
Ech.1_5
 62
     7
  6
CONTINUOUS
100
AcDbLine
 10
56006.11546446
 20
-10667.54939345
 30
0.0
 11
56006.95174356
 21
-10667.31552536
 31
0.0
  0
ARC
  5
7EE
100
AcDbEntity
  8
Ech.1_5
 62
     7
  6
CONTINUOUS
100
AcDbCircle
 10
56006.93158621
 20
-10666.71497272
 30
0.0
 40
0.13072221
100
AcDbArc
 50
103.38158864
 51
4.55989385
  0
LINE
  5
7EF
100
AcDbEntity
  8
Ech.1_5
 62
     7
  6
CONTINUOUS
100
AcDbLine
 10
56006.14425972
 20
-10667.2417474
 30
0.0
 11
56007.11905181
 21
-10667.07568995
 31
0.0
  0
LINE
  5
7F0
100
AcDbEntity
  8
Ech.1_5
 62
     7
  6
CONTINUOUS
100
AcDbLine
 10
56007.68217931
 20
-10667.49092658
 30
0.0
 11
56008.35943298
 21
-10667.39577674
 31
0.0
  0
ARC
  5
7F1
100
AcDbEntity
  8
Ech.1_5
 62
     7
  6
CONTINUOUS
100
AcDbCircle
 10
56008.27986404
 20
-10666.54331451
 30
0.0
 40
0.85616766
100
AcDbArc
 50
275.33254518
 51
319.89687471
  0
ARC
  5
7F2
100
AcDbEntity
  8
Ech.1_5
 62
     7
  6
CONTINUOUS
100
AcDbCircle
 10
56008.85824629
 20
-10667.03041152
 30
0.0
 40
0.1
100
AcDbArc
 50
319.89687469
 51
41.05077064
  0
ARC
  5
7F3
100
AcDbEntity
  8
Ech.1_5
 62
     7
  6
CONTINUOUS
100
AcDbCircle
 10
56008.27986404
 20
-10666.54331451
 30
0.0
 40
0.85616766
100
AcDbArc
 50
0.65804242
 51
33.90586698
  0
ARC
  5
7F4
100
AcDbEntity
  8
Ech.1_5
 62
     7
  6
CONTINUOUS
100
AcDbCircle
 10
56008.9074493
 20
-10666.12150143
 30
0.0
 40
0.1
100
AcDbArc
 50
33.90586703
 51
114.87273418
  0
ARC
  5
7F5
100
AcDbEntity
  8
Ech.1_5
 62
     7
  6
CONTINUOUS
100
AcDbCircle
 10
56008.27986404
 20
-10666.54331451
 30
0.0
 40
0.45616766
100
AcDbArc
 50
275.33254519
 51
71.54778471
  0
ARC
  5
7F6
100
AcDbEntity
  8
Ech.1_5
 62
     7
  6
CONTINUOUS
100
AcDbCircle
 10
56009.98056984
 20
-10677.25626447
 30
0.0
 40
10.39192391
100
AcDbArc
 50
99.1823407
 51
106.94536207
  0
ARC
  5
7F7
100
AcDbEntity
  8
Ech.1_5
 62
     7
  6
CONTINUOUS
100
AcDbCircle
 10
56007.08482277
 20
-10666.66870062
 30
0.0
 40
0.40842618
100
AcDbArc
 50
274.80743486
 51
313.06235652
  0
LINE
  5
7F8
100
AcDbEntity
  8
Ech.1_5
 62
     7
  6
CONTINUOUS
100
AcDbLine
 10
56007.06189465
 20
-10666.70458015
 30
0.0
 11
56007.84724115
 21
-10665.80173168
 31
0.0
  0
LINE
  5
7F9
100
AcDbEntity
  8
Ech.1_5
 62
     7
  6
CONTINUOUS
100
AcDbLine
 10
56007.36369368
 20
-10666.96710129
 30
0.0
 11
56008.08963899
 21
-10666.13254149
 31
0.0
  0
ARC
  5
7FA
100
AcDbEntity
  8
Ech.1_5
 62
     7
  6
CONTINUOUS
100
AcDbCircle
 10
56008.29520165
 20
-10666.70499665
 30
0.0
 40
1.00824413
100
AcDbArc
 50
78.06160287
 51
116.37841191
  0
LINE
  5
7FB
100
AcDbEntity
  8
Ech.1_5
 62
     7
  6
CONTINUOUS
100
AcDbLine
 10
55972.06201152
 20
-10651.14736332
 30
0.0
 11
55909.14789462
 21
-10651.14736332
 31
0.0
  0
ARC
  5
7FC
100
AcDbEntity
  8
Ech.1_5
 62
     7
  6
CONTINUOUS
100
AcDbCircle
 10
56008.29520165
 20
-10666.70499665
 30
0.0
 40
0.60824413
100
AcDbArc
 50
77.75097841
 51
109.75268282
  0
ARC
  5
7FD
100
AcDbEntity
  8
Ech.1_5
 62
     7
  6
CONTINUOUS
100
AcDbCircle
 10
56009.08580706
 20
-10666.83224167
 30
0.0
 40
0.20175353
100
AcDbArc
 50
99.5041465
 51
221.05077063
  0
ARC
  5
7FE
100
AcDbEntity
  8
Ech.1_5
 62
     7
  6
CONTINUOUS
100
AcDbCircle
 10
56009.03598183
 20
-10666.53463011
 30
0.0
 40
0.1
100
AcDbArc
 50
279.50414646
 51
0.65804245
  0
ARC
  5
7FF
100
AcDbEntity
  8
Ech.1_5
 62
     7
  6
CONTINUOUS
100
AcDbCircle
 10
56008.78126806
 20
-10665.84932815
 30
0.0
 40
0.2
100
AcDbArc
 50
173.69797491
 51
294.8727342
  0
ARC
  5
800
100
AcDbEntity
  8
Ech.1_5
 62
     7
  6
CONTINUOUS
100
AcDbCircle
 10
56008.48308094
 20
-10665.81639732
 30
0.0
 40
0.1
100
AcDbArc
 50
353.69797487
 51
78.06160286
  0
LWPOLYLINE
  5
801
100
AcDbEntity
  8
Ech.1_5
 62
     7
  6
CONTINUOUS
100
AcDbPolyline
 90
       99
 70
     0
 43
0.0
 10
55962.83786389
 20
-10625.9205659
 10
55966.2084799
 20
-10627.14736981
 10
55971.16201152
 20
-10627.14736981
 10
55971.46201152
 20
-10626.84736981
 10
55972.16201152
 20
-10626.84736981
 42
-0.95548796
 10
55972.19837515
 20
-10627.64571348
 42
0.38779458
 10
55972.06201152
 20
-10627.79509236
 10
55972.06201152
 20
-10631.03025334
 42
0.34415073
 10
55972.17563117
 20
-10631.17577472
 10
55972.74839186
 20
-10631.31896489
 42
-0.34415073
 10
55972.86201152
 20
-10631.46448627
 10
55972.86201152
 20
-10646.83025334
 42
-0.34415073
 10
55972.74839186
 20
-10646.97577472
 10
55972.17563117
 20
-10647.11896489
 42
0.34415073
 10
55972.06201152
 20
-10647.26448627
 10
55972.06201152
 20
-10650.49964725
 42
0.38779458
 10
55972.19837515
 20
-10650.64902613
 42
-0.95548796
 10
55972.16201152
 20
-10651.44736981
 10
55971.46201152
 20
-10651.44736981
 10
55971.16201152
 20
-10651.14736981
 10
55966.2084799
 20
-10651.14736981
 10
55962.86327742
 20
-10652.36492394
 42
-1.10738051
 10
55962.77274807
 20
-10652.11619659
 10
55964.0743377
 20
-10651.7876633
 42
0.93251509
 10
55963.96133168
 20
-10651.14916994
 10
55961.54032937
 20
-10651.47601376
 42
-0.18531675
 10
55960.88644344
 20
-10651.32133461
 42
0.15081813
 10
55960.3228249
 20
-10651.14736981
 10
55960.03156319
 20
-10651.14736981
 10
55959.03156319
 20
-10651.14736981
 42
0.30843151
 10
55958.67595041
 20
-10651.40459398
 42
0.26795044
 10
55960.91751037
 20
-10656.67122547
 42
0.52171267
 10
55961.15995257
 20
-10656.62921384
 42
-0.15565301
 10
55962.2623761
 20
-10655.79815631
 10
55962.06201152
 20
-10654.1407559
 42
-0.31529879
 10
55962.19360749
 20
-10653.95281738
 10
55964.8689599
 20
-10652.97906874
 42
-0.87140053
 10
55964.91525522
 20
-10653.06664514
 10
55964.1967518
 20
-10653.58340548
 42
1.00812133
 10
55964.50594166
 20
-10654.10363669
 10
55966.81074096
 20
-10652.62641269
 42
-0.14346618
 10
55967.08054665
 20
-10652.54736981
 10
55968.66178224
 20
-10652.54736981
 42
-0.72472287
 10
55968.72094584
 20
-10652.72799033
 10
55967.83261857
 20
-10653.37989181
 42
0.94855512
 10
55968.2982872
 20
-10654.08952799
 10
55970.24810652
 20
-10652.64555767
 42
-0.16072186
 10
55970.54567501
 20
-10652.54736981
 10
55972.10351193
 20
-10652.54736981
 42
0.08748866
 10
55972.17191596
 20
-10652.53530833
 10
55973.96331454
 20
-10651.88329257
 42
0.31529879
 10
55974.06201152
 20
-10651.74233868
 10
55974.06201152
 20
-10650.36448627
 42
0.34415073
 10
55973.94839186
 20
-10650.21896489
 10
55973.37563117
 20
-10650.07577472
 42
-0.34415073
 10
55973.26201152
 20
-10649.93025334
 10
55973.26201152
 20
-10648.16448627
 42
-0.34415073
 10
55973.37563117
 20
-10648.01896489
 10
55973.94839186
 20
-10647.87577472
 42
0.34415073
 10
55974.06201152
 20
-10647.73025334
 10
55974.06201152
 20
-10630.56448627
 42
0.34415073
 10
55973.94839186
 20
-10630.41896489
 10
55973.37563117
 20
-10630.27577472
 42
-0.34415073
 10
55973.26201152
 20
-10630.13025334
 10
55973.26201152
 20
-10628.36448627
 42
-0.34415073
 10
55973.37563117
 20
-10628.21896489
 10
55973.94839186
 20
-10628.07577472
 42
0.34415073
 10
55974.06201152
 20
-10627.93025334
 10
55974.06201152
 20
-10626.55240094
 42
0.31529879
 10
55973.96331454
 20
-10626.41144704
 10
55972.17191596
 20
-10625.75943128
 42
0.08748866
 10
55972.10351193
 20
-10625.74736981
 10
55970.54567501
 20
-10625.74736981
 42
-0.16072186
 10
55970.24810652
 20
-10625.64918194
 10
55968.2982872
 20
-10624.20521162
 42
0.94855512
 10
55967.83261857
 20
-10624.9148478
 10
55968.72094584
 20
-10625.56674928
 42
-0.72472287
 10
55968.66178224
 20
-10625.74736981
 10
55967.08054665
 20
-10625.74736981
 42
-0.14346618
 10
55966.81074096
 20
-10625.66832692
 10
55964.50594166
 20
-10624.19110293
 42
1.00812133
 10
55964.1967518
 20
-10624.71133413
 10
55964.91525522
 20
-10625.22809447
 42
-0.87140053
 10
55964.8689599
 20
-10625.31567087
 10
55962.19360749
 20
-10624.34192223
 42
-0.31529879
 10
55962.06201152
 20
-10624.15398371
 10
55962.2623761
 20
-10622.49654298
 42
-0.15565608
 10
55961.15997085
 20
-10621.66550651
 42
0.52171267
 10
55960.91752865
 20
-10621.62349488
 42
0.26794928
 10
55958.67595041
 20
-10626.89014563
 42
0.30843151
 10
55959.03156319
 20
-10627.14736981
 10
55960.03156319
 20
-10627.14736981
 10
55960.3228249
 20
-10627.14736981
 42
0.15081813
 10
55960.88644344
 20
-10626.973405
 42
-0.18531675
 10
55961.54032937
 20
-10626.81872585
 10
55963.96133168
 20
-10627.14556967
 42
0.93251509
 10
55964.0743377
 20
-10626.50707631
 10
55962.77274807
 20
-10626.17854302
 42
-1.10738051
 10
55962.86327742
 20
-10625.92981567
  0
LWPOLYLINE
  5
802
100
AcDbEntity
  8
Ech.1_5
 62
     7
  6
CONTINUOUS
100
AcDbPolyline
 90
       25
 70
     0
 43
0.0
 10
56033.56290203
 20
-10686.39800614
 10
56051.58450581
 20
-10686.3979272
 42
0.40824515
 10
56052.56403317
 20
-10685.39808305
 10
56052.56396331
 20
-10684.09812281
 10
56057.56394934
 20
-10684.09806693
 42
0.41421487
 10
56058.56393537
 20
-10683.09804849
 10
56058.56313897
 20
-10639.89815987
 42
-0.41422032
 10
56059.56313897
 20
-10638.89813678
 10
56063.06310404
 20
-10638.89813678
 42
0.41421356
 10
56064.56310404
 20
-10637.39813678
 10
56064.56310404
 20
-10634.89810396
 42
0.41421036
 10
56058.56316969
 20
-10628.89810396
 10
56019.56008475
 20
-10628.89767717
 42
0.41421752
 10
56018.56007123
 20
-10629.89767717
 10
56018.56007123
 20
-10659.88716288
 42
0.36397023
 10
56019.38642306
 20
-10660.87197063
 10
56021.84128034
 20
-10661.3048282
 42
-0.31529879
 10
56022.65243991
 20
-10662.11598778
 10
56023.55312539
 20
-10667.22402899
 42
-0.46630766
 10
56022.56831764
 20
-10668.39767717
 10
56001.55508038
 20
-10668.39767717
 42
0.44001053
 10
56000.55888568
 20
-10669.48483291
 10
56001.87888093
 20
-10684.5724477
 42
0.38887999
 10
56003.87127909
 20
-10686.39813621
 10
56033.56290203
 20
-10686.39800614
  0
LWPOLYLINE
  5
803
102
{ACAD_REACTORS
330
804
102
}
100
AcDbEntity
  8
Ech.1_5
 62
   190
  6
CONTINUOUS
370
    -3
100
AcDbPolyline
 90
        4
 70
     1
 43
0.0
 10
56058.56313897
 20
-10639.89815987
 10
56058.56313897
 20
-10679.39834226
 10
56076.57501762
 20
-10679.39834226
 10
56076.57501762
 20
-10639.89815987
  0
HATCH
  5
804
100
AcDbEntity
  8
Ech.1_5
 62
   190
  6
CONTINUOUS
100
AcDbHatch
 10
0.0
 20
0.0
 30
0.0
210
0.0
220
0.0
230
1.0
  2
ANSI37
 70
     0
 71
     1
 91
        1
 92
        7
 72
     0
 73
     1
 93
        4
 10
56058.56313897
 20
-10639.89815987
 10
56058.56313897
 20
-10679.39834226
 10
56076.57501762
 20
-10679.39834226
 10
56076.57501762
 20
-10639.89815987
 97
        1
330
803
 75
     0
 76
     2
 52
0.0
 41
1.57480317
 77
     0
 78
     2
 53
45.0
 43
0.0
 44
0.0
 45
3.53553391
 46
-3.53553391
 79
     0
 53
-45.0
 43
0.0
 44
0.0
 45
3.53553391
 46
3.53553391
 79
     0
 47
0.775229
 98
        1
 10
0.0
 20
0.0
  0
LWPOLYLINE
  5
805
102
{ACAD_REACTORS
330
806
102
}
100
AcDbEntity
  8
Ech.1_5
 62
   190
  6
CONTINUOUS
100
AcDbPolyline
 90
       24
 70
     1
 43
0.0
 10
56091.28495042
 20
-10697.1056004
 10
56109.3065542
 20
-10697.10552146
 42
0.40824515
 10
56110.28608156
 20
-10696.10567731
 10
56110.2860117
 20
-10694.80571708
 10
56115.28599773
 20
-10694.80566119
 42
0.41421487
 10
56116.28598376
 20
-10693.80564275
 10
56116.28518736
 20
-10650.60575413
 42
-0.41422032
 10
56117.28518736
 20
-10649.60573105
 10
56120.78515243
 20
-10649.60573105
 42
0.41421356
 10
56122.28515243
 20
-10648.10573105
 10
56122.28515243
 20
-10645.60569822
 42
0.41421036
 10
56116.28521809
 20
-10639.60569822
 10
56077.28213314
 20
-10639.60527143
 42
0.41421752
 10
56076.28211963
 20
-10640.60527143
 10
56076.28211963
 20
-10670.59475714
 42
0.36397023
 10
56077.10847145
 20
-10671.57956489
 10
56079.56332873
 20
-10672.01242246
 42
-0.31529879
 10
56080.3744883
 20
-10672.82358204
 10
56081.27517379
 20
-10677.93162325
 42
-0.46630766
 10
56080.29036603
 20
-10679.10527143
 10
56059.27712877
 20
-10679.10527143
 42
0.44001053
 10
56058.28093407
 20
-10680.19242717
 10
56059.60092933
 20
-10695.28004196
 42
0.38887999
 10
56061.59332748
 20
-10697.10573047
  0
HATCH
  5
806
100
AcDbEntity
  8
Ech.1_5
 62
   190
  6
CONTINUOUS
100
AcDbHatch
 10
0.0
 20
0.0
 30
0.0
210
0.0
220
0.0
230
1.0
  2
ANSI31
 70
     0
 71
     1
 91
        1
 92
        7
 72
     1
 73
     1
 93
       24
 10
56091.28495042
 20
-10697.1056004
 42
0.0
 10
56109.3065542
 20
-10697.10552146
 42
0.40824515
 10
56110.28608156
 20
-10696.10567731
 42
0.0
 10
56110.2860117
 20
-10694.80571708
 42
0.0
 10
56115.28599773
 20
-10694.80566119
 42
0.41421487
 10
56116.28598376
 20
-10693.80564275
 42
0.0
 10
56116.28518736
 20
-10650.60575413
 42
-0.41422032
 10
56117.28518736
 20
-10649.60573105
 42
0.0
 10
56120.78515243
 20
-10649.60573105
 42
0.41421356
 10
56122.28515243
 20
-10648.10573105
 42
0.0
 10
56122.28515243
 20
-10645.60569822
 42
0.41421036
 10
56116.28521809
 20
-10639.60569822
 42
0.0
 10
56077.28213314
 20
-10639.60527143
 42
0.41421752
 10
56076.28211963
 20
-10640.60527143
 42
0.0
 10
56076.28211963
 20
-10670.59475714
 42
0.36397023
 10
56077.10847145
 20
-10671.57956489
 42
0.0
 10
56079.56332873
 20
-10672.01242246
 42
-0.31529879
 10
56080.3744883
 20
-10672.82358204
 42
0.0
 10
56081.27517379
 20
-10677.93162325
 42
-0.46630766
 10
56080.29036603
 20
-10679.10527143
 42
0.0
 10
56059.27712877
 20
-10679.10527143
 42
0.44001053
 10
56058.28093407
 20
-10680.19242717
 42
0.0
 10
56059.60092933
 20
-10695.28004196
 42
0.38887999
 10
56061.59332748
 20
-10697.10573047
 42
0.0
 97
        1
330
805
 75
     0
 76
     2
 52
0.0
 41
1.57481302
 77
     0
 78
     1
 53
45.0
 43
0.0
 44
0.0
 45
3.53553391
 46
-3.53553391
 79
     0
 47
0.775229
 98
        1
 10
0.0
 20
0.0
  0
LWPOLYLINE
  5
807
100
AcDbEntity
  8
Ech.1_5
 62
   190
  6
CONTINUOUS
370
    -3
100
AcDbPolyline
 90
        6
 70
     0
 43
0.0
 10
55434.56456741
 20
-11207.18910091
 10
55434.56399991
 20
-11073.80563804
 10
55416.58665151
 20
-11057.32013488
 10
55452.54235152
 20
-11071.4300749
 10
55434.56399991
 20
-11054.94372082
 10
55434.56398076
 20
-10622.04228968
  0
LWPOLYLINE
  5
808
100
AcDbEntity
  8
Ech.1_5
 62
   190
  6
CONTINUOUS
370
    -3
100
AcDbPolyline
 90
        6
 70
     0
 43
0.0
 10
56381.74390252
 20
-11207.18910091
 10
56381.74447002
 20
-11073.80563804
 10
56399.72181843
 20
-11057.32013488
 10
56363.76611841
 20
-11071.4300749
 10
56381.74447002
 20
-11054.94372082
 10
56381.74448917
 20
-10622.04228968
  0
TEXT
  5
809
100
AcDbEntity
  8
Ech.1_5
 62
   190
100
AcDbText
 10
55572.84226231
 20
-11385.28632153
 30
0.0
 40
8.00000012
  1
Echelle en mm
  7
ARIAL
 50
0.0
 41
1.0
 51
0.0
100
AcDbText
  0
TEXT
  5
80A
100
AcDbEntity
  8
Ech.1_5
 62
   190
100
AcDbText
 10
55558.86167756
 20
-11413.49615706
 30
0.0
 40
8.00000012
  1
0
  7
ARIAL
 50
0.0
 41
1.0
 51
0.0
100
AcDbText
  0
TEXT
  5
80B
100
AcDbEntity
  8
Ech.1_5
 62
   190
100
AcDbText
 10
55645.45873546
 20
-11413.49615706
 30
0.0
 40
8.00000012
  1
100
  7
ARIAL
 50
0.0
 41
1.0
 51
0.0
100
AcDbText
  0
TEXT
  5
80C
100
AcDbEntity
  8
Ech.1_5
 62
   190
100
AcDbText
 10
55606.71830389
 20
-11413.49615706
 30
0.0
 40
8.00000012
  1
50
  7
ARIAL
 50
0.0
 41
1.0
 51
0.0
100
AcDbText
  0
INSERT
  5
80D
100
AcDbEntity
  8
Ech.1_5
 62
     0
370
    -3
100
AcDbBlockReference
  2
*D59
 10
0.0
 20
0.0
 30
0.0
  0
INSERT
  5
80E
100
AcDbEntity
  8
Ech.1_5
 62
     0
370
    -3
100
AcDbBlockReference
  2
*D60
 10
0.0
 20
0.0
 30
0.0
  0
INSERT
  5
80F
100
AcDbEntity
  8
Ech.1_5
 62
     0
370
    -3
100
AcDbBlockReference
  2
*D61
 10
0.0
 20
0.0
 30
0.0
  0
INSERT
  5
810
100
AcDbEntity
  8
Ech.1_5
 62
     0
370
    -3
100
AcDbBlockReference
  2
*D62
 10
0.0
 20
0.0
 30
0.0
  0
ENDSEC
  0
SECTION
  2
OBJECTS
  0
DICTIONARY
  5
1
100
AcDbDictionary
  3
ACAD_GROUP
350
2
  3
ACAD_MLINESTYLE
350
3
  0
DICTIONARY
  5
2
102
{CDWK_REACTORS
330
1
102
}
100
AcDbDictionary
  0
DICTIONARY
  5
3
102
{CDWK_REACTORS
330
1
102
}
100
AcDbDictionary
  3
STANDARD
350
4
  0
MLINESTYLE
  5
4
102
{CDWK_REACTORS
330
3
102
}
100
AcDbMlineStyle
  2
STANDARD
 70
     0
  3

 62
     0
 51
90.0
 52
90.0
 71
     2
 49
0.5
 62
   256
  6
BYLAYER
 49
-0.5
 62
   256
  6
BYLAYER
  0
ENDSEC
  0
EOF
