  0
SECTION
  2
HEADER
  9
$ACADVER
  1
AC1014
  9
$DWGCODEPAGE
  3
ANSI_1252
  9
$INSBASE
 10
0.0
 20
0.0
 30
0.0
  9
$EXTMIN
 10
1033.98771282
 20
-21718.34332712
  9
$EXTMAX
 10
122326.07664696
 20
2240.3362527
  9
$LIMMIN
 10
1033.98771282
 20
-21718.34332712
  9
$LIMMAX
 10
122326.07664696
 20
2240.3362527
  9
$ORTHOMODE
 70
     0
  9
$REGENMODE
 70
     1
  9
$FILLMODE
 70
     1
  9
$QTEXTMODE
 70
     0
  9
$MIRRTEXT
 70
     1
  9
$DRAGMODE
 70
     2
  9
$LTSCALE
 40
5.0
  9
$OSMODE
 70
     0
  9
$ATTMODE
 70
     1
  9
$TEXTSIZE
 40
3.5
  9
$TRACEWID
 40
1.0
  9
$TEXTSTYLE
  7
STANDARD
  9
$CLAYER
  8
0
  9
$CELTYPE
  6
BYLAYER
  9
$CECOLOR
 62
   256
  9
$DIMSCALE
 40
1.0
  9
$DIMASZ
 40
2.0
  9
$DIMEXO
 40
5.0
  9
$DIMDLI
 40
10.0
  9
$DIMRND
 40
0.0
  9
$DIMDLE
 40
2.0
  9
$DIMEXE
 40
2.0
  9
$DIMTP
 40
0.0
  9
$DIMTM
 40
0.0
  9
$DIMTXT
 40
2.5
  9
$DIMCEN
 40
1.5
  9
$DIMTSZ
 40
0.0
  9
$DIMTOL
 70
     0
  9
$DIMLIM
 70
     0
  9
$DIMTIH
 70
     1
  9
$DIMTOH
 70
     0
  9
$DIMSE1
 70
     0
  9
$DIMSE2
 70
     0
  9
$DIMTAD
 70
     1
  9
$DIMZIN
 70
     8
  9
$DIMBLK
  1

  9
$DIMASO
 70
     1
  9
$DIMSHO
 70
     1
  9
$DIMPOST
  1

  9
$DIMAPOST
  1

  9
$DIMALT
 70
     0
  9
$DIMALTD
 70
     2
  9
$DIMALTF
 40
25.4
  9
$DIMLFAC
 40
1.0
  9
$DIMTOFL
 70
     0
  9
$DIMTVP
 40
0.0
  9
$DIMTIX
 70
     0
  9
$DIMSOXD
 70
     0
  9
$DIMSAH
 70
     0
  9
$DIMBLK1
  1

  9
$DIMBLK2
  1

  9
$DIMSTYLE
  2
*UNNAMED
  9
$DIMCLRD
 70
   190
  9
$DIMCLRE
 70
   190
  9
$DIMCLRT
 70
   190
  9
$DIMTFAC
 40
1.0
  9
$DIMGAP
 40
0.09
  9
$DIMUNIT
 70
     2
  9
$LUNITS
 70
     2
  9
$LUPREC
 70
     6
  9
$AXISMODE
 70
     0
  9
$AXISUNIT
 10
0.0
 20
0.0
  9
$SKETCHINC
 40
0.1
  9
$FILLETRAD
 40
0.0
  9
$AUNITS
 70
     0
  9
$AUPREC
 70
     0
  9
$MENU
  1
ACAD
  9
$ELEVATION
 40
0.0
  9
$PELEVATION
 40
0.0
  9
$THICKNESS
 40
0.0
  9
$LIMCHECK
 70
     0
  9
$BLIPMODE
 70
     1
  9
$CHAMFERA
 40
0.0
  9
$CHAMFERB
 40
0.0
  9
$SKPOLY
 70
     1
  9
$TDCREATE
 40
2457808.0000000000
  9
$TDUPDATE
 40
2457808.0000000000
  9
$TDINDWG
 40
0.0
  9
$TDUSRTIMER
 40
0.0
  9
$USRTIMER
 70
     1
  9
$ANGBASE
 50
0.0
  9
$ANGDIR
 70
     0
  9
$PDMODE
 70
     0
  9
$PDSIZE
 40
0.0
  9
$PLINEWID
 40
0.0
  9
$COORDS
 70
     2
  9
$SPLFRAME
 70
     0
  9
$SPLINETYPE
 70
     6
  9
$SPLINESEGS
 70
     8
  9
$ATTDIA
 70
     1
  9
$ATTREQ
 70
     1
  9
$HANDLING
 70
     1
  9
$HANDSEED
  5
     709
  9
$SURFTAB1
 70
     6
  9
$SURFTAB2
 70
     6
  9
$SURFTYPE
 70
     6
  9
$SURFU
 70
     6
  9
$SURFV
 70
     6
  9
$UCSNAME
  2

  9
$UCSORG
 10
0.0
 20
0.0
 30
0.0
  9
$UCSXDIR
 10
1.0
 20
0.0
 30
0.0
  9
$UCSYDIR
 10
0.0
 20
1.0
 30
0.0
  9
$PUCSNAME
  2

  9
$PUCSORG
 10
0.0
 20
0.0
 30
0.0
  9
$PUCSXDIR
 10
1.0
 20
0.0
 30
0.0
  9
$PUCSYDIR
 10
0.0
 20
1.0
 30
0.0
  9
$USERI1
 70
     0
  9
$USERI2
 70
     0
  9
$USERI3
 70
     0
  9
$USERI4
 70
     0
  9
$USERI5
 70
     0
  9
$USERR1
 40
0.0
  9
$USERR2
 40
0.0
  9
$USERR3
 40
0.0
  9
$USERR4
 40
0.0
  9
$USERR5
 40
0.0
  9
$WORLDVIEW
 70
     1
  9
$SHADEDGE
 70
     3
  9
$SHADEDIF
 70
    70
  9
$TILEMODE
 70
     1
  9
$MAXACTVP
 70
    16
  9
$PINSBASE
 10
0.0
 20
0.0
 30
0.0
  9
$PLIMCHECK
 70
     0
  9
$PEXTMIN
 10
1.0000000000000E+20
 20
1.0000000000000E+20
 30
1.0000000000000E+20
  9
$PEXTMAX
 10
-1.0000000000000E+20
 20
-1.0000000000000E+20
 30
-1.0000000000000E+20
  9
$PLIMMIN
 10
0.0
 20
0.0
  9
$UNITMODE
 70
     0
  9
$VISRETAIN
 70
     0
  9
$MEASUREMENT
 70
     1
  0
ENDSEC
  0
SECTION
  2
TABLES
  0
TABLE
  2
VPORT
  5
4A2
100
AcDbSymbolTable
 70
     1
  0
ENDTAB
  0
TABLE
  2
STYLE
  5
4A3
100
AcDbSymbolTable
 70
     3
  0
STYLE
  5
4A4
100
AcDbSymbolTableRecord
100
AcDbTextStyleTableRecord
  2
STANDARD
 70
     0
 40
0.0
 41
1.0
 50
0.0
 71
     0
 42
3.5
  3
MONOTXT
  4

  0
STYLE
  5
4A5
100
AcDbSymbolTableRecord
100
AcDbTextStyleTableRecord
  2
SYMAP
 70
     0
 40
0.0
 41
1.0
 50
0.0
 71
     0
 42
3.5
  3
SYMAP
  4

  0
STYLE
  5
4A6
100
AcDbSymbolTableRecord
100
AcDbTextStyleTableRecord
  2
CADWORK1
 70
     0
 40
0.0
 41
1.0
 50
0.0
 71
     0
 42
3.5
  3
MONOTXT
  4

  0
STYLE
  5
4A7
100
AcDbSymbolTableRecord
100
AcDbTextStyleTableRecord
  2
MONOTXT
 70
     0
 40
0.0
 41
1.0
 50
0.0
 71
     0
 42
3.5
  3
MONOTXT
  4

  0
STYLE
  5
4A8
100
AcDbSymbolTableRecord
100
AcDbTextStyleTableRecord
  2
ARIAL
 70
     0
 40
0.0
 41
1.0
 50
0.0
 71
     0
 42
3.5
  3

  4

1001
ACAD
1000
Arial
1071
        0
  0
ENDTAB
  0
TABLE
  2
LTYPE
  5
4A9
100
AcDbSymbolTable
 70
    15
  0
LTYPE
  5
4AA
100
AcDbSymbolTableRecord
100
AcDbLinetypeTableRecord
  2
BYBLOCK
 70
    64
  3

 72
    65
 73
     0
 40
0.0
  0
LTYPE
  5
4AB
100
AcDbSymbolTableRecord
100
AcDbLinetypeTableRecord
  2
BYLAYER
 70
    64
  3

 72
    65
 73
     0
 40
0.0
  0
LTYPE
  5
4AC
100
AcDbSymbolTableRecord
100
AcDbLinetypeTableRecord
  2
CONTINUOUS
 70
    64
  3
Solid line
 72
    65
 73
     0
 40
0.0
  0
LTYPE
  5
4AD
100
AcDbSymbolTableRecord
100
AcDbLinetypeTableRecord
  2
DOT2
 70
    64
  3
...............................................
 72
    65
 73
     2
 40
1.25
 49
0.0
 74
     0
 49
-1.25
 74
     0
  0
LTYPE
  5
4AE
100
AcDbSymbolTableRecord
100
AcDbLinetypeTableRecord
  2
CADWORK_13
 70
    64
  3
13 =======================================
 72
    65
 73
     2
 40
4.0
 49
2.0
 74
     0
 49
-2.0
 74
     0
  0
LTYPE
  5
4AF
100
AcDbSymbolTableRecord
100
AcDbLinetypeTableRecord
  2
DASHDOT
 70
    64
  3
 __ . __ . __ . __ . __ . __ . __ . __ . __ . __
 72
    65
 73
     4
 40
10.0
 49
5.0
 74
     0
 49
-2.5
 74
     0
 49
0.0
 74
     0
 49
-2.5
 74
     0
  0
LTYPE
  5
4B0
100
AcDbSymbolTableRecord
100
AcDbLinetypeTableRecord
  2
CENTER
 70
    64
  3
 ____ _ ____ _ ____ _ ____ _ ____ _ ____ _ ____
 72
    65
 73
     4
 40
20.0
 49
12.5
 74
     0
 49
-2.5
 74
     0
 49
2.5
 74
     0
 49
-2.5
 74
     0
  0
LTYPE
  5
4B1
100
AcDbSymbolTableRecord
100
AcDbLinetypeTableRecord
  2
DASHEDX2
 70
    64
  3
____  ____  ____  ____  ____  ____  ____  ____
 72
    65
 73
     2
 40
3.75
 49
2.5
 74
     0
 49
-1.25
 74
     0
  0
LTYPE
  5
4B2
100
AcDbSymbolTableRecord
100
AcDbLinetypeTableRecord
  2
CADWORK_22
 70
    64
  3
22 =======================================
 72
    65
 73
     0
 40
0.0
  0
LTYPE
  5
4B3
100
AcDbSymbolTableRecord
100
AcDbLinetypeTableRecord
  2
DAL
 70
    64
  3
Solid line (for MAPS)
 72
    65
 73
     0
 40
0.0
  0
LTYPE
  5
4B4
100
AcDbSymbolTableRecord
100
AcDbLinetypeTableRecord
  2
MUR
 70
    64
  3
Solid line (for MAPS)
 72
    65
 73
     0
 40
0.0
  0
LTYPE
  5
4B5
100
AcDbSymbolTableRecord
100
AcDbLinetypeTableRecord
  2
SOM
 70
    64
  3
Solid line (for MAPS)
 72
    65
 73
     0
 40
0.0
  0
LTYPE
  5
4B6
100
AcDbSymbolTableRecord
100
AcDbLinetypeTableRecord
  2
COL
 70
    64
  3
Solid line (for MAPS)
 72
    65
 73
     0
 40
0.0
  0
LTYPE
  5
4B7
100
AcDbSymbolTableRecord
100
AcDbLinetypeTableRecord
  2
LGN
 70
    64
  3
Solid line (for MAPS)
 72
    65
 73
     0
 40
0.0
  0
LTYPE
  5
4B8
100
AcDbSymbolTableRecord
100
AcDbLinetypeTableRecord
  2
PNT
 70
    64
  3
Solid line (for MAPS)
 72
    65
 73
     0
 40
0.0
  0
ENDTAB
  0
TABLE
  2
LAYER
  5
4B9
100
AcDbSymbolTable
 70
    32
  0
LAYER
  5
4BA
100
AcDbSymbolTableRecord
100
AcDbLayerTableRecord
  2
Standard
 70
     0
 62
     7
  6
CONTINUOUS
370
    -3
  0
LAYER
  5
4BB
100
AcDbSymbolTableRecord
100
AcDbLayerTableRecord
  2
Ech.1_1
 70
     0
 62
     7
  6
CONTINUOUS
370
    -3
  0
LAYER
  5
4BC
100
AcDbSymbolTableRecord
100
AcDbLayerTableRecord
  2
Ech.1_2
 70
     0
 62
     7
  6
CONTINUOUS
370
    -3
  0
LAYER
  5
4BD
100
AcDbSymbolTableRecord
100
AcDbLayerTableRecord
  2
Ech.1_5
 70
     0
 62
     7
  6
CONTINUOUS
370
    -3
  0
LAYER
  5
4BE
100
AcDbSymbolTableRecord
100
AcDbLayerTableRecord
  2
Ech.1_10
 70
     0
 62
     7
  6
CONTINUOUS
370
    -3
  0
LAYER
  5
4BF
100
AcDbSymbolTableRecord
100
AcDbLayerTableRecord
  2
Ech.1_20
 70
     0
 62
     7
  6
CONTINUOUS
370
    -3
  0
LAYER
  5
4C0
100
AcDbSymbolTableRecord
100
AcDbLayerTableRecord
  2
Ech.1_25
 70
     0
 62
     7
  6
CONTINUOUS
370
    -3
  0
LAYER
  5
4C1
100
AcDbSymbolTableRecord
100
AcDbLayerTableRecord
  2
Ech.1_33
 70
     0
 62
     7
  6
CONTINUOUS
370
    -3
  0
LAYER
  5
4C2
100
AcDbSymbolTableRecord
100
AcDbLayerTableRecord
  2
Ech.1_50
 70
     0
 62
     7
  6
CONTINUOUS
370
    -3
  0
LAYER
  5
4C3
100
AcDbSymbolTableRecord
100
AcDbLayerTableRecord
  2
Ech.1_75
 70
     0
 62
     7
  6
CONTINUOUS
370
    -3
  0
LAYER
  5
4C4
100
AcDbSymbolTableRecord
100
AcDbLayerTableRecord
  2
Ech.1_100
 70
     0
 62
     7
  6
CONTINUOUS
370
    -3
  0
LAYER
  5
4C5
100
AcDbSymbolTableRecord
100
AcDbLayerTableRecord
  2
Ech.1_200
 70
     0
 62
     7
  6
CONTINUOUS
370
    -3
  0
LAYER
  5
4C6
100
AcDbSymbolTableRecord
100
AcDbLayerTableRecord
  2
Ech.1_500
 70
     0
 62
     7
  6
CONTINUOUS
370
    -3
  0
LAYER
  5
4C7
100
AcDbSymbolTableRecord
100
AcDbLayerTableRecord
  2
Ech.1_1000
 70
     0
 62
     7
  6
CONTINUOUS
370
    -3
  0
LAYER
  5
4C8
100
AcDbSymbolTableRecord
100
AcDbLayerTableRecord
  2
Cadres traceur
 70
     0
 62
     7
  6
CONTINUOUS
370
    18
  0
LAYER
  5
4C9
100
AcDbSymbolTableRecord
100
AcDbLayerTableRecord
  2
Cadres laser
 70
     0
 62
     7
  6
CONTINUOUS
370
    18
  0
LAYER
  5
4CA
100
AcDbSymbolTableRecord
100
AcDbLayerTableRecord
  2
Légende d_aide
 70
     0
 62
     7
  6
CONTINUOUS
370
    18
  0
LAYER
  5
4CB
100
AcDbSymbolTableRecord
100
AcDbLayerTableRecord
  2
hachures ok
 70
     0
 62
     7
  6
CONTINUOUS
370
    18
  0
LAYER
  5
4CC
100
AcDbSymbolTableRecord
100
AcDbLayerTableRecord
  2
ossature bois
 70
     0
 62
     7
  6
CONTINUOUS
370
    18
  0
LAYER
  5
4CD
100
AcDbSymbolTableRecord
100
AcDbLayerTableRecord
  2
VR
 70
     0
 62
     7
  6
CONTINUOUS
370
    25
  0
LAYER
  5
4CE
100
AcDbSymbolTableRecord
100
AcDbLayerTableRecord
  2
Calque1
 70
     0
 62
     7
  6
CONTINUOUS
370
     9
  0
LAYER
  5
4CF
100
AcDbSymbolTableRecord
100
AcDbLayerTableRecord
  2
0
 70
     0
 62
     7
  6
CONTINUOUS
370
    -3
  0
LAYER
  5
4D0
100
AcDbSymbolTableRecord
100
AcDbLayerTableRecord
  2
menuiserie
 70
     0
 62
     7
  6
CONTINUOUS
370
    -3
  0
LAYER
  5
4D1
100
AcDbSymbolTableRecord
100
AcDbLayerTableRecord
  2
cotation
 70
     0
 62
   250
  6
CONTINUOUS
370
     9
  0
LAYER
  5
4D2
100
AcDbSymbolTableRecord
100
AcDbLayerTableRecord
  2
Defpoints
 70
     0
 62
    10
  6
CONTINUOUS
370
    -3
  0
LAYER
  5
4D3
100
AcDbSymbolTableRecord
100
AcDbLayerTableRecord
  2
HACHURE
 70
     0
 62
   254
  6
CONTINUOUS
370
    25
  0
LAYER
  5
4D4
100
AcDbSymbolTableRecord
100
AcDbLayerTableRecord
  2
mat1
 70
     0
 62
     7
  6
CONTINUOUS
370
    30
  0
LAYER
  5
4D5
100
AcDbSymbolTableRecord
100
AcDbLayerTableRecord
  2
mat2
 70
     0
 62
     7
  6
CONTINUOUS
370
     5
  0
LAYER
  5
4D6
100
AcDbSymbolTableRecord
100
AcDbLayerTableRecord
  2
hach
 70
     0
 62
     8
  6
CONTINUOUS
370
     5
  0
LAYER
  5
4D7
100
AcDbSymbolTableRecord
100
AcDbLayerTableRecord
  2
menuiseries
 70
     0
 62
     7
  6
CONTINUOUS
370
     9
  0
LAYER
  5
4D8
100
AcDbSymbolTableRecord
100
AcDbLayerTableRecord
  2
BétonMétal
 70
     0
 62
     7
  6
CONTINUOUS
370
    80
  0
LAYER
  5
4D9
100
AcDbSymbolTableRecord
100
AcDbLayerTableRecord
  2
bois
 70
     0
 62
     7
  6
CONTINUOUS
370
    60
  0
ENDTAB
  0
TABLE
  2
VIEW
  5
4DA
100
AcDbSymbolTable
 70
     0
  0
ENDTAB
  0
TABLE
  2
UCS
  5
4DB
100
AcDbSymbolTable
 70
     0
  0
ENDTAB
  0
TABLE
  2
APPID
  5
4DC
100
AcDbSymbolTable
 70
     1
  0
APPID
  5
4DD
100
AcDbSymbolTableRecord
100
AcDbRegAppTableRecord
  2
ACAD
 70
     0
  0
ENDTAB
  0
TABLE
  2
DIMSTYLE
  5
4DE
100
AcDbSymbolTable
 70
     0
  0
ENDTAB
  0
TABLE
  2
BLOCK_RECORD
  5
4DF
100
AcDbSymbolTable
 70
     0
  0
BLOCK_RECORD
  5
4E0
100
AcDbSymbolTableRecord
100
AcDbBlockTableRecord
  2
*MODEL_SPACE
  0
BLOCK_RECORD
  5
4E1
100
AcDbSymbolTableRecord
100
AcDbBlockTableRecord
  2
*PAPER_SPACE
  0
BLOCK_RECORD
  5
4E2
100
AcDbSymbolTableRecord
100
AcDbBlockTableRecord
  2
CDWK_EXTR_0
  0
BLOCK_RECORD
  5
4E3
100
AcDbSymbolTableRecord
100
AcDbBlockTableRecord
  2
CDWK_EXTR_1D
  0
BLOCK_RECORD
  5
4E4
100
AcDbSymbolTableRecord
100
AcDbBlockTableRecord
  2
CDWK_EXTR_1G
  0
BLOCK_RECORD
  5
4E5
100
AcDbSymbolTableRecord
100
AcDbBlockTableRecord
  2
CDWK_EXTR_2
  0
BLOCK_RECORD
  5
4E6
100
AcDbSymbolTableRecord
100
AcDbBlockTableRecord
  2
CDWK_EXTR_3
  0
BLOCK_RECORD
  5
4E7
100
AcDbSymbolTableRecord
100
AcDbBlockTableRecord
  2
CDWK_EXTR_4
  0
BLOCK_RECORD
  5
4E8
100
AcDbSymbolTableRecord
100
AcDbBlockTableRecord
  2
CDWK_PTTYP0
  0
BLOCK_RECORD
  5
4E9
100
AcDbSymbolTableRecord
100
AcDbBlockTableRecord
  2
CDWK_PTTYP1
  0
BLOCK_RECORD
  5
4EA
100
AcDbSymbolTableRecord
100
AcDbBlockTableRecord
  2
CDWK_PTTYP2
  0
BLOCK_RECORD
  5
4EB
100
AcDbSymbolTableRecord
100
AcDbBlockTableRecord
  2
CDWK_PTTYP3
  0
BLOCK_RECORD
  5
4EC
100
AcDbSymbolTableRecord
100
AcDbBlockTableRecord
  2
CDWK_PTTYP4
  0
BLOCK_RECORD
  5
4ED
100
AcDbSymbolTableRecord
100
AcDbBlockTableRecord
  2
CDWK_PTTYP5
  0
BLOCK_RECORD
  5
4EE
100
AcDbSymbolTableRecord
100
AcDbBlockTableRecord
  2
CDWK_PTTYP6
  0
BLOCK_RECORD
  5
4EF
100
AcDbSymbolTableRecord
100
AcDbBlockTableRecord
  2
CDWK_PTTYP7
  0
BLOCK_RECORD
  5
4F0
100
AcDbSymbolTableRecord
100
AcDbBlockTableRecord
  2
CDWK_PTTYP8
  0
BLOCK_RECORD
  5
4F1
100
AcDbSymbolTableRecord
100
AcDbBlockTableRecord
  2
CDWK_PTTYP9
  0
BLOCK_RECORD
  5
4F2
100
AcDbSymbolTableRecord
100
AcDbBlockTableRecord
  2
CDWK_PTTYP10
  0
BLOCK_RECORD
  5
4F3
100
AcDbSymbolTableRecord
100
AcDbBlockTableRecord
  2
CDWK_PTTYP11
  0
BLOCK_RECORD
  5
4F4
100
AcDbSymbolTableRecord
100
AcDbBlockTableRecord
  2
CDWK_PTTYP12
  0
BLOCK_RECORD
  5
4F5
100
AcDbSymbolTableRecord
100
AcDbBlockTableRecord
  2
CDWK_PTTYP13
  0
BLOCK_RECORD
  5
4F6
100
AcDbSymbolTableRecord
100
AcDbBlockTableRecord
  2
CDWK_PTTYP14
  0
BLOCK_RECORD
  5
4F7
100
AcDbSymbolTableRecord
100
AcDbBlockTableRecord
  2
CDWK_PTTYP15
  0
BLOCK_RECORD
  5
4F8
100
AcDbSymbolTableRecord
100
AcDbBlockTableRecord
  2
CDWK_PTTYP16
  0
BLOCK_RECORD
  5
4F9
100
AcDbSymbolTableRecord
100
AcDbBlockTableRecord
  2
CDWK_PTTYP17
  0
BLOCK_RECORD
  5
4FA
100
AcDbSymbolTableRecord
100
AcDbBlockTableRecord
  2
CDWK_PTTYP18
  0
BLOCK_RECORD
  5
4FB
100
AcDbSymbolTableRecord
100
AcDbBlockTableRecord
  2
CDWK_PTTYP19
  0
BLOCK_RECORD
  5
4FC
100
AcDbSymbolTableRecord
100
AcDbBlockTableRecord
  2
CDWK_PTTYP20
  0
BLOCK_RECORD
  5
4FD
100
AcDbSymbolTableRecord
100
AcDbBlockTableRecord
  2
CDWK_PTTYP21
  0
BLOCK_RECORD
  5
4FE
100
AcDbSymbolTableRecord
100
AcDbBlockTableRecord
  2
CDWK_PTTYP22
  0
BLOCK_RECORD
  5
4FF
100
AcDbSymbolTableRecord
100
AcDbBlockTableRecord
  2
CDWK_PTTYP23
  0
BLOCK_RECORD
  5
500
100
AcDbSymbolTableRecord
100
AcDbBlockTableRecord
  2
CDWK_PTTYP24
  0
BLOCK_RECORD
  5
501
100
AcDbSymbolTableRecord
100
AcDbBlockTableRecord
  2
CDWK_PTTYP25
  0
BLOCK_RECORD
  5
502
100
AcDbSymbolTableRecord
100
AcDbBlockTableRecord
  2
CDWK_PTTYP26
  0
BLOCK_RECORD
  5
503
100
AcDbSymbolTableRecord
100
AcDbBlockTableRecord
  2
CDWK_PTTYP27
  0
BLOCK_RECORD
  5
504
100
AcDbSymbolTableRecord
100
AcDbBlockTableRecord
  2
CDWK_PTTYP28
  0
BLOCK_RECORD
  5
505
100
AcDbSymbolTableRecord
100
AcDbBlockTableRecord
  2
CDWK_PTTYP29
  0
BLOCK_RECORD
  5
506
100
AcDbSymbolTableRecord
100
AcDbBlockTableRecord
  2
CDWK_PTTYP30
  0
BLOCK_RECORD
  5
507
100
AcDbSymbolTableRecord
100
AcDbBlockTableRecord
  2
CDWK_PTTYP31
  0
BLOCK_RECORD
  5
508
100
AcDbSymbolTableRecord
100
AcDbBlockTableRecord
  2
CDWK_PTTYP32
  0
BLOCK_RECORD
  5
509
100
AcDbSymbolTableRecord
100
AcDbBlockTableRecord
  2
CDWK_PTTYP33
  0
BLOCK_RECORD
  5
50A
100
AcDbSymbolTableRecord
100
AcDbBlockTableRecord
  2
CDWK_PTTYP34
  0
BLOCK_RECORD
  5
50B
100
AcDbSymbolTableRecord
100
AcDbBlockTableRecord
  2
CDWK_PTTYP35
  0
BLOCK_RECORD
  5
50C
100
AcDbSymbolTableRecord
100
AcDbBlockTableRecord
  2
CDWK_PTTYP36
  0
BLOCK_RECORD
  5
50D
100
AcDbSymbolTableRecord
100
AcDbBlockTableRecord
  2
CDWK_PTTYP37
  0
BLOCK_RECORD
  5
50E
100
AcDbSymbolTableRecord
100
AcDbBlockTableRecord
  2
CDWK_PTTYP38
  0
BLOCK_RECORD
  5
50F
100
AcDbSymbolTableRecord
100
AcDbBlockTableRecord
  2
*D52
  0
BLOCK_RECORD
  5
510
100
AcDbSymbolTableRecord
100
AcDbBlockTableRecord
  2
*D53
  0
BLOCK_RECORD
  5
511
100
AcDbSymbolTableRecord
100
AcDbBlockTableRecord
  2
*D54
  0
BLOCK_RECORD
  5
512
100
AcDbSymbolTableRecord
100
AcDbBlockTableRecord
  2
*D55
  0
BLOCK_RECORD
  5
513
100
AcDbSymbolTableRecord
100
AcDbBlockTableRecord
  2
*D56
  0
BLOCK_RECORD
  5
514
100
AcDbSymbolTableRecord
100
AcDbBlockTableRecord
  2
*D57
  0
BLOCK_RECORD
  5
515
100
AcDbSymbolTableRecord
100
AcDbBlockTableRecord
  2
*D58
  0
ENDTAB
  0
ENDSEC
  0
SECTION
  2
BLOCKS
  0
BLOCK
  5
516
100
AcDbEntity
  8
0
100
AcDbBlockBegin
  2
*MODEL_SPACE
 70
     0
 10
0.0
 20
0.0
 30
0.0
  3
*MODEL_SPACE
  1

  0
ENDBLK
  5
517
100
AcDbEntity
100
AcDbBlockEnd
  0
BLOCK
  5
518
100
AcDbEntity
  8
0
100
AcDbBlockBegin
  2
*PAPER_SPACE
 70
     0
 10
0.0
 20
0.0
 30
0.0
  3
*PAPER_SPACE
  1

  0
ENDBLK
  5
519
100
AcDbEntity
100
AcDbBlockEnd
  0
BLOCK
  5
51A
100
AcDbEntity
  8
0
100
AcDbBlockBegin
  2
CDWK_EXTR_0
 70
     0
 10
0.0
 20
0.0
 30
0.0
  3
CDWK_EXTR_0
  1

  4
Cadwork line-extremity
  0
LINE
  5
51B
100
AcDbEntity
  8
0
 62
     0
370
    -2
100
AcDbLine
 10
0.0
 20
0.0
 30
0.0
 11
2.0
 21
0.5
 31
0.0
  0
LINE
  5
51C
100
AcDbEntity
  8
0
 62
     0
370
    -2
100
AcDbLine
 10
0.0
 20
0.0
 30
0.0
 11
2.0
 21
-0.5
 31
0.0
  0
LINE
  5
51D
100
AcDbEntity
  8
0
 62
     0
370
    -2
100
AcDbLine
 10
2.0
 20
0.5
 30
0.0
 11
2.0
 21
-0.5
 31
0.0
  0
ENDBLK
  5
51E
100
AcDbEntity
100
AcDbBlockEnd
  0
BLOCK
  5
51F
100
AcDbEntity
  8
0
100
AcDbBlockBegin
  2
CDWK_EXTR_1D
 70
     0
 10
0.0
 20
0.0
 30
0.0
  3
CDWK_EXTR_1D
  1

  4
Cadwork line-extremity
  0
LINE
  5
520
100
AcDbEntity
  8
0
 62
     0
370
    -2
100
AcDbLine
 10
0.0
 20
0.0
 30
0.0
 11
0.0
 21
1.0
 31
0.0
  0
LINE
  5
521
100
AcDbEntity
  8
0
 62
     0
370
    -2
100
AcDbLine
 10
0.0
 20
1.0
 30
0.0
 11
0.5
 21
1.5
 31
0.0
  0
LINE
  5
522
100
AcDbEntity
  8
0
 62
     0
370
    -2
100
AcDbLine
 10
0.5
 20
1.5
 30
0.0
 11
1.5
 21
1.5
 31
0.0
  0
ENDBLK
  5
523
100
AcDbEntity
100
AcDbBlockEnd
  0
BLOCK
  5
524
100
AcDbEntity
  8
0
100
AcDbBlockBegin
  2
CDWK_EXTR_1G
 70
     0
 10
0.0
 20
0.0
 30
0.0
  3
CDWK_EXTR_1G
  1

  4
Cadwork line-extremity
  0
LINE
  5
525
100
AcDbEntity
  8
0
 62
     0
370
    -2
100
AcDbLine
 10
0.0
 20
0.0
 30
0.0
 11
0.0
 21
-1.0
 31
0.0
  0
LINE
  5
526
100
AcDbEntity
  8
0
 62
     0
370
    -2
100
AcDbLine
 10
0.0
 20
-1.0
 30
0.0
 11
0.5
 21
-1.5
 31
0.0
  0
LINE
  5
527
100
AcDbEntity
  8
0
 62
     0
370
    -2
100
AcDbLine
 10
0.5
 20
-1.5
 30
0.0
 11
1.5
 21
-1.5
 31
0.0
  0
ENDBLK
  5
528
100
AcDbEntity
100
AcDbBlockEnd
  0
BLOCK
  5
529
100
AcDbEntity
  8
0
100
AcDbBlockBegin
  2
CDWK_EXTR_2
 70
     0
 10
0.0
 20
0.0
 30
0.0
  3
CDWK_EXTR_2
  1

  4
Cadwork line-extremity
  0
SOLID
  5
52A
100
AcDbEntity
  8
0
 62
     0
100
AcDbTrace
 10
0.0
 20
0.0
 11
2.0
 21
0.5
 12
2.0
 22
-0.5
 13
2.0
 23
-0.5
  0
ENDBLK
  5
52B
100
AcDbEntity
100
AcDbBlockEnd
  0
BLOCK
  5
52C
100
AcDbEntity
  8
0
100
AcDbBlockBegin
  2
CDWK_EXTR_3
 70
     0
 10
0.0
 20
0.0
 30
0.0
  3
CDWK_EXTR_3
  1

  4
Cadwork line-extremity
  0
SOLID
  5
52D
100
AcDbEntity
  8
0
 62
     0
100
AcDbTrace
 10
0.0
 20
0.0
 11
2.0
 21
0.5
 12
2.0
 22
-0.5
 13
2.0
 23
-0.5
  0
LINE
  5
52E
100
AcDbEntity
  8
0
 62
     0
370
    -2
100
AcDbLine
 10
0.0
 20
1.0
 30
0.0
 11
0.0
 21
-1.0
 31
0.0
  0
ENDBLK
  5
52F
100
AcDbEntity
100
AcDbBlockEnd
  0
BLOCK
  5
530
100
AcDbEntity
  8
0
100
AcDbBlockBegin
  2
CDWK_EXTR_4
 70
     0
 10
0.0
 20
0.0
 30
0.0
  3
CDWK_EXTR_4
  1

  4
Cadwork line-extremity
  0
HATCH
  5
531
100
AcDbEntity
  8
0
 62
     0
370
    -2
100
AcDbHatch
 10
0.0
 20
0.0
 30
0.0
210
0.0
220
0.0
230
1.0
  2
SOLID
 70
     1
 71
     0
 91
        1
 92
        1
 93
        1
 72
     2
 10
0.0
 20
0.0
 40
0.5
 50
0.0
 51
360.0
 73
     1
 97
        0
 75
     0
 76
     1
 98
        1
 10
0.0
 20
0.0
  0
ENDBLK
  5
532
100
AcDbEntity
100
AcDbBlockEnd
  0
BLOCK
  5
533
100
AcDbEntity
  8
0
100
AcDbBlockBegin
  2
CDWK_PTTYP0
 70
     0
 10
0.0
 20
0.0
 30
0.0
  3
CDWK_PTTYP0
  1

  4
Cadwork point
  0
POINT
  5
534
100
AcDbEntity
  8
0
 62
     0
100
AcDbPoint
 10
0.0
 20
0.0
 30
0.0
  0
ENDBLK
  5
535
100
AcDbEntity
100
AcDbBlockEnd
  0
BLOCK
  5
536
100
AcDbEntity
  8
0
100
AcDbBlockBegin
  2
CDWK_PTTYP1
 70
     0
 10
0.0
 20
0.0
 30
0.0
  3
CDWK_PTTYP1
  1

  4
Cadwork node
  0
LINE
  5
537
100
AcDbEntity
  8
0
 62
     0
370
    -2
100
AcDbLine
 10
-0.5
 20
0.5
 30
0.0
 11
0.5
 21
0.5
 31
0.0
  0
LINE
  5
538
100
AcDbEntity
  8
0
 62
     0
370
    -2
100
AcDbLine
 10
0.5
 20
0.5
 30
0.0
 11
0.5
 21
-0.5
 31
0.0
  0
LINE
  5
539
100
AcDbEntity
  8
0
 62
     0
370
    -2
100
AcDbLine
 10
0.5
 20
-0.5
 30
0.0
 11
-0.5
 21
-0.5
 31
0.0
  0
LINE
  5
53A
100
AcDbEntity
  8
0
 62
     0
370
    -2
100
AcDbLine
 10
-0.5
 20
-0.5
 30
0.0
 11
-0.5
 21
0.5
 31
0.0
  0
ENDBLK
  5
53B
100
AcDbEntity
100
AcDbBlockEnd
  0
BLOCK
  5
53C
100
AcDbEntity
  8
0
100
AcDbBlockBegin
  2
CDWK_PTTYP2
 70
     0
 10
0.0
 20
0.0
 30
0.0
  3
CDWK_PTTYP2
  1

  4
Cadwork node
  0
LINE
  5
53D
100
AcDbEntity
  8
0
 62
     0
370
    -2
100
AcDbLine
 10
0.0
 20
0.5
 30
0.0
 11
0.0
 21
-0.5
 31
0.0
  0
LINE
  5
53E
100
AcDbEntity
  8
0
 62
     0
370
    -2
100
AcDbLine
 10
-0.5
 20
0.0
 30
0.0
 11
0.5
 21
0.0
 31
0.0
  0
ENDBLK
  5
53F
100
AcDbEntity
100
AcDbBlockEnd
  0
BLOCK
  5
540
100
AcDbEntity
  8
0
100
AcDbBlockBegin
  2
CDWK_PTTYP3
 70
     0
 10
0.0
 20
0.0
 30
0.0
  3
CDWK_PTTYP3
  1

  4
Cadwork node
  0
CIRCLE
  5
541
100
AcDbEntity
  8
0
 62
     0
370
    -2
100
AcDbCircle
 10
0.0
 20
0.0
 30
0.0
 40
0.5
  0
ENDBLK
  5
542
100
AcDbEntity
100
AcDbBlockEnd
  0
BLOCK
  5
543
100
AcDbEntity
  8
0
100
AcDbBlockBegin
  2
CDWK_PTTYP4
 70
     0
 10
0.0
 20
0.0
 30
0.0
  3
CDWK_PTTYP4
  1

  4
Cadwork node
  0
HATCH
  5
544
100
AcDbEntity
  8
0
 62
     0
370
    -2
100
AcDbHatch
 10
0.0
 20
0.0
 30
0.0
210
0.0
220
0.0
230
1.0
  2
SOLID
 70
     1
 71
     0
 91
        1
 92
        1
 93
        1
 72
     2
 10
0.0
 20
0.0
 40
0.5
 50
0.0
 51
360.0
 73
     1
 97
        0
 75
     0
 76
     1
 98
        1
 10
0.0
 20
0.0
  0
ENDBLK
  5
545
100
AcDbEntity
100
AcDbBlockEnd
  0
BLOCK
  5
546
100
AcDbEntity
  8
0
100
AcDbBlockBegin
  2
CDWK_PTTYP5
 70
     0
 10
0.0
 20
0.0
 30
0.0
  3
CDWK_PTTYP5
  1

  4
Cadwork node
  0
LINE
  5
547
100
AcDbEntity
  8
0
 62
     0
370
    -2
100
AcDbLine
 10
-0.5
 20
0.5
 30
0.0
 11
0.5
 21
0.5
 31
0.0
  0
LINE
  5
548
100
AcDbEntity
  8
0
 62
     0
370
    -2
100
AcDbLine
 10
0.5
 20
0.5
 30
0.0
 11
0.5
 21
-0.5
 31
0.0
  0
LINE
  5
549
100
AcDbEntity
  8
0
 62
     0
370
    -2
100
AcDbLine
 10
0.5
 20
-0.5
 30
0.0
 11
-0.5
 21
-0.5
 31
0.0
  0
LINE
  5
54A
100
AcDbEntity
  8
0
 62
     0
370
    -2
100
AcDbLine
 10
-0.5
 20
-0.5
 30
0.0
 11
-0.5
 21
0.5
 31
0.0
  0
SOLID
  5
54B
100
AcDbEntity
  8
0
 62
     0
100
AcDbTrace
 10
-0.5
 20
-0.5
 11
-0.5
 21
0.0
 12
0.0
 22
-0.5
 13
0.0
 23
0.0
  0
SOLID
  5
54C
100
AcDbEntity
  8
0
 62
     0
100
AcDbTrace
 10
0.0
 20
0.0
 11
0.0
 21
0.5
 12
0.5
 22
0.0
 13
0.5
 23
0.5
  0
ENDBLK
  5
54D
100
AcDbEntity
100
AcDbBlockEnd
  0
BLOCK
  5
54E
100
AcDbEntity
  8
0
100
AcDbBlockBegin
  2
CDWK_PTTYP6
 70
     0
 10
0.0
 20
0.0
 30
0.0
  3
CDWK_PTTYP6
  1

  4
Cadwork node
  0
LINE
  5
54F
100
AcDbEntity
  8
0
 62
     0
370
    -2
100
AcDbLine
 10
-0.5
 20
0.5
 30
0.0
 11
0.5
 21
0.5
 31
0.0
  0
LINE
  5
550
100
AcDbEntity
  8
0
 62
     0
370
    -2
100
AcDbLine
 10
0.5
 20
0.5
 30
0.0
 11
0.5
 21
-0.5
 31
0.0
  0
LINE
  5
551
100
AcDbEntity
  8
0
 62
     0
370
    -2
100
AcDbLine
 10
0.5
 20
-0.5
 30
0.0
 11
-0.5
 21
-0.5
 31
0.0
  0
LINE
  5
552
100
AcDbEntity
  8
0
 62
     0
370
    -2
100
AcDbLine
 10
-0.5
 20
-0.5
 30
0.0
 11
-0.5
 21
0.5
 31
0.0
  0
SOLID
  5
553
100
AcDbEntity
  8
0
 62
     0
100
AcDbTrace
 10
-0.5
 20
-0.5
 11
-0.5
 21
0.5
 12
0.5
 22
0.5
 13
0.5
 23
0.5
  0
ENDBLK
  5
554
100
AcDbEntity
100
AcDbBlockEnd
  0
BLOCK
  5
555
100
AcDbEntity
  8
0
100
AcDbBlockBegin
  2
CDWK_PTTYP7
 70
     0
 10
0.0
 20
0.0
 30
0.0
  3
CDWK_PTTYP7
  1

  4
Cadwork node
  0
LINE
  5
556
100
AcDbEntity
  8
0
 62
     0
370
    -2
100
AcDbLine
 10
-0.5
 20
0.5
 30
0.0
 11
0.5
 21
0.5
 31
0.0
  0
LINE
  5
557
100
AcDbEntity
  8
0
 62
     0
370
    -2
100
AcDbLine
 10
0.5
 20
0.5
 30
0.0
 11
0.5
 21
-0.5
 31
0.0
  0
LINE
  5
558
100
AcDbEntity
  8
0
 62
     0
370
    -2
100
AcDbLine
 10
0.5
 20
-0.5
 30
0.0
 11
-0.5
 21
-0.5
 31
0.0
  0
LINE
  5
559
100
AcDbEntity
  8
0
 62
     0
370
    -2
100
AcDbLine
 10
-0.5
 20
-0.5
 30
0.0
 11
-0.5
 21
0.5
 31
0.0
  0
LINE
  5
55A
100
AcDbEntity
  8
0
 62
     0
370
    -2
100
AcDbLine
 10
0.0
 20
0.5
 30
0.0
 11
0.0
 21
-0.5
 31
0.0
  0
LINE
  5
55B
100
AcDbEntity
  8
0
 62
     0
370
    -2
100
AcDbLine
 10
-0.5
 20
0.0
 30
0.0
 11
0.5
 21
0.0
 31
0.0
  0
ENDBLK
  5
55C
100
AcDbEntity
100
AcDbBlockEnd
  0
BLOCK
  5
55D
100
AcDbEntity
  8
0
100
AcDbBlockBegin
  2
CDWK_PTTYP8
 70
     0
 10
0.0
 20
0.0
 30
0.0
  3
CDWK_PTTYP8
  1

  4
Cadwork node
  0
SOLID
  5
55E
100
AcDbEntity
  8
0
 62
     0
100
AcDbTrace
 10
-0.5
 20
0.5
 11
0.5
 21
0.5
 12
-0.5
 22
-0.5
 13
0.5
 23
-0.5
  0
ENDBLK
  5
55F
100
AcDbEntity
100
AcDbBlockEnd
  0
BLOCK
  5
560
100
AcDbEntity
  8
0
100
AcDbBlockBegin
  2
CDWK_PTTYP9
 70
     0
 10
0.0
 20
0.0
 30
0.0
  3
CDWK_PTTYP9
  1

  4
Cadwork node
  0
CIRCLE
  5
561
100
AcDbEntity
  8
0
 62
     0
370
    -2
100
AcDbCircle
 10
0.0
 20
0.0
 30
0.0
 40
0.5
  0
CIRCLE
  5
562
100
AcDbEntity
  8
0
 62
     0
370
    -2
100
AcDbCircle
 10
0.0
 20
0.0
 30
0.0
 40
0.16666667
  0
ENDBLK
  5
563
100
AcDbEntity
100
AcDbBlockEnd
  0
BLOCK
  5
564
100
AcDbEntity
  8
0
100
AcDbBlockBegin
  2
CDWK_PTTYP10
 70
     0
 10
0.0
 20
0.0
 30
0.0
  3
CDWK_PTTYP10
  1

  4
Cadwork node
  0
CIRCLE
  5
565
100
AcDbEntity
  8
0
 62
     0
370
    -2
100
AcDbCircle
 10
0.0
 20
0.0
 30
0.0
 40
0.5
  0
ENDBLK
  5
566
100
AcDbEntity
100
AcDbBlockEnd
  0
BLOCK
  5
567
100
AcDbEntity
  8
0
100
AcDbBlockBegin
  2
CDWK_PTTYP11
 70
     0
 10
0.0
 20
0.0
 30
0.0
  3
CDWK_PTTYP11
  1

  4
Cadwork node
  0
CIRCLE
  5
568
100
AcDbEntity
  8
0
 62
     0
370
    -2
100
AcDbCircle
 10
0.0
 20
0.0
 30
0.0
 40
0.5
  0
CIRCLE
  5
569
100
AcDbEntity
  8
0
 62
     0
370
    -2
100
AcDbCircle
 10
0.0
 20
0.0
 30
0.0
 40
0.25
  0
ENDBLK
  5
56A
100
AcDbEntity
100
AcDbBlockEnd
  0
BLOCK
  5
56B
100
AcDbEntity
  8
0
100
AcDbBlockBegin
  2
CDWK_PTTYP12
 70
     0
 10
0.0
 20
0.0
 30
0.0
  3
CDWK_PTTYP12
  1

  4
Cadwork node
  0
CIRCLE
  5
56C
100
AcDbEntity
  8
0
 62
     0
370
    -2
100
AcDbCircle
 10
0.0
 20
0.0
 30
0.0
 40
0.5
  0
CIRCLE
  5
56D
100
AcDbEntity
  8
0
 62
     0
370
    -2
100
AcDbCircle
 10
0.25
 20
0.0
 30
0.0
 40
0.25
  0
ENDBLK
  5
56E
100
AcDbEntity
100
AcDbBlockEnd
  0
BLOCK
  5
56F
100
AcDbEntity
  8
0
100
AcDbBlockBegin
  2
CDWK_PTTYP13
 70
     0
 10
0.0
 20
0.0
 30
0.0
  3
CDWK_PTTYP13
  1

  4
Cadwork node
  0
CIRCLE
  5
570
100
AcDbEntity
  8
0
 62
     0
370
    -2
100
AcDbCircle
 10
0.0
 20
0.0
 30
0.0
 40
0.5
  0
CIRCLE
  5
571
100
AcDbEntity
  8
0
 62
     0
370
    -2
100
AcDbCircle
 10
0.25
 20
0.0
 30
0.0
 40
0.25
  0
CIRCLE
  5
572
100
AcDbEntity
  8
0
 62
     0
370
    -2
100
AcDbCircle
 10
-0.25
 20
0.0
 30
0.0
 40
0.25
  0
ENDBLK
  5
573
100
AcDbEntity
100
AcDbBlockEnd
  0
BLOCK
  5
574
100
AcDbEntity
  8
0
100
AcDbBlockBegin
  2
CDWK_PTTYP14
 70
     0
 10
0.0
 20
0.0
 30
0.0
  3
CDWK_PTTYP14
  1

  4
Cadwork node
  0
POINT
  5
575
100
AcDbEntity
  8
0
 62
     0
100
AcDbPoint
 10
0.0
 20
0.0
 30
0.0
  0
ENDBLK
  5
576
100
AcDbEntity
100
AcDbBlockEnd
  0
BLOCK
  5
577
100
AcDbEntity
  8
0
100
AcDbBlockBegin
  2
CDWK_PTTYP15
 70
     0
 10
0.0
 20
0.0
 30
0.0
  3
CDWK_PTTYP15
  1

  4
Cadwork node
  0
POINT
  5
578
100
AcDbEntity
  8
0
 62
     0
100
AcDbPoint
 10
0.0
 20
0.0
 30
0.0
  0
ENDBLK
  5
579
100
AcDbEntity
100
AcDbBlockEnd
  0
BLOCK
  5
57A
100
AcDbEntity
  8
0
100
AcDbBlockBegin
  2
CDWK_PTTYP16
 70
     0
 10
0.0
 20
0.0
 30
0.0
  3
CDWK_PTTYP16
  1

  4
Cadwork node
  0
LINE
  5
57B
100
AcDbEntity
  8
0
 62
     0
370
    -2
100
AcDbLine
 10
-0.5
 20
-0.28867513
 30
0.0
 11
0.5
 21
-0.28867513
 31
0.0
  0
LINE
  5
57C
100
AcDbEntity
  8
0
 62
     0
370
    -2
100
AcDbLine
 10
0.5
 20
-0.28867513
 30
0.0
 11
0.0
 21
0.57735027
 31
0.0
  0
LINE
  5
57D
100
AcDbEntity
  8
0
 62
     0
370
    -2
100
AcDbLine
 10
0.0
 20
0.57735027
 30
0.0
 11
-0.5
 21
-0.28867513
 31
0.0
  0
CIRCLE
  5
57E
100
AcDbEntity
  8
0
 62
     0
370
    -2
100
AcDbCircle
 10
0.0
 20
0.0
 30
0.0
 40
0.28867513
  0
ENDBLK
  5
57F
100
AcDbEntity
100
AcDbBlockEnd
  0
BLOCK
  5
580
100
AcDbEntity
  8
0
100
AcDbBlockBegin
  2
CDWK_PTTYP17
 70
     0
 10
0.0
 20
0.0
 30
0.0
  3
CDWK_PTTYP17
  1

  4
Cadwork node
  0
CIRCLE
  5
581
100
AcDbEntity
  8
0
 62
     0
370
    -2
100
AcDbCircle
 10
0.0
 20
0.0
 30
0.0
 40
0.5
  0
HATCH
  5
582
100
AcDbEntity
  8
0
 62
     0
370
    -2
100
AcDbHatch
 10
0.0
 20
0.0
 30
0.0
210
0.0
220
0.0
230
1.0
  2
SOLID
 70
     1
 71
     0
 91
        1
 92
        1
 93
        1
 72
     2
 10
0.0
 20
0.0
 40
0.25
 50
0.0
 51
360.0
 73
     1
 97
        0
 75
     0
 76
     1
 98
        1
 10
0.0
 20
0.0
  0
ENDBLK
  5
583
100
AcDbEntity
100
AcDbBlockEnd
  0
BLOCK
  5
584
100
AcDbEntity
  8
0
100
AcDbBlockBegin
  2
CDWK_PTTYP18
 70
     0
 10
0.0
 20
0.0
 30
0.0
  3
CDWK_PTTYP18
  1

  4
Cadwork node
  0
CIRCLE
  5
585
100
AcDbEntity
  8
0
 62
     0
370
    -2
100
AcDbCircle
 10
0.0
 20
0.0
 30
0.0
 40
0.5
  0
CIRCLE
  5
586
100
AcDbEntity
  8
0
 62
     0
370
    -2
100
AcDbCircle
 10
0.0
 20
0.0
 30
0.0
 40
0.2
  0
ENDBLK
  5
587
100
AcDbEntity
100
AcDbBlockEnd
  0
BLOCK
  5
588
100
AcDbEntity
  8
0
100
AcDbBlockBegin
  2
CDWK_PTTYP19
 70
     0
 10
0.0
 20
0.0
 30
0.0
  3
CDWK_PTTYP19
  1

  4
Cadwork node
  0
CIRCLE
  5
589
100
AcDbEntity
  8
0
 62
     0
370
    -2
100
AcDbCircle
 10
0.0
 20
0.0
 30
0.0
 40
0.4
  0
CIRCLE
  5
58A
100
AcDbEntity
  8
0
 62
     0
370
    -2
100
AcDbCircle
 10
0.0
 20
0.0
 30
0.0
 40
0.25
  0
LINE
  5
58B
100
AcDbEntity
  8
0
 62
     0
370
    -2
100
AcDbLine
 10
-0.25
 20
0.0
 30
0.0
 11
0.25
 21
0.0
 31
0.0
  0
ENDBLK
  5
58C
100
AcDbEntity
100
AcDbBlockEnd
  0
BLOCK
  5
58D
100
AcDbEntity
  8
0
100
AcDbBlockBegin
  2
CDWK_PTTYP20
 70
     0
 10
0.0
 20
0.0
 30
0.0
  3
CDWK_PTTYP20
  1

  4
Cadwork node
  0
CIRCLE
  5
58E
100
AcDbEntity
  8
0
 62
     0
370
    -2
100
AcDbCircle
 10
0.0
 20
0.0
 30
0.0
 40
0.5
  0
CIRCLE
  5
58F
100
AcDbEntity
  8
0
 62
     0
370
    -2
100
AcDbCircle
 10
0.0
 20
0.0
 30
0.0
 40
0.3
  0
ENDBLK
  5
590
100
AcDbEntity
100
AcDbBlockEnd
  0
BLOCK
  5
591
100
AcDbEntity
  8
0
100
AcDbBlockBegin
  2
CDWK_PTTYP21
 70
     0
 10
0.0
 20
0.0
 30
0.0
  3
CDWK_PTTYP21
  1

  4
Cadwork node
  0
CIRCLE
  5
592
100
AcDbEntity
  8
0
 62
     0
370
    -2
100
AcDbCircle
 10
0.0
 20
0.0
 30
0.0
 40
0.5
  0
LINE
  5
593
100
AcDbEntity
  8
0
 62
     0
370
    -2
100
AcDbLine
 10
-0.5
 20
0.0
 30
0.0
 11
0.5
 21
0.0
 31
0.0
  0
ENDBLK
  5
594
100
AcDbEntity
100
AcDbBlockEnd
  0
BLOCK
  5
595
100
AcDbEntity
  8
0
100
AcDbBlockBegin
  2
CDWK_PTTYP22
 70
     0
 10
0.0
 20
0.0
 30
0.0
  3
CDWK_PTTYP22
  1

  4
Cadwork node
  0
POINT
  5
596
100
AcDbEntity
  8
0
 62
     0
100
AcDbPoint
 10
0.0
 20
0.0
 30
0.0
  0
ENDBLK
  5
597
100
AcDbEntity
100
AcDbBlockEnd
  0
BLOCK
  5
598
100
AcDbEntity
  8
0
100
AcDbBlockBegin
  2
CDWK_PTTYP23
 70
     0
 10
0.0
 20
0.0
 30
0.0
  3
CDWK_PTTYP23
  1

  4
Cadwork node
  0
POINT
  5
599
100
AcDbEntity
  8
0
 62
     0
100
AcDbPoint
 10
0.0
 20
0.0
 30
0.0
  0
ENDBLK
  5
59A
100
AcDbEntity
100
AcDbBlockEnd
  0
BLOCK
  5
59B
100
AcDbEntity
  8
0
100
AcDbBlockBegin
  2
CDWK_PTTYP24
 70
     0
 10
0.0
 20
0.0
 30
0.0
  3
CDWK_PTTYP24
  1

  4
Cadwork node
  0
POINT
  5
59C
100
AcDbEntity
  8
0
 62
     0
100
AcDbPoint
 10
0.0
 20
0.0
 30
0.0
  0
ENDBLK
  5
59D
100
AcDbEntity
100
AcDbBlockEnd
  0
BLOCK
  5
59E
100
AcDbEntity
  8
0
100
AcDbBlockBegin
  2
CDWK_PTTYP25
 70
     0
 10
0.0
 20
0.0
 30
0.0
  3
CDWK_PTTYP25
  1

  4
Cadwork node
  0
LINE
  5
59F
100
AcDbEntity
  8
0
 62
     0
370
    -2
100
AcDbLine
 10
-0.43290044
 20
-0.25
 30
0.0
 11
0.43290044
 21
-0.25
 31
0.0
  0
LINE
  5
5A0
100
AcDbEntity
  8
0
 62
     0
370
    -2
100
AcDbLine
 10
-0.43290044
 20
-0.25
 30
0.0
 11
0.0
 21
0.5
 31
0.0
  0
LINE
  5
5A1
100
AcDbEntity
  8
0
 62
     0
370
    -2
100
AcDbLine
 10
0.43290044
 20
-0.25
 30
0.0
 11
0.0
 21
0.5
 31
0.0
  0
CIRCLE
  5
5A2
100
AcDbEntity
  8
0
 62
     0
370
    -2
100
AcDbCircle
 10
0.0
 20
0.0
 30
0.0
 40
0.5
  0
ENDBLK
  5
5A3
100
AcDbEntity
100
AcDbBlockEnd
  0
BLOCK
  5
5A4
100
AcDbEntity
  8
0
100
AcDbBlockBegin
  2
CDWK_PTTYP26
 70
     0
 10
0.0
 20
0.0
 30
0.0
  3
CDWK_PTTYP26
  1

  4
Cadwork node
  0
LINE
  5
5A5
100
AcDbEntity
  8
0
 62
     0
370
    -2
100
AcDbLine
 10
-0.5
 20
-0.28850001
 30
0.0
 11
0.5
 21
-0.28850001
 31
0.0
  0
LINE
  5
5A6
100
AcDbEntity
  8
0
 62
     0
370
    -2
100
AcDbLine
 10
-0.5
 20
-0.28850001
 30
0.0
 11
0.0
 21
0.57736721
 31
0.0
  0
LINE
  5
5A7
100
AcDbEntity
  8
0
 62
     0
370
    -2
100
AcDbLine
 10
0.5
 20
-0.28850001
 30
0.0
 11
0.0
 21
0.57736721
 31
0.0
  0
CIRCLE
  5
5A8
100
AcDbEntity
  8
0
 62
     0
370
    -2
100
AcDbCircle
 10
0.0
 20
0.0
 30
0.0
 40
0.1312336
  0
ENDBLK
  5
5A9
100
AcDbEntity
100
AcDbBlockEnd
  0
BLOCK
  5
5AA
100
AcDbEntity
  8
0
100
AcDbBlockBegin
  2
CDWK_PTTYP27
 70
     0
 10
0.0
 20
0.0
 30
0.0
  3
CDWK_PTTYP27
  1

  4
Cadwork node
  0
LINE
  5
5AB
100
AcDbEntity
  8
0
 62
     0
370
    -2
100
AcDbLine
 10
-0.43290044
 20
-0.25
 30
0.0
 11
0.43290044
 21
-0.25
 31
0.0
  0
LINE
  5
5AC
100
AcDbEntity
  8
0
 62
     0
370
    -2
100
AcDbLine
 10
-0.43290044
 20
-0.25
 30
0.0
 11
0.0
 21
0.5
 31
0.0
  0
LINE
  5
5AD
100
AcDbEntity
  8
0
 62
     0
370
    -2
100
AcDbLine
 10
0.43290044
 20
-0.25
 30
0.0
 11
0.0
 21
0.5
 31
0.0
  0
CIRCLE
  5
5AE
100
AcDbEntity
  8
0
 62
     0
370
    -2
100
AcDbCircle
 10
0.0
 20
0.0
 30
0.0
 40
0.5
  0
CIRCLE
  5
5AF
100
AcDbEntity
  8
0
 62
     0
370
    -2
100
AcDbCircle
 10
0.0
 20
0.0
 30
0.0
 40
0.1312336
  0
ENDBLK
  5
5B0
100
AcDbEntity
100
AcDbBlockEnd
  0
BLOCK
  5
5B1
100
AcDbEntity
  8
0
100
AcDbBlockBegin
  2
CDWK_PTTYP28
 70
     0
 10
0.0
 20
0.0
 30
0.0
  3
CDWK_PTTYP28
  1

  4
Cadwork node
  0
POINT
  5
5B2
100
AcDbEntity
  8
0
 62
     0
100
AcDbPoint
 10
0.0
 20
0.0
 30
0.0
  0
ENDBLK
  5
5B3
100
AcDbEntity
100
AcDbBlockEnd
  0
BLOCK
  5
5B4
100
AcDbEntity
  8
0
100
AcDbBlockBegin
  2
CDWK_PTTYP29
 70
     0
 10
0.0
 20
0.0
 30
0.0
  3
CDWK_PTTYP29
  1

  4
Cadwork node
  0
CIRCLE
  5
5B5
100
AcDbEntity
  8
0
 62
     0
370
    -2
100
AcDbCircle
 10
0.0
 20
0.0
 30
0.0
 40
0.5
  0
CIRCLE
  5
5B6
100
AcDbEntity
  8
0
 62
     0
370
    -2
100
AcDbCircle
 10
0.0
 20
0.0
 30
0.0
 40
0.375
  0
CIRCLE
  5
5B7
100
AcDbEntity
  8
0
 62
     0
370
    -2
100
AcDbCircle
 10
0.0
 20
0.0
 30
0.0
 40
0.21875
  0
ENDBLK
  5
5B8
100
AcDbEntity
100
AcDbBlockEnd
  0
BLOCK
  5
5B9
100
AcDbEntity
  8
0
100
AcDbBlockBegin
  2
CDWK_PTTYP30
 70
     0
 10
0.0
 20
0.0
 30
0.0
  3
CDWK_PTTYP30
  1

  4
Cadwork node
  0
LINE
  5
5BA
100
AcDbEntity
  8
0
 62
     0
370
    -2
100
AcDbLine
 10
0.17680339
 20
0.17680339
 30
0.0
 11
0.5
 21
0.5
 31
0.0
  0
LINE
  5
5BB
100
AcDbEntity
  8
0
 62
     0
370
    -2
100
AcDbLine
 10
-0.17680339
 20
0.17680339
 30
0.0
 11
-0.5
 21
0.5
 31
0.0
  0
LINE
  5
5BC
100
AcDbEntity
  8
0
 62
     0
370
    -2
100
AcDbLine
 10
0.17680339
 20
-0.17680339
 30
0.0
 11
0.5
 21
-0.5
 31
0.0
  0
LINE
  5
5BD
100
AcDbEntity
  8
0
 62
     0
370
    -2
100
AcDbLine
 10
-0.17680339
 20
-0.17680339
 30
0.0
 11
-0.5
 21
-0.5
 31
0.0
  0
ENDBLK
  5
5BE
100
AcDbEntity
100
AcDbBlockEnd
  0
BLOCK
  5
5BF
100
AcDbEntity
  8
0
100
AcDbBlockBegin
  2
CDWK_PTTYP31
 70
     0
 10
0.0
 20
0.0
 30
0.0
  3
CDWK_PTTYP31
  1

  4
Cadwork node
  0
CIRCLE
  5
5C0
100
AcDbEntity
  8
0
 62
     0
370
    -2
100
AcDbCircle
 10
0.0
 20
0.0
 30
0.0
 40
0.075
  0
LINE
  5
5C1
100
AcDbEntity
  8
0
 62
     0
370
    -2
100
AcDbLine
 10
0.075
 20
0.0
 30
0.0
 11
0.5
 21
0.0
 31
0.0
  0
LINE
  5
5C2
100
AcDbEntity
  8
0
 62
     0
370
    -2
100
AcDbLine
 10
-0.075
 20
0.0
 30
0.0
 11
-0.5
 21
0.0
 31
0.0
  0
LINE
  5
5C3
100
AcDbEntity
  8
0
 62
     0
370
    -2
100
AcDbLine
 10
0.0
 20
0.075
 30
0.0
 11
0.0
 21
0.5
 31
0.0
  0
LINE
  5
5C4
100
AcDbEntity
  8
0
 62
     0
370
    -2
100
AcDbLine
 10
0.0
 20
-0.075
 30
0.0
 11
0.0
 21
-0.5
 31
0.0
  0
ENDBLK
  5
5C5
100
AcDbEntity
100
AcDbBlockEnd
  0
BLOCK
  5
5C6
100
AcDbEntity
  8
0
100
AcDbBlockBegin
  2
CDWK_PTTYP32
 70
     0
 10
0.0
 20
0.0
 30
0.0
  3
CDWK_PTTYP32
  1

  4
Cadwork node
  0
CIRCLE
  5
5C7
100
AcDbEntity
  8
0
 62
     0
370
    -2
100
AcDbCircle
 10
0.0
 20
0.0
 30
0.0
 40
0.5
  0
CIRCLE
  5
5C8
100
AcDbEntity
  8
0
 62
     0
370
    -2
100
AcDbCircle
 10
0.0
 20
0.0
 30
0.0
 40
0.16666667
  0
LINE
  5
5C9
100
AcDbEntity
  8
0
 62
     0
370
    -2
100
AcDbLine
 10
0.11786893
 20
0.11786893
 30
0.0
 11
0.35360678
 21
0.35360678
 31
0.0
  0
LINE
  5
5CA
100
AcDbEntity
  8
0
 62
     0
370
    -2
100
AcDbLine
 10
-0.11786893
 20
0.11786893
 30
0.0
 11
-0.35360678
 21
0.35360678
 31
0.0
  0
LINE
  5
5CB
100
AcDbEntity
  8
0
 62
     0
370
    -2
100
AcDbLine
 10
0.11786893
 20
-0.11786893
 30
0.0
 11
0.35360678
 21
-0.35360678
 31
0.0
  0
LINE
  5
5CC
100
AcDbEntity
  8
0
 62
     0
370
    -2
100
AcDbLine
 10
-0.11786893
 20
-0.11786893
 30
0.0
 11
-0.35360678
 21
-0.35360678
 31
0.0
  0
ENDBLK
  5
5CD
100
AcDbEntity
100
AcDbBlockEnd
  0
BLOCK
  5
5CE
100
AcDbEntity
  8
0
100
AcDbBlockBegin
  2
CDWK_PTTYP33
 70
     0
 10
0.0
 20
0.0
 30
0.0
  3
CDWK_PTTYP33
  1

  4
Cadwork node
  0
CIRCLE
  5
5CF
100
AcDbEntity
  8
0
 62
     0
370
    -2
100
AcDbCircle
 10
0.0
 20
0.0
 30
0.0
 40
0.5
  0
LINE
  5
5D0
100
AcDbEntity
  8
0
 62
     0
370
    -2
100
AcDbLine
 10
0.0
 20
0.5
 30
0.0
 11
0.0
 21
-0.5
 31
0.0
  0
LINE
  5
5D1
100
AcDbEntity
  8
0
 62
     0
370
    -2
100
AcDbLine
 10
-0.5
 20
0.0
 30
0.0
 11
0.5
 21
0.0
 31
0.0
  0
ENDBLK
  5
5D2
100
AcDbEntity
100
AcDbBlockEnd
  0
BLOCK
  5
5D3
100
AcDbEntity
  8
0
100
AcDbBlockBegin
  2
CDWK_PTTYP34
 70
     0
 10
0.0
 20
0.0
 30
0.0
  3
CDWK_PTTYP34
  1

  4
Cadwork node
  0
CIRCLE
  5
5D4
100
AcDbEntity
  8
0
 62
     0
370
    -2
100
AcDbCircle
 10
0.0
 20
0.0
 30
0.0
 40
0.5
  0
LINE
  5
5D5
100
AcDbEntity
  8
0
 62
     0
370
    -2
100
AcDbLine
 10
-0.30360678
 20
-0.40360678
 30
0.0
 11
0.40360678
 21
0.30360678
 31
0.0
  0
LINE
  5
5D6
100
AcDbEntity
  8
0
 62
     0
370
    -2
100
AcDbLine
 10
-0.40360678
 20
-0.30360678
 30
0.0
 11
0.30360678
 21
0.40360678
 31
0.0
  0
ENDBLK
  5
5D7
100
AcDbEntity
100
AcDbBlockEnd
  0
BLOCK
  5
5D8
100
AcDbEntity
  8
0
100
AcDbBlockBegin
  2
CDWK_PTTYP35
 70
     0
 10
0.0
 20
0.0
 30
0.0
  3
CDWK_PTTYP35
  1

  4
Cadwork node
  0
CIRCLE
  5
5D9
100
AcDbEntity
  8
0
 62
     0
370
    -2
100
AcDbCircle
 10
0.0
 20
0.0
 30
0.0
 40
0.21431634
  0
LINE
  5
5DA
100
AcDbEntity
  8
0
 62
     0
370
    -2
100
AcDbLine
 10
0.0
 20
0.21431634
 30
0.0
 11
0.0
 21
0.5
 31
0.0
  0
LINE
  5
5DB
100
AcDbEntity
  8
0
 62
     0
370
    -2
100
AcDbLine
 10
0.0
 20
-0.21431634
 30
0.0
 11
0.0
 21
-0.5
 31
0.0
  0
ENDBLK
  5
5DC
100
AcDbEntity
100
AcDbBlockEnd
  0
BLOCK
  5
5DD
100
AcDbEntity
  8
0
100
AcDbBlockBegin
  2
CDWK_PTTYP36
 70
     0
 10
0.0
 20
0.0
 30
0.0
  3
CDWK_PTTYP36
  1

  4
Cadwork node
  0
LINE
  5
5DE
100
AcDbEntity
  8
0
 62
     0
370
    -2
100
AcDbLine
 10
-0.5
 20
-0.16666667
 30
0.0
 11
0.5
 21
-0.16666667
 31
0.0
  0
LINE
  5
5DF
100
AcDbEntity
  8
0
 62
     0
370
    -2
100
AcDbLine
 10
0.5
 20
-0.16666667
 30
0.0
 11
0.5
 21
0.16666667
 31
0.0
  0
LINE
  5
5E0
100
AcDbEntity
  8
0
 62
     0
370
    -2
100
AcDbLine
 10
0.5
 20
0.16666667
 30
0.0
 11
-0.5
 21
0.16666667
 31
0.0
  0
LINE
  5
5E1
100
AcDbEntity
  8
0
 62
     0
370
    -2
100
AcDbLine
 10
-0.5
 20
0.16666667
 30
0.0
 11
-0.5
 21
-0.16666667
 31
0.0
  0
SOLID
  5
5E2
100
AcDbEntity
  8
0
 62
     0
100
AcDbTrace
 10
-0.5
 20
-0.16666667
 11
0.5
 21
0.16666667
 12
0.5
 22
-0.16666667
 13
0.5
 23
-0.16666667
  0
ENDBLK
  5
5E3
100
AcDbEntity
100
AcDbBlockEnd
  0
BLOCK
  5
5E4
100
AcDbEntity
  8
0
100
AcDbBlockBegin
  2
CDWK_PTTYP37
 70
     0
 10
0.0
 20
0.0
 30
0.0
  3
CDWK_PTTYP37
  1

  4
Cadwork node
  0
CIRCLE
  5
5E5
100
AcDbEntity
  8
0
 62
     0
370
    -2
100
AcDbCircle
 10
0.0
 20
0.0
 30
0.0
 40
0.5
  0
SOLID
  5
5E6
100
AcDbEntity
  8
0
 62
     0
100
AcDbTrace
 10
0.0
 20
0.0
 11
0.35350001
 21
0.35350001
 12
0.5
 22
0.0
 13
0.46200001
 23
0.19149999
  0
SOLID
  5
5E7
100
AcDbEntity
  8
0
 62
     0
100
AcDbTrace
 10
0.0
 20
0.0
 11
0.35350001
 21
-0.35350001
 12
0.5
 22
0.0
 13
0.46200001
 23
-0.19149999
  0
SOLID
  5
5E8
100
AcDbEntity
  8
0
 62
     0
100
AcDbTrace
 10
0.0
 20
0.0
 11
0.0
 21
-0.5
 12
0.35350001
 22
-0.35350001
 13
0.19149999
 23
-0.46200001
  0
SOLID
  5
5E9
100
AcDbEntity
  8
0
 62
     0
100
AcDbTrace
 10
0.0
 20
0.0
 11
0.0
 21
-0.5
 12
-0.35350001
 22
-0.35350001
 13
-0.19149999
 23
-0.46200001
  0
ENDBLK
  5
5EA
100
AcDbEntity
100
AcDbBlockEnd
  0
BLOCK
  5
5EB
100
AcDbEntity
  8
0
100
AcDbBlockBegin
  2
CDWK_PTTYP38
 70
     0
 10
0.0
 20
0.0
 30
0.0
  3
CDWK_PTTYP38
  1

  4
Cadwork node
  0
CIRCLE
  5
5EC
100
AcDbEntity
  8
0
 62
     0
370
    -2
100
AcDbCircle
 10
0.0
 20
0.0
 30
0.0
 40
0.5
  0
SOLID
  5
5ED
100
AcDbEntity
  8
0
 62
     0
100
AcDbTrace
 10
0.0
 20
0.0
 11
0.35350001
 21
0.35350001
 12
0.0
 22
0.5
 13
0.19149999
 23
0.46200001
  0
SOLID
  5
5EE
100
AcDbEntity
  8
0
 62
     0
100
AcDbTrace
 10
0.0
 20
0.0
 11
0.5
 21
0.0
 12
0.35350001
 22
0.35350001
 13
0.46200001
 23
0.19149999
  0
SOLID
  5
5EF
100
AcDbEntity
  8
0
 62
     0
100
AcDbTrace
 10
0.0
 20
0.0
 11
0.0
 21
-0.5
 12
-0.35350001
 22
-0.35350001
 13
-0.19149999
 23
-0.46200001
  0
SOLID
  5
5F0
100
AcDbEntity
  8
0
 62
     0
100
AcDbTrace
 10
0.0
 20
0.0
 11
-0.5
 21
0.0
 12
-0.35350001
 22
-0.35350001
 13
-0.46200001
 23
-0.19149999
  0
ENDBLK
  5
5F1
100
AcDbEntity
100
AcDbBlockEnd
  0
BLOCK
  5
5F2
100
AcDbEntity
  8
Ech.1_5
100
AcDbBlockBegin
  2
*D52
 70
     1
 10
0.0
 20
0.0
 30
0.0
  3
*D52
  1

  4
Cadwork dimension
  0
TEXT
  5
5F3
100
AcDbEntity
  8
Ech.1_5
 62
   190
370
    18
100
AcDbText
 10
54291.14283483
 20
-11288.6174557
 30
0.0
 40
12.5
  1
30
  7
ARIAL
 50
89.9999975
 41
1.0
 51
0.0
100
AcDbText
  0
LINE
  5
5F4
100
AcDbEntity
  8
Ech.1_5
 62
   190
370
    -2
100
AcDbLine
 10
54291.14283483
 20
-11264.11403525
 30
0.0
 11
54321.7893407
 21
-11264.11403525
 31
0.0
  0
LINE
  5
5F5
100
AcDbEntity
  8
Ech.1_5
 62
   190
370
    -2
100
AcDbLine
 10
54291.14283483
 20
-11294.11402687
 30
0.0
 11
54321.7893407
 21
-11294.11402687
 31
0.0
  0
LINE
  5
5F6
100
AcDbEntity
  8
Ech.1_5
 62
   190
370
    -2
100
AcDbLine
 10
54296.14283483
 20
-11259.11403525
 30
0.0
 11
54296.14283483
 21
-11299.11402687
 31
0.0
  0
LINE
  5
5F7
100
AcDbEntity
  8
Ech.1_5
 62
   190
370
    -2
100
AcDbLine
 10
54293.64283483
 20
-11261.61403525
 30
0.0
 11
54298.64283483
 21
-11266.61403525
 31
0.0
  0
LINE
  5
5F8
100
AcDbEntity
  8
Ech.1_5
 62
   190
370
    -2
100
AcDbLine
 10
54293.64283483
 20
-11291.61402687
 30
0.0
 11
54298.64283483
 21
-11296.61402687
 31
0.0
  0
ENDBLK
  5
5F9
100
AcDbEntity
100
AcDbBlockEnd
  0
BLOCK
  5
5FA
100
AcDbEntity
  8
Ech.1_5
100
AcDbBlockBegin
  2
*D53
 70
     1
 10
0.0
 20
0.0
 30
0.0
  3
*D53
  1

  4
Cadwork dimension
  0
TEXT
  5
5FB
100
AcDbEntity
  8
Ech.1_5
 62
   190
370
    18
100
AcDbText
 10
54304.81780176
 20
-11312.7464594
 30
0.0
 40
12.5
  1
15
  7
ARIAL
 50
0.0
 41
1.0
 51
0.0
100
AcDbText
  0
LINE
  5
5FC
100
AcDbEntity
  8
Ech.1_5
 62
   190
370
    -2
100
AcDbLine
 10
54306.7893407
 20
-11322.7464594
 30
0.0
 11
54306.7893407
 21
-11309.11402687
 31
0.0
  0
LINE
  5
5FD
100
AcDbEntity
  8
Ech.1_5
 62
   190
370
    -2
100
AcDbLine
 10
54321.85311211
 20
-11322.7464594
 30
0.0
 11
54321.85311211
 21
-11278.61893063
 31
0.0
  0
LINE
  5
5FE
100
AcDbEntity
  8
Ech.1_5
 62
   190
370
    -2
100
AcDbLine
 10
54301.7893407
 20
-11317.7464594
 30
0.0
 11
54326.85311211
 21
-11317.7464594
 31
0.0
  0
LINE
  5
5FF
100
AcDbEntity
  8
Ech.1_5
 62
   190
370
    -2
100
AcDbLine
 10
54304.2893407
 20
-11320.2464594
 30
0.0
 11
54309.2893407
 21
-11315.2464594
 31
0.0
  0
LINE
  5
600
100
AcDbEntity
  8
Ech.1_5
 62
   190
370
    -2
100
AcDbLine
 10
54319.35311211
 20
-11320.2464594
 30
0.0
 11
54324.35311211
 21
-11315.2464594
 31
0.0
  0
ENDBLK
  5
601
100
AcDbEntity
100
AcDbBlockEnd
  0
BLOCK
  5
602
100
AcDbEntity
  8
Ech.1_5
100
AcDbBlockBegin
  2
*D54
 70
     1
 10
0.0
 20
0.0
 30
0.0
  3
*D54
  1

  4
Cadwork dimension
  0
TEXT
  5
603
100
AcDbEntity
  8
Ech.1_5
 62
   190
370
    18
100
AcDbText
 10
54271.2552137
 20
-11225.89776036
 30
0.0
 40
12.5
  1
20
  7
ARIAL
 50
95.67495628
 41
1.0
 51
0.0
100
AcDbText
  0
LINE
  5
604
100
AcDbEntity
  8
Ech.1_5
 62
   190
370
    -2
100
AcDbLine
 10
54267.50825307
 20
-11206.50960918
 30
0.0
 11
54326.70407182
 21
-11200.62720906
 31
0.0
  0
LINE
  5
605
100
AcDbEntity
  8
Ech.1_5
 62
   190
370
    -2
100
AcDbLine
 10
54269.48914556
 20
-11226.44374328
 30
0.0
 11
54328.68496431
 21
-11220.56134315
 31
0.0
  0
LINE
  5
606
100
AcDbEntity
  8
Ech.1_5
 62
   190
370
    -2
100
AcDbLine
 10
54271.98932322
 20
-11201.03969051
 30
0.0
 11
54274.95906424
 21
-11230.92481343
 31
0.0
  0
LINE
  5
607
100
AcDbEntity
  8
Ech.1_5
 62
   190
370
    -2
100
AcDbLine
 10
54269.74878815
 20
-11203.77464984
 30
0.0
 11
54275.21870682
 21
-11208.25572
 31
0.0
  0
LINE
  5
608
100
AcDbEntity
  8
Ech.1_5
 62
   190
370
    -2
100
AcDbLine
 10
54271.72968064
 20
-11223.70878394
 30
0.0
 11
54277.19959931
 21
-11228.18985409
 31
0.0
  0
ENDBLK
  5
609
100
AcDbEntity
100
AcDbBlockEnd
  0
BLOCK
  5
60A
100
AcDbEntity
  8
Ech.1_5
100
AcDbBlockBegin
  2
*D55
 70
     1
 10
0.0
 20
0.0
 30
0.0
  3
*D55
  1

  4
Cadwork dimension
  0
TEXT
  5
60B
100
AcDbEntity
  8
Ech.1_5
 62
   190
370
    18
100
AcDbText
 10
54369.65625677
 20
-11199.86688714
 30
0.0
 40
12.5
  1
50
  7
ARIAL
 50
95.67495628
 41
1.0
 51
0.0
100
AcDbText
  0
LINE
  5
60C
100
AcDbEntity
  8
Ech.1_5
 62
   190
370
    -2
100
AcDbLine
 10
54374.47482882
 20
-11165.53551589
 30
0.0
 11
54360.23732735
 21
-11166.95032325
 31
0.0
  0
LINE
  5
60D
100
AcDbEntity
  8
Ech.1_5
 62
   190
370
    -2
100
AcDbLine
 10
54379.42345646
 20
-11215.3345875
 30
0.0
 11
54365.15955915
 21
-11216.75201787
 31
0.0
  0
LINE
  5
60E
100
AcDbEntity
  8
Ech.1_5
 62
   190
370
    -2
100
AcDbLine
 10
54369.00491015
 20
-11161.05444573
 30
0.0
 11
54374.94238631
 21
-11220.80450617
 31
0.0
  0
LINE
  5
60F
100
AcDbEntity
  8
Ech.1_5
 62
   190
370
    -2
100
AcDbLine
 10
54366.76437507
 20
-11163.78940507
 30
0.0
 11
54372.23429374
 21
-11168.27047522
 31
0.0
  0
LINE
  5
610
100
AcDbEntity
  8
Ech.1_5
 62
   190
370
    -2
100
AcDbLine
 10
54371.71300272
 20
-11213.58847668
 30
0.0
 11
54377.18292139
 21
-11218.06954683
 31
0.0
  0
ENDBLK
  5
611
100
AcDbEntity
100
AcDbBlockEnd
  0
BLOCK
  5
612
100
AcDbEntity
  8
Ech.1_5
100
AcDbBlockBegin
  2
*D56
 70
     1
 10
0.0
 20
0.0
 30
0.0
  3
*D56
  1

  4
Cadwork dimension
  0
TEXT
  5
613
100
AcDbEntity
  8
Ech.1_5
 62
   190
370
    18
100
AcDbText
 10
54597.35824291
 20
-10641.29651924
 30
0.0
 40
12.5
  1
200mm min
  7
ARIAL
 50
89.9999975
 41
1.0
 51
0.0
100
AcDbText
  0
LINE
  5
614
100
AcDbEntity
  8
Ech.1_5
 62
   190
370
    -2
100
AcDbLine
 10
54607.35824291
 20
-10727.04138181
 30
0.0
 11
54590.84173121
 21
-10727.04138181
 31
0.0
  0
LINE
  5
615
100
AcDbEntity
  8
Ech.1_5
 62
   190
370
    -2
100
AcDbLine
 10
54607.35824291
 20
-10527.04138179
 30
0.0
 11
54589.08317714
 21
-10527.04138179
 31
0.0
  0
LINE
  5
616
100
AcDbEntity
  8
Ech.1_5
 62
   190
370
    -2
100
AcDbLine
 10
54602.35824291
 20
-10732.04138181
 30
0.0
 11
54602.35824291
 21
-10522.04138179
 31
0.0
  0
LINE
  5
617
100
AcDbEntity
  8
Ech.1_5
 62
   190
370
    -2
100
AcDbLine
 10
54604.85824291
 20
-10729.54138181
 30
0.0
 11
54599.85824291
 21
-10724.54138181
 31
0.0
  0
LINE
  5
618
100
AcDbEntity
  8
Ech.1_5
 62
   190
370
    -2
100
AcDbLine
 10
54604.85824291
 20
-10529.54138179
 30
0.0
 11
54599.85824291
 21
-10524.54138179
 31
0.0
  0
ENDBLK
  5
619
100
AcDbEntity
100
AcDbBlockEnd
  0
BLOCK
  5
61A
100
AcDbEntity
  8
Ech.1_5
100
AcDbBlockBegin
  2
*D57
 70
     1
 10
0.0
 20
0.0
 30
0.0
  3
*D57
  1

  4
Cadwork dimension
  0
TEXT
  5
61B
100
AcDbEntity
  8
Ech.1_5
 62
   190
370
    18
100
AcDbText
 10
54597.35824291
 20
-11377.44108932
 30
0.0
 40
12.5
  1
200mm min
  7
ARIAL
 50
89.9999975
 41
1.0
 51
0.0
100
AcDbText
  0
LINE
  5
61C
100
AcDbEntity
  8
Ech.1_5
 62
   190
370
    -2
100
AcDbLine
 10
54607.35824291
 20
-11463.18595189
 30
0.0
 11
54590.84173121
 21
-11463.18595189
 31
0.0
  0
LINE
  5
61D
100
AcDbEntity
  8
Ech.1_5
 62
   190
370
    -2
100
AcDbLine
 10
54607.35824291
 20
-11263.18595186
 30
0.0
 11
54589.08317714
 21
-11263.18595186
 31
0.0
  0
LINE
  5
61E
100
AcDbEntity
  8
Ech.1_5
 62
   190
370
    -2
100
AcDbLine
 10
54602.35824291
 20
-11468.18595189
 30
0.0
 11
54602.35824291
 21
-11258.18595186
 31
0.0
  0
LINE
  5
61F
100
AcDbEntity
  8
Ech.1_5
 62
   190
370
    -2
100
AcDbLine
 10
54604.85824291
 20
-11465.68595189
 30
0.0
 11
54599.85824291
 21
-11460.68595189
 31
0.0
  0
LINE
  5
620
100
AcDbEntity
  8
Ech.1_5
 62
   190
370
    -2
100
AcDbLine
 10
54604.85824291
 20
-11265.68595186
 30
0.0
 11
54599.85824291
 21
-11260.68595186
 31
0.0
  0
ENDBLK
  5
621
100
AcDbEntity
100
AcDbBlockEnd
  0
BLOCK
  5
622
100
AcDbEntity
  8
Ech.1_5
100
AcDbBlockBegin
  2
*D58
 70
     1
 10
0.0
 20
0.0
 30
0.0
  3
*D58
  1

  4
Cadwork dimension
  0
TEXT
  5
623
100
AcDbEntity
  8
Ech.1_5
 62
   190
370
    18
100
AcDbText
 10
54529.88550041
 20
-10801.87876295
 30
0.0
 40
12.5
  1
25mm max
  7
ARIAL
 50
0.0
 41
1.0
 51
0.0
100
AcDbText
  0
LINE
  5
624
100
AcDbEntity
  8
Ech.1_5
 62
   190
370
    -2
100
AcDbLine
 10
54560.3970286
 20
-10811.87876295
 30
0.0
 11
54560.3970286
 21
-10796.7660114
 31
0.0
  0
LINE
  5
625
100
AcDbEntity
  8
Ech.1_5
 62
   190
370
    -2
100
AcDbLine
 10
54570.84173121
 20
-10811.87876295
 30
0.0
 11
54570.84173121
 21
-10796.7660114
 31
0.0
  0
LINE
  5
626
100
AcDbEntity
  8
Ech.1_5
 62
   190
370
    -2
100
AcDbLine
 10
54555.3970286
 20
-10806.87876295
 30
0.0
 11
54575.84173121
 21
-10806.87876295
 31
0.0
  0
LINE
  5
627
100
AcDbEntity
  8
Ech.1_5
 62
   190
370
    -2
100
AcDbLine
 10
54557.8970286
 20
-10809.37876295
 30
0.0
 11
54562.8970286
 21
-10804.37876295
 31
0.0
  0
LINE
  5
628
100
AcDbEntity
  8
Ech.1_5
 62
   190
370
    -2
100
AcDbLine
 10
54568.34173121
 20
-10809.37876295
 30
0.0
 11
54573.34173121
 21
-10804.37876295
 31
0.0
  0
ENDBLK
  5
629
100
AcDbEntity
100
AcDbBlockEnd
  0
ENDSEC
  0
SECTION
  2
ENTITIES
  0
LWPOLYLINE
  5
62A
100
AcDbEntity
  8
Ech.1_5
 62
   254
  6
CONTINUOUS
370
    -3
100
AcDbPolyline
 90
        4
 70
     1
 43
0.0
 10
54845.84173121
 20
-11240.730496
 10
54795.84173121
 20
-11240.730496
 10
54795.84173121
 20
-11490.27653206
 10
54845.84173121
 20
-11490.27653206
  0
LWPOLYLINE
  5
62B
100
AcDbEntity
  8
Ech.1_5
 62
   254
  6
CONTINUOUS
370
    -3
100
AcDbPolyline
 90
        4
 70
     1
 43
0.0
 10
54795.84173121
 20
-10727.04492662
 10
54845.84173121
 20
-10727.04492662
 10
54845.84173121
 20
-10495.90885024
 10
54795.84173121
 20
-10495.90885024
  0
LWPOLYLINE
  5
62C
100
AcDbEntity
  8
Ech.1_5
 62
   254
  6
CONTINUOUS
370
    -3
100
AcDbPolyline
 90
        4
 70
     1
 43
0.0
 10
54832.66574536
 20
-11159.10530376
 10
54832.66574536
 20
-11240.730496
 10
54845.84173121
 20
-11240.730496
 10
54845.84173121
 20
-11159.10530376
  0
LWPOLYLINE
  5
62D
100
AcDbEntity
  8
Ech.1_5
 62
     9
  6
CONTINUOUS
370
    -3
100
AcDbPolyline
 90
       54
 70
     0
 43
0.0
 10
54804.17506455
 20
-10495.90885024
 42
1.14028181
 10
54806.33189478
 20
-10512.29156416
 10
54835.35156765
 20
-10504.52613633
 42
-1.30322619
 10
54835.35156765
 20
-10520.62489749
 10
54806.33189478
 20
-10512.85946966
 42
1.30322619
 10
54806.33189478
 20
-10528.95823083
 10
54835.35156765
 20
-10521.19280299
 42
-1.30322619
 10
54835.35156765
 20
-10537.29156416
 10
54806.33189478
 20
-10529.52613632
 42
1.30322619
 10
54806.33189478
 20
-10545.62489749
 10
54835.35156765
 20
-10537.85946966
 42
-1.30322619
 10
54835.35156765
 20
-10553.95823083
 10
54806.33189478
 20
-10546.19280299
 42
1.30322619
 10
54806.33189478
 20
-10562.29156416
 10
54835.35156765
 20
-10554.52613632
 42
-1.30322619
 10
54835.35156765
 20
-10570.62489749
 10
54806.33189478
 20
-10562.85946966
 42
1.30322619
 10
54806.33189478
 20
-10578.95823083
 10
54835.35156765
 20
-10571.19280299
 42
-1.30322619
 10
54835.35156765
 20
-10587.29156416
 10
54806.33189478
 20
-10579.52613632
 42
1.30322619
 10
54806.33189478
 20
-10595.62489749
 10
54835.35156765
 20
-10587.85946966
 42
-1.30322619
 10
54835.35156765
 20
-10603.95823083
 10
54806.33189478
 20
-10596.19280299
 42
1.30322619
 10
54806.33189478
 20
-10612.29156416
 10
54835.35156765
 20
-10604.52613632
 42
-1.30322619
 10
54835.35156765
 20
-10620.62489749
 10
54806.33189478
 20
-10612.85946966
 42
1.30322619
 10
54806.33189478
 20
-10628.95823083
 10
54835.35156765
 20
-10621.19280299
 42
-1.30322619
 10
54835.35156765
 20
-10637.29156416
 10
54806.33189478
 20
-10629.52613632
 42
1.30322619
 10
54806.33189478
 20
-10645.62489749
 10
54835.35156765
 20
-10637.85946966
 42
-1.30322619
 10
54835.35156765
 20
-10653.95823083
 10
54806.33189478
 20
-10646.19280299
 42
1.30322619
 10
54806.33189478
 20
-10662.29156416
 10
54835.35156765
 20
-10654.52613632
 42
-1.30322619
 10
54835.35156765
 20
-10670.62489749
 10
54806.33189478
 20
-10662.85946966
 42
1.30322619
 10
54806.33189478
 20
-10678.95823083
 10
54835.35156765
 20
-10671.19280299
 42
-1.30322619
 10
54835.35156765
 20
-10687.29156416
 10
54806.33189478
 20
-10679.52613632
 42
1.30322619
 10
54806.33189478
 20
-10695.62489749
 10
54835.35156765
 20
-10687.85946966
 42
-1.30322619
 10
54835.35156765
 20
-10703.95823083
 10
54806.33189478
 20
-10696.19280299
 42
1.30322619
 10
54806.33189478
 20
-10712.29156416
 10
54835.35156765
 20
-10704.52613632
 42
-1.30322619
 10
54835.35156765
 20
-10720.62489749
 10
54806.33189478
 20
-10712.85946966
 42
0.78423885
 10
54798.53653538
 20
-10727.04492662
  0
LWPOLYLINE
  5
62E
100
AcDbEntity
  8
Ech.1_5
 62
     9
  6
CONTINUOUS
370
    -3
100
AcDbPolyline
 90
       58
 70
     0
 43
0.0
 10
54804.17506455
 20
-11240.730496
 42
1.14028181
 10
54806.33189478
 20
-11257.11320992
 10
54835.35156765
 20
-11249.34778209
 42
-1.30322619
 10
54835.35156765
 20
-11265.44654325
 10
54806.33189478
 20
-11257.68111542
 42
1.30322619
 10
54806.33189478
 20
-11273.77987659
 10
54835.35156765
 20
-11266.01444875
 42
-1.30322619
 10
54835.35156765
 20
-11282.11320992
 10
54806.33189478
 20
-11274.34778209
 42
1.30322619
 10
54806.33189478
 20
-11290.44654325
 10
54835.35156765
 20
-11282.68111542
 42
-1.30322619
 10
54835.35156765
 20
-11298.77987659
 10
54806.33189478
 20
-11291.01444875
 42
1.30322619
 10
54806.33189478
 20
-11307.11320992
 10
54835.35156765
 20
-11299.34778209
 42
-1.30322619
 10
54835.35156765
 20
-11315.44654325
 10
54806.33189478
 20
-11307.68111542
 42
1.30322619
 10
54806.33189478
 20
-11323.77987659
 10
54835.35156765
 20
-11316.01444875
 42
-1.30322619
 10
54835.35156765
 20
-11332.11320992
 10
54806.33189478
 20
-11324.34778209
 42
1.30322619
 10
54806.33189478
 20
-11340.44654325
 10
54835.35156765
 20
-11332.68111542
 42
-1.30322619
 10
54835.35156765
 20
-11348.77987659
 10
54806.33189478
 20
-11341.01444875
 42
1.30322619
 10
54806.33189478
 20
-11357.11320992
 10
54835.35156765
 20
-11349.34778209
 42
-1.30322619
 10
54835.35156765
 20
-11365.44654325
 10
54806.33189478
 20
-11357.68111542
 42
1.30322619
 10
54806.33189478
 20
-11373.77987659
 10
54835.35156765
 20
-11366.01444875
 42
-1.30322619
 10
54835.35156765
 20
-11382.11320992
 10
54806.33189478
 20
-11374.34778209
 42
1.30322619
 10
54806.33189478
 20
-11390.44654325
 10
54835.35156765
 20
-11382.68111542
 42
-1.30322619
 10
54835.35156765
 20
-11398.77987659
 10
54806.33189478
 20
-11391.01444875
 42
1.30322619
 10
54806.33189478
 20
-11407.11320992
 10
54835.35156765
 20
-11399.34778209
 42
-1.30322619
 10
54835.35156765
 20
-11415.44654325
 10
54806.33189478
 20
-11407.68111542
 42
1.30322619
 10
54806.33189478
 20
-11423.77987659
 10
54835.35156765
 20
-11416.01444875
 42
-1.30322619
 10
54835.35156765
 20
-11432.11320992
 10
54806.33189478
 20
-11424.34778209
 42
1.30322619
 10
54806.33189478
 20
-11440.44654325
 10
54835.35156765
 20
-11432.68111542
 42
-1.30322619
 10
54835.35156765
 20
-11448.77987659
 10
54806.33189478
 20
-11441.01444875
 42
1.30322619
 10
54806.33189478
 20
-11457.11320992
 10
54835.35156765
 20
-11449.34778209
 42
-1.30322619
 10
54835.35156765
 20
-11465.44654325
 10
54806.33189478
 20
-11457.68111542
 42
1.30322619
 10
54806.33189478
 20
-11473.77987659
 10
54835.35156765
 20
-11466.01444875
 42
-1.30322619
 10
54835.35156765
 20
-11482.11320992
 10
54806.33189478
 20
-11474.34778209
 42
0.9656976
 10
54801.46213579
 20
-11490.27653206
  0
LWPOLYLINE
  5
62F
100
AcDbEntity
  8
Ech.1_5
 62
     9
  6
CONTINUOUS
370
    -3
100
AcDbPolyline
 90
       74
 70
     0
 43
0.0
 10
54834.861743
 20
-11159.10530376
 42
1.14028181
 10
54835.43011029
 20
-11163.4224719
 10
54843.07736628
 20
-11161.37612855
 42
-1.30322619
 10
54843.07736628
 20
-11165.61846954
 10
54835.43011029
 20
-11163.5721262
 42
1.30322619
 10
54835.43011029
 20
-11167.81446719
 10
54843.07736628
 20
-11165.76812384
 42
-1.30322619
 10
54843.07736628
 20
-11170.01046483
 10
54835.43011029
 20
-11167.96412148
 42
1.30322619
 10
54835.43011029
 20
-11172.20646247
 10
54843.07736628
 20
-11170.16011913
 42
-1.30322619
 10
54843.07736628
 20
-11174.40246011
 10
54835.43011029
 20
-11172.35611677
 42
1.30322619
 10
54835.43011029
 20
-11176.59845776
 10
54843.07736628
 20
-11174.55211441
 42
-1.30322619
 10
54843.07736628
 20
-11178.7944554
 10
54835.43011029
 20
-11176.74811205
 42
1.30322619
 10
54835.43011029
 20
-11180.99045304
 10
54843.07736628
 20
-11178.9441097
 42
-1.30322619
 10
54843.07736628
 20
-11183.18645069
 10
54835.43011029
 20
-11181.14010734
 42
1.30322619
 10
54835.43011029
 20
-11185.38244833
 10
54843.07736628
 20
-11183.33610498
 42
-1.30322619
 10
54843.07736628
 20
-11187.57844597
 10
54835.43011029
 20
-11185.53210262
 42
1.30322619
 10
54835.43011029
 20
-11189.77444361
 10
54843.07736628
 20
-11187.72810027
 42
-1.30322619
 10
54843.07736628
 20
-11191.97044126
 10
54835.43011029
 20
-11189.92409791
 42
1.30322619
 10
54835.43011029
 20
-11194.1664389
 10
54843.07736628
 20
-11192.12009555
 42
-1.30322619
 10
54843.07736628
 20
-11196.36243654
 10
54835.43011029
 20
-11194.3160932
 42
1.30322619
 10
54835.43011029
 20
-11198.55843419
 10
54843.07736628
 20
-11196.51209084
 42
-1.30322619
 10
54843.07736628
 20
-11200.75443183
 10
54835.43011029
 20
-11198.70808848
 42
1.30322619
 10
54835.43011029
 20
-11202.95042947
 10
54843.07736628
 20
-11200.90408612
 42
-1.30322619
 10
54843.07736628
 20
-11205.14642711
 10
54835.43011029
 20
-11203.10008377
 42
1.30322619
 10
54835.43011029
 20
-11207.34242476
 10
54843.07736628
 20
-11205.29608141
 42
-1.30322619
 10
54843.07736628
 20
-11209.5384224
 10
54835.43011029
 20
-11207.49207905
 42
1.30322619
 10
54835.43011029
 20
-11211.73442004
 10
54843.07736628
 20
-11209.6880767
 42
-1.30322619
 10
54843.07736628
 20
-11213.93041769
 10
54835.43011029
 20
-11211.88407434
 42
1.30322619
 10
54835.43011029
 20
-11216.12641533
 10
54843.07736628
 20
-11214.08007198
 42
-1.30322619
 10
54843.07736628
 20
-11218.32241297
 10
54835.43011029
 20
-11216.27606962
 42
1.30322619
 10
54835.43011029
 20
-11220.51841061
 10
54843.07736628
 20
-11218.47206727
 42
-1.30322619
 10
54843.07736628
 20
-11222.71440826
 10
54835.43011029
 20
-11220.66806491
 42
1.30322619
 10
54835.43011029
 20
-11224.9104059
 10
54843.07736628
 20
-11222.86406255
 42
-1.30322619
 10
54843.07736628
 20
-11227.10640354
 10
54835.43011029
 20
-11225.0600602
 42
1.30322619
 10
54835.43011029
 20
-11229.30240119
 10
54843.07736628
 20
-11227.25605784
 42
-1.30322619
 10
54843.07736628
 20
-11231.49839883
 10
54835.43011029
 20
-11229.45205548
 42
1.30322619
 10
54835.43011029
 20
-11233.69439647
 10
54843.07736628
 20
-11231.64805312
 42
-1.30322619
 10
54843.07736628
 20
-11235.89039411
 10
54835.43011029
 20
-11233.84405077
 42
1.30322619
 10
54835.43011029
 20
-11238.08639176
 10
54843.07736628
 20
-11236.04004841
 42
-1.30322619
 10
54843.07736628
 20
-11240.2823894
 10
54835.43011029
 20
-11238.23604605
 42
0.5474091
 10
54832.69770324
 20
-11240.730496
  0
HATCH
  5
630
100
AcDbEntity
  8
Ech.1_5
 62
     7
100
AcDbHatch
 10
0.0
 20
0.0
 30
0.0
210
0.0
220
0.0
230
1.0
  2
SOLID
 70
     1
 71
     0
 91
        1
 92
        7
 72
     0
 73
     1
 93
        4
 10
54350.2006003
 20
-10752.3423667
 10
54348.49044867
 20
-10747.64388476
 10
54315.75922579
 20
-10759.69697797
 10
54317.47925827
 20
-10764.39182149
 97
        0
 75
     0
 76
     2
 47
0.775229
 98
        1
 10
0.0
 20
0.0
  0
LWPOLYLINE
  5
631
100
AcDbEntity
  8
Ech.1_5
 62
   190
  6
CONTINUOUS
370
    -3
100
AcDbPolyline
 90
        8
 70
     1
 43
0.0
 10
54437.13291046
 20
-10513.88648945
 10
54451.24285048
 20
-10477.93078944
 10
54434.75734733
 20
-10495.90813785
 10
54375.84869104
 20
-10495.90813785
 10
54375.84869111
 20
-10688.71344951
 10
54555.84869109
 20
-10688.71344951
 10
54555.84869102
 20
-10495.90813785
 10
54453.61926455
 20
-10495.90813785
  0
LWPOLYLINE
  5
632
100
AcDbEntity
  8
Ech.1_5
 62
   190
  6
CONTINUOUS
370
    -3
100
AcDbPolyline
 90
       12
 70
     0
 43
0.0
 10
54525.84869109
 20
-10688.71344952
 42
1.14028181
 10
54518.08410223
 20
-10629.73567943
 10
54413.61327993
 20
-10657.69121967
 42
-1.30322619
 10
54413.61327991
 20
-10599.73567947
 10
54518.08410223
 20
-10627.69121964
 42
1.30322619
 10
54518.08410221
 20
-10569.73567944
 10
54413.61327991
 20
-10597.69121968
 42
-1.30322619
 10
54413.61327989
 20
-10539.73567948
 10
54518.08410221
 20
-10567.69121964
 42
1.30322619
 10
54518.08410219
 20
-10509.73567944
 10
54413.61327989
 20
-10537.69121968
 42
-0.63871211
 10
54378.71892892
 20
-10495.90813791
  0
LWPOLYLINE
  5
633
100
AcDbEntity
  8
Ech.1_5
 62
   190
  6
CONTINUOUS
370
    -3
100
AcDbPolyline
 90
      176
 70
     0
 43
0.0
 10
54558.09751523
 20
-11263.18595186
 42
1.14028181
 10
54558.67955507
 20
-11267.60697306
 10
54566.51077214
 20
-11265.51140323
 42
-1.30322619
 10
54566.51077213
 20
-11269.85579724
 10
54558.67955507
 20
-11267.76022741
 42
1.30322619
 10
54558.67955507
 20
-11272.10462143
 10
54566.51077213
 20
-11270.0090516
 42
-1.30322619
 10
54566.51077213
 20
-11274.35344561
 10
54558.67955507
 20
-11272.25787578
 42
1.30322619
 10
54558.67955507
 20
-11276.6022698
 10
54566.51077213
 20
-11274.50669997
 42
-1.30322619
 10
54566.51077213
 20
-11278.85109398
 10
54558.67955507
 20
-11276.75552415
 42
1.30322619
 10
54558.67955507
 20
-11281.09991817
 10
54566.51077213
 20
-11279.00434834
 42
-1.30322619
 10
54566.51077213
 20
-11283.34874235
 10
54558.67955507
 20
-11281.25317252
 42
1.30322619
 10
54558.67955507
 20
-11285.59756654
 10
54566.51077213
 20
-11283.50199671
 42
-1.30322619
 10
54566.51077213
 20
-11287.84639072
 10
54558.67955507
 20
-11285.75082089
 42
1.30322619
 10
54558.67955507
 20
-11290.09521491
 10
54566.51077213
 20
-11287.99964508
 42
-1.30322619
 10
54566.51077213
 20
-11292.34403909
 10
54558.67955507
 20
-11290.24846926
 42
1.30322619
 10
54558.67955507
 20
-11294.59286328
 10
54566.51077213
 20
-11292.49729345
 42
-1.30322619
 10
54566.51077213
 20
-11296.84168746
 10
54558.67955507
 20
-11294.74611763
 42
1.30322619
 10
54558.67955507
 20
-11299.09051165
 10
54566.51077213
 20
-11296.99494182
 42
-1.30322619
 10
54566.51077213
 20
-11301.33933583
 10
54558.67955507
 20
-11299.243766
 42
1.30322619
 10
54558.67955507
 20
-11303.58816002
 10
54566.51077213
 20
-11301.49259019
 42
-1.30322619
 10
54566.51077213
 20
-11305.8369842
 10
54558.67955507
 20
-11303.74141437
 42
1.30322619
 10
54558.67955507
 20
-11308.08580839
 10
54566.51077213
 20
-11305.99023856
 42
-1.30322619
 10
54566.51077213
 20
-11310.33463258
 10
54558.67955507
 20
-11308.23906274
 42
1.30322619
 10
54558.67955507
 20
-11312.58345676
 10
54566.51077213
 20
-11310.48788693
 42
-1.30322619
 10
54566.51077213
 20
-11314.83228095
 10
54558.67955507
 20
-11312.73671111
 42
1.30322619
 10
54558.67955506
 20
-11317.08110513
 10
54566.51077213
 20
-11314.9855353
 42
-1.30322619
 10
54566.51077213
 20
-11319.32992932
 10
54558.67955506
 20
-11317.23435948
 42
1.30322619
 10
54558.67955506
 20
-11321.5787535
 10
54566.51077213
 20
-11319.48318367
 42
-1.30322619
 10
54566.51077213
 20
-11323.82757769
 10
54558.67955506
 20
-11321.73200785
 42
1.30322619
 10
54558.67955506
 20
-11326.07640187
 10
54566.51077213
 20
-11323.98083204
 42
-1.30322619
 10
54566.51077213
 20
-11328.32522606
 10
54558.67955506
 20
-11326.22965622
 42
1.30322619
 10
54558.67955506
 20
-11330.57405024
 10
54566.51077213
 20
-11328.47848041
 42
-1.30322619
 10
54566.51077213
 20
-11332.82287443
 10
54558.67955506
 20
-11330.7273046
 42
1.30322619
 10
54558.67955506
 20
-11335.07169861
 10
54566.51077213
 20
-11332.97612878
 42
-1.30322619
 10
54566.51077212
 20
-11337.3205228
 10
54558.67955506
 20
-11335.22495297
 42
1.30322619
 10
54558.67955506
 20
-11339.56934698
 10
54566.51077212
 20
-11337.47377715
 42
-1.30322619
 10
54566.51077212
 20
-11341.81817117
 10
54558.67955506
 20
-11339.72260134
 42
1.30322619
 10
54558.67955506
 20
-11344.06699535
 10
54566.51077212
 20
-11341.97142552
 42
-1.30322619
 10
54566.51077212
 20
-11346.31581954
 10
54558.67955506
 20
-11344.22024971
 42
1.30322619
 10
54558.67955506
 20
-11348.56464372
 10
54566.51077212
 20
-11346.46907389
 42
-1.30322619
 10
54566.51077212
 20
-11350.81346791
 10
54558.67955506
 20
-11348.71789808
 42
1.30322619
 10
54558.67955506
 20
-11353.06229209
 10
54566.51077212
 20
-11350.96672226
 42
-1.30322619
 10
54566.51077212
 20
-11355.31111628
 10
54558.67955506
 20
-11353.21554645
 42
1.30322619
 10
54558.67955506
 20
-11357.55994046
 10
54566.51077212
 20
-11355.46437063
 42
-1.30322619
 10
54566.51077212
 20
-11359.80876465
 10
54558.67955506
 20
-11357.71319482
 42
1.30322619
 10
54558.67955506
 20
-11362.05758883
 10
54566.51077212
 20
-11359.962019
 42
-1.30322619
 10
54566.51077212
 20
-11364.30641302
 10
54558.67955506
 20
-11362.21084319
 42
1.30322619
 10
54558.67955506
 20
-11366.5552372
 10
54566.51077212
 20
-11364.45966737
 42
-1.30322619
 10
54566.51077212
 20
-11368.80406139
 10
54558.67955506
 20
-11366.70849156
 42
1.30322619
 10
54558.67955506
 20
-11371.05288557
 10
54566.51077212
 20
-11368.95731575
 42
-1.30322619
 10
54566.51077212
 20
-11373.30170976
 10
54558.67955506
 20
-11371.20613993
 42
1.30322619
 10
54558.67955506
 20
-11375.55053395
 10
54566.51077212
 20
-11373.45496412
 42
-1.30322619
 10
54566.51077212
 20
-11377.79935813
 10
54558.67955506
 20
-11375.7037883
 42
1.30322619
 10
54558.67955506
 20
-11380.04818232
 10
54566.51077212
 20
-11377.95261249
 42
-1.30322619
 10
54566.51077212
 20
-11382.2970065
 10
54558.67955506
 20
-11380.20143667
 42
1.30322619
 10
54558.67955505
 20
-11384.54583069
 10
54566.51077212
 20
-11382.45026086
 42
-1.30322619
 10
54566.51077212
 20
-11386.79465487
 10
54558.67955505
 20
-11384.69908504
 42
1.30322619
 10
54558.67955505
 20
-11389.04347906
 10
54566.51077212
 20
-11386.94790923
 42
-1.30322619
 10
54566.51077212
 20
-11391.29230324
 10
54558.67955505
 20
-11389.19673341
 42
1.30322619
 10
54558.67955505
 20
-11393.54112743
 10
54566.51077212
 20
-11391.4455576
 42
-1.30322619
 10
54566.51077212
 20
-11395.78995161
 10
54558.67955505
 20
-11393.69438178
 42
1.30322619
 10
54558.67955505
 20
-11398.0387758
 10
54566.51077212
 20
-11395.94320597
 42
-1.30322619
 10
54566.51077212
 20
-11400.28759998
 10
54558.67955505
 20
-11398.19203015
 42
1.30322619
 10
54558.67955505
 20
-11402.53642417
 10
54566.51077212
 20
-11400.44085434
 42
-1.30322619
 10
54566.51077211
 20
-11404.78524835
 10
54558.67955505
 20
-11402.68967852
 42
1.30322619
 10
54558.67955505
 20
-11407.03407254
 10
54566.51077211
 20
-11404.93850271
 42
-1.30322619
 10
54566.51077211
 20
-11409.28289672
 10
54558.67955505
 20
-11407.18732689
 42
1.30322619
 10
54558.67955505
 20
-11411.53172091
 10
54566.51077211
 20
-11409.43615108
 42
-1.30322619
 10
54566.51077211
 20
-11413.7805451
 10
54558.67955505
 20
-11411.68497526
 42
1.30322619
 10
54558.67955505
 20
-11416.02936928
 10
54566.51077211
 20
-11413.93379945
 42
-1.30322619
 10
54566.51077211
 20
-11418.27819347
 10
54558.67955505
 20
-11416.18262363
 42
1.30322619
 10
54558.67955505
 20
-11420.52701765
 10
54566.51077211
 20
-11418.43144782
 42
-1.30322619
 10
54566.51077211
 20
-11422.77584184
 10
54558.67955505
 20
-11420.680272
 42
1.30322619
 10
54558.67955505
 20
-11425.02466602
 10
54566.51077211
 20
-11422.92909619
 42
-1.30322619
 10
54566.51077211
 20
-11427.27349021
 10
54558.67955505
 20
-11425.17792037
 42
1.30322619
 10
54558.67955505
 20
-11429.52231439
 10
54566.51077211
 20
-11427.42674456
 42
-1.30322619
 10
54566.51077211
 20
-11431.77113858
 10
54558.67955505
 20
-11429.67556874
 42
1.30322619
 10
54558.67955505
 20
-11434.01996276
 10
54566.51077211
 20
-11431.92439293
 42
-1.30322619
 10
54566.51077211
 20
-11436.26878695
 10
54558.67955505
 20
-11434.17321712
 42
1.30322619
 10
54558.67955505
 20
-11438.51761113
 10
54566.51077211
 20
-11436.4220413
 42
-1.30322619
 10
54566.51077211
 20
-11440.76643532
 10
54558.67955505
 20
-11438.67086549
 42
1.30322619
 10
54558.67955505
 20
-11443.0152595
 10
54566.51077211
 20
-11440.91968967
 42
-1.30322619
 10
54566.51077211
 20
-11445.26408369
 10
54558.67955505
 20
-11443.16851386
 42
1.30322619
 10
54558.67955505
 20
-11447.51290787
 10
54566.51077211
 20
-11445.41733804
 42
-1.30322619
 10
54566.51077211
 20
-11449.76173206
 10
54558.67955505
 20
-11447.66616223
 42
1.30322619
 10
54558.67955504
 20
-11452.01055624
 10
54566.51077211
 20
-11449.91498641
 42
-1.30322619
 10
54566.51077211
 20
-11454.25938043
 10
54558.67955504
 20
-11452.1638106
 42
1.30322619
 10
54558.67955504
 20
-11456.50820461
 10
54566.51077211
 20
-11454.41263478
 42
-1.30322619
 10
54566.51077211
 20
-11458.7570288
 10
54558.67955504
 20
-11456.66145897
 42
1.30322619
 10
54558.67955504
 20
-11461.00585298
 10
54566.51077211
 20
-11458.91028315
 42
-0.95134946
 10
54567.88818413
 20
-11463.18595189
  0
LWPOLYLINE
  5
634
100
AcDbEntity
  8
Ech.1_5
 62
   190
  6
CONTINUOUS
370
    -3
100
AcDbPolyline
 90
      176
 70
     0
 43
0.0
 10
54558.09751523
 20
-10527.04138179
 42
1.14028181
 10
54558.67955507
 20
-10531.46240298
 10
54566.51077214
 20
-10529.36683315
 42
-1.30322619
 10
54566.51077213
 20
-10533.71122717
 10
54558.67955507
 20
-10531.61565734
 42
1.30322619
 10
54558.67955507
 20
-10535.96005135
 10
54566.51077213
 20
-10533.86448152
 42
-1.30322619
 10
54566.51077213
 20
-10538.20887554
 10
54558.67955507
 20
-10536.11330571
 42
1.30322619
 10
54558.67955507
 20
-10540.45769972
 10
54566.51077213
 20
-10538.36212989
 42
-1.30322619
 10
54566.51077213
 20
-10542.70652391
 10
54558.67955507
 20
-10540.61095408
 42
1.30322619
 10
54558.67955507
 20
-10544.95534809
 10
54566.51077213
 20
-10542.85977826
 42
-1.30322619
 10
54566.51077213
 20
-10547.20417228
 10
54558.67955507
 20
-10545.10860245
 42
1.30322619
 10
54558.67955507
 20
-10549.45299646
 10
54566.51077213
 20
-10547.35742663
 42
-1.30322619
 10
54566.51077213
 20
-10551.70182065
 10
54558.67955507
 20
-10549.60625082
 42
1.30322619
 10
54558.67955507
 20
-10553.95064483
 10
54566.51077213
 20
-10551.855075
 42
-1.30322619
 10
54566.51077213
 20
-10556.19946902
 10
54558.67955507
 20
-10554.10389919
 42
1.30322619
 10
54558.67955507
 20
-10558.4482932
 10
54566.51077213
 20
-10556.35272338
 42
-1.30322619
 10
54566.51077213
 20
-10560.69711739
 10
54558.67955507
 20
-10558.60154756
 42
1.30322619
 10
54558.67955507
 20
-10562.94594158
 10
54566.51077213
 20
-10560.85037175
 42
-1.30322619
 10
54566.51077213
 20
-10565.19476576
 10
54558.67955507
 20
-10563.09919593
 42
1.30322619
 10
54558.67955507
 20
-10567.44358995
 10
54566.51077213
 20
-10565.34802012
 42
-1.30322619
 10
54566.51077213
 20
-10569.69241413
 10
54558.67955507
 20
-10567.5968443
 42
1.30322619
 10
54558.67955507
 20
-10571.94123832
 10
54566.51077213
 20
-10569.84566849
 42
-1.30322619
 10
54566.51077213
 20
-10574.1900625
 10
54558.67955507
 20
-10572.09449267
 42
1.30322619
 10
54558.67955507
 20
-10576.43888669
 10
54566.51077213
 20
-10574.34331686
 42
-1.30322619
 10
54566.51077213
 20
-10578.68771087
 10
54558.67955507
 20
-10576.59214104
 42
1.30322619
 10
54558.67955506
 20
-10580.93653506
 10
54566.51077213
 20
-10578.84096523
 42
-1.30322619
 10
54566.51077213
 20
-10583.18535924
 10
54558.67955506
 20
-10581.08978941
 42
1.30322619
 10
54558.67955506
 20
-10585.43418343
 10
54566.51077213
 20
-10583.3386136
 42
-1.30322619
 10
54566.51077213
 20
-10587.68300761
 10
54558.67955506
 20
-10585.58743778
 42
1.30322619
 10
54558.67955506
 20
-10589.9318318
 10
54566.51077213
 20
-10587.83626197
 42
-1.30322619
 10
54566.51077213
 20
-10592.18065598
 10
54558.67955506
 20
-10590.08508615
 42
1.30322619
 10
54558.67955506
 20
-10594.42948017
 10
54566.51077213
 20
-10592.33391034
 42
-1.30322619
 10
54566.51077213
 20
-10596.67830435
 10
54558.67955506
 20
-10594.58273452
 42
1.30322619
 10
54558.67955506
 20
-10598.92712854
 10
54566.51077213
 20
-10596.83155871
 42
-1.30322619
 10
54566.51077212
 20
-10601.17595273
 10
54558.67955506
 20
-10599.08038289
 42
1.30322619
 10
54558.67955506
 20
-10603.42477691
 10
54566.51077212
 20
-10601.32920708
 42
-1.30322619
 10
54566.51077212
 20
-10605.6736011
 10
54558.67955506
 20
-10603.57803126
 42
1.30322619
 10
54558.67955506
 20
-10607.92242528
 10
54566.51077212
 20
-10605.82685545
 42
-1.30322619
 10
54566.51077212
 20
-10610.17124947
 10
54558.67955506
 20
-10608.07567963
 42
1.30322619
 10
54558.67955506
 20
-10612.42007365
 10
54566.51077212
 20
-10610.32450382
 42
-1.30322619
 10
54566.51077212
 20
-10614.66889784
 10
54558.67955506
 20
-10612.573328
 42
1.30322619
 10
54558.67955506
 20
-10616.91772202
 10
54566.51077212
 20
-10614.82215219
 42
-1.30322619
 10
54566.51077212
 20
-10619.16654621
 10
54558.67955506
 20
-10617.07097637
 42
1.30322619
 10
54558.67955506
 20
-10621.41537039
 10
54566.51077212
 20
-10619.31980056
 42
-1.30322619
 10
54566.51077212
 20
-10623.66419458
 10
54558.67955506
 20
-10621.56862475
 42
1.30322619
 10
54558.67955506
 20
-10625.91301876
 10
54566.51077212
 20
-10623.81744893
 42
-1.30322619
 10
54566.51077212
 20
-10628.16184295
 10
54558.67955506
 20
-10626.06627312
 42
1.30322619
 10
54558.67955506
 20
-10630.41066713
 10
54566.51077212
 20
-10628.3150973
 42
-1.30322619
 10
54566.51077212
 20
-10632.65949132
 10
54558.67955506
 20
-10630.56392149
 42
1.30322619
 10
54558.67955506
 20
-10634.9083155
 10
54566.51077212
 20
-10632.81274567
 42
-1.30322619
 10
54566.51077212
 20
-10637.15713969
 10
54558.67955506
 20
-10635.06156986
 42
1.30322619
 10
54558.67955506
 20
-10639.40596387
 10
54566.51077212
 20
-10637.31039404
 42
-1.30322619
 10
54566.51077212
 20
-10641.65478806
 10
54558.67955506
 20
-10639.55921823
 42
1.30322619
 10
54558.67955506
 20
-10643.90361224
 10
54566.51077212
 20
-10641.80804241
 42
-1.30322619
 10
54566.51077212
 20
-10646.15243643
 10
54558.67955506
 20
-10644.0568666
 42
1.30322619
 10
54558.67955505
 20
-10648.40126061
 10
54566.51077212
 20
-10646.30569078
 42
-1.30322619
 10
54566.51077212
 20
-10650.6500848
 10
54558.67955505
 20
-10648.55451497
 42
1.30322619
 10
54558.67955505
 20
-10652.89890898
 10
54566.51077212
 20
-10650.80333915
 42
-1.30322619
 10
54566.51077212
 20
-10655.14773317
 10
54558.67955505
 20
-10653.05216334
 42
1.30322619
 10
54558.67955505
 20
-10657.39655735
 10
54566.51077212
 20
-10655.30098752
 42
-1.30322619
 10
54566.51077212
 20
-10659.64538154
 10
54558.67955505
 20
-10657.54981171
 42
1.30322619
 10
54558.67955505
 20
-10661.89420572
 10
54566.51077212
 20
-10659.79863589
 42
-1.30322619
 10
54566.51077212
 20
-10664.14302991
 10
54558.67955505
 20
-10662.04746008
 42
1.30322619
 10
54558.67955505
 20
-10666.3918541
 10
54566.51077212
 20
-10664.29628427
 42
-1.30322619
 10
54566.51077211
 20
-10668.64067828
 10
54558.67955505
 20
-10666.54510845
 42
1.30322619
 10
54558.67955505
 20
-10670.88950247
 10
54566.51077211
 20
-10668.79393264
 42
-1.30322619
 10
54566.51077211
 20
-10673.13832665
 10
54558.67955505
 20
-10671.04275682
 42
1.30322619
 10
54558.67955505
 20
-10675.38715084
 10
54566.51077211
 20
-10673.29158101
 42
-1.30322619
 10
54566.51077211
 20
-10677.63597502
 10
54558.67955505
 20
-10675.54040519
 42
1.30322619
 10
54558.67955505
 20
-10679.88479921
 10
54566.51077211
 20
-10677.78922938
 42
-1.30322619
 10
54566.51077211
 20
-10682.13362339
 10
54558.67955505
 20
-10680.03805356
 42
1.30322619
 10
54558.67955505
 20
-10684.38244758
 10
54566.51077211
 20
-10682.28687775
 42
-1.30322619
 10
54566.51077211
 20
-10686.63127176
 10
54558.67955505
 20
-10684.53570193
 42
1.30322619
 10
54558.67955505
 20
-10688.88009595
 10
54566.51077211
 20
-10686.78452612
 42
-1.30322619
 10
54566.51077211
 20
-10691.12892013
 10
54558.67955505
 20
-10689.0333503
 42
1.30322619
 10
54558.67955505
 20
-10693.37774432
 10
54566.51077211
 20
-10691.28217449
 42
-1.30322619
 10
54566.51077211
 20
-10695.6265685
 10
54558.67955505
 20
-10693.53099867
 42
1.30322619
 10
54558.67955505
 20
-10697.87539269
 10
54566.51077211
 20
-10695.77982286
 42
-1.30322619
 10
54566.51077211
 20
-10700.12421687
 10
54558.67955505
 20
-10698.02864704
 42
1.30322619
 10
54558.67955505
 20
-10702.37304106
 10
54566.51077211
 20
-10700.27747123
 42
-1.30322619
 10
54566.51077211
 20
-10704.62186524
 10
54558.67955505
 20
-10702.52629541
 42
1.30322619
 10
54558.67955505
 20
-10706.87068943
 10
54566.51077211
 20
-10704.7751196
 42
-1.30322619
 10
54566.51077211
 20
-10709.11951362
 10
54558.67955505
 20
-10707.02394378
 42
1.30322619
 10
54558.67955505
 20
-10711.3683378
 10
54566.51077211
 20
-10709.27276797
 42
-1.30322619
 10
54566.51077211
 20
-10713.61716199
 10
54558.67955505
 20
-10711.52159215
 42
1.30322619
 10
54558.67955504
 20
-10715.86598617
 10
54566.51077211
 20
-10713.77041634
 42
-1.30322619
 10
54566.51077211
 20
-10718.11481036
 10
54558.67955504
 20
-10716.01924052
 42
1.30322619
 10
54558.67955504
 20
-10720.36363454
 10
54566.51077211
 20
-10718.26806471
 42
-1.30322619
 10
54566.51077211
 20
-10722.61245873
 10
54558.67955504
 20
-10720.51688889
 42
1.30322619
 10
54558.67955504
 20
-10724.86128291
 10
54566.51077211
 20
-10722.76571308
 42
-0.95134946
 10
54567.88818413
 20
-10727.04138181
  0
LWPOLYLINE
  5
635
100
AcDbEntity
  8
Ech.1_5
 62
    25
  6
DASHEDX2
 48
0.60000002
370
    -3
100
AcDbPolyline
 90
        7
 70
     0
 43
0.0
 10
54560.39747039
 20
-10781.76608183
 10
54560.40680168
 20
-11177.61946108
 10
54531.54600567
 20
-11180.46285751
 10
54531.54600567
 20
-11180.46285751
 10
54311.85311211
 20
-11202.10723587
 10
54311.85311211
 20
-10781.76077442
 10
54560.39967849
 20
-10781.7660114
  0
LWPOLYLINE
  5
636
100
AcDbEntity
  8
Ech.1_5
 62
     7
  6
CONTINUOUS
370
    -3
100
AcDbPolyline
 90
        7
 70
     1
 43
0.0
 10
54560.3952466
 20
-10761.59949974
 10
54560.3952466
 20
-10761.59949974
 10
54560.3970286
 20
-10743.12826368
 10
54376.0127746
 20
-10743.14610957
 10
54311.85311211
 20
-10766.7660114
 10
54311.8531223
 20
-10781.76600765
 10
54560.3970286
 20
-10781.7660114
  0
POLYLINE
  5
637
100
AcDbEntity
  8
Ech.1_5
 62
     5
  6
CONTINUOUS
370
    -3
100
AcDb3dPolyline
 66
     1
 70
     8
  0
VERTEX
  5
638
100
AcDbEntity
  8
Ech.1_5
100
AcDbVertex
100
AcDb3dPolylineVertex
 10
54560.3952466
 20
-10761.59949974
 30
-168.4961947
 70
    32
  0
VERTEX
  5
639
100
AcDbEntity
  8
Ech.1_5
100
AcDbVertex
100
AcDb3dPolylineVertex
 10
54560.3970286
 20
-10743.12826368
 30
-168.4961947
 70
    32
  0
VERTEX
  5
63A
100
AcDbEntity
  8
Ech.1_5
100
AcDbVertex
100
AcDb3dPolylineVertex
 10
54376.0127746
 20
-10743.14610957
 30
-46.5038053
 70
    32
  0
VERTEX
  5
63B
100
AcDbEntity
  8
Ech.1_5
100
AcDbVertex
100
AcDb3dPolylineVertex
 10
54311.85311211
 20
-10766.7660114
 30
48.9961947
 70
    32
  0
VERTEX
  5
63C
100
AcDbEntity
  8
Ech.1_5
100
AcDbVertex
100
AcDb3dPolylineVertex
 10
54311.8531223
 20
-10781.76600765
 30
48.9961947
 70
    32
  0
VERTEX
  5
63D
100
AcDbEntity
  8
Ech.1_5
100
AcDbVertex
100
AcDb3dPolylineVertex
 10
54560.3970286
 20
-10781.7660114
 30
-163.4961947
 70
    32
  0
VERTEX
  5
63E
100
AcDbEntity
  8
Ech.1_5
100
AcDbVertex
100
AcDb3dPolylineVertex
 10
54560.3952466
 20
-10761.59949974
 30
-163.4961947
 70
    32
  0
VERTEX
  5
63F
100
AcDbEntity
  8
Ech.1_5
100
AcDbVertex
100
AcDb3dPolylineVertex
 10
54560.3952466
 20
-10761.59949974
 30
-168.4961947
 70
    32
  0
SEQEND
  5
640
100
AcDbEntity
  8
Ech.1_5
  0
LWPOLYLINE
  5
641
100
AcDbEntity
  8
Ech.1_5
 62
   190
  6
CONTINUOUS
370
    -3
100
AcDbPolyline
 90
        5
 70
     0
 43
0.0
 10
55057.94653156
 20
-10403.63631346
 10
54072.94653156
 20
-10403.63631346
 10
54072.94653156
 20
-11758.63631346
 10
55057.94653156
 20
-11758.63631346
 10
55057.94653156
 20
-10403.63631346
  0
LWPOLYLINE
  5
642
100
AcDbEntity
  8
Ech.1_5
 62
   190
  6
CONTINUOUS
370
    -3
100
AcDbPolyline
 90
        4
 70
     1
 43
0.0
 10
54454.60911773
 20
-11262.5594792
 10
54555.84869104
 20
-11262.55903742
 10
54555.84869104
 20
-11253.12637736
 10
54454.60911773
 20
-11253.12681914
  0
LWPOLYLINE
  5
643
100
AcDbEntity
  8
Ech.1_5
 62
     7
  6
CONTINUOUS
370
    -3
100
AcDbPolyline
 90
        6
 70
     1
 43
0.0
 10
54311.85311211
 20
-11227.41782483
 10
54311.85403456
 20
-11252.41782483
 10
54555.84869104
 20
-11252.41782483
 10
54555.84869104
 20
-11203.40042848
 10
54531.54600567
 20
-11205.79263259
 10
54531.54600567
 20
-11205.79263259
  0
LWPOLYLINE
  5
644
100
AcDbEntity
  8
Ech.1_5
 62
   190
100
AcDbPolyline
 90
        5
 70
     0
 43
0.0
 10
54897.24638126
 20
-11396.05614583
 10
55031.67516025
 20
-11396.05614583
 10
55031.67516025
 20
-11452.77910464
 10
54897.24638126
 20
-11452.77910464
 10
54897.24638126
 20
-11396.05614583
  0
HATCH
  5
645
100
AcDbEntity
  8
Ech.1_5
 62
   190
100
AcDbHatch
 10
0.0
 20
0.0
 30
0.0
210
0.0
220
0.0
230
1.0
  2
SOLID
 70
     1
 71
     0
 91
        1
 92
        7
 72
     0
 73
     1
 93
        4
 10
54915.52642704
 20
-11429.71295696
 10
54965.52642704
 20
-11429.71295696
 10
54965.52642704
 20
-11422.29781942
 10
54915.52642704
 20
-11422.29781942
 97
        0
 75
     0
 76
     2
 47
0.775229
 98
        1
 10
0.0
 20
0.0
  0
LWPOLYLINE
  5
646
100
AcDbEntity
  8
Ech.1_5
 62
   190
100
AcDbPolyline
 90
        5
 70
     0
 43
0.0
 10
54915.52642704
 20
-11429.71295696
 10
54965.52642704
 20
-11429.71295696
 10
54965.52642704
 20
-11422.29781942
 10
54915.52642704
 20
-11422.29781942
 10
54915.52642704
 20
-11429.71295696
  0
LWPOLYLINE
  5
647
100
AcDbEntity
  8
Ech.1_5
 62
   190
100
AcDbPolyline
 90
        5
 70
     0
 43
0.0
 10
54965.52642704
 20
-11429.71295696
 10
55015.52642704
 20
-11429.71295696
 10
55015.52642704
 20
-11422.29781942
 10
54965.52642704
 20
-11422.29781942
 10
54965.52642704
 20
-11429.71295696
  0
LWPOLYLINE
  5
648
100
AcDbEntity
  8
Ech.1_5
 62
     7
  6
CONTINUOUS
370
    -3
100
AcDbPolyline
 90
        4
 70
     1
 43
0.0
 10
54375.84869104
 20
-11262.55903742
 10
54375.84869104
 20
-11307.55903742
 10
54555.84869104
 20
-11307.55903742
 10
54555.84869104
 20
-11262.55903742
  0
LWPOLYLINE
  5
649
100
AcDbEntity
  8
Ech.1_5
 62
     7
  6
CONTINUOUS
370
    -3
100
AcDbPolyline
 90
       19
 70
     1
 43
0.0
 10
54321.85311211
 20
-11382.92488176
 10
54322.8134345
 20
-11384.5547504
 10
54327.54955536
 20
-11387.52610034
 10
54327.96155673
 20
-11387.76706954
 10
54328.27537422
 20
-11387.76706954
 10
54328.72649499
 20
-11387.48500742
 10
54328.85311211
 20
-11387.15053363
 10
54328.85311211
 20
-11359.76706954
 10
54335.85311211
 20
-11359.76706954
 10
54335.85311211
 20
-11368.76706954
 10
54341.85311211
 20
-11368.76706954
 10
54341.85311211
 20
-11341.76706954
 10
54337.85311211
 20
-11337.76706954
 10
54341.85311211
 20
-11333.76706954
 10
54341.85311211
 20
-11269.76706954
 10
54337.85311211
 20
-11265.76706954
 10
54340.01076276
 20
-11263.60941889
 10
54321.94785039
 20
-11263.60941889
 10
54321.85311211
 20
-11263.83813735
  0
LWPOLYLINE
  5
64A
100
AcDbEntity
  8
Ech.1_5
 62
     7
  6
CONTINUOUS
370
    -3
100
AcDbPolyline
 90
       14
 70
     1
 43
0.0
 10
54321.85311211
 20
-11490.27552133
 10
54341.85311211
 20
-11490.27552133
 10
54341.85311211
 20
-11414.76706954
 10
54337.85311211
 20
-11410.76706954
 10
54341.85311211
 20
-11406.76706954
 10
54341.85311211
 20
-11371.76706954
 10
54334.85311211
 20
-11371.76706954
 10
54334.85311211
 20
-11365.76706954
 10
54332.35311211
 20
-11360.76706954
 10
54329.85311211
 20
-11365.76706954
 10
54329.85311211
 20
-11396.69600173
 10
54329.47250977
 20
-11398.60941889
 10
54323.3175782
 20
-11405.30260344
 10
54321.85311211
 20
-11408.83813735
  0
LWPOLYLINE
  5
64B
100
AcDbEntity
  8
Ech.1_5
 62
   190
  6
CONTINUOUS
370
    -3
100
AcDbPolyline
 90
        8
 70
     1
 43
0.0
 10
54493.59706037
 20
-11472.2649403
 10
54479.48712035
 20
-11508.22064031
 10
54495.97347443
 20
-11490.24228871
 10
54555.89546176
 20
-11490.24255488
 10
54555.84869106
 20
-11307.55903742
 10
54375.84869106
 20
-11307.55903742
 10
54375.89546176
 20
-11490.24228871
 10
54477.11155721
 20
-11490.24228871
  0
LWPOLYLINE
  5
64C
100
AcDbEntity
  8
Ech.1_5
 62
     7
  6
CONTINUOUS
370
    -3
100
AcDbPolyline
 90
        4
 70
     1
 43
0.0
 10
54375.84869111
 20
-10733.71344951
 10
54555.84869109
 20
-10733.71344951
 10
54555.84869109
 20
-10688.71344951
 10
54375.84869111
 20
-10688.71344951
  0
LWPOLYLINE
  5
64D
100
AcDbEntity
  8
Ech.1_5
 62
   190
  6
CONTINUOUS
370
    -3
100
AcDbPolyline
 90
        4
 70
     1
 43
0.0
 10
54341.84869104
 20
-10729.64477491
 10
54366.84869104
 20
-10729.64477491
 10
54366.84869104
 20
-10495.90813785
 10
54341.84869104
 20
-10495.90813785
  0
LWPOLYLINE
  5
64E
100
AcDbEntity
  8
Ech.1_5
 62
     7
  6
CONTINUOUS
370
    -3
100
AcDbPolyline
 90
        4
 70
     1
 43
0.0
 10
54420.84869109
 20
-10688.71344951
 10
54420.84869109
 20
-10543.71344951
 10
54375.84869109
 20
-10543.71344951
 10
54375.84869109
 20
-10688.71344951
  0
LWPOLYLINE
  5
64F
100
AcDbEntity
  8
Ech.1_5
 62
     7
  6
CONTINUOUS
370
    -3
100
AcDbPolyline
 90
       23
 70
     1
 43
0.0
 10
54328.84869104
 20
-10643.13853969
 10
54328.84869104
 20
-10615.7550756
 10
54335.84869104
 20
-10615.7550756
 10
54335.84869104
 20
-10624.7550756
 10
54341.84869104
 20
-10624.7550756
 10
54341.84869104
 20
-10597.7550756
 10
54337.84869104
 20
-10593.7550756
 10
54341.84869104
 20
-10589.7550756
 10
54341.84869104
 20
-10525.7550756
 10
54337.84869104
 20
-10521.7550756
 10
54341.84869104
 20
-10517.7550756
 10
54341.84869104
 20
-10495.90813785
 10
54329.84869104
 20
-10495.90813785
 10
54329.84869104
 20
-10507.68400779
 10
54329.4680887
 20
-10509.59742495
 10
54323.31315713
 20
-10516.29060951
 10
54321.84869104
 20
-10519.82614341
 10
54321.84869104
 20
-10638.91288782
 10
54322.80901344
 20
-10640.54275647
 10
54327.54513429
 20
-10643.5141064
 10
54327.95713566
 20
-10643.7550756
 10
54328.27095315
 20
-10643.7550756
 10
54328.72207392
 20
-10643.47301349
  0
LWPOLYLINE
  5
650
100
AcDbEntity
  8
Ech.1_5
 62
     7
  6
CONTINUOUS
370
    -3
100
AcDbPolyline
 90
       14
 70
     1
 43
0.0
 10
54341.84869104
 20
-10670.7550756
 10
54337.84869104
 20
-10666.7550756
 10
54341.84869104
 20
-10662.7550756
 10
54341.84869104
 20
-10627.7550756
 10
54334.84869104
 20
-10627.7550756
 10
54334.84869104
 20
-10621.7550756
 10
54332.34869104
 20
-10616.7550756
 10
54329.84869104
 20
-10621.7550756
 10
54329.84869104
 20
-10652.68400779
 10
54329.4680887
 20
-10654.59742495
 10
54323.31315713
 20
-10661.29060951
 10
54321.84869104
 20
-10664.82614341
 10
54321.84869104
 20
-10739.22395334
 10
54341.84869104
 20
-10731.85935939
  0
LWPOLYLINE
  5
651
100
AcDbEntity
  8
Ech.1_5
 62
   190
  6
CONTINUOUS
370
    -3
100
AcDbPolyline
 90
        4
 70
     0
 43
0.0
 10
54375.84869111
 20
-10688.71344951
 10
54555.84869109
 20
-10733.71344951
 10
54555.84869109
 20
-10688.71344951
 10
54375.84869111
 20
-10733.71344951
  0
LWPOLYLINE
  5
652
100
AcDbEntity
  8
Ech.1_5
 62
   190
  6
CONTINUOUS
370
    -3
100
AcDbPolyline
 90
        4
 70
     0
 43
0.0
 10
54375.84869109
 20
-10688.71344951
 10
54420.84869109
 20
-10543.71344951
 10
54375.84869109
 20
-10543.71344951
 10
54420.84869109
 20
-10688.71344951
  0
LWPOLYLINE
  5
653
100
AcDbEntity
  8
Ech.1_5
 62
     5
  6
CONTINUOUS
370
    -3
100
AcDbPolyline
 90
        5
 70
     0
 43
0.0
 10
54420.84869109
 20
-10688.71344951
 10
54420.84869109
 20
-10543.71344951
 10
54375.84869109
 20
-10543.71344951
 10
54375.84869109
 20
-10688.71344951
 10
54420.84869109
 20
-10688.71344951
  0
LWPOLYLINE
  5
654
100
AcDbEntity
  8
Ech.1_5
 62
     5
  6
CONTINUOUS
370
    -3
100
AcDbPolyline
 90
        5
 70
     0
 43
0.0
 10
54375.84869111
 20
-10733.71344951
 10
54555.84869109
 20
-10733.71344951
 10
54555.84869109
 20
-10688.71344951
 10
54375.84869111
 20
-10688.71344951
 10
54375.84869111
 20
-10733.71344951
  0
LWPOLYLINE
  5
655
100
AcDbEntity
  8
Ech.1_5
 62
   190
  6
CONTINUOUS
370
    -3
100
AcDbPolyline
 90
        4
 70
     1
 43
0.0
 10
54341.85311211
 20
-11490.24228871
 10
54366.85311211
 20
-11490.24228871
 10
54366.85311211
 20
-11277.99929239
 10
54341.85311211
 20
-11277.99929239
  0
LWPOLYLINE
  5
656
100
AcDbEntity
  8
Ech.1_5
 62
     5
  6
CONTINUOUS
370
    -3
100
AcDbPolyline
 90
        5
 70
     0
 43
0.0
 10
54375.84869104
 20
-11262.55903742
 10
54555.84869104
 20
-11262.55903742
 10
54555.84869104
 20
-11307.55903742
 10
54375.84869104
 20
-11307.55903742
 10
54375.84869104
 20
-11262.55903742
  0
LWPOLYLINE
  5
657
100
AcDbEntity
  8
Ech.1_5
 62
   190
  6
CONTINUOUS
370
    -3
100
AcDbPolyline
 90
        4
 70
     0
 43
0.0
 10
54375.84869109
 20
-11262.55677619
 10
54555.84869106
 20
-11307.55677619
 10
54555.84869106
 20
-11262.55677619
 10
54375.84869109
 20
-11307.55677619
  0
HATCH
  5
658
100
AcDbEntity
  8
Ech.1_5
 62
     7
100
AcDbHatch
 10
0.0
 20
0.0
 30
0.0
210
0.0
220
0.0
230
1.0
  2
SOLID
 70
     1
 71
     0
 91
        1
 92
        7
 72
     0
 73
     1
 93
        4
 10
54318.95878397
 20
-11221.55904261
 10
54319.98853199
 20
-11226.39900927
 10
54509.2163697
 20
-11207.77749389
 10
54508.93724378
 20
-11202.81123784
 97
        0
 75
     0
 76
     2
 47
0.775229
 98
        1
 10
0.0
 20
0.0
  0
LWPOLYLINE
  5
659
100
AcDbEntity
  8
Ech.1_5
 62
   190
  6
CONTINUOUS
370
    -3
100
AcDbPolyline
 90
        4
 70
     1
 43
0.0
 10
54387.01962377
 20
-11262.55677618
 10
54427.09142943
 20
-11262.55633439
 10
54427.09142943
 20
-11253.12367433
 10
54387.01962377
 20
-11253.12411612
  0
LWPOLYLINE
  5
65A
100
AcDbEntity
  8
Ech.1_5
 62
   190
  6
CONTINUOUS
370
    -3
100
AcDbPolyline
 90
        4
 70
     0
 43
0.0
 10
54427.09142943
 20
-11253.12367433
 10
54387.01962377
 20
-11262.55677618
 10
54387.01962377
 20
-11253.12411612
 10
54427.09142943
 20
-11262.55633439
  0
LWPOLYLINE
  5
65B
100
AcDbEntity
  8
Ech.1_5
 62
   190
  6
CONTINUOUS
370
    -3
100
AcDbPolyline
 90
        4
 70
     0
 43
0.0
 10
54555.84869104
 20
-11253.12637736
 10
54454.60911773
 20
-11262.5594792
 10
54454.60911773
 20
-11253.12681914
 10
54555.84869104
 20
-11262.55903742
  0
LWPOLYLINE
  5
65C
102
{ACAD_REACTORS
330
65D
102
}
100
AcDbEntity
  8
Ech.1_5
 62
     7
  6
CONTINUOUS
370
     5
100
AcDbPolyline
 90
        4
 70
     1
 43
0.0
 10
54382.80176579
 20
-10743.14610957
 10
54396.17928626
 20
-10743.14610957
 10
54396.17928626
 20
-10733.71344951
 10
54382.80176579
 20
-10733.71344951
  0
HATCH
  5
65D
100
AcDbEntity
  8
Ech.1_5
 62
     2
  6
CONTINUOUS
100
AcDbHatch
 10
0.0
 20
0.0
 30
0.0
210
0.0
220
0.0
230
1.0
  2
SOLID
 70
     1
 71
     1
 91
        1
 92
        7
 72
     0
 73
     1
 93
        4
 10
54382.80176579
 20
-10743.14610957
 10
54396.17928626
 20
-10743.14610957
 10
54396.17928626
 20
-10733.71344951
 10
54382.80176579
 20
-10733.71344951
 97
        1
330
65C
 75
     0
 76
     2
 47
0.775229
 98
        1
 10
0.0
 20
0.0
  0
LWPOLYLINE
  5
65E
102
{ACAD_REACTORS
330
65F
102
}
100
AcDbEntity
  8
Ech.1_5
 62
     7
  6
CONTINUOUS
370
     5
100
AcDbPolyline
 90
        4
 70
     1
 43
0.0
 10
54382.80176579
 20
-10733.71344951
 10
54376.0127746
 20
-10733.71344951
 10
54376.0127746
 20
-10743.14610957
 10
54382.80176579
 20
-10743.14610957
  0
HATCH
  5
65F
100
AcDbEntity
  8
Ech.1_5
 62
     2
  6
CONTINUOUS
100
AcDbHatch
 10
0.0
 20
0.0
 30
0.0
210
0.0
220
0.0
230
1.0
  2
SOLID
 70
     1
 71
     1
 91
        1
 92
        7
 72
     0
 73
     1
 93
        4
 10
54382.80176579
 20
-10733.71344951
 10
54376.0127746
 20
-10733.71344951
 10
54376.0127746
 20
-10743.14610957
 10
54382.80176579
 20
-10743.14610957
 97
        1
330
65E
 75
     0
 76
     2
 47
0.775229
 98
        1
 10
0.0
 20
0.0
  0
HATCH
  5
660
100
AcDbEntity
  8
Ech.1_5
 62
     7
  6
CONTINUOUS
100
AcDbHatch
 10
0.0
 20
0.0
 30
0.0
210
0.0
220
0.0
230
1.0
  2
ANSI31
 70
     0
 71
     1
 91
        1
 92
        7
 72
     0
 73
     1
 93
        4
 10
54382.80176579
 20
-10733.71344951
 10
54376.0127746
 20
-10733.71344951
 10
54376.0127746
 20
-10743.14610957
 10
54382.80176579
 20
-10743.14610957
 97
        1
330
65F
 75
     0
 76
     2
 52
0.0
 41
0.94488785
 77
     0
 78
     1
 53
45.0
 43
0.0
 44
0.0
 45
2.12132043
 46
-2.12132043
 79
     0
 47
0.775229
 98
        1
 10
0.0
 20
0.0
  0
LWPOLYLINE
  5
661
102
{ACAD_REACTORS
330
662
102
}
100
AcDbEntity
  8
Ech.1_5
 62
     7
  6
CONTINUOUS
370
     5
100
AcDbPolyline
 90
        4
 70
     1
 43
0.0
 10
54373.6421033
 20
-11262.55677618
 10
54387.01962377
 20
-11262.55677618
 10
54387.01962377
 20
-11253.12411612
 10
54373.6421033
 20
-11253.12411612
  0
HATCH
  5
662
100
AcDbEntity
  8
Ech.1_5
 62
     2
  6
CONTINUOUS
100
AcDbHatch
 10
0.0
 20
0.0
 30
0.0
210
0.0
220
0.0
230
1.0
  2
SOLID
 70
     1
 71
     1
 91
        1
 92
        7
 72
     0
 73
     1
 93
        4
 10
54373.6421033
 20
-11262.55677618
 10
54387.01962377
 20
-11262.55677618
 10
54387.01962377
 20
-11253.12411612
 10
54373.6421033
 20
-11253.12411612
 97
        1
330
661
 75
     0
 76
     2
 47
0.775229
 98
        1
 10
0.0
 20
0.0
  0
LWPOLYLINE
  5
663
102
{ACAD_REACTORS
330
664
102
}
100
AcDbEntity
  8
Ech.1_5
 62
     7
  6
CONTINUOUS
370
     5
100
AcDbPolyline
 90
        4
 70
     1
 43
0.0
 10
54373.6421033
 20
-11253.12411612
 10
54366.85311211
 20
-11253.12411612
 10
54366.85311211
 20
-11262.55677618
 10
54373.6421033
 20
-11262.55677618
  0
HATCH
  5
664
100
AcDbEntity
  8
Ech.1_5
 62
     2
  6
CONTINUOUS
100
AcDbHatch
 10
0.0
 20
0.0
 30
0.0
210
0.0
220
0.0
230
1.0
  2
SOLID
 70
     1
 71
     1
 91
        1
 92
        7
 72
     0
 73
     1
 93
        4
 10
54373.6421033
 20
-11253.12411612
 10
54366.85311211
 20
-11253.12411612
 10
54366.85311211
 20
-11262.55677618
 10
54373.6421033
 20
-11262.55677618
 97
        1
330
663
 75
     0
 76
     2
 47
0.775229
 98
        1
 10
0.0
 20
0.0
  0
HATCH
  5
665
100
AcDbEntity
  8
Ech.1_5
 62
     7
  6
CONTINUOUS
100
AcDbHatch
 10
0.0
 20
0.0
 30
0.0
210
0.0
220
0.0
230
1.0
  2
ANSI31
 70
     0
 71
     1
 91
        1
 92
        7
 72
     0
 73
     1
 93
        4
 10
54373.6421033
 20
-11253.12411612
 10
54366.85311211
 20
-11253.12411612
 10
54366.85311211
 20
-11262.55677618
 10
54373.6421033
 20
-11262.55677618
 97
        1
330
664
 75
     0
 76
     2
 52
0.0
 41
0.94488785
 77
     0
 78
     1
 53
45.0
 43
0.0
 44
0.0
 45
2.12132043
 46
-2.12132043
 79
     0
 47
0.775229
 98
        1
 10
0.0
 20
0.0
  0
LINE
  5
666
100
AcDbEntity
  8
Ech.1_5
 62
     7
  6
CENTER
370
    18
100
AcDbLine
 10
54893.57351196
 20
-10952.17022532
 30
0.0
 11
54282.86489876
 21
-10952.17022532
 31
0.0
  0
LINE
  5
667
100
AcDbEntity
  8
Ech.1_5
 62
     7
  6
CENTER
370
    18
100
AcDbLine
 10
54893.57351196
 20
-10950.17022532
 30
0.0
 11
54282.86489876
 21
-10950.17022532
 31
0.0
  0
LWPOLYLINE
  5
668
100
AcDbEntity
  8
Ech.1_5
 62
     5
  6
CONTINUOUS
370
    -3
100
AcDbPolyline
 90
        7
 70
     0
 43
0.0
 10
54531.54600567
 20
-11205.79263259
 10
54531.54600567
 20
-11205.79263259
 10
54311.85311211
 20
-11227.41782483
 10
54311.85403456
 20
-11252.41782483
 10
54555.84869104
 20
-11252.41782483
 10
54555.84869104
 20
-11203.40042848
 10
54531.54600567
 20
-11205.79263259
  0
LINE
  5
669
100
AcDbEntity
  8
Ech.1_5
 62
   190
  6
CONTINUOUS
370
    -3
100
AcDbLine
 10
54353.45663018
 20
-10682.67936758
 30
0.0
 11
54349.37475252
 21
-10692.31380501
 31
0.0
  0
LINE
  5
66A
100
AcDbEntity
  8
Ech.1_5
 62
   190
  6
CONTINUOUS
370
    -3
100
AcDbLine
 10
54353.45663018
 20
-10682.67936758
 30
0.0
 11
54357.53850785
 21
-10692.31380501
 31
0.0
  0
LWPOLYLINE
  5
66B
100
AcDbEntity
  8
Ech.1_5
 62
   190
  6
CONTINUOUS
370
    -3
100
AcDbPolyline
 90
       39
 70
     0
 43
0.0
 10
54357.55000935
 20
-11322.88190798
 10
54358.03152752
 20
-11317.99603523
 10
54358.48228164
 20
-11313.10408032
 10
54358.87150765
 20
-11308.19996109
 10
54359.1684415
 20
-11303.2775954
 10
54359.34231914
 20
-11298.33090109
 10
54359.36237651
 20
-11293.353796
 10
54359.19784957
 20
-11288.34019798
 10
54358.81797425
 20
-11283.28402486
 10
54358.1919865
 20
-11278.1791945
 10
54357.28912227
 20
-11273.01962474
 10
54356.07437768
 20
-11267.8069624
 10
54354.32799914
 20
-11262.87964187
 10
54351.57804731
 20
-11259.03582526
 10
54347.51583999
 20
-11256.85055278
 10
54342.45697388
 20
-11256.01718286
 10
54336.85123887
 20
-11256.03955011
 10
54331.1560282
 20
-11256.52996923
 10
54325.86363563
 20
-11257.59869745
 10
54321.47636262
 20
-11259.49877646
 10
54318.48968483
 20
-11262.47921226
 10
54317.03393697
 20
-11266.57251187
 10
54316.69766821
 20
-11271.48994724
 10
54317.02553868
 20
-11276.91676768
 10
54317.5622085
 20
-11282.53822251
 10
54317.85242742
 20
-11288.03962285
 10
54317.58329279
 20
-11293.204433
 10
54316.87278723
 20
-11298.11322634
 10
54315.92010976
 20
-11302.90257755
 10
54314.90247558
 20
-11307.69343137
 10
54313.86850071
 20
-11312.51530182
 10
54312.82017834
 20
-11317.36455528
 10
54311.75943656
 20
-11322.23751186
 10
54310.68820349
 20
-11327.13049166
 10
54309.60840722
 20
-11332.03981479
 10
54308.52197587
 20
-11336.96180136
 10
54307.43083752
 20
-11341.89277148
 10
54306.3369203
 20
-11346.82904525
 10
54305.85384242
 20
-11349.00792018
  0
LINE
  5
66C
100
AcDbEntity
  8
Ech.1_5
 62
   190
  6
CONTINUOUS
370
    -3
100
AcDbLine
 10
54305.85384242
 20
-11349.00792018
 30
0.0
 11
54311.18378175
 21
-11343.40883481
 31
0.0
  0
LINE
  5
66D
100
AcDbEntity
  8
Ech.1_5
 62
   190
  6
CONTINUOUS
370
    -3
100
AcDbLine
 10
54305.85384242
 20
-11349.00792018
 30
0.0
 11
54303.92806806
 21
-11342.07615199
 31
0.0
  0
LWPOLYLINE
  5
66E
100
AcDbEntity
  8
Ech.1_5
 62
   190
  6
CONTINUOUS
370
    -3
100
AcDbPolyline
 90
       28
 70
     0
 43
0.0
 10
54268.71992826
 20
-10750.53551383
 10
54273.57337743
 20
-10750.39060867
 10
54278.43775434
 20
-10750.23295192
 10
54283.32398674
 20
-10750.04979202
 10
54288.24300237
 20
-10749.82837737
 10
54293.20572896
 20
-10749.55595641
 10
54298.22309428
 20
-10749.21977755
 10
54303.30602605
 20
-10748.80708922
 10
54308.46545202
 20
-10748.30513982
 10
54313.71189883
 20
-10747.70093049
 10
54319.01270013
 20
-10746.95483094
 10
54324.25403159
 20
-10745.97717158
 10
54329.3131143
 20
-10744.67276166
 10
54334.06716932
 20
-10742.94641048
 10
54338.39341773
 20
-10740.70292729
 10
54342.16908061
 20
-10737.84712139
 10
54345.286717
 20
-10734.30169486
 10
54347.76341349
 20
-10730.13461993
 10
54349.676762
 20
-10725.48445255
 10
54351.10475612
 20
-10720.49021726
 10
54352.12538947
 20
-10715.29093861
 10
54352.81665566
 20
-10710.02564115
 10
54353.25523023
 20
-10704.82704911
 10
54353.49905196
 20
-10699.73832492
 10
54353.59212385
 20
-10694.73601793
 10
54353.57811749
 20
-10689.79509345
 10
54353.50070449
 20
-10684.89051676
 10
54353.45663018
 20
-10682.67936758
  0
LWPOLYLINE
  5
66F
100
AcDbEntity
  8
Ech.1_5
 62
   190
  6
CONTINUOUS
370
    -3
100
AcDbPolyline
 90
        4
 70
     1
 43
0.0
 10
54396.17928626
 20
-10743.14610957
 10
54555.84869109
 20
-10743.14566779
 10
54555.84869109
 20
-10733.71300772
 10
54396.17928626
 20
-10733.71344951
  0
LWPOLYLINE
  5
670
100
AcDbEntity
  8
Ech.1_5
 62
   190
  6
CONTINUOUS
370
    -3
100
AcDbPolyline
 90
        4
 70
     0
 43
0.0
 10
54555.84869109
 20
-10733.71300772
 10
54396.17928626
 20
-10743.14610957
 10
54396.17928626
 20
-10733.71344951
 10
54555.84869109
 20
-10743.14566779
  0
LWPOLYLINE
  5
671
102
{ACAD_REACTORS
330
672
102
}
100
AcDbEntity
  8
Ech.1_5
 62
     2
  6
CONTINUOUS
370
     5
100
AcDbPolyline
 90
        4
 70
     1
 43
0.0
 10
54090.7355409
 20
-10463.60454104
 10
54104.11306138
 20
-10463.60454104
 10
54104.11306138
 20
-10454.17188098
 10
54090.7355409
 20
-10454.17188098
  0
HATCH
  5
672
100
AcDbEntity
  8
Ech.1_5
 62
     2
  6
CONTINUOUS
100
AcDbHatch
 10
0.0
 20
0.0
 30
0.0
210
0.0
220
0.0
230
1.0
  2
SOLID
 70
     1
 71
     1
 91
        1
 92
        7
 72
     0
 73
     1
 93
        4
 10
54090.7355409
 20
-10463.60454104
 10
54104.11306138
 20
-10463.60454104
 10
54104.11306138
 20
-10454.17188098
 10
54090.7355409
 20
-10454.17188098
 97
        1
330
671
 75
     0
 76
     2
 47
0.775229
 98
        1
 10
0.0
 20
0.0
  0
LWPOLYLINE
  5
673
100
AcDbEntity
  8
Ech.1_5
 62
     3
370
    70
100
AcDbPolyline
 90
        4
 70
     0
 43
0.0
 10
54111.93886435
 20
-10532.49696518
 10
54098.94973093
 20
-10532.49696518
 10
54095.01499879
 20
-10526.81635222
 10
54081.53656879
 20
-10526.81635222
  0
LWPOLYLINE
  5
674
102
{ACAD_REACTORS
330
675
102
}
100
AcDbEntity
  8
Ech.1_5
 62
     7
  6
CONTINUOUS
370
     5
100
AcDbPolyline
 90
        4
 70
     1
 43
0.0
 10
54101.71686066
 20
-10473.1471278
 10
54094.92786947
 20
-10473.1471278
 10
54094.92786947
 20
-10482.57978787
 10
54101.71686066
 20
-10482.57978787
  0
HATCH
  5
675
100
AcDbEntity
  8
Ech.1_5
 62
     2
  6
CONTINUOUS
100
AcDbHatch
 10
0.0
 20
0.0
 30
0.0
210
0.0
220
0.0
230
1.0
  2
SOLID
 70
     1
 71
     1
 91
        1
 92
        7
 72
     0
 73
     1
 93
        4
 10
54101.71686066
 20
-10473.1471278
 10
54094.92786947
 20
-10473.1471278
 10
54094.92786947
 20
-10482.57978787
 10
54101.71686066
 20
-10482.57978787
 97
        1
330
674
 75
     0
 76
     2
 47
0.775229
 98
        1
 10
0.0
 20
0.0
  0
HATCH
  5
676
100
AcDbEntity
  8
Ech.1_5
 62
     7
  6
CONTINUOUS
100
AcDbHatch
 10
0.0
 20
0.0
 30
0.0
210
0.0
220
0.0
230
1.0
  2
ANSI31
 70
     0
 71
     1
 91
        1
 92
        7
 72
     0
 73
     1
 93
        4
 10
54101.71686066
 20
-10473.1471278
 10
54094.92786947
 20
-10473.1471278
 10
54094.92786947
 20
-10482.57978787
 10
54101.71686066
 20
-10482.57978787
 97
        1
330
675
 75
     0
 76
     2
 52
0.0
 41
0.94488785
 77
     0
 78
     1
 53
45.0
 43
0.0
 44
0.0
 45
2.12132043
 46
-2.12132043
 79
     0
 47
0.775229
 98
        1
 10
0.0
 20
0.0
  0
LWPOLYLINE
  5
677
100
AcDbEntity
  8
Ech.1_5
 62
   190
  6
CONTINUOUS
370
    -3
100
AcDbPolyline
 90
        4
 70
     1
 43
0.0
 10
54077.36475453
 20
-10511.56941251
 10
54117.4365602
 20
-10511.56897072
 10
54117.4365602
 20
-10502.13631066
 10
54077.36475453
 20
-10502.13675245
  0
LWPOLYLINE
  5
678
100
AcDbEntity
  8
Ech.1_5
 62
   190
  6
CONTINUOUS
370
    -3
100
AcDbPolyline
 90
        4
 70
     0
 43
0.0
 10
54117.4365602
 20
-10502.13631066
 10
54077.36475453
 20
-10511.56941251
 10
54077.36475453
 20
-10502.13675245
 10
54117.4365602
 20
-10511.56897072
  0
LWPOLYLINE
  5
679
100
AcDbEntity
  8
Ech.1_5
 62
     7
  6
CONTINUOUS
370
    -3
100
AcDbPolyline
 90
        5
 70
     0
 43
0.0
 10
54090.7355409
 20
-10454.17188098
 10
54104.11306138
 20
-10454.17188098
 10
54104.11306138
 20
-10463.60454104
 10
54090.7355409
 20
-10463.60454104
 10
54090.7355409
 20
-10454.17188098
  0
LWPOLYLINE
  5
67A
100
AcDbEntity
  8
Ech.1_5
 62
   177
  6
CONTINUOUS
370
    70
100
AcDbPolyline
 90
        5
 70
     0
 43
0.0
 10
54738.33795354
 20
-11167.27044103
 10
54738.33795354
 20
-11180.2217489
 10
54306.85311211
 20
-11222.69650915
 10
54306.85311211
 20
-11294.11402687
 10
54314.06445864
 20
-11280.9612142
  0
LINE
  5
67B
100
AcDbEntity
  8
Ech.1_5
 62
   177
  6
CONTINUOUS
370
    70
100
AcDbLine
 10
54306.85311211
 20
-11202.5998412
 30
0.0
 11
54306.85311211
 21
-11222.69650915
 31
0.0
  0
LWPOLYLINE
  5
67C
100
AcDbEntity
  8
Ech.1_5
 62
   177
  6
CADWORK_13
370
    70
100
AcDbPolyline
 90
        7
 70
     0
 43
0.0
 10
54306.85311211
 20
-11202.5998412
 10
54306.85311211
 20
-11192.4125512
 10
54309.03152034
 20
-11183.41310073
 10
54312.72789096
 20
-11176.11346545
 10
54316.99404049
 20
-11171.63870172
 10
54738.33795354
 20
-11129.97548649
 10
54738.33795354
 20
-11167.27044103
  0
LWPOLYLINE
  5
67D
100
AcDbEntity
  8
Ech.1_5
 62
   177
  6
CONTINUOUS
370
    70
100
AcDbPolyline
 90
        5
 70
     0
 43
0.0
 10
54362.21323258
 20
-10692.5906221
 10
54362.21323258
 20
-10742.5906221
 10
54306.84870672
 20
-10762.97603018
 10
54306.84384787
 20
-10791.46445879
 10
54310.29806384
 20
-10785.54693841
  0
LWPOLYLINE
  5
67E
100
AcDbEntity
  8
Ech.1_5
 62
   150
  6
CADWORK_22
370
    35
100
AcDbPolyline
 90
        4
 70
     0
 43
0.0
 38
2500.0
 10
54365.34869104
 20
-10495.90813785
 10
54365.34869104
 20
-10715.97415015
 10
54365.34869104
 20
-10733.71344951
 10
54418.75548924
 20
-10733.71344951
  0
LWPOLYLINE
  5
67F
100
AcDbEntity
  8
Ech.1_5
 62
     3
370
    70
100
AcDbPolyline
 90
        4
 70
     0
 43
0.0
 10
54363.4426524
 20
-10671.1170626
 10
54363.4426524
 20
-10684.10619602
 10
54359.1675114
 20
-10686.90208458
 10
54359.1675114
 20
-10700.38051458
  0
LWPOLYLINE
  5
680
102
{ACAD_REACTORS
330
681
102
}
100
AcDbEntity
  8
Ech.1_5
 62
     9
  6
CONTINUOUS
370
    -3
100
AcDbPolyline
 90
        4
 70
     1
 43
0.0
 10
54845.84173121
 20
-11159.10530376
 10
54858.84173121
 20
-11159.10530376
 10
54858.84173121
 20
-11490.27653206
 10
54845.84173121
 20
-11490.27653206
  0
HATCH
  5
681
100
AcDbEntity
  8
Ech.1_5
 62
     9
  6
CONTINUOUS
100
AcDbHatch
 10
0.0
 20
0.0
 30
0.0
210
0.0
220
0.0
230
1.0
  2
DOTS2
 70
     0
 71
     1
 91
        1
 92
        7
 72
     0
 73
     1
 93
        4
 10
54845.84173121
 20
-11159.10530376
 10
54858.84173121
 20
-11159.10530376
 10
54858.84173121
 20
-11490.27653206
 10
54845.84173121
 20
-11490.27653206
 97
        1
330
680
 75
     0
 76
     2
 52
0.0
 41
4.72440952
 77
     0
 78
     1
 53
0.0
 43
0.0
 44
0.0
 45
3.75
 46
3.535
 79
     2
 49
0.0
 49
-3.535
 47
0.775229
 98
        1
 10
0.0
 20
0.0
  0
3DFACE
  5
682
102
{ACAD_REACTORS
330
683
102
}
100
AcDbEntity
  8
Ech.1_5
 62
     9
  6
CONTINUOUS
370
    -3
100
AcDbFace
 70
     0
 10
54575.84173121
 20
-10495.90813785
 30
2500.0
 11
54775.84173121
 21
-10495.90813785
 31
2500.0
 12
54775.84173121
 22
-10727.04450224
 32
2500.0
 13
54575.84173121
 23
-10727.04138181
 33
2500.0
  0
HATCH
  5
683
100
AcDbEntity
  8
Ech.1_5
 62
     9
  6
CONTINUOUS
100
AcDbHatch
 10
0.0
 20
0.0
 30
0.0
210
0.0
220
0.0
230
1.0
  2
AR-CONC
 70
     0
 71
     1
 91
        1
 92
        7
 72
     0
 73
     1
 93
        4
 10
54575.84173121
 20
-10495.90813785
 10
54775.84173121
 20
-10495.90813785
 10
54775.84173121
 20
-10727.04450224
 10
54575.84173121
 20
-10727.04138181
 97
        1
330
682
 75
     0
 76
     2
 52
0.0
 41
0.11811097
 77
     0
 78
    13
 53
50.0
 43
0.0
 44
0.0
 45
-18.84283637
 46
1.64853443
 79
     2
 49
1.97029307
 49
-21.67322338
 53
355.0
 43
0.0
 44
0.0
 45
-3.64507756
 46
19.76051824
 79
     2
 49
1.57623377
 49
-17.3385787
 53
100.45140076
 43
1.57023568
 44
-0.13737749
 45
-15.19777228
 46
-18.11197244
 79
     2
 49
1.67449124
 49
-18.41940522
 53
46.18420029
 43
0.0
 44
5.25411576
 45
-28.03703353
 46
4.34827878
 79
     2
 49
2.95543872
 49
-32.50983238
 53
96.63559723
 43
2.33641885
 44
4.89175692
 45
-24.55412615
 46
-25.59063404
 79
     2
 49
2.51173697
 49
-27.62910426
 53
351.1842041
 43
0.0
 44
5.25411576
 45
24.55410288
 46
25.59065715
 79
     2
 49
2.36435249
 49
-26.00786805
 53
21.0
 43
2.62705699
 44
3.94058615
 45
-15.68109068
 46
10.57702905
 79
     2
 49
1.97029307
 49
-21.67322338
 53
326.0
 43
2.62705699
 44
3.94058615
 45
6.39203268
 46
19.05010734
 79
     2
 49
1.57623377
 49
-17.3385787
 53
71.45140076
 43
3.93381357
 44
3.05916555
 45
-22.07312962
 46
-8.47306182
 79
     2
 49
1.67449124
 49
-18.41940522
 53
37.5
 43
0.0
 44
0.0
 45
0.31944534
 46
8.74531245
 79
     6
 49
0.01875
 49
-17.12841332
 49
0.01875
 49
-17.60128498
 49
0.01875
 49
-17.40425348
 53
7.5
 43
0.0
 44
0.0
 45
6.91098818
 46
10.3614222
 79
     6
 49
0.01875
 49
-10.03535807
 49
0.01875
 49
-16.7343539
 49
0.01875
 49
-6.6333206
 53
-32.5
 43
-5.85833833
 44
0.0
 45
14.02382061
 46
-0.59253003
 79
     6
 49
0.01875
 49
-6.56764314
 49
0.01875
 49
-20.49104869
 49
0.01875
 49
-27.19004452
 53
-42.5
 43
-8.48539531
 44
0.0
 45
15.32063571
 46
2.62981542
 79
     6
 49
0.01875
 49
-8.53793621
 49
0.01875
 49
-13.60815793
 49
0.01875
 49
-19.30887222
 47
0.775229
 98
        1
 10
0.0
 20
0.0
  0
LWPOLYLINE
  5
684
102
{ACAD_REACTORS
330
685
102
}
100
AcDbEntity
  8
Ech.1_5
 62
     9
  6
CONTINUOUS
370
    -3
100
AcDbPolyline
 90
        4
 70
     1
 43
0.0
 10
54845.84173121
 20
-10495.90885024
 10
54858.84173121
 20
-10495.90885024
 10
54858.84173121
 20
-10727.04492662
 10
54845.84173121
 20
-10727.04492662
  0
HATCH
  5
685
100
AcDbEntity
  8
Ech.1_5
 62
     9
  6
CONTINUOUS
100
AcDbHatch
 10
0.0
 20
0.0
 30
0.0
210
0.0
220
0.0
230
1.0
  2
DOTS2
 70
     0
 71
     1
 91
        1
 92
        7
 72
     0
 73
     1
 93
        4
 10
54845.84173121
 20
-10495.90885024
 10
54858.84173121
 20
-10495.90885024
 10
54858.84173121
 20
-10727.04492662
 10
54845.84173121
 20
-10727.04492662
 97
        1
330
684
 75
     0
 76
     2
 52
0.0
 41
4.72440952
 77
     0
 78
     1
 53
0.0
 43
0.0
 44
0.0
 45
3.75
 46
3.535
 79
     2
 49
0.0
 49
-3.535
 47
0.775229
 98
        1
 10
0.0
 20
0.0
  0
3DFACE
  5
686
102
{ACAD_REACTORS
330
687
102
}
100
AcDbEntity
  8
Ech.1_5
 62
     9
  6
CONTINUOUS
370
    -3
100
AcDbFace
 70
     0
 10
54775.84173121
 20
-11490.27610768
 30
2500.0
 11
54775.84173121
 21
-11240.730496
 31
2500.0
 12
54575.84173121
 22
-11240.730496
 32
2500.0
 13
54575.84173121
 23
-11490.27298725
 33
2500.0
  0
HATCH
  5
687
100
AcDbEntity
  8
Ech.1_5
 62
     9
  6
CONTINUOUS
100
AcDbHatch
 10
0.0
 20
0.0
 30
0.0
210
0.0
220
0.0
230
1.0
  2
AR-CONC
 70
     0
 71
     1
 91
        1
 92
        7
 72
     0
 73
     1
 93
        4
 10
54775.84173121
 20
-11490.27610768
 10
54775.84173121
 20
-11240.730496
 10
54575.84173121
 20
-11240.730496
 10
54575.84173121
 20
-11490.27298725
 97
        1
330
686
 75
     0
 76
     2
 52
0.0
 41
0.11811097
 77
     0
 78
    13
 53
50.0
 43
0.0
 44
0.0
 45
-18.84283637
 46
1.64853443
 79
     2
 49
1.97029307
 49
-21.67322338
 53
355.0
 43
0.0
 44
0.0
 45
-3.64507756
 46
19.76051824
 79
     2
 49
1.57623377
 49
-17.3385787
 53
100.45140076
 43
1.57023568
 44
-0.13737749
 45
-15.19777228
 46
-18.11197244
 79
     2
 49
1.67449124
 49
-18.41940522
 53
46.18420029
 43
0.0
 44
5.25411576
 45
-28.03703353
 46
4.34827878
 79
     2
 49
2.95543872
 49
-32.50983238
 53
96.63559723
 43
2.33641885
 44
4.89175692
 45
-24.55412615
 46
-25.59063404
 79
     2
 49
2.51173697
 49
-27.62910426
 53
351.1842041
 43
0.0
 44
5.25411576
 45
24.55410288
 46
25.59065715
 79
     2
 49
2.36435249
 49
-26.00786805
 53
21.0
 43
2.62705699
 44
3.94058615
 45
-15.68109068
 46
10.57702905
 79
     2
 49
1.97029307
 49
-21.67322338
 53
326.0
 43
2.62705699
 44
3.94058615
 45
6.39203268
 46
19.05010734
 79
     2
 49
1.57623377
 49
-17.3385787
 53
71.45140076
 43
3.93381357
 44
3.05916555
 45
-22.07312962
 46
-8.47306182
 79
     2
 49
1.67449124
 49
-18.41940522
 53
37.5
 43
0.0
 44
0.0
 45
0.31944534
 46
8.74531245
 79
     6
 49
0.01875
 49
-17.12841332
 49
0.01875
 49
-17.60128498
 49
0.01875
 49
-17.40425348
 53
7.5
 43
0.0
 44
0.0
 45
6.91098818
 46
10.3614222
 79
     6
 49
0.01875
 49
-10.03535807
 49
0.01875
 49
-16.7343539
 49
0.01875
 49
-6.6333206
 53
-32.5
 43
-5.85833833
 44
0.0
 45
14.02382061
 46
-0.59253003
 79
     6
 49
0.01875
 49
-6.56764314
 49
0.01875
 49
-20.49104869
 49
0.01875
 49
-27.19004452
 53
-42.5
 43
-8.48539531
 44
0.0
 45
15.32063571
 46
2.62981542
 79
     6
 49
0.01875
 49
-8.53793621
 49
0.01875
 49
-13.60815793
 49
0.01875
 49
-19.30887222
 47
0.775229
 98
        1
 10
0.0
 20
0.0
  0
3DFACE
  5
688
102
{ACAD_REACTORS
330
689
102
}
100
AcDbEntity
  8
Ech.1_5
 62
     9
  6
CONTINUOUS
370
    -3
100
AcDbFace
 70
     0
 10
54575.84173121
 20
-10727.04138181
 30
2500.0
 11
54575.84173121
 21
-10774.3978087
 31
2500.0
 12
54811.34194365
 22
-10774.40091838
 32
2500.0
 13
54811.34194365
 23
-10727.04138181
 33
2500.0
  0
HATCH
  5
689
100
AcDbEntity
  8
Ech.1_5
 62
     9
  6
CONTINUOUS
100
AcDbHatch
 10
0.0
 20
0.0
 30
0.0
210
0.0
220
0.0
230
1.0
  2
ANSI31
 70
     0
 71
     1
 91
        1
 92
        7
 72
     0
 73
     1
 93
        4
 10
54575.84173121
 20
-10727.04138181
 10
54575.84173121
 20
-10774.3978087
 10
54811.34194365
 20
-10774.40091838
 10
54811.34194365
 20
-10727.04138181
 97
        1
330
688
 75
     0
 76
     2
 52
0.0
 41
9.44887814
 77
     0
 78
     1
 53
45.0
 43
0.0
 44
0.0
 45
21.21320344
 46
-21.21320344
 79
     0
 47
0.775229
 98
        1
 10
0.0
 20
0.0
  0
LWPOLYLINE
  5
68A
102
{ACAD_REACTORS
330
68B
102
}
100
AcDbEntity
  8
Ech.1_5
 62
     9
  6
CONTINUOUS
370
    15
100
AcDbPolyline
 90
       27
 70
     1
 43
0.0
 10
54604.87649491
 20
-10782.04111493
 10
54614.93015474
 20
-10782.16369058
 10
54624.98378159
 20
-10782.28773799
 10
54635.03739613
 20
-10782.40454204
 10
54645.09101907
 20
-10782.5053876
 10
54655.14467109
 20
-10782.58155955
 10
54665.19837289
 20
-10782.62434276
 10
54674.8624678
 20
-10782.62588623
 10
54685.30600104
 20
-10782.58038945
 10
54695.35992676
 20
-10782.50684467
 10
54705.41390259
 20
-10782.42515259
 10
54715.46790877
 20
-10782.35607775
 10
54725.52192555
 20
-10782.32038469
 10
54737.80927507
 20
-10782.35237461
 10
54745.62990715
 20
-10782.42790079
 10
54755.68378462
 20
-10782.56988646
 10
54765.73748461
 20
-10782.73082703
 10
54775.79092603
 20
-10782.87665442
 10
54785.84402776
 20
-10782.97330051
 10
54795.49647295
 20
-10782.9881806
 10
54805.94896407
 20
-10782.8961777
 10
54811.34194365
 20
-10782.80629316
 10
54811.34194365
 20
-10774.3978087
 10
54575.84173121
 20
-10774.3978087
 10
54575.84173121
 20
-10781.76600308
 10
54584.76899628
 20
-10781.83448393
 10
54591.40827737
 20
-10781.89441972
  0
HATCH
  5
68B
100
AcDbEntity
  8
Ech.1_5
 62
     9
  6
CONTINUOUS
100
AcDbHatch
 10
0.0
 20
0.0
 30
0.0
210
0.0
220
0.0
230
1.0
  2
SOLID
 70
     1
 71
     1
 91
        1
 92
        7
 72
     0
 73
     1
 93
       27
 10
54604.87649491
 20
-10782.04111493
 10
54614.93015474
 20
-10782.16369058
 10
54624.98378159
 20
-10782.28773799
 10
54635.03739613
 20
-10782.40454204
 10
54645.09101907
 20
-10782.5053876
 10
54655.14467109
 20
-10782.58155955
 10
54665.19837289
 20
-10782.62434276
 10
54674.8624678
 20
-10782.62588623
 10
54685.30600104
 20
-10782.58038945
 10
54695.35992676
 20
-10782.50684467
 10
54705.41390259
 20
-10782.42515259
 10
54715.46790877
 20
-10782.35607775
 10
54725.52192555
 20
-10782.32038469
 10
54737.80927507
 20
-10782.35237461
 10
54745.62990715
 20
-10782.42790079
 10
54755.68378462
 20
-10782.56988646
 10
54765.73748461
 20
-10782.73082703
 10
54775.79092603
 20
-10782.87665442
 10
54785.84402776
 20
-10782.97330051
 10
54795.49647295
 20
-10782.9881806
 10
54805.94896407
 20
-10782.8961777
 10
54811.34194365
 20
-10782.80629316
 10
54811.34194365
 20
-10774.3978087
 10
54575.84173121
 20
-10774.3978087
 10
54575.84173121
 20
-10781.76600308
 10
54584.76899628
 20
-10781.83448393
 10
54591.40827737
 20
-10781.89441972
 97
        1
330
68A
 75
     0
 76
     2
 47
0.775229
 98
        1
 10
0.0
 20
0.0
  0
LWPOLYLINE
  5
68C
102
{ACAD_REACTORS
330
68D
102
}
100
AcDbEntity
  8
Ech.1_5
 62
     9
  6
CONTINUOUS
370
    15
100
AcDbPolyline
 90
       32
 70
     1
 43
0.0
 10
54567.61365368
 20
-10509.98203041
 10
54567.65915046
 20
-10520.42556365
 10
54567.73269524
 20
-10530.47948937
 10
54567.81438732
 20
-10540.5334652
 10
54567.88346216
 20
-10550.58747138
 10
54567.91915522
 20
-10560.64148817
 10
54567.88716531
 20
-10572.92883769
 10
54567.81163912
 20
-10580.74946976
 10
54567.66965345
 20
-10590.80334723
 10
54567.50871288
 20
-10600.85704723
 10
54567.3628855
 20
-10610.91048864
 10
54567.26623941
 20
-10620.96359037
 10
54567.25135931
 20
-10630.61603557
 10
54567.34336221
 20
-10641.06852668
 10
54567.51090004
 20
-10651.12062281
 10
54567.7180031
 20
-10661.17288613
 10
54567.92721904
 20
-10671.22564306
 10
54568.13858121
 20
-10684.11371615
 10
54568.20723392
 20
-10691.333864
 10
54568.2622395
 20
-10701.38905065
 10
54568.31024683
 20
-10711.44382255
 10
54568.39569625
 20
-10721.49721741
 10
54568.60877215
 20
-10733.49919971
 10
54568.85035738
 20
-10741.59617419
 10
54569.2499196
 20
-10751.64117401
 10
54569.73372288
 20
-10761.68399625
 10
54570.27368687
 20
-10771.72536675
 10
54570.84173121
 20
-10781.7660114
 10
54575.84173121
 20
-10781.76600308
 10
54575.84173121
 20
-10495.90813785
 10
54567.63396291
 20
-10495.90813785
 10
54567.61519715
 20
-10500.3179355
  0
HATCH
  5
68D
100
AcDbEntity
  8
Ech.1_5
 62
     9
  6
CONTINUOUS
100
AcDbHatch
 10
0.0
 20
0.0
 30
0.0
210
0.0
220
0.0
230
1.0
  2
SOLID
 70
     1
 71
     1
 91
        1
 92
        7
 72
     0
 73
     1
 93
       32
 10
54567.61365368
 20
-10509.98203041
 10
54567.65915046
 20
-10520.42556365
 10
54567.73269524
 20
-10530.47948937
 10
54567.81438732
 20
-10540.5334652
 10
54567.88346216
 20
-10550.58747138
 10
54567.91915522
 20
-10560.64148817
 10
54567.88716531
 20
-10572.92883769
 10
54567.81163912
 20
-10580.74946976
 10
54567.66965345
 20
-10590.80334723
 10
54567.50871288
 20
-10600.85704723
 10
54567.3628855
 20
-10610.91048864
 10
54567.26623941
 20
-10620.96359037
 10
54567.25135931
 20
-10630.61603557
 10
54567.34336221
 20
-10641.06852668
 10
54567.51090004
 20
-10651.12062281
 10
54567.7180031
 20
-10661.17288613
 10
54567.92721904
 20
-10671.22564306
 10
54568.13858121
 20
-10684.11371615
 10
54568.20723392
 20
-10691.333864
 10
54568.2622395
 20
-10701.38905065
 10
54568.31024683
 20
-10711.44382255
 10
54568.39569625
 20
-10721.49721741
 10
54568.60877215
 20
-10733.49919971
 10
54568.85035738
 20
-10741.59617419
 10
54569.2499196
 20
-10751.64117401
 10
54569.73372288
 20
-10761.68399625
 10
54570.27368687
 20
-10771.72536675
 10
54570.84173121
 20
-10781.7660114
 10
54575.84173121
 20
-10781.76600308
 10
54575.84173121
 20
-10495.90813785
 10
54567.63396291
 20
-10495.90813785
 10
54567.61519715
 20
-10500.3179355
 97
        1
330
68C
 75
     0
 76
     2
 47
0.775229
 98
        1
 10
0.0
 20
0.0
  0
LWPOLYLINE
  5
68E
102
{ACAD_REACTORS
330
68F
102
}
100
AcDbEntity
  8
Ech.1_5
 62
     9
  6
CONTINUOUS
370
    -3
100
AcDbPolyline
 90
        6
 70
     1
 43
0.0
 38
2500.0
 39
-2500.0
 10
54560.07152824
 20
-11202.98475883
 10
54560.0724507
 20
-11240.730496
 10
54832.66574536
 20
-11240.730496
 10
54832.66574536
 20
-11159.10530376
 10
54802.66574536
 20
-11159.10530376
 10
54802.66574536
 20
-11179.10530376
  0
HATCH
  5
68F
100
AcDbEntity
  8
Ech.1_5
 62
     9
  6
CONTINUOUS
100
AcDbHatch
 10
0.0
 20
0.0
 30
0.0
210
0.0
220
0.0
230
1.0
  2
AR-CONC
 70
     0
 71
     1
 91
        1
 92
        7
 72
     0
 73
     1
 93
        6
 10
54560.07152824
 20
-11202.98475883
 10
54560.0724507
 20
-11240.730496
 10
54832.66574536
 20
-11240.730496
 10
54832.66574536
 20
-11159.10530376
 10
54802.66574536
 20
-11159.10530376
 10
54802.66574536
 20
-11179.10530376
 97
        1
330
68E
 75
     0
 76
     2
 52
0.0
 41
0.03937032
 77
     0
 78
    13
 53
50.0
 43
0.0
 44
0.0
 45
-6.28094546
 46
0.54951148
 79
     2
 49
0.65676436
 49
-7.22440779
 53
355.0
 43
0.0
 44
0.0
 45
-1.21502585
 46
6.58683941
 79
     2
 49
0.52541126
 49
-5.77952623
 53
100.45140076
 43
0.52341189
 44
-0.0457925
 45
-5.06592409
 46
-6.03732415
 79
     2
 49
0.55816375
 49
-6.13980174
 53
46.18420029
 43
0.0
 44
1.75137192
 45
-9.34567785
 46
1.44942626
 79
     2
 49
0.98514624
 49
-10.83661079
 53
96.63559723
 43
0.77880628
 44
1.63058564
 45
-8.18470872
 46
-8.53021135
 79
     2
 49
0.83724566
 49
-9.20970142
 53
351.1842041
 43
0.0
 44
1.75137192
 45
8.18470096
 46
8.53021905
 79
     2
 49
0.7881175
 49
-8.66928935
 53
21.0
 43
0.87568566
 44
1.31352872
 45
-5.22703023
 46
3.52567635
 79
     2
 49
0.65676436
 49
-7.22440779
 53
326.0
 43
0.87568566
 44
1.31352872
 45
2.13067756
 46
6.35003578
 79
     2
 49
0.52541126
 49
-5.77952623
 53
71.45140076
 43
1.31127119
 44
1.01972185
 45
-7.35770987
 46
-2.82435394
 79
     2
 49
0.55816375
 49
-6.13980174
 53
37.5
 43
0.0
 44
0.0
 45
0.10648178
 46
2.91510415
 79
     6
 49
0.00625
 49
-5.70947111
 49
0.00625
 49
-5.86709499
 49
0.00625
 49
-5.80141783
 53
7.5
 43
0.0
 44
0.0
 45
2.30366273
 46
3.4538074
 79
     6
 49
0.00625
 49
-3.34511936
 49
0.00625
 49
-5.57811797
 49
0.00625
 49
-2.21110687
 53
-32.5
 43
-1.95277944
 44
0.0
 45
4.67460687
 46
-0.19751001
 79
     6
 49
0.00625
 49
-2.18921438
 49
0.00625
 49
-6.83034956
 49
0.00625
 49
-9.06334817
 53
-42.5
 43
-2.8284651
 44
0.0
 45
5.10687857
 46
0.87660514
 79
     6
 49
0.00625
 49
-2.84597874
 49
0.00625
 49
-4.53605264
 49
0.00625
 49
-6.43629074
 47
0.775229
 98
        1
 10
0.0
 20
0.0
  0
LWPOLYLINE
  5
690
102
{ACAD_REACTORS
330
691
102
}
100
AcDbEntity
  8
Ech.1_5
 62
     9
  6
CONTINUOUS
370
    15
100
AcDbPolyline
 90
       25
 70
     1
 43
0.0
 10
54568.40505598
 20
-11263.5274738
 10
54568.34512019
 20
-11270.16675489
 10
54568.19842498
 20
-11283.63497243
 10
54568.07584934
 20
-11293.68863226
 10
54567.95180193
 20
-11303.74225911
 10
54567.83499787
 20
-11313.79587365
 10
54567.73415231
 20
-11323.84949659
 10
54567.65798036
 20
-11333.90314861
 10
54567.61519715
 20
-11343.95685041
 10
54567.61365368
 20
-11353.62094532
 10
54567.65915046
 20
-11364.06447856
 10
54567.73269524
 20
-11374.11840428
 10
54567.81438732
 20
-11384.17238011
 10
54567.88346216
 20
-11394.22638629
 10
54567.91915522
 20
-11404.28040307
 10
54567.88716531
 20
-11416.56775259
 10
54567.81163912
 20
-11424.38838467
 10
54567.66965345
 20
-11473.88130209
 10
54567.50871288
 20
-11483.93500209
 10
54567.41673375
 20
-11490.27610768
 10
54575.84173121
 20
-11490.27610768
 10
54575.84173121
 20
-11240.730496
 10
54568.56615902
 20
-11240.730496
 10
54568.54910516
 20
-11243.41977092
 10
54568.48217878
 20
-11253.47363221
  0
HATCH
  5
691
100
AcDbEntity
  8
Ech.1_5
 62
     9
  6
CONTINUOUS
100
AcDbHatch
 10
0.0
 20
0.0
 30
0.0
210
0.0
220
0.0
230
1.0
  2
SOLID
 70
     1
 71
     1
 91
        1
 92
        7
 72
     0
 73
     1
 93
       25
 10
54568.40505598
 20
-11263.5274738
 10
54568.34512019
 20
-11270.16675489
 10
54568.19842498
 20
-11283.63497243
 10
54568.07584934
 20
-11293.68863226
 10
54567.95180193
 20
-11303.74225911
 10
54567.83499787
 20
-11313.79587365
 10
54567.73415231
 20
-11323.84949659
 10
54567.65798036
 20
-11333.90314861
 10
54567.61519715
 20
-11343.95685041
 10
54567.61365368
 20
-11353.62094532
 10
54567.65915046
 20
-11364.06447856
 10
54567.73269524
 20
-11374.11840428
 10
54567.81438732
 20
-11384.17238011
 10
54567.88346216
 20
-11394.22638629
 10
54567.91915522
 20
-11404.28040307
 10
54567.88716531
 20
-11416.56775259
 10
54567.81163912
 20
-11424.38838467
 10
54567.66965345
 20
-11473.88130209
 10
54567.50871288
 20
-11483.93500209
 10
54567.41673375
 20
-11490.27610768
 10
54575.84173121
 20
-11490.27610768
 10
54575.84173121
 20
-11240.730496
 10
54568.56615902
 20
-11240.730496
 10
54568.54910516
 20
-11243.41977092
 10
54568.48217878
 20
-11253.47363221
 97
        1
330
690
 75
     0
 76
     2
 47
0.775229
 98
        1
 10
0.0
 20
0.0
  0
LINE
  5
692
100
AcDbEntity
  8
Ech.1_5
 62
   190
  6
CONTINUOUS
370
    -3
100
AcDbLine
 10
54454.60911773
 20
-11262.5594792
 30
0.0
 11
54454.60911773
 21
-11262.5594792
 31
0.0
  0
LWPOLYLINE
  5
693
100
AcDbEntity
  8
Ech.1_5
 62
   150
  6
CADWORK_22
370
    35
100
AcDbPolyline
 90
        3
 70
     0
 43
0.0
 38
2500.0
 10
54365.35311213
 20
-11490.24228871
 10
54365.35311213
 20
-11262.55677618
 10
54464.53464911
 20
-11262.55677618
  0
LWPOLYLINE
  5
694
100
AcDbEntity
  8
Ech.1_5
 62
     1
  6
CADWORK_22
 48
-5.0
370
    35
100
AcDbPolyline
 90
        3
 70
     0
 43
0.0
 10
54555.84869102
 20
-10495.90813785
 10
54555.84869102
 20
-10733.71300772
 10
54429.08069822
 20
-10733.71300772
  0
LWPOLYLINE
  5
695
100
AcDbEntity
  8
Ech.1_5
 62
     1
  6
CADWORK_22
 48
-5.0
370
    35
100
AcDbPolyline
 90
        3
 70
     0
 43
0.0
 10
54555.88850191
 20
-11489.79268977
 10
54555.88850191
 20
-11262.55677619
 10
54464.53464911
 20
-11262.55677619
  0
LWPOLYLINE
  5
696
100
AcDbEntity
  8
Ech.1_5
 62
   190
  6
CONTINUOUS
370
    -3
100
AcDbPolyline
 90
       12
 70
     0
 43
0.0
 10
54405.84869104
 20
-11307.55903742
 42
1.14028181
 10
54413.61327988
 20
-11366.53680752
 10
54518.08410221
 20
-11338.58126731
 42
-1.30322619
 10
54518.08410221
 20
-11396.53680752
 10
54413.61327988
 20
-11368.58126731
 42
1.30322619
 10
54413.61327988
 20
-11426.53680752
 10
54518.08410221
 20
-11398.58126731
 42
-1.30322619
 10
54518.08410221
 20
-11456.53680752
 10
54413.61327988
 20
-11428.58126731
 42
1.30322619
 10
54413.61327988
 20
-11486.53680752
 10
54518.08410221
 20
-11458.58126731
 42
-0.52129667
 10
54555.7284528
 20
-11490.24228871
  0
LINE
  5
697
100
AcDbEntity
  8
Ech.1_5
 62
     7
  6
CONTINUOUS
100
AcDbLine
 10
54877.54449776
 20
-11003.07564922
 30
0.0
 11
54861.54449776
 21
-11003.07564922
 31
0.0
  0
LINE
  5
698
100
AcDbEntity
  8
Ech.1_5
 62
     7
  6
CONTINUOUS
100
AcDbLine
 10
54881.54449776
 20
-11013.32564922
 30
0.0
 11
54857.54449776
 21
-11013.32564922
 31
0.0
  0
LINE
  5
699
100
AcDbEntity
  8
Ech.1_5
 62
     7
  6
CONTINUOUS
100
AcDbLine
 10
54875.54449776
 20
-11015.32564922
 30
0.0
 11
54875.54449776
 21
-11014.12564922
 31
0.0
  0
LINE
  5
69A
100
AcDbEntity
  8
Ech.1_5
 62
     7
  6
CONTINUOUS
100
AcDbLine
 10
54863.54449776
 20
-11015.32564922
 30
0.0
 11
54863.54449776
 21
-11014.12564922
 31
0.0
  0
LINE
  5
69B
100
AcDbEntity
  8
Ech.1_5
 62
     7
  6
CONTINUOUS
100
AcDbLine
 10
54857.54449776
 20
-11015.32564922
 30
0.0
 11
54881.54450209
 21
-11018.32564057
 31
0.0
  0
LINE
  5
69C
100
AcDbEntity
  8
Ech.1_5
 62
     7
  6
CONTINUOUS
100
AcDbLine
 10
54881.54449776
 20
-11015.32564922
 30
0.0
 11
54857.54449776
 21
-11018.32564057
 31
0.0
  0
LINE
  5
69D
100
AcDbEntity
  8
Ech.1_5
 62
     7
  6
CONTINUOUS
100
AcDbLine
 10
54857.54449776
 20
-11018.32564057
 30
0.0
 11
54881.54449776
 21
-11018.32564922
 31
0.0
  0
LINE
  5
69E
100
AcDbEntity
  8
Ech.1_5
 62
     7
  6
CONTINUOUS
100
AcDbLine
 10
54881.54449776
 20
-11018.32564922
 30
0.0
 11
54881.54449776
 21
-11015.32564922
 31
0.0
  0
LINE
  5
69F
100
AcDbEntity
  8
Ech.1_5
 62
     7
  6
CONTINUOUS
100
AcDbLine
 10
54881.54449776
 20
-11015.32564922
 30
0.0
 11
54857.54449776
 21
-11015.32564922
 31
0.0
  0
LINE
  5
6A0
100
AcDbEntity
  8
Ech.1_5
 62
     7
  6
CONTINUOUS
100
AcDbLine
 10
54857.54449776
 20
-11015.32564922
 30
0.0
 11
54857.54449776
 21
-11018.32564922
 31
0.0
  0
ARC
  5
6A1
100
AcDbEntity
  8
Ech.1_5
 62
     7
  6
CONTINUOUS
100
AcDbCircle
 10
54839.29323128
 20
-11108.60272758
 30
0.0
 40
1.0
100
AcDbArc
 50
0.0030797
 51
95.0
  0
LWPOLYLINE
  5
6A2
100
AcDbEntity
  8
Ech.1_5
 62
     7
  6
CONTINUOUS
100
AcDbPolyline
 90
        5
 70
     0
 43
0.0
 10
54882.19452167
 20
-11082.14552132
 42
0.73157417
 10
54880.74022422
 20
-11082.20908262
 42
-0.1352145
 10
54880.97371331
 20
-11083.51593162
 42
0.92591457
 10
54882.19452167
 20
-11083.51593162
 10
54882.19452167
 20
-11082.14552132
  0
LWPOLYLINE
  5
6A3
100
AcDbEntity
  8
Ech.1_5
 62
     7
  6
CONTINUOUS
100
AcDbPolyline
 90
       65
 70
     0
 43
0.0
 10
54880.74353926
 20
-11082.21605073
 10
54880.73376376
 20
-11082.17825888
 10
54880.72433697
 20
-11082.14074704
 10
54880.71560516
 20
-11082.1037933
 10
54880.70791462
 20
-11082.06767574
 10
54880.70161163
 20
-11082.03267242
 10
54880.69704249
 20
-11081.99906144
 10
54880.69455348
 20
-11081.96712086
 10
54880.69449088
 20
-11081.93712877
 10
54880.69720098
 20
-11081.90936324
 10
54880.70303006
 20
-11081.88410236
 10
54880.71232441
 20
-11081.8616242
 10
54880.72543031
 20
-11081.84220684
 10
54880.74269406
 20
-11081.82612835
 10
54880.76432627
 20
-11081.81355442
 10
54880.78991318
 20
-11081.80413336
 10
54880.81886152
 20
-11081.79736476
 10
54880.85057799
 20
-11081.7927482
 10
54880.8844693
 20
-11081.78978325
 10
54880.91994215
 20
-11081.78796948
 10
54880.95640325
 20
-11081.78680646
 10
54880.99325931
 20
-11081.78579376
 10
54881.02991703
 20
-11081.78443096
 10
54881.06578313
 20
-11081.78221763
 10
54881.1002643
 20
-11081.77865334
 10
54881.13276725
 20
-11081.77323767
 10
54881.16269869
 20
-11081.76547018
 10
54881.18946533
 20
-11081.75485045
 10
54881.21247387
 20
-11081.74087804
 10
54881.23113102
 20
-11081.72305254
 10
54881.24484348
 20
-11081.70087352
 10
54881.25301784
 20
-11081.67388257
 10
54881.25505509
 20
-11081.6434599
 10
54881.2503486
 20
-11081.61349967
 10
54881.23858526
 20
-11081.58728431
 10
54881.22052556
 20
-11081.56520118
 10
54881.19717491
 20
-11081.54697717
 10
54881.16953874
 20
-11081.53233917
 10
54881.13862246
 20
-11081.52101404
 10
54881.10543148
 20
-11081.51272868
 10
54881.07097122
 20
-11081.50720995
 10
54881.03624169
 20
-11081.504184
 10
54881.00189563
 20
-11081.50332823
 10
54880.96803406
 20
-11081.50424272
 10
54880.93470897
 20
-11081.50652063
 10
54880.90197231
 20
-11081.50975515
 10
54880.86987606
 20
-11081.51353945
 10
54880.8384722
 20
-11081.51746671
 10
54880.80781268
 20
-11081.52113011
 10
54880.77794949
 20
-11081.52412283
 10
54880.7489346
 20
-11081.52603804
 10
54880.72081996
 20
-11081.52646893
 10
54880.69365756
 20
-11081.52500867
 10
54880.66749937
 20
-11081.52125044
 10
54880.64239735
 20
-11081.51478742
 10
54880.61840348
 20
-11081.50521278
 10
54880.59554296
 20
-11081.49223926
 10
54880.57372497
 20
-11081.47609792
 10
54880.55282724
 20
-11081.45716029
 10
54880.5327275
 20
-11081.4357979
 10
54880.51330348
 20
-11081.41238226
 10
54880.49443291
 20
-11081.38728492
 10
54880.47599352
 20
-11081.3608774
 10
54880.45786304
 20
-11081.33353121
 10
54880.4399192
 20
-11081.3056179
  0
LWPOLYLINE
  5
6A4
100
AcDbEntity
  8
Ech.1_5
 62
     7
  6
CONTINUOUS
100
AcDbPolyline
 90
       40
 70
     0
 43
0.0
 10
54880.74353926
 20
-11082.21605073
 42
-0.20099848
 10
54880.83196834
 20
-11084.1454939
 42
0.55145662
 10
54880.93527379
 20
-11084.27942669
 42
-0.1294239
 10
54882.05368175
 20
-11084.46368384
 42
0.54354517
 10
54882.19452167
 20
-11084.37240349
 10
54882.19452167
 20
-11082.14552132
 10
54882.19452167
 20
-11082.14552132
 10
54881.69452167
 20
-11081.64552132
 10
54882.19452167
 20
-11081.14552132
 10
54882.19452167
 20
-11068.02564854
 42
0.41421356
 10
54882.09452167
 20
-11067.92564854
 10
54878.89452167
 20
-11067.92564854
 42
-0.41421356
 10
54878.79452167
 20
-11067.82564854
 10
54878.79452167
 20
-11067.42564854
 42
-0.41421356
 10
54878.89452167
 20
-11067.32564854
 10
54881.69452167
 20
-11067.32564854
 42
0.41421356
 10
54881.79452167
 20
-11067.22564854
 10
54881.79452167
 20
-11064.77629237
 42
0.74863712
 10
54881.61038987
 20
-11064.72223831
 10
54880.3533665
 20
-11066.67871756
 42
-0.41421356
 10
54880.21518065
 20
-11066.7087953
 10
54879.87865346
 20
-11066.49257908
 42
-0.41421356
 10
54879.84857572
 20
-11066.35439323
 10
54881.76500174
 20
-11063.37159449
 42
-0.25526652
 10
54881.84913354
 20
-11063.32564854
 10
54882.69452167
 20
-11063.32564854
 42
-0.41421356
 10
54882.79452167
 20
-11063.42564854
 10
54882.79452167
 20
-11085.02564854
 42
-0.41421356
 10
54882.69452167
 20
-11085.12564854
 10
54882.22790321
 20
-11085.12564854
 42
-0.16012283
 10
54882.1685774
 20
-11085.10614978
 42
0.24300643
 10
54880.604083
 20
-11084.85635474
 42
0.06909489
 10
54880.57939197
 20
-11084.86847778
 42
-0.7595554
 10
54880.10185412
 20
-11084.46232438
 42
0.27525427
 10
54880.28904789
 20
-11082.42458184
 42
-0.2097
 10
54880.22085809
 20
-11078.22099288
 42
-0.9750995
 10
54880.68193403
 20
-11078.41440688
 42
0.15529906
 10
54880.42663943
 20
-11081.27360703
 42
0.06565639
 10
54880.43561127
 20
-11081.29816959
 42
0.02152095
 10
54880.4399192
 20
-11081.3056179
  0
LINE
  5
6A5
100
AcDbEntity
  8
Ech.1_5
 62
     7
  6
DASHEDX2
100
AcDbLine
 10
54873.96434099
 20
-11021.55328377
 30
0.0
 11
54840.7951309
 21
-11057.22963083
 31
0.0
  0
LINE
  5
6A6
100
AcDbEntity
  8
Ech.1_5
 62
     7
  6
DASHEDX2
100
AcDbLine
 10
54863.99170729
 20
-11020.53063967
 30
0.0
 11
54840.79893938
 21
-11045.47646247
 31
0.0
  0
LWPOLYLINE
  5
6A7
100
AcDbEntity
  8
Ech.1_5
 62
     7
  6
CONTINUOUS
100
AcDbPolyline
 90
       63
 70
     0
 43
0.0
 10
54898.29451616
 20
-11012.76420064
 10
54897.29452167
 20
-11011.76420614
 10
54895.29452167
 20
-11011.76420614
 10
54895.29452167
 20
-11011.26420614
 42
0.24172474
 10
54890.28739646
 20
-11001.51229853
 42
0.15679011
 10
54889.7046569
 20
-11001.32495749
 10
54887.76058892
 20
-11001.32495749
 42
0.28963385
 10
54886.59215291
 20
-11002.42283977
 42
-0.29368695
 10
54886.19532833
 20
-11002.79015979
 42
0.36369756
 10
54884.54452167
 20
-11004.75943986
 10
54884.54452167
 20
-11014.80671278
 42
-0.37995788
 10
54881.89875984
 20
-11017.78572525
 10
54876.7643199
 20
-11018.39626805
 42
0.22830633
 10
54876.04714147
 20
-11018.88519463
 10
54874.80165759
 20
-11021.04285404
 42
-0.22171667
 10
54874.10923841
 20
-11021.52773445
 10
54866.13838741
 20
-11022.93321055
 42
-0.31532185
 10
54865.09867188
 20
-11022.44833013
 10
54863.04189322
 20
-11018.88519463
 42
0.22830633
 10
54862.32471479
 20
-11018.39626805
 10
54857.1902835
 20
-11017.78572628
 42
-0.37995788
 10
54854.54452167
 20
-11014.8067138
 10
54854.54452167
 20
-11004.75943986
 42
0.36369756
 10
54852.89371501
 20
-11002.79015979
 42
-0.29368695
 10
54852.49689042
 20
-11002.42283977
 42
0.28963385
 10
54851.32845441
 20
-11001.32495749
 10
54849.38438644
 20
-11001.32495749
 42
0.15679011
 10
54848.80164687
 20
-11001.51229853
 42
0.24172474
 10
54843.79452167
 20
-11011.26420614
 10
54843.79452167
 20
-11011.76420614
 10
54841.79452167
 20
-11011.76420614
 10
54840.79452167
 20
-11012.76420614
 10
54840.79555786
 20
-11017.36510318
 10
54846.09988662
 20
-11017.36510318
 10
54846.09988662
 20
-11029.83852455
 10
54841.29805203
 20
-11030.25863064
 10
54840.79991253
 20
-11030.75860464
 10
54840.79497173
 20
-11058.11079856
 10
54844.54478154
 20
-11060.27575226
 10
54844.54478154
 20
-11054.85961587
 10
54847.44478156
 20
-11054.85961587
 10
54847.44478156
 20
-11064.32564121
 42
0.41421356
 10
54848.44478155
 20
-11065.32564121
 10
54850.78390571
 20
-11065.32564125
 10
54854.9839241
 20
-11059.32564093
 10
54859.18390576
 20
-11059.32564093
 10
54860.59452167
 20
-11067.32564125
 10
54862.5945195
 20
-11067.32564234
 10
54862.5945195
 20
-11065.12565719
 10
54864.5945195
 20
-11065.12565719
 10
54864.5945195
 20
-11055.82565719
 10
54876.7945195
 20
-11055.82565719
 10
54876.7945195
 20
-11065.12565719
 10
54878.7945195
 20
-11065.12565719
 10
54878.7945195
 20
-11067.32564822
 10
54879.79452167
 20
-11067.32564854
 10
54879.79452167
 20
-11061.82564854
 10
54882.79452167
 20
-11061.82564854
 10
54882.79452167
 20
-11083.32564854
 42
0.41421356
 10
54884.79452167
 20
-11085.32564854
 10
54893.29452157
 20
-11085.32564854
 42
0.41421359
 10
54898.29452157
 20
-11080.32564814
 10
54898.29451616
 20
-11012.76420064
  0
LWPOLYLINE
  5
6A8
100
AcDbEntity
  8
Ech.1_5
 62
     7
  6
CONTINUOUS
100
AcDbPolyline
 90
       99
 70
     0
 43
0.0
 10
54856.31769386
 20
-11004.10150159
 10
54857.54449776
 20
-11007.47211761
 10
54857.54449776
 20
-11012.42564922
 10
54857.24449776
 20
-11012.72564922
 10
54857.24449776
 20
-11013.42564922
 42
0.95548796
 10
54858.04284144
 20
-11013.46201286
 42
-0.38779458
 10
54858.19222032
 20
-11013.32564922
 10
54861.4273813
 20
-11013.32564922
 42
-0.34415073
 10
54861.57290268
 20
-11013.43926888
 10
54861.71609285
 20
-11014.01202956
 42
0.34415073
 10
54861.86161422
 20
-11014.12564922
 10
54877.2273813
 20
-11014.12564922
 42
0.34415073
 10
54877.37290268
 20
-11014.01202956
 10
54877.51609285
 20
-11013.43926888
 42
-0.34415073
 10
54877.66161422
 20
-11013.32564922
 10
54880.89677521
 20
-11013.32564922
 42
-0.38779458
 10
54881.04615408
 20
-11013.46201286
 42
0.95548796
 10
54881.84449776
 20
-11013.42564922
 10
54881.84449776
 20
-11012.72564922
 10
54881.54449776
 20
-11012.42564922
 10
54881.54449776
 20
-11007.47211761
 10
54882.76205189
 20
-11004.12691512
 42
1.10738051
 10
54882.51332454
 20
-11004.03638577
 10
54882.18479126
 20
-11005.3379754
 42
-0.93251509
 10
54881.5462979
 20
-11005.22496938
 10
54881.87314172
 20
-11002.80396708
 42
0.18531675
 10
54881.71846257
 20
-11002.15008115
 42
-0.15081813
 10
54881.54449776
 20
-11001.58646261
 10
54881.54449776
 20
-11001.2952009
 10
54881.54449776
 20
-11000.2952009
 42
-0.30843151
 10
54881.80172194
 20
-10999.93958811
 42
-0.26795044
 10
54887.06835343
 20
-11002.18114807
 42
-0.52171267
 10
54887.02634179
 20
-11002.42359027
 42
0.15565301
 10
54886.19528426
 20
-11003.52601381
 10
54884.53788386
 20
-11003.32564922
 42
0.31529879
 10
54884.34994534
 20
-11003.45724519
 10
54883.37619669
 20
-11006.1325976
 42
0.87140053
 10
54883.4637731
 20
-11006.17889293
 10
54883.98053344
 20
-11005.4603895
 42
-1.00812133
 10
54884.50076464
 20
-11005.76957936
 10
54883.02354065
 20
-11008.07437867
 42
0.14346618
 10
54882.94449776
 20
-11008.34418435
 10
54882.94449776
 20
-11009.92541995
 42
0.72472287
 10
54883.12511829
 20
-11009.98458354
 10
54883.77701976
 20
-11009.09625627
 42
-0.94855512
 10
54884.48665594
 20
-11009.5619249
 10
54883.04268563
 20
-11011.51174422
 42
0.16072186
 10
54882.94449776
 20
-11011.80931271
 10
54882.94449776
 20
-11013.36714963
 42
-0.08748866
 10
54882.93243629
 20
-11013.43555366
 10
54882.28042053
 20
-11015.22695224
 42
-0.31529879
 10
54882.13946663
 20
-11015.32564922
 10
54880.76161422
 20
-11015.32564922
 42
-0.34415073
 10
54880.61609285
 20
-11015.21202956
 10
54880.47290268
 20
-11014.63926888
 42
0.34415073
 10
54880.3273813
 20
-11014.52564922
 10
54878.56161422
 20
-11014.52564922
 42
0.34415073
 10
54878.41609285
 20
-11014.63926888
 10
54878.27290268
 20
-11015.21202956
 42
-0.34415073
 10
54878.1273813
 20
-11015.32564922
 10
54860.96161422
 20
-11015.32564922
 42
-0.34415073
 10
54860.81609285
 20
-11015.21202956
 10
54860.67290268
 20
-11014.63926888
 42
0.34415073
 10
54860.5273813
 20
-11014.52564922
 10
54858.76161422
 20
-11014.52564922
 42
0.34415073
 10
54858.61609285
 20
-11014.63926888
 10
54858.47290268
 20
-11015.21202956
 42
-0.34415073
 10
54858.3273813
 20
-11015.32564922
 10
54856.94952889
 20
-11015.32564922
 42
-0.31529879
 10
54856.808575
 20
-11015.22695224
 10
54856.15655924
 20
-11013.43555366
 42
-0.08748866
 10
54856.14449776
 20
-11013.36714963
 10
54856.14449776
 20
-11011.80931271
 42
0.16072186
 10
54856.0463099
 20
-11011.51174422
 10
54854.60233958
 20
-11009.5619249
 42
-0.94855512
 10
54855.31197576
 20
-11009.09625627
 10
54855.96387724
 20
-11009.98458354
 42
0.72472287
 10
54856.14449776
 20
-11009.92541995
 10
54856.14449776
 20
-11008.34418435
 42
0.14346618
 10
54856.06545488
 20
-11008.07437867
 10
54854.58823088
 20
-11005.76957936
 42
-1.00812133
 10
54855.10846209
 20
-11005.4603895
 10
54855.62522243
 20
-11006.17889293
 42
0.87140053
 10
54855.71279883
 20
-11006.1325976
 10
54854.73905019
 20
-11003.45724519
 42
0.31529879
 10
54854.55111166
 20
-11003.32564922
 10
54852.89367094
 20
-11003.52601381
 42
0.15565608
 10
54852.06263447
 20
-11002.42360855
 42
-0.52171267
 10
54852.02062283
 20
-11002.18116636
 42
-0.26794928
 10
54857.28727359
 20
-10999.93958811
 42
-0.30843151
 10
54857.54449776
 20
-11000.2952009
 10
54857.54449776
 20
-11001.2952009
 10
54857.54449776
 20
-11001.58646261
 42
-0.15081813
 10
54857.37053296
 20
-11002.15008115
 42
0.18531675
 10
54857.21585381
 20
-11002.80396708
 10
54857.54269763
 20
-11005.22496938
 42
-0.93251509
 10
54856.90420427
 20
-11005.3379754
 10
54856.57567098
 20
-11004.03638577
 42
1.10738051
 10
54856.32694363
 20
-11004.12691512
  0
LINE
  5
6A9
100
AcDbEntity
  8
Ech.1_5
 62
   190
  6
DASHEDX2
100
AcDbLine
 10
54743.33810052
 20
-11146.06136518
 30
0.0
 11
54830.14744398
 21
-11131.1914007
 31
0.0
  0
LINE
  5
6AA
100
AcDbEntity
  8
Ech.1_5
 62
   190
  6
DASHEDX2
100
AcDbLine
 10
54743.33813489
 20
-11154.1903315
 30
0.0
 11
54839.65943263
 21
-11137.58523885
 31
0.0
  0
LWPOLYLINE
  5
6AB
100
AcDbEntity
  8
Ech.1_5
 62
     7
  6
CONTINUOUS
100
AcDbPolyline
 90
       15
 70
     0
 43
0.0
 10
54840.798474
 20
-11030.30221447
 10
54845.798474
 20
-11029.86480549
 10
54845.798474
 20
-11017.36510318
 10
54841.22343044
 20
-11017.3641477
 42
0.25018491
 10
54839.56157041
 20
-11018.2507702
 42
-0.22001772
 10
54828.04312276
 20
-11028.04577655
 42
0.32911577
 10
54809.798474
 20
-11048.36084985
 10
54810.798474
 20
-11049.36084985
 10
54822.88523299
 20
-11049.36084985
 10
54829.6610352
 20
-11043.6961296
 42
-0.46575727
 10
54831.16846161
 20
-11043.96333541
 10
54834.28471802
 20
-11049.36084985
 10
54837.298474
 20
-11049.36084985
 10
54840.798474
 20
-11046.42400114
 10
54840.798474
 20
-11030.30221447
  0
LWPOLYLINE
  5
6AC
100
AcDbEntity
  8
Ech.1_5
 62
     7
  6
CONTINUOUS
100
AcDbPolyline
 90
        5
 70
     0
 43
0.0
 10
54882.19452167
 20
-11082.14552132
 42
0.73157417
 10
54880.74022422
 20
-11082.20908262
 42
-0.1352145
 10
54880.97371331
 20
-11083.51593162
 42
0.92591457
 10
54882.19452167
 20
-11083.51593162
 10
54882.19452167
 20
-11082.14552132
  0
LWPOLYLINE
  5
6AD
100
AcDbEntity
  8
Ech.1_5
 62
     7
  6
CONTINUOUS
100
AcDbPolyline
 90
       65
 70
     0
 43
0.0
 10
54880.74353926
 20
-11082.21605073
 10
54880.73376376
 20
-11082.17825888
 10
54880.72433697
 20
-11082.14074704
 10
54880.71560516
 20
-11082.1037933
 10
54880.70791462
 20
-11082.06767574
 10
54880.70161163
 20
-11082.03267242
 10
54880.69704249
 20
-11081.99906144
 10
54880.69455348
 20
-11081.96712086
 10
54880.69449088
 20
-11081.93712877
 10
54880.69720098
 20
-11081.90936324
 10
54880.70303006
 20
-11081.88410236
 10
54880.71232441
 20
-11081.8616242
 10
54880.72543031
 20
-11081.84220684
 10
54880.74269406
 20
-11081.82612835
 10
54880.76432627
 20
-11081.81355442
 10
54880.78991318
 20
-11081.80413336
 10
54880.81886152
 20
-11081.79736476
 10
54880.85057799
 20
-11081.7927482
 10
54880.8844693
 20
-11081.78978325
 10
54880.91994215
 20
-11081.78796948
 10
54880.95640325
 20
-11081.78680646
 10
54880.99325931
 20
-11081.78579376
 10
54881.02991703
 20
-11081.78443096
 10
54881.06578313
 20
-11081.78221763
 10
54881.1002643
 20
-11081.77865334
 10
54881.13276725
 20
-11081.77323767
 10
54881.16269869
 20
-11081.76547018
 10
54881.18946533
 20
-11081.75485045
 10
54881.21247387
 20
-11081.74087804
 10
54881.23113102
 20
-11081.72305254
 10
54881.24484348
 20
-11081.70087352
 10
54881.25301784
 20
-11081.67388257
 10
54881.25505509
 20
-11081.6434599
 10
54881.2503486
 20
-11081.61349967
 10
54881.23858526
 20
-11081.58728431
 10
54881.22052556
 20
-11081.56520118
 10
54881.19717491
 20
-11081.54697717
 10
54881.16953874
 20
-11081.53233917
 10
54881.13862246
 20
-11081.52101404
 10
54881.10543148
 20
-11081.51272868
 10
54881.07097122
 20
-11081.50720995
 10
54881.03624169
 20
-11081.504184
 10
54881.00189563
 20
-11081.50332823
 10
54880.96803406
 20
-11081.50424272
 10
54880.93470897
 20
-11081.50652063
 10
54880.90197231
 20
-11081.50975515
 10
54880.86987606
 20
-11081.51353945
 10
54880.8384722
 20
-11081.51746671
 10
54880.80781268
 20
-11081.52113011
 10
54880.77794949
 20
-11081.52412283
 10
54880.7489346
 20
-11081.52603804
 10
54880.72081996
 20
-11081.52646893
 10
54880.69365756
 20
-11081.52500867
 10
54880.66749937
 20
-11081.52125044
 10
54880.64239735
 20
-11081.51478742
 10
54880.61840348
 20
-11081.50521278
 10
54880.59554296
 20
-11081.49223926
 10
54880.57372497
 20
-11081.47609792
 10
54880.55282724
 20
-11081.45716029
 10
54880.5327275
 20
-11081.4357979
 10
54880.51330348
 20
-11081.41238226
 10
54880.49443291
 20
-11081.38728492
 10
54880.47599352
 20
-11081.3608774
 10
54880.45786304
 20
-11081.33353121
 10
54880.4399192
 20
-11081.3056179
  0
LWPOLYLINE
  5
6AE
100
AcDbEntity
  8
Ech.1_5
 62
     7
  6
CONTINUOUS
100
AcDbPolyline
 90
       40
 70
     0
 43
0.0
 10
54880.74353926
 20
-11082.21605073
 42
-0.20099848
 10
54880.83196834
 20
-11084.1454939
 42
0.55145662
 10
54880.93527379
 20
-11084.27942669
 42
-0.1294239
 10
54882.05368175
 20
-11084.46368384
 42
0.54354517
 10
54882.19452167
 20
-11084.37240349
 10
54882.19452167
 20
-11082.14552132
 10
54882.19452167
 20
-11082.14552132
 10
54881.69452167
 20
-11081.64552132
 10
54882.19452167
 20
-11081.14552132
 10
54882.19452167
 20
-11068.02564854
 42
0.41421356
 10
54882.09452167
 20
-11067.92564854
 10
54878.89452167
 20
-11067.92564854
 42
-0.41421356
 10
54878.79452167
 20
-11067.82564854
 10
54878.79452167
 20
-11067.42564854
 42
-0.41421356
 10
54878.89452167
 20
-11067.32564854
 10
54881.69452167
 20
-11067.32564854
 42
0.41421356
 10
54881.79452167
 20
-11067.22564854
 10
54881.79452167
 20
-11064.77629237
 42
0.74863712
 10
54881.61038987
 20
-11064.72223831
 10
54880.3533665
 20
-11066.67871756
 42
-0.41421356
 10
54880.21518065
 20
-11066.7087953
 10
54879.87865346
 20
-11066.49257908
 42
-0.41421356
 10
54879.84857572
 20
-11066.35439323
 10
54881.76500174
 20
-11063.37159449
 42
-0.25526652
 10
54881.84913354
 20
-11063.32564854
 10
54882.69452167
 20
-11063.32564854
 42
-0.41421356
 10
54882.79452167
 20
-11063.42564854
 10
54882.79452167
 20
-11085.02564854
 42
-0.41421356
 10
54882.69452167
 20
-11085.12564854
 10
54882.22790321
 20
-11085.12564854
 42
-0.16012283
 10
54882.1685774
 20
-11085.10614978
 42
0.24300643
 10
54880.604083
 20
-11084.85635474
 42
0.06909489
 10
54880.57939197
 20
-11084.86847778
 42
-0.7595554
 10
54880.10185412
 20
-11084.46232438
 42
0.27525427
 10
54880.28904789
 20
-11082.42458184
 42
-0.2097
 10
54880.22085809
 20
-11078.22099288
 42
-0.9750995
 10
54880.68193403
 20
-11078.41440688
 42
0.15529906
 10
54880.42663943
 20
-11081.27360703
 42
0.06565639
 10
54880.43561127
 20
-11081.29816959
 42
0.02152095
 10
54880.4399192
 20
-11081.3056179
  0
LINE
  5
6AF
100
AcDbEntity
  8
Ech.1_5
 62
     7
  6
CONTINUOUS
100
AcDbLine
 10
54857.54449776
 20
-11013.32564922
 30
0.0
 11
54857.54449776
 21
-10952.17022532
 31
0.0
  0
LINE
  5
6B0
100
AcDbEntity
  8
Ech.1_5
 62
     7
  6
CONTINUOUS
100
AcDbLine
 10
54861.54449776
 20
-11013.32564922
 30
0.0
 11
54861.54449776
 21
-10952.17022532
 31
0.0
  0
LINE
  5
6B1
100
AcDbEntity
  8
Ech.1_5
 62
     7
  6
CONTINUOUS
100
AcDbLine
 10
54877.54449776
 20
-11013.32564922
 30
0.0
 11
54877.54449776
 21
-10952.17022532
 31
0.0
  0
LINE
  5
6B2
100
AcDbEntity
  8
Ech.1_5
 62
     7
  6
CONTINUOUS
100
AcDbLine
 10
54881.54449776
 20
-11013.32564922
 30
0.0
 11
54881.54449776
 21
-10952.17022532
 31
0.0
  0
HATCH
  5
6B3
100
AcDbEntity
  8
Ech.1_5
 62
     7
100
AcDbHatch
 10
0.0
 20
0.0
 30
0.0
210
0.0
220
0.0
230
1.0
  2
_USER_1
 70
     0
 71
     0
 91
        1
 92
        7
 72
     0
 73
     1
 93
       19
 10
54846.6611369
 20
-10845.38642539
 10
54846.77498027
 20
-10845.37828537
 10
54846.8865067
 20
-10845.35402782
 10
54846.99344618
 20
-10845.31414648
 10
54847.09362206
 20
-10845.25945308
 10
54847.18499535
 20
-10845.19106086
 10
54847.26570624
 20
-10845.11036188
 10
54847.33411195
 20
-10845.01899869
 10
54847.38882013
 20
-10844.91883089
 10
54847.42871726
 20
-10844.8118973
 10
54847.45299127
 20
-10844.70037445
 10
54847.46114809
 20
-10844.58653228
 10
54847.46115088
 20
-10844.38772208
 10
54847.46115283
 20
-10844.24797436
 10
54847.46119756
 20
-10841.04685659
 10
54847.46120456
 20
-10840.54685659
 10
54847.461246
 20
-10837.58927931
 10
54846.26124599
 20
-10837.58926249
 10
54846.2611368
 20
-10845.38641978
 97
        0
 75
     0
 76
     2
 52
0.0
 41
1.0
 77
     0
 78
     1
 53
135.00079346
 43
0.0
 44
0.0
 45
-1.76774247
 46
-1.76779143
 79
     2
 49
50.0
 49
0.0
 47
0.775229
 98
        1
 10
0.0
 20
0.0
  0
HATCH
  5
6B4
100
AcDbEntity
  8
Ech.1_5
 62
     7
100
AcDbHatch
 10
0.0
 20
0.0
 30
0.0
210
0.0
220
0.0
230
1.0
  2
ANSI31
 70
     0
 71
     0
 91
        1
 92
        7
 72
     1
 73
     1
 93
       25
 10
54879.81214946
 20
-10820.11730321
 42
-0.22235481
 10
54880.11690618
 20
-10820.97157327
 42
-0.22946848
 10
54879.91639412
 20
-10821.45480009
 42
0.18586263
 10
54878.810848
 20
-10823.95351163
 42
0.0
 10
54878.810848
 20
-10825.93932198
 42
0.99930427
 10
54879.510848
 20
-10825.93980404
 42
0.0
 10
54879.510848
 20
-10823.88849647
 42
-0.05691082
 10
54879.51857111
 20
-10823.82086349
 42
-0.02418259
 10
54879.6098184
 20
-10823.43775229
 42
-0.02455226
 10
54879.72747009
 20
-10823.09102387
 42
-0.07971411
 10
54880.38129422
 20
-10821.97812398
 42
0.19863002
 10
54880.83752035
 20
-10820.99414273
 42
0.33183283
 10
54879.6174
 20
-10819.19283528
 42
-0.79190458
 10
54879.81208516
 20
-10818.80005107
 42
0.0
 10
54881.69701532
 20
-10819.21074579
 42
-0.3398043
 10
54881.91170504
 20
-10819.50661603
 42
0.0
 10
54881.91047723
 20
-10819.55139757
 42
0.0
 10
54882.81078204
 20
-10819.57608185
 42
0.0
 10
54882.810848
 20
-10819.57367983
 42
0.0
 10
54882.810848
 20
-10818.7778903
 42
0.35710574
 10
54882.69047671
 20
-10818.63084561
 42
-0.12383971
 10
54879.16495314
 20
-10817.71197913
 42
0.54640022
 10
54878.810848
 20
-10817.93927216
 42
0.0
 10
54878.81912236
 20
-10819.51177021
 42
0.10888682
 10
54878.84338722
 20
-10819.61660977
 42
-0.05887459
 97
        0
 75
     0
 76
     2
 52
0.0
 41
0.25000001
 77
     0
 78
     1
 53
45.0
 43
0.0
 44
0.0
 45
0.56126252
 46
-0.56126252
 79
     0
 47
0.775229
 98
        1
 10
0.0
 20
0.0
  0
HATCH
  5
6B5
100
AcDbEntity
  8
Ech.1_5
 62
     7
100
AcDbHatch
 10
0.0
 20
0.0
 30
0.0
210
0.0
220
0.0
230
1.0
  2
HONEY
 70
     0
 71
     0
 91
        1
 92
        7
 72
     0
 73
     1
 93
      102
 10
54879.51365329
 20
-10823.84756599
 10
54879.510848
 20
-10823.8632637
 10
54879.510848
 20
-10825.93980404
 10
54879.50752503
 20
-10825.98743924
 10
54879.49774919
 20
-10826.03417881
 10
54879.48170244
 20
-10826.07915276
 10
54879.45968348
 20
-10826.12152398
 10
54879.43210216
 20
-10826.16050378
 10
54879.39947185
 20
-10826.19536662
 10
54879.36239992
 20
-10826.22546357
 10
54879.32157641
 20
-10826.25023443
 10
54879.27776118
 20
-10826.26921812
 10
54879.2317698
 20
-10826.2820613
 10
54879.18445832
 20
-10826.2885249
 10
54879.13670737
 20
-10826.28848862
 10
54879.08940576
 20
-10826.28195313
 10
54879.04343395
 20
-10826.26904007
 10
54878.99964762
 20
-10826.24998982
 10
54878.9588618
 20
-10826.22515695
 10
54878.92183565
 20
-10826.19500369
 10
54878.88925836
 20
-10826.16009131
 10
54878.8617363
 20
-10826.12106964
 10
54878.83978176
 20
-10826.07866501
 10
54878.82380338
 20
-10826.03366672
 10
54878.81409858
 20
-10825.98691235
 10
54878.810848
 20
-10825.93927216
 10
54878.81409858
 20
-10825.98691235
 10
54878.82380338
 20
-10826.03366672
 10
54878.83978176
 20
-10826.07866501
 10
54878.8617363
 20
-10826.12106964
 10
54878.88925836
 20
-10826.16009131
 10
54878.92183565
 20
-10826.19500369
 10
54878.9588618
 20
-10826.22515695
 10
54878.99964762
 20
-10826.24998982
 10
54879.04343395
 20
-10826.26904007
 10
54879.08940576
 20
-10826.28195313
 10
54879.13670737
 20
-10826.28848862
 10
54879.18445832
 20
-10826.2885249
 10
54879.2317698
 20
-10826.2820613
 10
54879.27776118
 20
-10826.26921812
 10
54879.32157641
 20
-10826.25023443
 10
54879.36239992
 20
-10826.22546357
 10
54879.39947185
 20
-10826.19536662
 10
54879.43210216
 20
-10826.16050378
 10
54879.45968348
 20
-10826.12152398
 10
54879.48170244
 20
-10826.07915276
 10
54879.49774919
 20
-10826.03417881
 10
54879.50752503
 20
-10825.98743924
 10
54879.510848
 20
-10825.93980404
 10
54879.510848
 20
-10826.36944647
 10
54879.5162659
 20
-10826.45247033
 10
54879.53306726
 20
-10826.53395671
 10
54879.56093184
 20
-10826.61235238
 10
54879.59932851
 20
-10826.68616303
 10
54879.64752537
 20
-10826.75398174
 10
54879.70460374
 20
-10826.81451582
 10
54879.76947565
 20
-10826.86661142
 10
54879.84090456
 20
-10826.90927553
 10
54879.91752896
 20
-10826.94169493
 10
54879.9978883
 20
-10826.96325167
 10
54880.08045083
 20
-10826.97353484
 10
54880.16364282
 20
-10826.97234846
 10
54880.24587855
 20
-10826.95971512
 10
54880.32559049
 20
-10826.93587563
 10
54880.40125926
 20
-10826.90128441
 10
54880.47144252
 20
-10826.85660079
 10
54880.5348025
 20
-10826.8026765
 10
54880.59013148
 20
-10826.7405394
 10
54880.63637484
 20
-10826.67137389
 10
54880.67265111
 20
-10826.59649834
 10
54880.69826884
 20
-10826.51733997
 10
54880.71273972
 20
-10826.43540763
 10
54880.71578792
 20
-10826.35226303
 10
54880.70735534
 20
-10826.26949101
 10
54880.66334333
 20
-10825.85579892
 10
54880.63382505
 20
-10825.44082076
 10
54880.61883661
 20
-10825.02506416
 10
54880.61839634
 20
-10824.60903771
 10
54880.63250477
 20
-10824.19325032
 10
54880.73819373
 20
-10823.90665118
 10
54880.88615282
 20
-10823.63941097
 10
54881.07295454
 20
-10823.39772038
 10
54881.29427157
 20
-10823.18717824
 10
54881.54497706
 20
-10823.01266181
 10
54881.81926333
 20
-10822.87821381
 10
54881.84827853
 20
-10821.81995124
 10
54881.48535931
 20
-10821.85953487
 10
54881.13167786
 20
-10821.95001499
 10
54880.79433499
 20
-10822.08957505
 10
54880.48010349
 20
-10822.27541312
 10
54880.19529214
 20
-10822.50379815
 10
54879.94561907
 20
-10822.77014488
 10
54879.73609692
 20
-10823.0691059
 10
54879.68107933
 20
-10823.21588473
 10
54879.63174918
 20
-10823.36467148
 10
54879.58817953
 20
-10823.51524587
 10
54879.55043488
 20
-10823.66738496
 10
54879.51857111
 20
-10823.82086349
 10
54879.51739444
 20
-10823.82616662
 10
54879.51631399
 20
-10823.83149018
 10
54879.5153301
 20
-10823.83683243
 10
54879.51444311
 20
-10823.84219162
 97
        0
 75
     0
 76
     2
 52
0.0
 41
1.0
 77
     0
 78
     3
 53
0.0
 43
0.0
 44
0.0
 45
34.64099884
 46
20.0
 79
     2
 49
23.09400082
 49
-46.18800163
 53
120.0
 43
0.0
 44
0.0
 45
-34.6410075
 46
19.99998501
 79
     2
 49
23.09400082
 49
-46.18800163
 53
60.0
 43
0.0
 44
0.0
 45
-8.6555227518659E-06
 46
39.99998501
 79
     4
 49
0.0
 49
-46.18800163
 49
23.09400082
 49
0.0
 47
0.775229
 98
        1
 10
0.0
 20
0.0
  0
HATCH
  5
6B6
100
AcDbEntity
  8
Ech.1_5
 62
     7
100
AcDbHatch
 10
0.0
 20
0.0
 30
0.0
210
0.0
220
0.0
230
1.0
  2
ANSI31
 70
     0
 71
     0
 91
        1
 92
        7
 72
     0
 73
     1
 93
       34
 10
54880.66463369
 20
-10835.65489337
 10
54880.60405591
 20
-10835.46938698
 10
54880.55416109
 20
-10835.28072646
 10
54880.51511178
 20
-10835.08952646
 10
54880.48703522
 20
-10834.89640993
 10
54880.47002287
 20
-10834.70200606
 10
54880.46370788
 20
-10834.65663325
 10
54880.45117035
 20
-10834.61257214
 10
54880.43265186
 20
-10834.57067182
 10
54880.40850928
 20
-10834.53173974
 10
54880.37920787
 20
-10834.49652614
 10
54880.34531226
 20
-10834.4657096
 10
54880.30747565
 20
-10834.43988399
 10
54880.26642719
 20
-10834.41954698
 10
54880.22295788
 20
-10834.40509047
 10
54880.17790543
 20
-10834.39679305
 10
54880.13213801
 20
-10834.39481462
 10
54880.08653759
 20
-10834.3991933
 10
54880.04198292
 20
-10834.40984471
 10
54879.9993326
 20
-10834.4265636
 10
54879.95940853
 20
-10834.44902777
 10
54879.92298006
 20
-10834.47680434
 10
54879.8907492
 20
-10834.50935803
 10
54879.86333706
 20
-10834.5460615
 10
54879.84127188
 20
-10834.58620747
 10
54879.82497887
 20
-10834.62902229
 10
54879.81477201
 20
-10834.6736809
 10
54879.810848
 20
-10834.71932269
 10
54879.810848
 20
-10834.82842562
 10
54879.82515985
 20
-10835.10717703
 10
54879.85997669
 20
-10835.3841156
 10
54879.91510917
 20
-10835.65773502
 10
54879.99025739
 20
-10835.92654708
 10
54880.08501264
 20
-10836.18908969
 97
        0
 75
     0
 76
     2
 52
0.0
 41
0.25000001
 77
     0
 78
     1
 53
45.0
 43
0.0
 44
0.0
 45
0.56126252
 46
-0.56126252
 79
     0
 47
0.775229
 98
        1
 10
0.0
 20
0.0
  0
LWPOLYLINE
  5
6B7
100
AcDbEntity
  8
Ech.1_5
 62
     7
  6
CONTINUOUS
100
AcDbPolyline
 90
       26
 70
     0
 43
0.0
 10
54824.64228215
 20
-10785.05987907
 10
54867.84217078
 20
-10785.06067547
 42
0.41422032
 10
54868.84219386
 20
-10784.06067547
 10
54868.84219386
 20
-10780.5607104
 42
-0.41421356
 10
54870.34219386
 20
-10779.0607104
 10
54872.84222669
 20
-10779.0607104
 42
-0.41421036
 10
54878.84222669
 20
-10785.06064474
 10
54878.84265348
 20
-10824.06372969
 42
-0.4142193
 10
54877.84265348
 20
-10825.06374927
 10
54858.33045044
 20
-10825.06374927
 42
-0.33945426
 10
54857.36452461
 20
-10824.32256831
 10
54855.72822702
 20
-10818.21582255
 42
0.29147239
 10
54854.14367917
 20
-10816.76384645
 10
54844.97554692
 20
-10815.14722161
 42
0.41421467
 10
54840.34170829
 20
-10818.39185729
 10
54839.37294744
 20
-10823.88597307
 42
0.04364748
 10
54839.34256295
 20
-10824.23316193
 10
54839.3416037
 20
-10842.07948697
 42
-0.43999449
 10
54838.25444796
 20
-10843.07562792
 10
54823.16783218
 20
-10841.75572007
 42
-0.39093107
 10
54821.34219445
 20
-10839.7490788
 10
54821.34240327
 20
-10792.08024515
 42
-0.4202363
 10
54822.3422476
 20
-10791.05978127
 10
54823.64220783
 20
-10791.05985113
 10
54823.64226372
 20
-10786.0598651
 42
-0.41421487
 10
54824.64228215
 20
-10785.05987907
  0
LINE
  5
6B8
100
AcDbEntity
  8
Ech.1_5
 62
     7
  6
CONTINUOUS
100
AcDbLine
 10
54877.56068487
 20
-10889.43679595
 30
0.0
 11
54861.56068487
 21
-10889.43679595
 31
0.0
  0
LINE
  5
6B9
100
AcDbEntity
  8
Ech.1_5
 62
     7
  6
CONTINUOUS
100
AcDbLine
 10
54881.56068487
 20
-10879.18679595
 30
0.0
 11
54857.56068487
 21
-10879.18679595
 31
0.0
  0
LINE
  5
6BA
100
AcDbEntity
  8
Ech.1_5
 62
     7
  6
CONTINUOUS
100
AcDbLine
 10
54875.56068487
 20
-10877.18679595
 30
0.0
 11
54875.56068487
 21
-10878.38679595
 31
0.0
  0
LINE
  5
6BB
100
AcDbEntity
  8
Ech.1_5
 62
     7
  6
CONTINUOUS
100
AcDbLine
 10
54863.56068487
 20
-10877.18679595
 30
0.0
 11
54863.56068487
 21
-10878.38679595
 31
0.0
  0
LINE
  5
6BC
100
AcDbEntity
  8
Ech.1_5
 62
     7
  6
CONTINUOUS
100
AcDbLine
 10
54857.56068487
 20
-10877.18679595
 30
0.0
 11
54881.56068487
 21
-10874.18679595
 31
0.0
  0
LINE
  5
6BD
100
AcDbEntity
  8
Ech.1_5
 62
     7
  6
CONTINUOUS
100
AcDbLine
 10
54881.56068487
 20
-10877.18679595
 30
0.0
 11
54857.56068487
 21
-10874.1868046
 31
0.0
  0
LINE
  5
6BE
100
AcDbEntity
  8
Ech.1_5
 62
     7
  6
CONTINUOUS
100
AcDbLine
 10
54857.56068487
 20
-10874.1868046
 30
0.0
 11
54881.56068487
 21
-10874.18679595
 31
0.0
  0
LINE
  5
6BF
100
AcDbEntity
  8
Ech.1_5
 62
     7
  6
CONTINUOUS
100
AcDbLine
 10
54881.56068487
 20
-10874.18679595
 30
0.0
 11
54881.56068487
 21
-10877.18679595
 31
0.0
  0
LINE
  5
6C0
100
AcDbEntity
  8
Ech.1_5
 62
     7
  6
CONTINUOUS
100
AcDbLine
 10
54881.56068487
 20
-10877.18679595
 30
0.0
 11
54857.56068487
 21
-10877.18679595
 31
0.0
  0
LINE
  5
6C1
100
AcDbEntity
  8
Ech.1_5
 62
     7
  6
CONTINUOUS
100
AcDbLine
 10
54857.56068487
 20
-10877.18679595
 30
0.0
 11
54857.56068487
 21
-10874.18679595
 31
0.0
  0
LWPOLYLINE
  5
6C2
100
AcDbEntity
  8
Ech.1_5
 62
     7
  6
CONTINUOUS
100
AcDbPolyline
 90
       99
 70
     0
 43
0.0
 10
54856.33388096
 20
-10888.41094359
 10
54857.56068487
 20
-10885.04032757
 10
54857.56068487
 20
-10880.08679595
 10
54857.26068487
 20
-10879.78679595
 10
54857.26068487
 20
-10879.08679595
 42
-0.95548796
 10
54858.05902854
 20
-10879.05043232
 42
0.38779458
 10
54858.20840742
 20
-10879.18679595
 10
54861.4435684
 20
-10879.18679595
 42
0.34415073
 10
54861.58908978
 20
-10879.0731763
 10
54861.73227995
 20
-10878.50041561
 42
-0.34415073
 10
54861.87780133
 20
-10878.38679595
 10
54877.2435684
 20
-10878.38679595
 42
-0.34415073
 10
54877.38908978
 20
-10878.50041561
 10
54877.53227995
 20
-10879.0731763
 42
0.34415073
 10
54877.67780133
 20
-10879.18679595
 10
54880.91296231
 20
-10879.18679595
 42
0.38779458
 10
54881.06234119
 20
-10879.05043232
 42
-0.95548796
 10
54881.86068487
 20
-10879.08679595
 10
54881.86068487
 20
-10879.78679595
 10
54881.56068487
 20
-10880.08679595
 10
54881.56068487
 20
-10885.04032757
 10
54882.778239
 20
-10888.38553005
 42
-1.10738051
 10
54882.52951165
 20
-10888.4760594
 10
54882.20097836
 20
-10887.17446978
 42
0.93251509
 10
54881.562485
 20
-10887.28747579
 10
54881.88932882
 20
-10889.7084781
 42
-0.18531675
 10
54881.73464967
 20
-10890.36236403
 42
0.15081813
 10
54881.56068487
 20
-10890.92598257
 10
54881.56068487
 20
-10891.21724428
 10
54881.56068487
 20
-10892.21724428
 42
0.30843151
 10
54881.81790904
 20
-10892.57285706
 42
0.26795044
 10
54887.08454053
 20
-10890.3312971
 42
0.52171267
 10
54887.0425289
 20
-10890.08885491
 42
-0.15565301
 10
54886.21147137
 20
-10888.98643137
 10
54884.55407096
 20
-10889.18679595
 42
-0.31529879
 10
54884.36613244
 20
-10889.05519998
 10
54883.3923838
 20
-10886.37984757
 42
-0.87140053
 10
54883.4799602
 20
-10886.33355225
 10
54883.99672054
 20
-10887.05205567
 42
1.00812133
 10
54884.51695175
 20
-10886.74286581
 10
54883.03972775
 20
-10884.43806651
 42
-0.14346618
 10
54882.96068487
 20
-10884.16826082
 10
54882.96068487
 20
-10882.58702523
 42
-0.72472287
 10
54883.14130539
 20
-10882.52786163
 10
54883.79320687
 20
-10883.4161889
 42
0.94855512
 10
54884.50284305
 20
-10882.95052027
 10
54883.05887273
 20
-10881.00070095
 42
-0.16072186
 10
54882.96068487
 20
-10880.70313246
 10
54882.96068487
 20
-10879.14529554
 42
0.08748866
 10
54882.94862339
 20
-10879.07689151
 10
54882.29660763
 20
-10877.28549293
 42
0.31529879
 10
54882.15565373
 20
-10877.18679595
 10
54880.77780133
 20
-10877.18679595
 42
0.34415073
 10
54880.63227995
 20
-10877.30041561
 10
54880.48908978
 20
-10877.8731763
 42
-0.34415073
 10
54880.3435684
 20
-10877.98679595
 10
54878.57780133
 20
-10877.98679595
 42
-0.34415073
 10
54878.43227995
 20
-10877.8731763
 10
54878.28908978
 20
-10877.30041561
 42
0.34415073
 10
54878.1435684
 20
-10877.18679595
 10
54860.97780133
 20
-10877.18679595
 42
0.34415073
 10
54860.83227995
 20
-10877.30041561
 10
54860.68908978
 20
-10877.8731763
 42
-0.34415073
 10
54860.5435684
 20
-10877.98679595
 10
54858.77780133
 20
-10877.98679595
 42
-0.34415073
 10
54858.63227995
 20
-10877.8731763
 10
54858.48908978
 20
-10877.30041561
 42
0.34415073
 10
54858.3435684
 20
-10877.18679595
 10
54856.965716
 20
-10877.18679595
 42
0.31529879
 10
54856.8247621
 20
-10877.28549293
 10
54856.17274634
 20
-10879.07689151
 42
0.08748866
 10
54856.16068487
 20
-10879.14529554
 10
54856.16068487
 20
-10880.70313246
 42
-0.16072186
 10
54856.062497
 20
-10881.00070095
 10
54854.61852668
 20
-10882.95052027
 42
0.94855512
 10
54855.32816286
 20
-10883.4161889
 10
54855.98006434
 20
-10882.52786163
 42
-0.72472287
 10
54856.16068487
 20
-10882.58702523
 10
54856.16068487
 20
-10884.16826082
 42
-0.14346618
 10
54856.08164198
 20
-10884.43806651
 10
54854.60441799
 20
-10886.74286581
 42
1.00812133
 10
54855.12464919
 20
-10887.05205567
 10
54855.64140953
 20
-10886.33355225
 42
-0.87140053
 10
54855.72898593
 20
-10886.37984757
 10
54854.75523729
 20
-10889.05519998
 42
-0.31529879
 10
54854.56729877
 20
-10889.18679595
 10
54852.90985804
 20
-10888.98643137
 42
-0.15565608
 10
54852.07882157
 20
-10890.08883662
 42
0.52171267
 10
54852.03680994
 20
-10890.33127882
 42
0.26794928
 10
54857.30346069
 20
-10892.57285706
 42
0.30843151
 10
54857.56068487
 20
-10892.21724428
 10
54857.56068487
 20
-10891.21724428
 10
54857.56068487
 20
-10890.92598257
 42
0.15081813
 10
54857.38672006
 20
-10890.36236403
 42
-0.18531675
 10
54857.23204091
 20
-10889.7084781
 10
54857.55888473
 20
-10887.28747579
 42
0.93251509
 10
54856.92039137
 20
-10887.17446978
 10
54856.59185808
 20
-10888.4760594
 42
-1.10738051
 10
54856.34313073
 20
-10888.38553005
  0
ARC
  5
6C3
100
AcDbEntity
  8
Ech.1_5
 62
     7
  6
CONTINUOUS
100
AcDbCircle
 10
54877.84268941
 20
-10824.06374927
 30
0.0
 40
1.0
100
AcDbArc
 50
270.0
 51
0.00112178
  0
LINE
  5
6C4
100
AcDbEntity
  8
Ech.1_5
 62
     7
  6
CONTINUOUS
100
AcDbLine
 10
54877.84268941
 20
-10825.06374927
 30
0.0
 11
54858.33048637
 21
-10825.06374927
 31
0.0
  0
ARC
  5
6C5
100
AcDbEntity
  8
Ech.1_5
 62
     7
  6
CONTINUOUS
100
AcDbCircle
 10
54858.33048637
 20
-10824.06374927
 30
0.0
 40
1.0
100
AcDbArc
 50
195.0
 51
270.0
  0
LINE
  5
6C6
100
AcDbEntity
  8
Ech.1_5
 62
     7
  6
CONTINUOUS
100
AcDbLine
 10
54857.36456054
 20
-10824.32256831
 30
0.0
 11
54855.72826295
 21
-10818.21582255
 31
0.0
  0
ARC
  5
6C7
100
AcDbEntity
  8
Ech.1_5
 62
     7
  6
CONTINUOUS
100
AcDbCircle
 10
54853.7964113
 20
-10818.73346064
 30
0.0
 40
2.0
100
AcDbArc
 50
15.0
 51
79.99978325
  0
LINE
  5
6C8
100
AcDbEntity
  8
Ech.1_5
 62
     7
  6
CONTINUOUS
100
AcDbLine
 10
54854.1437151
 20
-10816.76384645
 30
0.0
 11
54844.97558285
 21
-10815.14722161
 31
0.0
  0
ARC
  5
6C9
100
AcDbEntity
  8
Ech.1_5
 62
     7
  6
CONTINUOUS
100
AcDbCircle
 10
54844.28097524
 20
-10819.08645
 30
0.0
 40
4.0
100
AcDbArc
 50
79.99978325
 51
170.0
  0
LINE
  5
6CA
100
AcDbEntity
  8
Ech.1_5
 62
     7
  6
CONTINUOUS
100
AcDbLine
 10
54840.34174423
 20
-10818.39185729
 30
0.0
 11
54839.37298338
 21
-10823.88597307
 31
0.0
  0
ARC
  5
6CB
100
AcDbEntity
  8
Ech.1_5
 62
     7
  6
CONTINUOUS
100
AcDbCircle
 10
54841.34259889
 20
-10824.23326943
 30
0.0
 40
2.0
100
AcDbArc
 50
170.00000001
 51
179.9969203
  0
LINE
  5
6CC
100
AcDbEntity
  8
Ech.1_5
 62
     7
  6
CONTINUOUS
100
AcDbLine
 10
54839.34259889
 20
-10824.23316193
 30
0.0
 11
54839.34163963
 21
-10842.07948697
 31
0.0
  0
ARC
  5
6CD
100
AcDbEntity
  8
Ech.1_5
 62
     7
  6
CONTINUOUS
100
AcDbCircle
 10
54838.34163963
 20
-10842.07943322
 30
0.0
 40
1.0
100
AcDbArc
 50
265.0
 51
359.9969203
  0
LINE
  5
6CE
100
AcDbEntity
  8
Ech.1_5
 62
     7
  6
CONTINUOUS
100
AcDbLine
 10
54838.25444796
 20
-10843.07562792
 30
0.0
 11
54823.16783218
 21
-10841.75572007
 31
0.0
  0
ARC
  5
6CF
100
AcDbEntity
  8
Ech.1_5
 62
     7
  6
CONTINUOUS
100
AcDbCircle
 10
54823.34214367
 20
-10839.76333067
 30
0.0
 40
2.0
100
AcDbArc
 50
179.59171041
 51
265.0
  0
LWPOLYLINE
  5
6D0
100
AcDbEntity
  8
Ech.1_5
 62
     7
  6
CONTINUOUS
100
AcDbPolyline
 90
       42
 70
     0
 43
0.0
 10
54857.56099655
 20
-10874.18708074
 42
0.41421335
 10
54854.56099872
 20
-10877.18708074
 10
54854.56099872
 20
-10887.25548065
 42
-0.36369756
 10
54852.91019205
 20
-10889.22476072
 42
0.29368695
 10
54852.51336747
 20
-10889.59208074
 42
-0.28963385
 10
54851.34493146
 20
-10890.68996302
 10
54849.40086348
 20
-10890.68996302
 42
-0.15679011
 10
54848.81812392
 20
-10890.50262198
 42
-0.24172474
 10
54843.81099872
 20
-10880.75071437
 10
54843.81099872
 20
-10880.25071437
 10
54841.81099872
 20
-10880.25071437
 10
54840.81099872
 20
-10879.25071437
 10
54840.81126466
 20
-10842.90422825
 10
54844.56125858
 20
-10840.73916825
 10
54844.56125858
 20
-10846.15530464
 10
54847.46125861
 20
-10846.15530464
 10
54847.46125861
 20
-10836.6892793
 42
-0.41421356
 10
54848.4612586
 20
-10835.6892793
 10
54850.80038276
 20
-10835.68927926
 10
54855.00040114
 20
-10841.68927958
 10
54859.20038281
 20
-10841.68927958
 10
54860.61099872
 20
-10833.68927926
 10
54879.81099872
 20
-10833.68927197
 10
54879.81099872
 20
-10839.18927197
 10
54882.81099872
 20
-10839.18927197
 10
54882.81099872
 20
-10820.68927197
 42
-0.41421356
 10
54884.81099872
 20
-10818.68927197
 10
54893.31099862
 20
-10818.68927197
 42
-0.41421359
 10
54898.31099862
 20
-10823.68927245
 10
54898.31099321
 20
-10879.25071987
 10
54897.31099872
 20
-10880.25071437
 10
54895.31099872
 20
-10880.25071437
 10
54895.31099872
 20
-10880.75071437
 42
-0.24172474
 10
54890.30387351
 20
-10890.50262198
 42
-0.15679011
 10
54889.72113395
 20
-10890.68996302
 10
54887.77706597
 20
-10890.68996302
 42
-0.28963385
 10
54886.60862996
 20
-10889.59208074
 42
0.29368695
 10
54886.21180538
 20
-10889.22476072
 42
-0.36369756
 10
54884.56099872
 20
-10887.25548065
 10
54884.56099872
 20
-10877.18706344
 42
0.41421377
 10
54881.56099655
 20
-10874.18706344
 10
54857.56099655
 20
-10874.18708074
  0
LWPOLYLINE
  5
6D1
100
AcDbEntity
  8
Ech.1_5
 62
     7
  6
CONTINUOUS
100
AcDbPolyline
 90
        6
 70
     0
 43
0.0
 10
54846.26121656
 20
-10839.69069201
 10
54844.46698071
 20
-10839.69066688
 42
-0.41421356
 10
54844.16698491
 20
-10839.39066268
 10
54844.16700594
 20
-10837.88923316
 42
-0.41421356
 10
54844.46701014
 20
-10837.58923737
 10
54846.26124599
 20
-10837.58926249
  0
LINE
  5
6D2
100
AcDbEntity
  8
Ech.1_5
 62
     7
  6
CONTINUOUS
100
AcDbLine
 10
54846.26114935
 20
-10844.49002746
 30
0.0
 11
54845.07155965
 21
-10843.36568815
 31
0.0
  0
LINE
  5
6D3
100
AcDbEntity
  8
Ech.1_5
 62
     7
  6
CONTINUOUS
100
AcDbLine
 10
54846.26117854
 20
-10842.40592192
 30
0.0
 11
54845.05494018
 21
-10841.41652676
 31
0.0
  0
LINE
  5
6D4
100
AcDbEntity
  8
Ech.1_5
 62
     7
  6
CONTINUOUS
100
AcDbLine
 10
54846.26115985
 20
-10843.74044712
 30
0.0
 11
54844.63681726
 21
-10841.84361319
 31
0.0
  0
LWPOLYLINE
  5
6D5
100
AcDbEntity
  8
Ech.1_5
 62
     7
  6
CONTINUOUS
100
AcDbPolyline
 90
       19
 70
     0
 43
0.0
 10
54847.46125861
 20
-10836.6892793
 10
54841.15025572
 20
-10836.68919092
 42
0.34411134
 10
54840.47117247
 20
-10837.21931081
 10
54839.3182641
 20
-10841.82791082
 42
0.17632698
 10
54839.36283755
 20
-10842.06313905
 42
0.41421356
 10
54839.84253933
 20
-10842.18514807
 42
0.16609805
 10
54839.98923209
 20
-10842.01283942
 10
54840.4187949
 20
-10841.25816544
 42
-0.03740887
 10
54841.62062449
 20
-10839.65115516
 42
-0.52260001
 10
54842.36306727
 20
-10839.75012452
 42
-0.14054842
 10
54842.39240907
 20
-10840.08416532
 10
54841.74126291
 20
-10840.8853856
 42
0.16848628
 10
54841.63267424
 20
-10841.13002748
 10
54841.4666168
 20
-10842.10481957
 42
0.04674082
 10
54841.46134942
 20
-10842.25384745
 42
0.55814417
 10
54841.61117957
 20
-10842.33464561
 10
54844.46120269
 20
-10840.68923721
 42
-0.1316525
 10
54844.96120456
 20
-10840.55526962
 10
54846.26120446
 20
-10840.55528782
  0
LWPOLYLINE
  5
6D6
100
AcDbEntity
  8
Ech.1_5
 62
     7
  6
CONTINUOUS
100
AcDbPolyline
 90
       23
 70
     0
 43
0.0
 10
54840.33618017
 20
-10840.26834168
 10
54841.01038113
 20
-10837.57331173
 42
0.18145137
 10
54840.94114581
 20
-10837.41536091
 42
-1.27267075
 10
54841.21965054
 20
-10837.28919189
 10
54843.11050497
 20
-10837.56628564
 42
-0.37221348
 10
54843.3670063
 20
-10837.86311953
 10
54843.36697163
 20
-10840.33948385
 42
-0.26794919
 10
54843.21696799
 20
-10840.59928938
 10
54842.22056704
 20
-10841.17454313
 42
0.26794919
 10
54842.12056461
 20
-10841.34774681
 42
-1.97124746
 10
54841.98379064
 20
-10841.18712391
 10
54842.75631494
 20
-10840.27327999
 42
0.16876399
 10
54842.73839434
 20
-10839.61174962
 42
0.38568556
 10
54842.61884995
 20
-10839.55055449
 42
-0.58420509
 10
54842.37468256
 20
-10839.3019699
 42
0.36875524
 10
54842.32107898
 20
-10839.18370518
 42
0.14609734
 10
54841.83659369
 20
-10839.11121013
 42
0.36968256
 10
54841.75071567
 20
-10839.20893088
 42
-0.5863835
 10
54841.44123359
 20
-10839.376926
 42
0.36968256
 10
54841.3125018
 20
-10839.39570118
 42
0.0588644
 10
54840.45020507
 20
-10840.61201585
 42
-1.5024158
 10
54840.10979906
 20
-10840.46958638
 42
0.17735748
 10
54840.33618017
 20
-10840.26834168
  0
LINE
  5
6D7
100
AcDbEntity
  8
Ech.1_5
 62
     7
  6
CONTINUOUS
100
AcDbLine
 10
54847.46125861
 20
-10836.6892793
 30
0.0
 11
54847.461246
 21
-10837.5892793
 31
0.0
  0
LINE
  5
6D8
100
AcDbEntity
  8
Ech.1_5
 62
     7
  6
CONTINUOUS
100
AcDbLine
 10
54846.26124599
 20
-10837.58926249
 30
0.0
 11
54846.26121656
 21
-10839.69069201
 31
0.0
  0
LINE
  5
6D9
100
AcDbEntity
  8
Ech.1_5
 62
     7
  6
CONTINUOUS
100
AcDbLine
 10
54847.46120456
 20
-10840.54685659
 30
0.0
 11
54847.46119756
 21
-10841.04685659
 31
0.0
  0
LINE
  5
6DA
100
AcDbEntity
  8
Ech.1_5
 62
     7
  6
CONTINUOUS
100
AcDbLine
 10
54846.26124599
 20
-10837.58926249
 30
0.0
 11
54847.461246
 21
-10837.58927931
 31
0.0
  0
LINE
  5
6DB
100
AcDbEntity
  8
Ech.1_5
 62
     7
  6
CONTINUOUS
100
AcDbLine
 10
54847.461246
 20
-10837.5892793
 30
0.0
 11
54847.46120456
 21
-10840.54685659
 31
0.0
  0
LINE
  5
6DC
100
AcDbEntity
  8
Ech.1_5
 62
     7
  6
CONTINUOUS
100
AcDbLine
 10
54846.26116025
 20
-10843.7120475
 30
0.0
 11
54846.26115985
 21
-10843.74044712
 31
0.0
  0
LINE
  5
6DD
100
AcDbEntity
  8
Ech.1_5
 62
     7
  6
CONTINUOUS
100
AcDbLine
 10
54846.26114935
 20
-10844.49002746
 30
0.0
 11
54846.2611368
 21
-10845.38641978
 31
0.0
  0
LINE
  5
6DE
100
AcDbEntity
  8
Ech.1_5
 62
     7
  6
CONTINUOUS
100
AcDbLine
 10
54846.26117854
 20
-10842.40592192
 30
0.0
 11
54846.26116025
 21
-10843.7120475
 31
0.0
  0
ARC
  5
6DF
100
AcDbEntity
  8
Ech.1_5
 62
     7
  6
CONTINUOUS
100
AcDbCircle
 10
54846.22910054
 20
-10844.38641934
 30
0.0
 40
1.0
100
AcDbArc
 50
239.99915113
 51
269.99919763
  0
ARC
  5
6E0
100
AcDbEntity
  8
Ech.1_5
 62
     7
  6
CONTINUOUS
100
AcDbCircle
 10
54846.6611481
 20
-10844.58642539
 30
0.0
 40
0.8
100
AcDbArc
 50
269.99919763
 51
359.99234457
  0
LINE
  5
6E1
100
AcDbEntity
  8
Ech.1_5
 62
     7
  6
CONTINUOUS
100
AcDbLine
 10
54846.22908653
 20
-10845.38641934
 30
0.0
 11
54846.6611369
 21
-10845.38642539
 31
0.0
  0
LINE
  5
6E2
100
AcDbEntity
  8
Ech.1_5
 62
     7
  6
CONTINUOUS
100
AcDbLine
 10
54847.46114809
 20
-10844.58653228
 30
0.0
 11
54847.46115088
 21
-10844.38772208
 31
0.0
  0
LINE
  5
6E3
100
AcDbEntity
  8
Ech.1_5
 62
     7
  6
CONTINUOUS
100
AcDbLine
 10
54847.46115088
 20
-10844.38772208
 30
0.0
 11
54847.46115283
 21
-10844.24797436
 31
0.0
  0
LINE
  5
6E4
100
AcDbEntity
  8
Ech.1_5
 62
     7
  6
CONTINUOUS
100
AcDbLine
 10
54846.26115985
 20
-10843.74044712
 30
0.0
 11
54846.26114946
 21
-10844.4828303
 31
0.0
  0
LINE
  5
6E5
100
AcDbEntity
  8
Ech.1_5
 62
     7
  6
CONTINUOUS
100
AcDbLine
 10
54846.26121656
 20
-10839.69069201
 30
0.0
 11
54846.26120446
 21
-10842.40589032
 31
0.0
  0
LINE
  5
6E6
100
AcDbEntity
  8
Ech.1_5
 62
     7
  6
CONTINUOUS
100
AcDbLine
 10
54847.46115283
 20
-10844.24797436
 30
0.0
 11
54847.46119756
 21
-10841.04685659
 31
0.0
  0
ARC
  5
6E7
100
AcDbEntity
  8
Ech.1_5
 62
     7
  6
CONTINUOUS
100
AcDbCircle
 10
54844.86549143
 20
-10843.58371542
 30
0.0
 40
0.3
100
AcDbArc
 50
46.6152535
 51
216.54985202
  0
ARC
  5
6E8
100
AcDbEntity
  8
Ech.1_5
 62
     7
  6
CONTINUOUS
100
AcDbCircle
 10
54844.86468415
 20
-10841.64848072
 30
0.0
 40
0.3
100
AcDbArc
 50
50.64030408
 51
220.57490262
  0
LINE
  5
6E9
100
AcDbEntity
  8
Ech.1_5
 62
     7
  6
CONTINUOUS
100
AcDbLine
 10
54845.72908771
 20
-10845.25243733
 30
0.0
 11
54844.62448973
 21
-10843.76237202
 31
0.0
  0
LINE
  5
6EA
100
AcDbEntity
  8
Ech.1_5
 62
     7
  6
CONTINUOUS
370
    15
100
AcDbLine
 10
54881.91047723
 20
-10819.55139757
 30
0.0
 11
54882.81078204
 21
-10819.57608185
 31
0.0
  0
LWPOLYLINE
  5
6EB
100
AcDbEntity
  8
Ech.1_5
 62
     7
  6
CONTINUOUS
100
AcDbPolyline
 90
       47
 70
     0
 43
0.0
 10
54882.810848
 20
-10819.57367983
 10
54882.41084778
 20
-10834.13927213
 10
54882.66084829
 20
-10834.13927213
 42
-0.52681168
 10
54882.80076944
 20
-10834.34332817
 10
54882.41600452
 20
-10835.33927196
 10
54882.66084823
 20
-10835.33927196
 42
-0.52681163
 10
54882.80076945
 20
-10835.54332797
 10
54882.41600452
 20
-10836.53927225
 10
54882.66084805
 20
-10836.53927225
 42
-0.52681148
 10
54882.8007693
 20
-10836.7433282
 10
54882.47238772
 20
-10837.59332823
 42
-0.30991942
 10
54882.33246652
 20
-10837.68927216
 10
54881.69150617
 20
-10837.68927216
 42
-0.19738267
 10
54881.51577333
 20
-10837.61708658
 42
-0.0024604
 10
54880.08501275
 20
-10836.18908997
 42
-0.09974433
 10
54879.810848
 20
-10834.71932269
 42
-0.95831856
 10
54880.47002287
 20
-10834.70200606
 42
0.07148022
 10
54880.66463354
 20
-10835.65489298
 42
-0.01635879
 10
54881.26297746
 20
-10836.27182032
 42
0.68567924
 10
54881.61084821
 20
-10836.13741543
 10
54881.61084799
 20
-10834.38927188
 42
0.41421353
 10
54880.91084799
 20
-10833.68927197
 10
54878.88637458
 20
-10833.68927197
 42
-1.00055426
 10
54878.88637458
 20
-10832.73927265
 10
54880.77052863
 20
-10832.73927265
 42
0.40620768
 10
54881.5702281
 20
-10831.96119867
 10
54881.91170504
 20
-10819.50661603
 42
0.3398043
 10
54881.69701532
 20
-10819.21074579
 10
54879.8057449
 20
-10818.79866963
 42
0.78024864
 10
54879.6174
 20
-10819.19283528
 42
-0.33183283
 10
54880.83752035
 20
-10820.99414273
 42
-0.19863002
 10
54880.38129422
 20
-10821.97812398
 42
0.12687529
 10
54879.51857111
 20
-10823.82086349
 42
0.05691082
 10
54879.510848
 20
-10823.88849647
 10
54879.510848
 20
-10825.93883993
 42
-1.00076012
 10
54878.810848
 20
-10825.93927216
 10
54878.810848
 20
-10823.95351163
 42
-0.18586263
 10
54879.91639412
 20
-10821.45480009
 42
0.22946848
 10
54880.11690618
 20
-10820.97157327
 42
0.22235481
 10
54879.81214946
 20
-10820.11730321
 42
0.05887459
 10
54878.84338722
 20
-10819.61660977
 42
-0.11154972
 10
54878.81910851
 20
-10819.50913933
 10
54878.810848
 20
-10817.93927216
 42
-0.59245366
 10
54879.19546388
 20
-10817.72860995
 42
0.12265873
 10
54882.69047671
 20
-10818.63084561
 42
-0.35710574
 10
54882.810848
 20
-10818.7778903
 10
54882.810848
 20
-10819.57367983
  0
LINE
  5
6EC
100
AcDbEntity
  8
Ech.1_5
 62
     7
  6
CONTINUOUS
370
    15
100
AcDbLine
 10
54880.08501262
 20
-10836.18908971
 30
0.0
 11
54880.66463365
 21
-10835.6548934
 31
0.0
  0
LWPOLYLINE
  5
6ED
100
AcDbEntity
  8
Ech.1_5
 62
     7
  6
CONTINUOUS
370
    15
100
AcDbPolyline
 90
        7
 70
     0
 43
0.0
 10
54881.81926333
 20
-10822.87821381
 42
0.23258596
 10
54880.63250477
 20
-10824.19325032
 42
0.04374928
 10
54880.70735534
 20
-10826.26949101
 42
-1.08702271
 10
54879.510848
 20
-10826.37417258
 10
54879.510848
 20
-10823.88849647
 42
-0.0555506
 10
54879.72747009
 20
-10823.09102387
 42
-0.25732504
 10
54881.84827853
 20
-10821.81995124
  0
LINE
  5
6EE
100
AcDbEntity
  8
Ech.1_5
 62
     7
  6
CONTINUOUS
100
AcDbLine
 10
54857.56068487
 20
-10879.18679595
 30
0.0
 11
54857.56068487
 21
-10950.17022532
 31
0.0
  0
LINE
  5
6EF
100
AcDbEntity
  8
Ech.1_5
 62
     7
  6
CONTINUOUS
100
AcDbLine
 10
54861.56068487
 20
-10879.18679595
 30
0.0
 11
54861.56068487
 21
-10950.07994359
 31
0.0
  0
LINE
  5
6F0
100
AcDbEntity
  8
Ech.1_5
 62
     7
  6
CONTINUOUS
100
AcDbLine
 10
54877.56068487
 20
-10879.18679595
 30
0.0
 11
54877.56068487
 21
-10950.17022532
 31
0.0
  0
LINE
  5
6F1
100
AcDbEntity
  8
Ech.1_5
 62
     7
  6
CONTINUOUS
100
AcDbLine
 10
54881.56068487
 20
-10879.18679595
 30
0.0
 11
54881.56068487
 21
-10950.17022532
 31
0.0
  0
LWPOLYLINE
  5
6F2
102
{ACAD_REACTORS
330
6F3
102
}
100
AcDbEntity
  8
Ech.1_5
 62
   190
  6
CONTINUOUS
370
    -3
100
AcDbPolyline
 90
        4
 70
     1
 43
0.0
 10
54868.84222979
 20
-10785.05987907
 10
54829.3420474
 20
-10785.05987907
 10
54829.3420474
 20
-10767.04800042
 10
54868.84222979
 20
-10767.04800042
  0
HATCH
  5
6F3
100
AcDbEntity
  8
Ech.1_5
 62
   190
  6
CONTINUOUS
100
AcDbHatch
 10
0.0
 20
0.0
 30
0.0
210
0.0
220
0.0
230
1.0
  2
ANSI37
 70
     0
 71
     1
 91
        1
 92
        7
 72
     0
 73
     1
 93
        4
 10
54868.84222979
 20
-10785.05987907
 10
54829.3420474
 20
-10785.05987907
 10
54829.3420474
 20
-10767.04800042
 10
54868.84222979
 20
-10767.04800042
 97
        1
330
6F2
 75
     0
 76
     2
 52
0.0
 41
1.57480317
 77
     0
 78
     2
 53
45.0
 43
0.0
 44
0.0
 45
3.53553391
 46
-3.53553391
 79
     0
 53
-45.0
 43
0.0
 44
0.0
 45
3.53553391
 46
3.53553391
 79
     0
 47
0.775229
 98
        1
 10
0.0
 20
0.0
  0
LWPOLYLINE
  5
6F4
102
{ACAD_REACTORS
330
6F5
102
}
100
AcDbEntity
  8
Ech.1_5
 62
   190
  6
CONTINUOUS
370
    -3
100
AcDbPolyline
 90
       25
 70
     1
 43
0.0
 10
54811.34173483
 20
-10781.73332995
 10
54811.34194365
 20
-10734.0644963
 42
-0.4202363
 10
54812.34178798
 20
-10733.04403242
 10
54813.64174821
 20
-10733.04410228
 10
54813.6418041
 20
-10728.04411625
 42
-0.41421487
 10
54814.64182254
 20
-10727.04413022
 10
54857.84171116
 20
-10727.04492662
 42
0.41422032
 10
54858.84173424
 20
-10726.04492662
 10
54858.84173424
 20
-10722.54496155
 42
-0.41421356
 10
54860.34173424
 20
-10721.04496155
 10
54862.84176707
 20
-10721.04496155
 42
-0.41421036
 10
54868.84176707
 20
-10727.0448959
 10
54868.84222979
 20
-10766.04798084
 42
-0.4142193
 10
54867.84222979
 20
-10767.04800042
 10
54848.33002675
 20
-10767.04800042
 42
-0.33945426
 10
54847.36410093
 20
-10766.30681946
 10
54845.72780333
 20
-10760.20007371
 42
0.29147239
 10
54844.14325549
 20
-10758.7480976
 10
54834.97512323
 20
-10757.13147276
 42
0.41421467
 10
54830.34128461
 20
-10760.37610844
 10
54829.37252376
 20
-10765.87022423
 42
0.04364748
 10
54829.34213927
 20
-10766.21741308
 10
54829.34118001
 20
-10784.06373813
 42
-0.43999449
 10
54828.25402427
 20
-10785.05987907
 10
54813.16737257
 20
-10783.73997122
 42
-0.39093107
  0
HATCH
  5
6F5
100
AcDbEntity
  8
Ech.1_5
 62
   190
  6
CONTINUOUS
100
AcDbHatch
 10
0.0
 20
0.0
 30
0.0
210
0.0
220
0.0
230
1.0
  2
ANSI31
 70
     0
 71
     1
 91
        1
 92
        7
 72
     1
 73
     1
 93
       25
 10
54811.34173483
 20
-10781.73332995
 42
0.0
 10
54811.34194365
 20
-10734.0644963
 42
-0.4202363
 10
54812.34178798
 20
-10733.04403242
 42
0.0
 10
54813.64174821
 20
-10733.04410228
 42
0.0
 10
54813.6418041
 20
-10728.04411625
 42
-0.41421487
 10
54814.64182254
 20
-10727.04413022
 42
0.0
 10
54857.84171116
 20
-10727.04492662
 42
0.41422032
 10
54858.84173424
 20
-10726.04492662
 42
0.0
 10
54858.84173424
 20
-10722.54496155
 42
-0.41421356
 10
54860.34173424
 20
-10721.04496155
 42
0.0
 10
54862.84176707
 20
-10721.04496155
 42
-0.41421036
 10
54868.84176707
 20
-10727.0448959
 42
0.0
 10
54868.84222979
 20
-10766.04798084
 42
-0.4142193
 10
54867.84222979
 20
-10767.04800042
 42
0.0
 10
54848.33002675
 20
-10767.04800042
 42
-0.33945426
 10
54847.36410093
 20
-10766.30681946
 42
0.0
 10
54845.72780333
 20
-10760.20007371
 42
0.29147239
 10
54844.14325549
 20
-10758.7480976
 42
0.0
 10
54834.97512323
 20
-10757.13147276
 42
0.41421467
 10
54830.34128461
 20
-10760.37610844
 42
0.0
 10
54829.37252376
 20
-10765.87022423
 42
0.04364748
 10
54829.34213927
 20
-10766.21741308
 42
0.0
 10
54829.34118001
 20
-10784.06373813
 42
-0.43999449
 10
54828.25402427
 20
-10785.05987907
 42
0.0
 10
54813.16737257
 20
-10783.73997122
 42
-0.39093107
 97
        1
330
6F4
 75
     0
 76
     2
 52
0.0
 41
1.57481302
 77
     0
 78
     1
 53
45.0
 43
0.0
 44
0.0
 45
3.53553391
 46
-3.53553391
 79
     0
 47
0.775229
 98
        1
 10
0.0
 20
0.0
  0
LWPOLYLINE
  5
6F6
100
AcDbEntity
  8
Ech.1_5
 62
     7
  6
CONTINUOUS
100
AcDbPolyline
 90
       26
 70
     0
 43
0.0
 10
54824.64225875
 20
-11107.60732928
 10
54867.84214738
 20
-11107.60653288
 42
-0.41422032
 10
54868.84217046
 20
-11108.60653288
 10
54868.84217046
 20
-11112.10649795
 42
0.41421356
 10
54870.34217046
 20
-11113.60649795
 10
54872.84220329
 20
-11113.60649795
 42
0.41421036
 10
54878.84220329
 20
-11107.6065636
 10
54878.84263008
 20
-11068.60347866
 42
0.4142193
 10
54877.84263008
 20
-11067.60345908
 10
54858.33042704
 20
-11067.60345908
 42
0.33945426
 10
54857.36450121
 20
-11068.34464004
 10
54855.72820362
 20
-11074.45138579
 42
-0.29147239
 10
54854.14365577
 20
-11075.9033619
 10
54844.97552352
 20
-11077.51998674
 42
-0.41421467
 10
54840.34168489
 20
-11074.27535106
 10
54839.37292405
 20
-11068.78123527
 42
-0.04364748
 10
54839.34253956
 20
-11068.43404642
 10
54839.3415803
 20
-11050.58772137
 42
0.43999449
 10
54838.25442456
 20
-11049.59158043
 10
54823.16780879
 20
-11050.91148828
 42
0.39093107
 10
54821.34217105
 20
-11052.91812955
 10
54821.34237987
 20
-11100.5869632
 42
0.4202363
 10
54822.3422242
 20
-11101.60742708
 10
54823.64218443
 20
-11101.60735722
 10
54823.64224032
 20
-11106.60734325
 42
0.41421487
 10
54824.64225875
 20
-11107.60732928
  0
LWPOLYLINE
  5
6F7
102
{ACAD_REACTORS
330
6F8
102
}
100
AcDbEntity
  8
Ech.1_5
 62
   190
  6
CONTINUOUS
370
    -3
100
AcDbPolyline
 90
        4
 70
     1
 43
0.0
 10
54868.84217046
 20
-11125.61841153
 10
54829.34198807
 20
-11125.61841153
 10
54829.34198807
 20
-11107.60653288
 10
54868.84217046
 20
-11107.60653288
  0
HATCH
  5
6F8
100
AcDbEntity
  8
Ech.1_5
 62
   190
  6
CONTINUOUS
100
AcDbHatch
 10
0.0
 20
0.0
 30
0.0
210
0.0
220
0.0
230
1.0
  2
ANSI37
 70
     0
 71
     1
 91
        1
 92
        7
 72
     0
 73
     1
 93
        4
 10
54868.84217046
 20
-11125.61841153
 10
54829.34198807
 20
-11125.61841153
 10
54829.34198807
 20
-11107.60653288
 10
54868.84217046
 20
-11107.60653288
 97
        1
330
6F7
 75
     0
 76
     2
 52
0.0
 41
1.57480317
 77
     0
 78
     2
 53
45.0
 43
0.0
 44
0.0
 45
3.53553391
 46
-3.53553391
 79
     0
 53
-45.0
 43
0.0
 44
0.0
 45
3.53553391
 46
3.53553391
 79
     0
 47
0.775229
 98
        1
 10
0.0
 20
0.0
  0
LWPOLYLINE
  5
6F9
102
{ACAD_REACTORS
330
6FA
102
}
100
AcDbEntity
  8
Ech.1_5
 62
   190
  6
CONTINUOUS
100
AcDbPolyline
 90
       46
 70
     1
 43
0.0
 10
54848.32995234
 20
-11125.61841153
 42
0.33945426
 10
54847.36402651
 20
-11126.35959249
 10
54845.72772892
 20
-11132.46633824
 42
-0.29147239
 10
54844.14318107
 20
-11133.91831435
 10
54834.97504882
 20
-11135.53493919
 42
-0.41421467
 10
54830.34121019
 20
-11132.29030351
 10
54829.37244935
 20
-11126.79618773
 42
-0.04364748
 10
54829.34206485
 20
-11126.44899887
 10
54829.3411056
 20
-11108.60267383
 42
0.43999449
 10
54828.25394986
 20
-11107.60653288
 10
54813.16733409
 20
-11108.92644073
 42
0.38646911
 10
54811.34171578
 20
-11110.90207197
 42
-0.40037838
 10
54810.39335748
 20
-11111.90492775
 42
0.14311568
 10
54797.15306175
 20
-11116.52836127
 42
-0.10897752
 10
54787.24667425
 20
-11120.75365512
 10
54747.46570957
 20
-11127.80222067
 42
0.36373606
 10
54743.33804412
 20
-11132.725557
 10
54743.33817682
 20
-11164.10530926
 42
0.41421195
 10
54744.33817682
 20
-11165.10530376
 10
54752.33817682
 20
-11165.10530376
 42
0.41421618
 10
54753.33817682
 20
-11164.10529481
 10
54753.33817504
 20
-11163.90651146
 42
-0.36397277
 10
54756.64358233
 20
-11159.96724464
 10
54772.85287739
 20
-11157.10910859
 10
54774.52768239
 20
-11159.70349959
 10
54777.30881039
 20
-11157.10910859
 10
54778.98324939
 20
-11159.70290459
 10
54781.76474339
 20
-11157.10910859
 10
54783.43968106
 20
-11159.70346798
 10
54786.21982139
 20
-11157.10910859
 10
54787.89511439
 20
-11159.70406459
 10
54790.67685239
 20
-11157.10910859
 10
54792.35043639
 20
-11159.70465959
 10
54795.13181239
 20
-11157.10910859
 10
54796.80673939
 20
-11159.70349959
 10
54799.58774539
 20
-11157.10910859
 10
54800.58105177
 20
-11158.64769014
 42
0.25468196
 10
54801.42118094
 20
-11159.10530376
 10
54857.84173121
 20
-11159.10530376
 42
-0.41421356
 10
54858.84173121
 20
-11160.10530376
 10
54858.84173121
 20
-11163.60530376
 42
0.41421356
 10
54860.34173121
 20
-11165.10530376
 10
54862.84176707
 20
-11165.10530376
 42
0.41421006
 10
54868.84176707
 20
-11159.10537548
 10
54868.84215538
 20
-11126.61843111
 42
0.4142193
 10
54867.84215538
 20
-11125.61841153
  0
HATCH
  5
6FA
100
AcDbEntity
  8
Ech.1_5
 62
   190
  6
CONTINUOUS
100
AcDbHatch
 10
0.0
 20
0.0
 30
0.0
210
0.0
220
0.0
230
1.0
  2
ANSI31
 70
     0
 71
     1
 91
        1
 92
        7
 72
     1
 73
     1
 93
       46
 10
54848.32995234
 20
-11125.61841153
 42
0.33945426
 10
54847.36402651
 20
-11126.35959249
 42
0.0
 10
54845.72772892
 20
-11132.46633824
 42
-0.29147239
 10
54844.14318107
 20
-11133.91831435
 42
0.0
 10
54834.97504882
 20
-11135.53493919
 42
-0.41421467
 10
54830.34121019
 20
-11132.29030351
 42
0.0
 10
54829.37244935
 20
-11126.79618773
 42
-0.04364748
 10
54829.34206485
 20
-11126.44899887
 42
0.0
 10
54829.3411056
 20
-11108.60267383
 42
0.43999449
 10
54828.25394986
 20
-11107.60653288
 42
0.0
 10
54813.16733409
 20
-11108.92644073
 42
0.38646911
 10
54811.34171578
 20
-11110.90207197
 42
-0.40037838
 10
54810.39335748
 20
-11111.90492775
 42
0.14311568
 10
54797.15306175
 20
-11116.52836127
 42
-0.10897752
 10
54787.24667425
 20
-11120.75365512
 42
0.0
 10
54747.46570957
 20
-11127.80222067
 42
0.36373606
 10
54743.33804412
 20
-11132.725557
 42
0.0
 10
54743.33817682
 20
-11164.10530926
 42
0.41421195
 10
54744.33817682
 20
-11165.10530376
 42
0.0
 10
54752.33817682
 20
-11165.10530376
 42
0.41421618
 10
54753.33817682
 20
-11164.10529481
 42
0.0
 10
54753.33817504
 20
-11163.90651146
 42
-0.36397277
 10
54756.64358233
 20
-11159.96724464
 42
0.0
 10
54772.85287739
 20
-11157.10910859
 42
0.0
 10
54774.52768239
 20
-11159.70349959
 42
0.0
 10
54777.30881039
 20
-11157.10910859
 42
0.0
 10
54778.98324939
 20
-11159.70290459
 42
0.0
 10
54781.76474339
 20
-11157.10910859
 42
0.0
 10
54783.43968106
 20
-11159.70346798
 42
0.0
 10
54786.21982139
 20
-11157.10910859
 42
0.0
 10
54787.89511439
 20
-11159.70406459
 42
0.0
 10
54790.67685239
 20
-11157.10910859
 42
0.0
 10
54792.35043639
 20
-11159.70465959
 42
0.0
 10
54795.13181239
 20
-11157.10910859
 42
0.0
 10
54796.80673939
 20
-11159.70349959
 42
0.0
 10
54799.58774539
 20
-11157.10910859
 42
0.0
 10
54800.58105177
 20
-11158.64769014
 42
0.25468196
 10
54801.42118094
 20
-11159.10530376
 42
0.0
 10
54857.84173121
 20
-11159.10530376
 42
-0.41421356
 10
54858.84173121
 20
-11160.10530376
 42
0.0
 10
54858.84173121
 20
-11163.60530376
 42
0.41421356
 10
54860.34173121
 20
-11165.10530376
 42
0.0
 10
54862.84176707
 20
-11165.10530376
 42
0.41421006
 10
54868.84176707
 20
-11159.10537548
 42
0.0
 10
54868.84215538
 20
-11126.61843111
 42
0.4142193
 10
54867.84215538
 20
-11125.61841153
 42
0.0
 97
        1
330
6F9
 75
     0
 76
     2
 52
0.0
 41
1.57481302
 77
     0
 78
     1
 53
45.0
 43
0.0
 44
0.0
 45
3.53553391
 46
-3.53553391
 79
     0
 47
0.775229
 98
        1
 10
0.0
 20
0.0
  0
LWPOLYLINE
  5
6FB
100
AcDbEntity
  8
Ech.1_5
 62
   177
  6
CONTINUOUS
370
    70
100
AcDbPolyline
 90
        5
 70
     0
 43
0.0
 10
54816.3423932
 20
-11078.62955986
 10
54816.3423932
 20
-11103.62955986
 10
54728.33795354
 20
-11112.29259299
 10
54728.33795354
 20
-11174.03315761
 10
54732.40279419
 20
-11166.14821138
  0
LWPOLYLINE
  5
6FC
100
AcDbEntity
  8
Ech.1_5
 62
   190
  6
CONTINUOUS
370
    -3
100
AcDbPolyline
 90
        6
 70
     0
 43
0.0
 10
54301.75734733
 20
-10495.90813785
 10
54434.75734733
 20
-10495.90813785
 10
54451.24285048
 20
-10477.93078944
 10
54437.13291046
 20
-10513.88648945
 10
54453.61926455
 20
-10495.90813785
 10
54903.47318758
 20
-10495.90813785
  0
LWPOLYLINE
  5
6FD
100
AcDbEntity
  8
Ech.1_5
 62
   190
  6
CONTINUOUS
370
    -3
100
AcDbPolyline
 90
        6
 70
     0
 43
0.0
 10
54302.11155721
 20
-11490.27552133
 10
54477.11155721
 20
-11490.27552133
 10
54493.59706037
 20
-11472.29817293
 10
54479.48712035
 20
-11508.25387294
 10
54495.97347443
 20
-11490.27552133
 10
54902.82739747
 20
-11490.27610768
  0
TEXT
  5
6FE
100
AcDbEntity
  8
Ech.1_5
 62
   190
100
AcDbText
 10
54926.82071967
 20
-11412.71181634
 30
0.0
 40
8.00000012
  1
Echelle en mm
  7
ARIAL
 50
0.0
 41
1.0
 51
0.0
100
AcDbText
  0
TEXT
  5
6FF
100
AcDbEntity
  8
Ech.1_5
 62
   190
100
AcDbText
 10
54912.84013492
 20
-11440.92165187
 30
0.0
 40
8.00000012
  1
0
  7
ARIAL
 50
0.0
 41
1.0
 51
0.0
100
AcDbText
  0
TEXT
  5
700
100
AcDbEntity
  8
Ech.1_5
 62
   190
100
AcDbText
 10
54999.43719281
 20
-11440.92165187
 30
0.0
 40
8.00000012
  1
100
  7
ARIAL
 50
0.0
 41
1.0
 51
0.0
100
AcDbText
  0
TEXT
  5
701
100
AcDbEntity
  8
Ech.1_5
 62
   190
100
AcDbText
 10
54960.69676125
 20
-11440.92165187
 30
0.0
 40
8.00000012
  1
50
  7
ARIAL
 50
0.0
 41
1.0
 51
0.0
100
AcDbText
  0
INSERT
  5
702
100
AcDbEntity
  8
Ech.1_5
 62
     0
370
    -3
100
AcDbBlockReference
  2
*D52
 10
0.0
 20
0.0
 30
0.0
  0
INSERT
  5
703
100
AcDbEntity
  8
Ech.1_5
 62
     0
370
    -3
100
AcDbBlockReference
  2
*D53
 10
0.0
 20
0.0
 30
0.0
  0
INSERT
  5
704
100
AcDbEntity
  8
Ech.1_5
 62
     0
370
    -3
100
AcDbBlockReference
  2
*D54
 10
0.0
 20
0.0
 30
0.0
  0
INSERT
  5
705
100
AcDbEntity
  8
Ech.1_5
 62
     0
370
    -3
100
AcDbBlockReference
  2
*D55
 10
0.0
 20
0.0
 30
0.0
  0
INSERT
  5
706
100
AcDbEntity
  8
Ech.1_5
 62
     0
370
    -3
100
AcDbBlockReference
  2
*D56
 10
0.0
 20
0.0
 30
0.0
  0
INSERT
  5
707
100
AcDbEntity
  8
Ech.1_5
 62
     0
370
    -3
100
AcDbBlockReference
  2
*D57
 10
0.0
 20
0.0
 30
0.0
  0
INSERT
  5
708
100
AcDbEntity
  8
Ech.1_5
 62
     0
370
    -3
100
AcDbBlockReference
  2
*D58
 10
0.0
 20
0.0
 30
0.0
  0
ENDSEC
  0
SECTION
  2
OBJECTS
  0
DICTIONARY
  5
1
100
AcDbDictionary
  3
ACAD_GROUP
350
2
  3
ACAD_MLINESTYLE
350
3
  0
DICTIONARY
  5
2
102
{CDWK_REACTORS
330
1
102
}
100
AcDbDictionary
  0
DICTIONARY
  5
3
102
{CDWK_REACTORS
330
1
102
}
100
AcDbDictionary
  3
STANDARD
350
4
  0
MLINESTYLE
  5
4
102
{CDWK_REACTORS
330
3
102
}
100
AcDbMlineStyle
  2
STANDARD
 70
     0
  3

 62
     0
 51
90.0
 52
90.0
 71
     2
 49
0.5
 62
   256
  6
BYLAYER
 49
-0.5
 62
   256
  6
BYLAYER
  0
ENDSEC
  0
EOF
