  0
SECTION
  2
HEADER
  9
$ACADVER
  1
AC1014
  9
$DWGCODEPAGE
  3
ANSI_1252
  9
$INSBASE
 10
0.0
 20
0.0
 30
0.0
  9
$EXTMIN
 10
1033.98771282
 20
-21718.34332712
  9
$EXTMAX
 10
122326.07664696
 20
2240.3362527
  9
$LIMMIN
 10
1033.98771282
 20
-21718.34332712
  9
$LIMMAX
 10
122326.07664696
 20
2240.3362527
  9
$ORTHOMODE
 70
     0
  9
$REGENMODE
 70
     1
  9
$FILLMODE
 70
     1
  9
$QTEXTMODE
 70
     0
  9
$MIRRTEXT
 70
     1
  9
$DRAGMODE
 70
     2
  9
$LTSCALE
 40
5.0
  9
$OSMODE
 70
     0
  9
$ATTMODE
 70
     1
  9
$TEXTSIZE
 40
3.5
  9
$TRACEWID
 40
1.0
  9
$TEXTSTYLE
  7
STANDARD
  9
$CLAYER
  8
0
  9
$CELTYPE
  6
BYLAYER
  9
$CECOLOR
 62
   256
  9
$DIMSCALE
 40
1.0
  9
$DIMASZ
 40
2.0
  9
$DIMEXO
 40
5.0
  9
$DIMDLI
 40
10.0
  9
$DIMRND
 40
0.0
  9
$DIMDLE
 40
2.0
  9
$DIMEXE
 40
2.0
  9
$DIMTP
 40
0.0
  9
$DIMTM
 40
0.0
  9
$DIMTXT
 40
2.5
  9
$DIMCEN
 40
1.5
  9
$DIMTSZ
 40
0.0
  9
$DIMTOL
 70
     0
  9
$DIMLIM
 70
     0
  9
$DIMTIH
 70
     1
  9
$DIMTOH
 70
     0
  9
$DIMSE1
 70
     0
  9
$DIMSE2
 70
     0
  9
$DIMTAD
 70
     1
  9
$DIMZIN
 70
     8
  9
$DIMBLK
  1

  9
$DIMASO
 70
     1
  9
$DIMSHO
 70
     1
  9
$DIMPOST
  1

  9
$DIMAPOST
  1

  9
$DIMALT
 70
     0
  9
$DIMALTD
 70
     2
  9
$DIMALTF
 40
25.4
  9
$DIMLFAC
 40
1.0
  9
$DIMTOFL
 70
     0
  9
$DIMTVP
 40
0.0
  9
$DIMTIX
 70
     0
  9
$DIMSOXD
 70
     0
  9
$DIMSAH
 70
     0
  9
$DIMBLK1
  1

  9
$DIMBLK2
  1

  9
$DIMSTYLE
  2
*UNNAMED
  9
$DIMCLRD
 70
   190
  9
$DIMCLRE
 70
   190
  9
$DIMCLRT
 70
   190
  9
$DIMTFAC
 40
1.0
  9
$DIMGAP
 40
0.09
  9
$DIMUNIT
 70
     2
  9
$LUNITS
 70
     2
  9
$LUPREC
 70
     6
  9
$AXISMODE
 70
     0
  9
$AXISUNIT
 10
0.0
 20
0.0
  9
$SKETCHINC
 40
0.1
  9
$FILLETRAD
 40
0.0
  9
$AUNITS
 70
     0
  9
$AUPREC
 70
     0
  9
$MENU
  1
ACAD
  9
$ELEVATION
 40
0.0
  9
$PELEVATION
 40
0.0
  9
$THICKNESS
 40
0.0
  9
$LIMCHECK
 70
     0
  9
$BLIPMODE
 70
     1
  9
$CHAMFERA
 40
0.0
  9
$CHAMFERB
 40
0.0
  9
$SKPOLY
 70
     1
  9
$TDCREATE
 40
2457808.0000000000
  9
$TDUPDATE
 40
2457808.0000000000
  9
$TDINDWG
 40
0.0
  9
$TDUSRTIMER
 40
0.0
  9
$USRTIMER
 70
     1
  9
$ANGBASE
 50
0.0
  9
$ANGDIR
 70
     0
  9
$PDMODE
 70
     0
  9
$PDSIZE
 40
0.0
  9
$PLINEWID
 40
0.0
  9
$COORDS
 70
     2
  9
$SPLFRAME
 70
     0
  9
$SPLINETYPE
 70
     6
  9
$SPLINESEGS
 70
     8
  9
$ATTDIA
 70
     1
  9
$ATTREQ
 70
     1
  9
$HANDLING
 70
     1
  9
$HANDSEED
  5
     920
  9
$SURFTAB1
 70
     6
  9
$SURFTAB2
 70
     6
  9
$SURFTYPE
 70
     6
  9
$SURFU
 70
     6
  9
$SURFV
 70
     6
  9
$UCSNAME
  2

  9
$UCSORG
 10
0.0
 20
0.0
 30
0.0
  9
$UCSXDIR
 10
1.0
 20
0.0
 30
0.0
  9
$UCSYDIR
 10
0.0
 20
1.0
 30
0.0
  9
$PUCSNAME
  2

  9
$PUCSORG
 10
0.0
 20
0.0
 30
0.0
  9
$PUCSXDIR
 10
1.0
 20
0.0
 30
0.0
  9
$PUCSYDIR
 10
0.0
 20
1.0
 30
0.0
  9
$USERI1
 70
     0
  9
$USERI2
 70
     0
  9
$USERI3
 70
     0
  9
$USERI4
 70
     0
  9
$USERI5
 70
     0
  9
$USERR1
 40
0.0
  9
$USERR2
 40
0.0
  9
$USERR3
 40
0.0
  9
$USERR4
 40
0.0
  9
$USERR5
 40
0.0
  9
$WORLDVIEW
 70
     1
  9
$SHADEDGE
 70
     3
  9
$SHADEDIF
 70
    70
  9
$TILEMODE
 70
     1
  9
$MAXACTVP
 70
    16
  9
$PINSBASE
 10
0.0
 20
0.0
 30
0.0
  9
$PLIMCHECK
 70
     0
  9
$PEXTMIN
 10
1.0000000000000E+20
 20
1.0000000000000E+20
 30
1.0000000000000E+20
  9
$PEXTMAX
 10
-1.0000000000000E+20
 20
-1.0000000000000E+20
 30
-1.0000000000000E+20
  9
$PLIMMIN
 10
0.0
 20
0.0
  9
$UNITMODE
 70
     0
  9
$VISRETAIN
 70
     0
  9
$MEASUREMENT
 70
     1
  0
ENDSEC
  0
SECTION
  2
TABLES
  0
TABLE
  2
VPORT
  5
4A2
100
AcDbSymbolTable
 70
     1
  0
ENDTAB
  0
TABLE
  2
STYLE
  5
4A3
100
AcDbSymbolTable
 70
     3
  0
STYLE
  5
4A4
100
AcDbSymbolTableRecord
100
AcDbTextStyleTableRecord
  2
STANDARD
 70
     0
 40
0.0
 41
1.0
 50
0.0
 71
     0
 42
3.5
  3
MONOTXT
  4

  0
STYLE
  5
4A5
100
AcDbSymbolTableRecord
100
AcDbTextStyleTableRecord
  2
SYMAP
 70
     0
 40
0.0
 41
1.0
 50
0.0
 71
     0
 42
3.5
  3
SYMAP
  4

  0
STYLE
  5
4A6
100
AcDbSymbolTableRecord
100
AcDbTextStyleTableRecord
  2
CADWORK1
 70
     0
 40
0.0
 41
1.0
 50
0.0
 71
     0
 42
3.5
  3
MONOTXT
  4

  0
STYLE
  5
4A7
100
AcDbSymbolTableRecord
100
AcDbTextStyleTableRecord
  2
MONOTXT
 70
     0
 40
0.0
 41
1.0
 50
0.0
 71
     0
 42
3.5
  3
MONOTXT
  4

  0
STYLE
  5
4A8
100
AcDbSymbolTableRecord
100
AcDbTextStyleTableRecord
  2
ARIAL
 70
     0
 40
0.0
 41
1.0
 50
0.0
 71
     0
 42
3.5
  3

  4

1001
ACAD
1000
Arial
1071
        0
  0
ENDTAB
  0
TABLE
  2
LTYPE
  5
4A9
100
AcDbSymbolTable
 70
    15
  0
LTYPE
  5
4AA
100
AcDbSymbolTableRecord
100
AcDbLinetypeTableRecord
  2
BYBLOCK
 70
    64
  3

 72
    65
 73
     0
 40
0.0
  0
LTYPE
  5
4AB
100
AcDbSymbolTableRecord
100
AcDbLinetypeTableRecord
  2
BYLAYER
 70
    64
  3

 72
    65
 73
     0
 40
0.0
  0
LTYPE
  5
4AC
100
AcDbSymbolTableRecord
100
AcDbLinetypeTableRecord
  2
CONTINUOUS
 70
    64
  3
Solid line
 72
    65
 73
     0
 40
0.0
  0
LTYPE
  5
4AD
100
AcDbSymbolTableRecord
100
AcDbLinetypeTableRecord
  2
DOT2
 70
    64
  3
...............................................
 72
    65
 73
     2
 40
1.25
 49
0.0
 74
     0
 49
-1.25
 74
     0
  0
LTYPE
  5
4AE
100
AcDbSymbolTableRecord
100
AcDbLinetypeTableRecord
  2
CADWORK_13
 70
    64
  3
13 =======================================
 72
    65
 73
     2
 40
4.0
 49
2.0
 74
     0
 49
-2.0
 74
     0
  0
LTYPE
  5
4AF
100
AcDbSymbolTableRecord
100
AcDbLinetypeTableRecord
  2
DASHDOT
 70
    64
  3
 __ . __ . __ . __ . __ . __ . __ . __ . __ . __
 72
    65
 73
     4
 40
10.0
 49
5.0
 74
     0
 49
-2.5
 74
     0
 49
0.0
 74
     0
 49
-2.5
 74
     0
  0
LTYPE
  5
4B0
100
AcDbSymbolTableRecord
100
AcDbLinetypeTableRecord
  2
CENTER
 70
    64
  3
 ____ _ ____ _ ____ _ ____ _ ____ _ ____ _ ____
 72
    65
 73
     4
 40
20.0
 49
12.5
 74
     0
 49
-2.5
 74
     0
 49
2.5
 74
     0
 49
-2.5
 74
     0
  0
LTYPE
  5
4B1
100
AcDbSymbolTableRecord
100
AcDbLinetypeTableRecord
  2
DASHEDX2
 70
    64
  3
____  ____  ____  ____  ____  ____  ____  ____
 72
    65
 73
     2
 40
3.75
 49
2.5
 74
     0
 49
-1.25
 74
     0
  0
LTYPE
  5
4B2
100
AcDbSymbolTableRecord
100
AcDbLinetypeTableRecord
  2
CADWORK_22
 70
    64
  3
22 =======================================
 72
    65
 73
     0
 40
0.0
  0
LTYPE
  5
4B3
100
AcDbSymbolTableRecord
100
AcDbLinetypeTableRecord
  2
DAL
 70
    64
  3
Solid line (for MAPS)
 72
    65
 73
     0
 40
0.0
  0
LTYPE
  5
4B4
100
AcDbSymbolTableRecord
100
AcDbLinetypeTableRecord
  2
MUR
 70
    64
  3
Solid line (for MAPS)
 72
    65
 73
     0
 40
0.0
  0
LTYPE
  5
4B5
100
AcDbSymbolTableRecord
100
AcDbLinetypeTableRecord
  2
SOM
 70
    64
  3
Solid line (for MAPS)
 72
    65
 73
     0
 40
0.0
  0
LTYPE
  5
4B6
100
AcDbSymbolTableRecord
100
AcDbLinetypeTableRecord
  2
COL
 70
    64
  3
Solid line (for MAPS)
 72
    65
 73
     0
 40
0.0
  0
LTYPE
  5
4B7
100
AcDbSymbolTableRecord
100
AcDbLinetypeTableRecord
  2
LGN
 70
    64
  3
Solid line (for MAPS)
 72
    65
 73
     0
 40
0.0
  0
LTYPE
  5
4B8
100
AcDbSymbolTableRecord
100
AcDbLinetypeTableRecord
  2
PNT
 70
    64
  3
Solid line (for MAPS)
 72
    65
 73
     0
 40
0.0
  0
ENDTAB
  0
TABLE
  2
LAYER
  5
4B9
100
AcDbSymbolTable
 70
    32
  0
LAYER
  5
4BA
100
AcDbSymbolTableRecord
100
AcDbLayerTableRecord
  2
Standard
 70
     0
 62
     7
  6
CONTINUOUS
370
    -3
  0
LAYER
  5
4BB
100
AcDbSymbolTableRecord
100
AcDbLayerTableRecord
  2
Ech.1_1
 70
     0
 62
     7
  6
CONTINUOUS
370
    -3
  0
LAYER
  5
4BC
100
AcDbSymbolTableRecord
100
AcDbLayerTableRecord
  2
Ech.1_2
 70
     0
 62
     7
  6
CONTINUOUS
370
    -3
  0
LAYER
  5
4BD
100
AcDbSymbolTableRecord
100
AcDbLayerTableRecord
  2
Ech.1_5
 70
     0
 62
     7
  6
CONTINUOUS
370
    -3
  0
LAYER
  5
4BE
100
AcDbSymbolTableRecord
100
AcDbLayerTableRecord
  2
Ech.1_10
 70
     0
 62
     7
  6
CONTINUOUS
370
    -3
  0
LAYER
  5
4BF
100
AcDbSymbolTableRecord
100
AcDbLayerTableRecord
  2
Ech.1_20
 70
     0
 62
     7
  6
CONTINUOUS
370
    -3
  0
LAYER
  5
4C0
100
AcDbSymbolTableRecord
100
AcDbLayerTableRecord
  2
Ech.1_25
 70
     0
 62
     7
  6
CONTINUOUS
370
    -3
  0
LAYER
  5
4C1
100
AcDbSymbolTableRecord
100
AcDbLayerTableRecord
  2
Ech.1_33
 70
     0
 62
     7
  6
CONTINUOUS
370
    -3
  0
LAYER
  5
4C2
100
AcDbSymbolTableRecord
100
AcDbLayerTableRecord
  2
Ech.1_50
 70
     0
 62
     7
  6
CONTINUOUS
370
    -3
  0
LAYER
  5
4C3
100
AcDbSymbolTableRecord
100
AcDbLayerTableRecord
  2
Ech.1_75
 70
     0
 62
     7
  6
CONTINUOUS
370
    -3
  0
LAYER
  5
4C4
100
AcDbSymbolTableRecord
100
AcDbLayerTableRecord
  2
Ech.1_100
 70
     0
 62
     7
  6
CONTINUOUS
370
    -3
  0
LAYER
  5
4C5
100
AcDbSymbolTableRecord
100
AcDbLayerTableRecord
  2
Ech.1_200
 70
     0
 62
     7
  6
CONTINUOUS
370
    -3
  0
LAYER
  5
4C6
100
AcDbSymbolTableRecord
100
AcDbLayerTableRecord
  2
Ech.1_500
 70
     0
 62
     7
  6
CONTINUOUS
370
    -3
  0
LAYER
  5
4C7
100
AcDbSymbolTableRecord
100
AcDbLayerTableRecord
  2
Ech.1_1000
 70
     0
 62
     7
  6
CONTINUOUS
370
    -3
  0
LAYER
  5
4C8
100
AcDbSymbolTableRecord
100
AcDbLayerTableRecord
  2
Cadres traceur
 70
     0
 62
     7
  6
CONTINUOUS
370
    18
  0
LAYER
  5
4C9
100
AcDbSymbolTableRecord
100
AcDbLayerTableRecord
  2
Cadres laser
 70
     0
 62
     7
  6
CONTINUOUS
370
    18
  0
LAYER
  5
4CA
100
AcDbSymbolTableRecord
100
AcDbLayerTableRecord
  2
Légende d_aide
 70
     0
 62
     7
  6
CONTINUOUS
370
    18
  0
LAYER
  5
4CB
100
AcDbSymbolTableRecord
100
AcDbLayerTableRecord
  2
hachures ok
 70
     0
 62
     7
  6
CONTINUOUS
370
    18
  0
LAYER
  5
4CC
100
AcDbSymbolTableRecord
100
AcDbLayerTableRecord
  2
ossature bois
 70
     0
 62
     7
  6
CONTINUOUS
370
    18
  0
LAYER
  5
4CD
100
AcDbSymbolTableRecord
100
AcDbLayerTableRecord
  2
VR
 70
     0
 62
     7
  6
CONTINUOUS
370
    25
  0
LAYER
  5
4CE
100
AcDbSymbolTableRecord
100
AcDbLayerTableRecord
  2
Calque1
 70
     0
 62
     7
  6
CONTINUOUS
370
     9
  0
LAYER
  5
4CF
100
AcDbSymbolTableRecord
100
AcDbLayerTableRecord
  2
0
 70
     0
 62
     7
  6
CONTINUOUS
370
    -3
  0
LAYER
  5
4D0
100
AcDbSymbolTableRecord
100
AcDbLayerTableRecord
  2
menuiserie
 70
     0
 62
     7
  6
CONTINUOUS
370
    -3
  0
LAYER
  5
4D1
100
AcDbSymbolTableRecord
100
AcDbLayerTableRecord
  2
cotation
 70
     0
 62
   250
  6
CONTINUOUS
370
     9
  0
LAYER
  5
4D2
100
AcDbSymbolTableRecord
100
AcDbLayerTableRecord
  2
Defpoints
 70
     0
 62
    10
  6
CONTINUOUS
370
    -3
  0
LAYER
  5
4D3
100
AcDbSymbolTableRecord
100
AcDbLayerTableRecord
  2
HACHURE
 70
     0
 62
   254
  6
CONTINUOUS
370
    25
  0
LAYER
  5
4D4
100
AcDbSymbolTableRecord
100
AcDbLayerTableRecord
  2
mat1
 70
     0
 62
     7
  6
CONTINUOUS
370
    30
  0
LAYER
  5
4D5
100
AcDbSymbolTableRecord
100
AcDbLayerTableRecord
  2
mat2
 70
     0
 62
     7
  6
CONTINUOUS
370
     5
  0
LAYER
  5
4D6
100
AcDbSymbolTableRecord
100
AcDbLayerTableRecord
  2
hach
 70
     0
 62
     8
  6
CONTINUOUS
370
     5
  0
LAYER
  5
4D7
100
AcDbSymbolTableRecord
100
AcDbLayerTableRecord
  2
menuiseries
 70
     0
 62
     7
  6
CONTINUOUS
370
     9
  0
LAYER
  5
4D8
100
AcDbSymbolTableRecord
100
AcDbLayerTableRecord
  2
BétonMétal
 70
     0
 62
     7
  6
CONTINUOUS
370
    80
  0
LAYER
  5
4D9
100
AcDbSymbolTableRecord
100
AcDbLayerTableRecord
  2
bois
 70
     0
 62
     7
  6
CONTINUOUS
370
    60
  0
ENDTAB
  0
TABLE
  2
VIEW
  5
4DA
100
AcDbSymbolTable
 70
     0
  0
ENDTAB
  0
TABLE
  2
UCS
  5
4DB
100
AcDbSymbolTable
 70
     0
  0
ENDTAB
  0
TABLE
  2
APPID
  5
4DC
100
AcDbSymbolTable
 70
     1
  0
APPID
  5
4DD
100
AcDbSymbolTableRecord
100
AcDbRegAppTableRecord
  2
ACAD
 70
     0
  0
ENDTAB
  0
TABLE
  2
DIMSTYLE
  5
4DE
100
AcDbSymbolTable
 70
     0
  0
ENDTAB
  0
TABLE
  2
BLOCK_RECORD
  5
4DF
100
AcDbSymbolTable
 70
     0
  0
BLOCK_RECORD
  5
4E0
100
AcDbSymbolTableRecord
100
AcDbBlockTableRecord
  2
*MODEL_SPACE
  0
BLOCK_RECORD
  5
4E1
100
AcDbSymbolTableRecord
100
AcDbBlockTableRecord
  2
*PAPER_SPACE
  0
BLOCK_RECORD
  5
4E2
100
AcDbSymbolTableRecord
100
AcDbBlockTableRecord
  2
CDWK_EXTR_0
  0
BLOCK_RECORD
  5
4E3
100
AcDbSymbolTableRecord
100
AcDbBlockTableRecord
  2
CDWK_EXTR_1D
  0
BLOCK_RECORD
  5
4E4
100
AcDbSymbolTableRecord
100
AcDbBlockTableRecord
  2
CDWK_EXTR_1G
  0
BLOCK_RECORD
  5
4E5
100
AcDbSymbolTableRecord
100
AcDbBlockTableRecord
  2
CDWK_EXTR_2
  0
BLOCK_RECORD
  5
4E6
100
AcDbSymbolTableRecord
100
AcDbBlockTableRecord
  2
CDWK_EXTR_3
  0
BLOCK_RECORD
  5
4E7
100
AcDbSymbolTableRecord
100
AcDbBlockTableRecord
  2
CDWK_EXTR_4
  0
BLOCK_RECORD
  5
4E8
100
AcDbSymbolTableRecord
100
AcDbBlockTableRecord
  2
CDWK_PTTYP0
  0
BLOCK_RECORD
  5
4E9
100
AcDbSymbolTableRecord
100
AcDbBlockTableRecord
  2
CDWK_PTTYP1
  0
BLOCK_RECORD
  5
4EA
100
AcDbSymbolTableRecord
100
AcDbBlockTableRecord
  2
CDWK_PTTYP2
  0
BLOCK_RECORD
  5
4EB
100
AcDbSymbolTableRecord
100
AcDbBlockTableRecord
  2
CDWK_PTTYP3
  0
BLOCK_RECORD
  5
4EC
100
AcDbSymbolTableRecord
100
AcDbBlockTableRecord
  2
CDWK_PTTYP4
  0
BLOCK_RECORD
  5
4ED
100
AcDbSymbolTableRecord
100
AcDbBlockTableRecord
  2
CDWK_PTTYP5
  0
BLOCK_RECORD
  5
4EE
100
AcDbSymbolTableRecord
100
AcDbBlockTableRecord
  2
CDWK_PTTYP6
  0
BLOCK_RECORD
  5
4EF
100
AcDbSymbolTableRecord
100
AcDbBlockTableRecord
  2
CDWK_PTTYP7
  0
BLOCK_RECORD
  5
4F0
100
AcDbSymbolTableRecord
100
AcDbBlockTableRecord
  2
CDWK_PTTYP8
  0
BLOCK_RECORD
  5
4F1
100
AcDbSymbolTableRecord
100
AcDbBlockTableRecord
  2
CDWK_PTTYP9
  0
BLOCK_RECORD
  5
4F2
100
AcDbSymbolTableRecord
100
AcDbBlockTableRecord
  2
CDWK_PTTYP10
  0
BLOCK_RECORD
  5
4F3
100
AcDbSymbolTableRecord
100
AcDbBlockTableRecord
  2
CDWK_PTTYP11
  0
BLOCK_RECORD
  5
4F4
100
AcDbSymbolTableRecord
100
AcDbBlockTableRecord
  2
CDWK_PTTYP12
  0
BLOCK_RECORD
  5
4F5
100
AcDbSymbolTableRecord
100
AcDbBlockTableRecord
  2
CDWK_PTTYP13
  0
BLOCK_RECORD
  5
4F6
100
AcDbSymbolTableRecord
100
AcDbBlockTableRecord
  2
CDWK_PTTYP14
  0
BLOCK_RECORD
  5
4F7
100
AcDbSymbolTableRecord
100
AcDbBlockTableRecord
  2
CDWK_PTTYP15
  0
BLOCK_RECORD
  5
4F8
100
AcDbSymbolTableRecord
100
AcDbBlockTableRecord
  2
CDWK_PTTYP16
  0
BLOCK_RECORD
  5
4F9
100
AcDbSymbolTableRecord
100
AcDbBlockTableRecord
  2
CDWK_PTTYP17
  0
BLOCK_RECORD
  5
4FA
100
AcDbSymbolTableRecord
100
AcDbBlockTableRecord
  2
CDWK_PTTYP18
  0
BLOCK_RECORD
  5
4FB
100
AcDbSymbolTableRecord
100
AcDbBlockTableRecord
  2
CDWK_PTTYP19
  0
BLOCK_RECORD
  5
4FC
100
AcDbSymbolTableRecord
100
AcDbBlockTableRecord
  2
CDWK_PTTYP20
  0
BLOCK_RECORD
  5
4FD
100
AcDbSymbolTableRecord
100
AcDbBlockTableRecord
  2
CDWK_PTTYP21
  0
BLOCK_RECORD
  5
4FE
100
AcDbSymbolTableRecord
100
AcDbBlockTableRecord
  2
CDWK_PTTYP22
  0
BLOCK_RECORD
  5
4FF
100
AcDbSymbolTableRecord
100
AcDbBlockTableRecord
  2
CDWK_PTTYP23
  0
BLOCK_RECORD
  5
500
100
AcDbSymbolTableRecord
100
AcDbBlockTableRecord
  2
CDWK_PTTYP24
  0
BLOCK_RECORD
  5
501
100
AcDbSymbolTableRecord
100
AcDbBlockTableRecord
  2
CDWK_PTTYP25
  0
BLOCK_RECORD
  5
502
100
AcDbSymbolTableRecord
100
AcDbBlockTableRecord
  2
CDWK_PTTYP26
  0
BLOCK_RECORD
  5
503
100
AcDbSymbolTableRecord
100
AcDbBlockTableRecord
  2
CDWK_PTTYP27
  0
BLOCK_RECORD
  5
504
100
AcDbSymbolTableRecord
100
AcDbBlockTableRecord
  2
CDWK_PTTYP28
  0
BLOCK_RECORD
  5
505
100
AcDbSymbolTableRecord
100
AcDbBlockTableRecord
  2
CDWK_PTTYP29
  0
BLOCK_RECORD
  5
506
100
AcDbSymbolTableRecord
100
AcDbBlockTableRecord
  2
CDWK_PTTYP30
  0
BLOCK_RECORD
  5
507
100
AcDbSymbolTableRecord
100
AcDbBlockTableRecord
  2
CDWK_PTTYP31
  0
BLOCK_RECORD
  5
508
100
AcDbSymbolTableRecord
100
AcDbBlockTableRecord
  2
CDWK_PTTYP32
  0
BLOCK_RECORD
  5
509
100
AcDbSymbolTableRecord
100
AcDbBlockTableRecord
  2
CDWK_PTTYP33
  0
BLOCK_RECORD
  5
50A
100
AcDbSymbolTableRecord
100
AcDbBlockTableRecord
  2
CDWK_PTTYP34
  0
BLOCK_RECORD
  5
50B
100
AcDbSymbolTableRecord
100
AcDbBlockTableRecord
  2
CDWK_PTTYP35
  0
BLOCK_RECORD
  5
50C
100
AcDbSymbolTableRecord
100
AcDbBlockTableRecord
  2
CDWK_PTTYP36
  0
BLOCK_RECORD
  5
50D
100
AcDbSymbolTableRecord
100
AcDbBlockTableRecord
  2
CDWK_PTTYP37
  0
BLOCK_RECORD
  5
50E
100
AcDbSymbolTableRecord
100
AcDbBlockTableRecord
  2
CDWK_PTTYP38
  0
BLOCK_RECORD
  5
50F
100
AcDbSymbolTableRecord
100
AcDbBlockTableRecord
  2
*X1
  0
BLOCK_RECORD
  5
510
100
AcDbSymbolTableRecord
100
AcDbBlockTableRecord
  2
*X2
  0
BLOCK_RECORD
  5
511
100
AcDbSymbolTableRecord
100
AcDbBlockTableRecord
  2
*X3
  0
BLOCK_RECORD
  5
512
100
AcDbSymbolTableRecord
100
AcDbBlockTableRecord
  2
*X4
  0
BLOCK_RECORD
  5
513
100
AcDbSymbolTableRecord
100
AcDbBlockTableRecord
  2
*X5
  0
BLOCK_RECORD
  5
514
100
AcDbSymbolTableRecord
100
AcDbBlockTableRecord
  2
*X6
  0
BLOCK_RECORD
  5
515
100
AcDbSymbolTableRecord
100
AcDbBlockTableRecord
  2
*X7
  0
BLOCK_RECORD
  5
516
100
AcDbSymbolTableRecord
100
AcDbBlockTableRecord
  2
*X8
  0
BLOCK_RECORD
  5
517
100
AcDbSymbolTableRecord
100
AcDbBlockTableRecord
  2
*D65
  0
ENDTAB
  0
ENDSEC
  0
SECTION
  2
BLOCKS
  0
BLOCK
  5
518
100
AcDbEntity
  8
0
100
AcDbBlockBegin
  2
*MODEL_SPACE
 70
     0
 10
0.0
 20
0.0
 30
0.0
  3
*MODEL_SPACE
  1

  0
ENDBLK
  5
519
100
AcDbEntity
100
AcDbBlockEnd
  0
BLOCK
  5
51A
100
AcDbEntity
  8
0
100
AcDbBlockBegin
  2
*PAPER_SPACE
 70
     0
 10
0.0
 20
0.0
 30
0.0
  3
*PAPER_SPACE
  1

  0
ENDBLK
  5
51B
100
AcDbEntity
100
AcDbBlockEnd
  0
BLOCK
  5
51C
100
AcDbEntity
  8
0
100
AcDbBlockBegin
  2
CDWK_EXTR_0
 70
     0
 10
0.0
 20
0.0
 30
0.0
  3
CDWK_EXTR_0
  1

  4
Cadwork line-extremity
  0
LINE
  5
51D
100
AcDbEntity
  8
0
 62
     0
370
    -2
100
AcDbLine
 10
0.0
 20
0.0
 30
0.0
 11
2.0
 21
0.5
 31
0.0
  0
LINE
  5
51E
100
AcDbEntity
  8
0
 62
     0
370
    -2
100
AcDbLine
 10
0.0
 20
0.0
 30
0.0
 11
2.0
 21
-0.5
 31
0.0
  0
LINE
  5
51F
100
AcDbEntity
  8
0
 62
     0
370
    -2
100
AcDbLine
 10
2.0
 20
0.5
 30
0.0
 11
2.0
 21
-0.5
 31
0.0
  0
ENDBLK
  5
520
100
AcDbEntity
100
AcDbBlockEnd
  0
BLOCK
  5
521
100
AcDbEntity
  8
0
100
AcDbBlockBegin
  2
CDWK_EXTR_1D
 70
     0
 10
0.0
 20
0.0
 30
0.0
  3
CDWK_EXTR_1D
  1

  4
Cadwork line-extremity
  0
LINE
  5
522
100
AcDbEntity
  8
0
 62
     0
370
    -2
100
AcDbLine
 10
0.0
 20
0.0
 30
0.0
 11
0.0
 21
1.0
 31
0.0
  0
LINE
  5
523
100
AcDbEntity
  8
0
 62
     0
370
    -2
100
AcDbLine
 10
0.0
 20
1.0
 30
0.0
 11
0.5
 21
1.5
 31
0.0
  0
LINE
  5
524
100
AcDbEntity
  8
0
 62
     0
370
    -2
100
AcDbLine
 10
0.5
 20
1.5
 30
0.0
 11
1.5
 21
1.5
 31
0.0
  0
ENDBLK
  5
525
100
AcDbEntity
100
AcDbBlockEnd
  0
BLOCK
  5
526
100
AcDbEntity
  8
0
100
AcDbBlockBegin
  2
CDWK_EXTR_1G
 70
     0
 10
0.0
 20
0.0
 30
0.0
  3
CDWK_EXTR_1G
  1

  4
Cadwork line-extremity
  0
LINE
  5
527
100
AcDbEntity
  8
0
 62
     0
370
    -2
100
AcDbLine
 10
0.0
 20
0.0
 30
0.0
 11
0.0
 21
-1.0
 31
0.0
  0
LINE
  5
528
100
AcDbEntity
  8
0
 62
     0
370
    -2
100
AcDbLine
 10
0.0
 20
-1.0
 30
0.0
 11
0.5
 21
-1.5
 31
0.0
  0
LINE
  5
529
100
AcDbEntity
  8
0
 62
     0
370
    -2
100
AcDbLine
 10
0.5
 20
-1.5
 30
0.0
 11
1.5
 21
-1.5
 31
0.0
  0
ENDBLK
  5
52A
100
AcDbEntity
100
AcDbBlockEnd
  0
BLOCK
  5
52B
100
AcDbEntity
  8
0
100
AcDbBlockBegin
  2
CDWK_EXTR_2
 70
     0
 10
0.0
 20
0.0
 30
0.0
  3
CDWK_EXTR_2
  1

  4
Cadwork line-extremity
  0
SOLID
  5
52C
100
AcDbEntity
  8
0
 62
     0
100
AcDbTrace
 10
0.0
 20
0.0
 11
2.0
 21
0.5
 12
2.0
 22
-0.5
 13
2.0
 23
-0.5
  0
ENDBLK
  5
52D
100
AcDbEntity
100
AcDbBlockEnd
  0
BLOCK
  5
52E
100
AcDbEntity
  8
0
100
AcDbBlockBegin
  2
CDWK_EXTR_3
 70
     0
 10
0.0
 20
0.0
 30
0.0
  3
CDWK_EXTR_3
  1

  4
Cadwork line-extremity
  0
SOLID
  5
52F
100
AcDbEntity
  8
0
 62
     0
100
AcDbTrace
 10
0.0
 20
0.0
 11
2.0
 21
0.5
 12
2.0
 22
-0.5
 13
2.0
 23
-0.5
  0
LINE
  5
530
100
AcDbEntity
  8
0
 62
     0
370
    -2
100
AcDbLine
 10
0.0
 20
1.0
 30
0.0
 11
0.0
 21
-1.0
 31
0.0
  0
ENDBLK
  5
531
100
AcDbEntity
100
AcDbBlockEnd
  0
BLOCK
  5
532
100
AcDbEntity
  8
0
100
AcDbBlockBegin
  2
CDWK_EXTR_4
 70
     0
 10
0.0
 20
0.0
 30
0.0
  3
CDWK_EXTR_4
  1

  4
Cadwork line-extremity
  0
HATCH
  5
533
100
AcDbEntity
  8
0
 62
     0
370
    -2
100
AcDbHatch
 10
0.0
 20
0.0
 30
0.0
210
0.0
220
0.0
230
1.0
  2
SOLID
 70
     1
 71
     0
 91
        1
 92
        1
 93
        1
 72
     2
 10
0.0
 20
0.0
 40
0.5
 50
0.0
 51
360.0
 73
     1
 97
        0
 75
     0
 76
     1
 98
        1
 10
0.0
 20
0.0
  0
ENDBLK
  5
534
100
AcDbEntity
100
AcDbBlockEnd
  0
BLOCK
  5
535
100
AcDbEntity
  8
0
100
AcDbBlockBegin
  2
CDWK_PTTYP0
 70
     0
 10
0.0
 20
0.0
 30
0.0
  3
CDWK_PTTYP0
  1

  4
Cadwork point
  0
POINT
  5
536
100
AcDbEntity
  8
0
 62
     0
100
AcDbPoint
 10
0.0
 20
0.0
 30
0.0
  0
ENDBLK
  5
537
100
AcDbEntity
100
AcDbBlockEnd
  0
BLOCK
  5
538
100
AcDbEntity
  8
0
100
AcDbBlockBegin
  2
CDWK_PTTYP1
 70
     0
 10
0.0
 20
0.0
 30
0.0
  3
CDWK_PTTYP1
  1

  4
Cadwork node
  0
LINE
  5
539
100
AcDbEntity
  8
0
 62
     0
370
    -2
100
AcDbLine
 10
-0.5
 20
0.5
 30
0.0
 11
0.5
 21
0.5
 31
0.0
  0
LINE
  5
53A
100
AcDbEntity
  8
0
 62
     0
370
    -2
100
AcDbLine
 10
0.5
 20
0.5
 30
0.0
 11
0.5
 21
-0.5
 31
0.0
  0
LINE
  5
53B
100
AcDbEntity
  8
0
 62
     0
370
    -2
100
AcDbLine
 10
0.5
 20
-0.5
 30
0.0
 11
-0.5
 21
-0.5
 31
0.0
  0
LINE
  5
53C
100
AcDbEntity
  8
0
 62
     0
370
    -2
100
AcDbLine
 10
-0.5
 20
-0.5
 30
0.0
 11
-0.5
 21
0.5
 31
0.0
  0
ENDBLK
  5
53D
100
AcDbEntity
100
AcDbBlockEnd
  0
BLOCK
  5
53E
100
AcDbEntity
  8
0
100
AcDbBlockBegin
  2
CDWK_PTTYP2
 70
     0
 10
0.0
 20
0.0
 30
0.0
  3
CDWK_PTTYP2
  1

  4
Cadwork node
  0
LINE
  5
53F
100
AcDbEntity
  8
0
 62
     0
370
    -2
100
AcDbLine
 10
0.0
 20
0.5
 30
0.0
 11
0.0
 21
-0.5
 31
0.0
  0
LINE
  5
540
100
AcDbEntity
  8
0
 62
     0
370
    -2
100
AcDbLine
 10
-0.5
 20
0.0
 30
0.0
 11
0.5
 21
0.0
 31
0.0
  0
ENDBLK
  5
541
100
AcDbEntity
100
AcDbBlockEnd
  0
BLOCK
  5
542
100
AcDbEntity
  8
0
100
AcDbBlockBegin
  2
CDWK_PTTYP3
 70
     0
 10
0.0
 20
0.0
 30
0.0
  3
CDWK_PTTYP3
  1

  4
Cadwork node
  0
CIRCLE
  5
543
100
AcDbEntity
  8
0
 62
     0
370
    -2
100
AcDbCircle
 10
0.0
 20
0.0
 30
0.0
 40
0.5
  0
ENDBLK
  5
544
100
AcDbEntity
100
AcDbBlockEnd
  0
BLOCK
  5
545
100
AcDbEntity
  8
0
100
AcDbBlockBegin
  2
CDWK_PTTYP4
 70
     0
 10
0.0
 20
0.0
 30
0.0
  3
CDWK_PTTYP4
  1

  4
Cadwork node
  0
HATCH
  5
546
100
AcDbEntity
  8
0
 62
     0
370
    -2
100
AcDbHatch
 10
0.0
 20
0.0
 30
0.0
210
0.0
220
0.0
230
1.0
  2
SOLID
 70
     1
 71
     0
 91
        1
 92
        1
 93
        1
 72
     2
 10
0.0
 20
0.0
 40
0.5
 50
0.0
 51
360.0
 73
     1
 97
        0
 75
     0
 76
     1
 98
        1
 10
0.0
 20
0.0
  0
ENDBLK
  5
547
100
AcDbEntity
100
AcDbBlockEnd
  0
BLOCK
  5
548
100
AcDbEntity
  8
0
100
AcDbBlockBegin
  2
CDWK_PTTYP5
 70
     0
 10
0.0
 20
0.0
 30
0.0
  3
CDWK_PTTYP5
  1

  4
Cadwork node
  0
LINE
  5
549
100
AcDbEntity
  8
0
 62
     0
370
    -2
100
AcDbLine
 10
-0.5
 20
0.5
 30
0.0
 11
0.5
 21
0.5
 31
0.0
  0
LINE
  5
54A
100
AcDbEntity
  8
0
 62
     0
370
    -2
100
AcDbLine
 10
0.5
 20
0.5
 30
0.0
 11
0.5
 21
-0.5
 31
0.0
  0
LINE
  5
54B
100
AcDbEntity
  8
0
 62
     0
370
    -2
100
AcDbLine
 10
0.5
 20
-0.5
 30
0.0
 11
-0.5
 21
-0.5
 31
0.0
  0
LINE
  5
54C
100
AcDbEntity
  8
0
 62
     0
370
    -2
100
AcDbLine
 10
-0.5
 20
-0.5
 30
0.0
 11
-0.5
 21
0.5
 31
0.0
  0
SOLID
  5
54D
100
AcDbEntity
  8
0
 62
     0
100
AcDbTrace
 10
-0.5
 20
-0.5
 11
-0.5
 21
0.0
 12
0.0
 22
-0.5
 13
0.0
 23
0.0
  0
SOLID
  5
54E
100
AcDbEntity
  8
0
 62
     0
100
AcDbTrace
 10
0.0
 20
0.0
 11
0.0
 21
0.5
 12
0.5
 22
0.0
 13
0.5
 23
0.5
  0
ENDBLK
  5
54F
100
AcDbEntity
100
AcDbBlockEnd
  0
BLOCK
  5
550
100
AcDbEntity
  8
0
100
AcDbBlockBegin
  2
CDWK_PTTYP6
 70
     0
 10
0.0
 20
0.0
 30
0.0
  3
CDWK_PTTYP6
  1

  4
Cadwork node
  0
LINE
  5
551
100
AcDbEntity
  8
0
 62
     0
370
    -2
100
AcDbLine
 10
-0.5
 20
0.5
 30
0.0
 11
0.5
 21
0.5
 31
0.0
  0
LINE
  5
552
100
AcDbEntity
  8
0
 62
     0
370
    -2
100
AcDbLine
 10
0.5
 20
0.5
 30
0.0
 11
0.5
 21
-0.5
 31
0.0
  0
LINE
  5
553
100
AcDbEntity
  8
0
 62
     0
370
    -2
100
AcDbLine
 10
0.5
 20
-0.5
 30
0.0
 11
-0.5
 21
-0.5
 31
0.0
  0
LINE
  5
554
100
AcDbEntity
  8
0
 62
     0
370
    -2
100
AcDbLine
 10
-0.5
 20
-0.5
 30
0.0
 11
-0.5
 21
0.5
 31
0.0
  0
SOLID
  5
555
100
AcDbEntity
  8
0
 62
     0
100
AcDbTrace
 10
-0.5
 20
-0.5
 11
-0.5
 21
0.5
 12
0.5
 22
0.5
 13
0.5
 23
0.5
  0
ENDBLK
  5
556
100
AcDbEntity
100
AcDbBlockEnd
  0
BLOCK
  5
557
100
AcDbEntity
  8
0
100
AcDbBlockBegin
  2
CDWK_PTTYP7
 70
     0
 10
0.0
 20
0.0
 30
0.0
  3
CDWK_PTTYP7
  1

  4
Cadwork node
  0
LINE
  5
558
100
AcDbEntity
  8
0
 62
     0
370
    -2
100
AcDbLine
 10
-0.5
 20
0.5
 30
0.0
 11
0.5
 21
0.5
 31
0.0
  0
LINE
  5
559
100
AcDbEntity
  8
0
 62
     0
370
    -2
100
AcDbLine
 10
0.5
 20
0.5
 30
0.0
 11
0.5
 21
-0.5
 31
0.0
  0
LINE
  5
55A
100
AcDbEntity
  8
0
 62
     0
370
    -2
100
AcDbLine
 10
0.5
 20
-0.5
 30
0.0
 11
-0.5
 21
-0.5
 31
0.0
  0
LINE
  5
55B
100
AcDbEntity
  8
0
 62
     0
370
    -2
100
AcDbLine
 10
-0.5
 20
-0.5
 30
0.0
 11
-0.5
 21
0.5
 31
0.0
  0
LINE
  5
55C
100
AcDbEntity
  8
0
 62
     0
370
    -2
100
AcDbLine
 10
0.0
 20
0.5
 30
0.0
 11
0.0
 21
-0.5
 31
0.0
  0
LINE
  5
55D
100
AcDbEntity
  8
0
 62
     0
370
    -2
100
AcDbLine
 10
-0.5
 20
0.0
 30
0.0
 11
0.5
 21
0.0
 31
0.0
  0
ENDBLK
  5
55E
100
AcDbEntity
100
AcDbBlockEnd
  0
BLOCK
  5
55F
100
AcDbEntity
  8
0
100
AcDbBlockBegin
  2
CDWK_PTTYP8
 70
     0
 10
0.0
 20
0.0
 30
0.0
  3
CDWK_PTTYP8
  1

  4
Cadwork node
  0
SOLID
  5
560
100
AcDbEntity
  8
0
 62
     0
100
AcDbTrace
 10
-0.5
 20
0.5
 11
0.5
 21
0.5
 12
-0.5
 22
-0.5
 13
0.5
 23
-0.5
  0
ENDBLK
  5
561
100
AcDbEntity
100
AcDbBlockEnd
  0
BLOCK
  5
562
100
AcDbEntity
  8
0
100
AcDbBlockBegin
  2
CDWK_PTTYP9
 70
     0
 10
0.0
 20
0.0
 30
0.0
  3
CDWK_PTTYP9
  1

  4
Cadwork node
  0
CIRCLE
  5
563
100
AcDbEntity
  8
0
 62
     0
370
    -2
100
AcDbCircle
 10
0.0
 20
0.0
 30
0.0
 40
0.5
  0
CIRCLE
  5
564
100
AcDbEntity
  8
0
 62
     0
370
    -2
100
AcDbCircle
 10
0.0
 20
0.0
 30
0.0
 40
0.16666667
  0
ENDBLK
  5
565
100
AcDbEntity
100
AcDbBlockEnd
  0
BLOCK
  5
566
100
AcDbEntity
  8
0
100
AcDbBlockBegin
  2
CDWK_PTTYP10
 70
     0
 10
0.0
 20
0.0
 30
0.0
  3
CDWK_PTTYP10
  1

  4
Cadwork node
  0
CIRCLE
  5
567
100
AcDbEntity
  8
0
 62
     0
370
    -2
100
AcDbCircle
 10
0.0
 20
0.0
 30
0.0
 40
0.5
  0
ENDBLK
  5
568
100
AcDbEntity
100
AcDbBlockEnd
  0
BLOCK
  5
569
100
AcDbEntity
  8
0
100
AcDbBlockBegin
  2
CDWK_PTTYP11
 70
     0
 10
0.0
 20
0.0
 30
0.0
  3
CDWK_PTTYP11
  1

  4
Cadwork node
  0
CIRCLE
  5
56A
100
AcDbEntity
  8
0
 62
     0
370
    -2
100
AcDbCircle
 10
0.0
 20
0.0
 30
0.0
 40
0.5
  0
CIRCLE
  5
56B
100
AcDbEntity
  8
0
 62
     0
370
    -2
100
AcDbCircle
 10
0.0
 20
0.0
 30
0.0
 40
0.25
  0
ENDBLK
  5
56C
100
AcDbEntity
100
AcDbBlockEnd
  0
BLOCK
  5
56D
100
AcDbEntity
  8
0
100
AcDbBlockBegin
  2
CDWK_PTTYP12
 70
     0
 10
0.0
 20
0.0
 30
0.0
  3
CDWK_PTTYP12
  1

  4
Cadwork node
  0
CIRCLE
  5
56E
100
AcDbEntity
  8
0
 62
     0
370
    -2
100
AcDbCircle
 10
0.0
 20
0.0
 30
0.0
 40
0.5
  0
CIRCLE
  5
56F
100
AcDbEntity
  8
0
 62
     0
370
    -2
100
AcDbCircle
 10
0.25
 20
0.0
 30
0.0
 40
0.25
  0
ENDBLK
  5
570
100
AcDbEntity
100
AcDbBlockEnd
  0
BLOCK
  5
571
100
AcDbEntity
  8
0
100
AcDbBlockBegin
  2
CDWK_PTTYP13
 70
     0
 10
0.0
 20
0.0
 30
0.0
  3
CDWK_PTTYP13
  1

  4
Cadwork node
  0
CIRCLE
  5
572
100
AcDbEntity
  8
0
 62
     0
370
    -2
100
AcDbCircle
 10
0.0
 20
0.0
 30
0.0
 40
0.5
  0
CIRCLE
  5
573
100
AcDbEntity
  8
0
 62
     0
370
    -2
100
AcDbCircle
 10
0.25
 20
0.0
 30
0.0
 40
0.25
  0
CIRCLE
  5
574
100
AcDbEntity
  8
0
 62
     0
370
    -2
100
AcDbCircle
 10
-0.25
 20
0.0
 30
0.0
 40
0.25
  0
ENDBLK
  5
575
100
AcDbEntity
100
AcDbBlockEnd
  0
BLOCK
  5
576
100
AcDbEntity
  8
0
100
AcDbBlockBegin
  2
CDWK_PTTYP14
 70
     0
 10
0.0
 20
0.0
 30
0.0
  3
CDWK_PTTYP14
  1

  4
Cadwork node
  0
POINT
  5
577
100
AcDbEntity
  8
0
 62
     0
100
AcDbPoint
 10
0.0
 20
0.0
 30
0.0
  0
ENDBLK
  5
578
100
AcDbEntity
100
AcDbBlockEnd
  0
BLOCK
  5
579
100
AcDbEntity
  8
0
100
AcDbBlockBegin
  2
CDWK_PTTYP15
 70
     0
 10
0.0
 20
0.0
 30
0.0
  3
CDWK_PTTYP15
  1

  4
Cadwork node
  0
POINT
  5
57A
100
AcDbEntity
  8
0
 62
     0
100
AcDbPoint
 10
0.0
 20
0.0
 30
0.0
  0
ENDBLK
  5
57B
100
AcDbEntity
100
AcDbBlockEnd
  0
BLOCK
  5
57C
100
AcDbEntity
  8
0
100
AcDbBlockBegin
  2
CDWK_PTTYP16
 70
     0
 10
0.0
 20
0.0
 30
0.0
  3
CDWK_PTTYP16
  1

  4
Cadwork node
  0
LINE
  5
57D
100
AcDbEntity
  8
0
 62
     0
370
    -2
100
AcDbLine
 10
-0.5
 20
-0.28867513
 30
0.0
 11
0.5
 21
-0.28867513
 31
0.0
  0
LINE
  5
57E
100
AcDbEntity
  8
0
 62
     0
370
    -2
100
AcDbLine
 10
0.5
 20
-0.28867513
 30
0.0
 11
0.0
 21
0.57735027
 31
0.0
  0
LINE
  5
57F
100
AcDbEntity
  8
0
 62
     0
370
    -2
100
AcDbLine
 10
0.0
 20
0.57735027
 30
0.0
 11
-0.5
 21
-0.28867513
 31
0.0
  0
CIRCLE
  5
580
100
AcDbEntity
  8
0
 62
     0
370
    -2
100
AcDbCircle
 10
0.0
 20
0.0
 30
0.0
 40
0.28867513
  0
ENDBLK
  5
581
100
AcDbEntity
100
AcDbBlockEnd
  0
BLOCK
  5
582
100
AcDbEntity
  8
0
100
AcDbBlockBegin
  2
CDWK_PTTYP17
 70
     0
 10
0.0
 20
0.0
 30
0.0
  3
CDWK_PTTYP17
  1

  4
Cadwork node
  0
CIRCLE
  5
583
100
AcDbEntity
  8
0
 62
     0
370
    -2
100
AcDbCircle
 10
0.0
 20
0.0
 30
0.0
 40
0.5
  0
HATCH
  5
584
100
AcDbEntity
  8
0
 62
     0
370
    -2
100
AcDbHatch
 10
0.0
 20
0.0
 30
0.0
210
0.0
220
0.0
230
1.0
  2
SOLID
 70
     1
 71
     0
 91
        1
 92
        1
 93
        1
 72
     2
 10
0.0
 20
0.0
 40
0.25
 50
0.0
 51
360.0
 73
     1
 97
        0
 75
     0
 76
     1
 98
        1
 10
0.0
 20
0.0
  0
ENDBLK
  5
585
100
AcDbEntity
100
AcDbBlockEnd
  0
BLOCK
  5
586
100
AcDbEntity
  8
0
100
AcDbBlockBegin
  2
CDWK_PTTYP18
 70
     0
 10
0.0
 20
0.0
 30
0.0
  3
CDWK_PTTYP18
  1

  4
Cadwork node
  0
CIRCLE
  5
587
100
AcDbEntity
  8
0
 62
     0
370
    -2
100
AcDbCircle
 10
0.0
 20
0.0
 30
0.0
 40
0.5
  0
CIRCLE
  5
588
100
AcDbEntity
  8
0
 62
     0
370
    -2
100
AcDbCircle
 10
0.0
 20
0.0
 30
0.0
 40
0.2
  0
ENDBLK
  5
589
100
AcDbEntity
100
AcDbBlockEnd
  0
BLOCK
  5
58A
100
AcDbEntity
  8
0
100
AcDbBlockBegin
  2
CDWK_PTTYP19
 70
     0
 10
0.0
 20
0.0
 30
0.0
  3
CDWK_PTTYP19
  1

  4
Cadwork node
  0
CIRCLE
  5
58B
100
AcDbEntity
  8
0
 62
     0
370
    -2
100
AcDbCircle
 10
0.0
 20
0.0
 30
0.0
 40
0.4
  0
CIRCLE
  5
58C
100
AcDbEntity
  8
0
 62
     0
370
    -2
100
AcDbCircle
 10
0.0
 20
0.0
 30
0.0
 40
0.25
  0
LINE
  5
58D
100
AcDbEntity
  8
0
 62
     0
370
    -2
100
AcDbLine
 10
-0.25
 20
0.0
 30
0.0
 11
0.25
 21
0.0
 31
0.0
  0
ENDBLK
  5
58E
100
AcDbEntity
100
AcDbBlockEnd
  0
BLOCK
  5
58F
100
AcDbEntity
  8
0
100
AcDbBlockBegin
  2
CDWK_PTTYP20
 70
     0
 10
0.0
 20
0.0
 30
0.0
  3
CDWK_PTTYP20
  1

  4
Cadwork node
  0
CIRCLE
  5
590
100
AcDbEntity
  8
0
 62
     0
370
    -2
100
AcDbCircle
 10
0.0
 20
0.0
 30
0.0
 40
0.5
  0
CIRCLE
  5
591
100
AcDbEntity
  8
0
 62
     0
370
    -2
100
AcDbCircle
 10
0.0
 20
0.0
 30
0.0
 40
0.3
  0
ENDBLK
  5
592
100
AcDbEntity
100
AcDbBlockEnd
  0
BLOCK
  5
593
100
AcDbEntity
  8
0
100
AcDbBlockBegin
  2
CDWK_PTTYP21
 70
     0
 10
0.0
 20
0.0
 30
0.0
  3
CDWK_PTTYP21
  1

  4
Cadwork node
  0
CIRCLE
  5
594
100
AcDbEntity
  8
0
 62
     0
370
    -2
100
AcDbCircle
 10
0.0
 20
0.0
 30
0.0
 40
0.5
  0
LINE
  5
595
100
AcDbEntity
  8
0
 62
     0
370
    -2
100
AcDbLine
 10
-0.5
 20
0.0
 30
0.0
 11
0.5
 21
0.0
 31
0.0
  0
ENDBLK
  5
596
100
AcDbEntity
100
AcDbBlockEnd
  0
BLOCK
  5
597
100
AcDbEntity
  8
0
100
AcDbBlockBegin
  2
CDWK_PTTYP22
 70
     0
 10
0.0
 20
0.0
 30
0.0
  3
CDWK_PTTYP22
  1

  4
Cadwork node
  0
POINT
  5
598
100
AcDbEntity
  8
0
 62
     0
100
AcDbPoint
 10
0.0
 20
0.0
 30
0.0
  0
ENDBLK
  5
599
100
AcDbEntity
100
AcDbBlockEnd
  0
BLOCK
  5
59A
100
AcDbEntity
  8
0
100
AcDbBlockBegin
  2
CDWK_PTTYP23
 70
     0
 10
0.0
 20
0.0
 30
0.0
  3
CDWK_PTTYP23
  1

  4
Cadwork node
  0
POINT
  5
59B
100
AcDbEntity
  8
0
 62
     0
100
AcDbPoint
 10
0.0
 20
0.0
 30
0.0
  0
ENDBLK
  5
59C
100
AcDbEntity
100
AcDbBlockEnd
  0
BLOCK
  5
59D
100
AcDbEntity
  8
0
100
AcDbBlockBegin
  2
CDWK_PTTYP24
 70
     0
 10
0.0
 20
0.0
 30
0.0
  3
CDWK_PTTYP24
  1

  4
Cadwork node
  0
POINT
  5
59E
100
AcDbEntity
  8
0
 62
     0
100
AcDbPoint
 10
0.0
 20
0.0
 30
0.0
  0
ENDBLK
  5
59F
100
AcDbEntity
100
AcDbBlockEnd
  0
BLOCK
  5
5A0
100
AcDbEntity
  8
0
100
AcDbBlockBegin
  2
CDWK_PTTYP25
 70
     0
 10
0.0
 20
0.0
 30
0.0
  3
CDWK_PTTYP25
  1

  4
Cadwork node
  0
LINE
  5
5A1
100
AcDbEntity
  8
0
 62
     0
370
    -2
100
AcDbLine
 10
-0.43290044
 20
-0.25
 30
0.0
 11
0.43290044
 21
-0.25
 31
0.0
  0
LINE
  5
5A2
100
AcDbEntity
  8
0
 62
     0
370
    -2
100
AcDbLine
 10
-0.43290044
 20
-0.25
 30
0.0
 11
0.0
 21
0.5
 31
0.0
  0
LINE
  5
5A3
100
AcDbEntity
  8
0
 62
     0
370
    -2
100
AcDbLine
 10
0.43290044
 20
-0.25
 30
0.0
 11
0.0
 21
0.5
 31
0.0
  0
CIRCLE
  5
5A4
100
AcDbEntity
  8
0
 62
     0
370
    -2
100
AcDbCircle
 10
0.0
 20
0.0
 30
0.0
 40
0.5
  0
ENDBLK
  5
5A5
100
AcDbEntity
100
AcDbBlockEnd
  0
BLOCK
  5
5A6
100
AcDbEntity
  8
0
100
AcDbBlockBegin
  2
CDWK_PTTYP26
 70
     0
 10
0.0
 20
0.0
 30
0.0
  3
CDWK_PTTYP26
  1

  4
Cadwork node
  0
LINE
  5
5A7
100
AcDbEntity
  8
0
 62
     0
370
    -2
100
AcDbLine
 10
-0.5
 20
-0.28850001
 30
0.0
 11
0.5
 21
-0.28850001
 31
0.0
  0
LINE
  5
5A8
100
AcDbEntity
  8
0
 62
     0
370
    -2
100
AcDbLine
 10
-0.5
 20
-0.28850001
 30
0.0
 11
0.0
 21
0.57736721
 31
0.0
  0
LINE
  5
5A9
100
AcDbEntity
  8
0
 62
     0
370
    -2
100
AcDbLine
 10
0.5
 20
-0.28850001
 30
0.0
 11
0.0
 21
0.57736721
 31
0.0
  0
CIRCLE
  5
5AA
100
AcDbEntity
  8
0
 62
     0
370
    -2
100
AcDbCircle
 10
0.0
 20
0.0
 30
0.0
 40
0.1312336
  0
ENDBLK
  5
5AB
100
AcDbEntity
100
AcDbBlockEnd
  0
BLOCK
  5
5AC
100
AcDbEntity
  8
0
100
AcDbBlockBegin
  2
CDWK_PTTYP27
 70
     0
 10
0.0
 20
0.0
 30
0.0
  3
CDWK_PTTYP27
  1

  4
Cadwork node
  0
LINE
  5
5AD
100
AcDbEntity
  8
0
 62
     0
370
    -2
100
AcDbLine
 10
-0.43290044
 20
-0.25
 30
0.0
 11
0.43290044
 21
-0.25
 31
0.0
  0
LINE
  5
5AE
100
AcDbEntity
  8
0
 62
     0
370
    -2
100
AcDbLine
 10
-0.43290044
 20
-0.25
 30
0.0
 11
0.0
 21
0.5
 31
0.0
  0
LINE
  5
5AF
100
AcDbEntity
  8
0
 62
     0
370
    -2
100
AcDbLine
 10
0.43290044
 20
-0.25
 30
0.0
 11
0.0
 21
0.5
 31
0.0
  0
CIRCLE
  5
5B0
100
AcDbEntity
  8
0
 62
     0
370
    -2
100
AcDbCircle
 10
0.0
 20
0.0
 30
0.0
 40
0.5
  0
CIRCLE
  5
5B1
100
AcDbEntity
  8
0
 62
     0
370
    -2
100
AcDbCircle
 10
0.0
 20
0.0
 30
0.0
 40
0.1312336
  0
ENDBLK
  5
5B2
100
AcDbEntity
100
AcDbBlockEnd
  0
BLOCK
  5
5B3
100
AcDbEntity
  8
0
100
AcDbBlockBegin
  2
CDWK_PTTYP28
 70
     0
 10
0.0
 20
0.0
 30
0.0
  3
CDWK_PTTYP28
  1

  4
Cadwork node
  0
POINT
  5
5B4
100
AcDbEntity
  8
0
 62
     0
100
AcDbPoint
 10
0.0
 20
0.0
 30
0.0
  0
ENDBLK
  5
5B5
100
AcDbEntity
100
AcDbBlockEnd
  0
BLOCK
  5
5B6
100
AcDbEntity
  8
0
100
AcDbBlockBegin
  2
CDWK_PTTYP29
 70
     0
 10
0.0
 20
0.0
 30
0.0
  3
CDWK_PTTYP29
  1

  4
Cadwork node
  0
CIRCLE
  5
5B7
100
AcDbEntity
  8
0
 62
     0
370
    -2
100
AcDbCircle
 10
0.0
 20
0.0
 30
0.0
 40
0.5
  0
CIRCLE
  5
5B8
100
AcDbEntity
  8
0
 62
     0
370
    -2
100
AcDbCircle
 10
0.0
 20
0.0
 30
0.0
 40
0.375
  0
CIRCLE
  5
5B9
100
AcDbEntity
  8
0
 62
     0
370
    -2
100
AcDbCircle
 10
0.0
 20
0.0
 30
0.0
 40
0.21875
  0
ENDBLK
  5
5BA
100
AcDbEntity
100
AcDbBlockEnd
  0
BLOCK
  5
5BB
100
AcDbEntity
  8
0
100
AcDbBlockBegin
  2
CDWK_PTTYP30
 70
     0
 10
0.0
 20
0.0
 30
0.0
  3
CDWK_PTTYP30
  1

  4
Cadwork node
  0
LINE
  5
5BC
100
AcDbEntity
  8
0
 62
     0
370
    -2
100
AcDbLine
 10
0.17680339
 20
0.17680339
 30
0.0
 11
0.5
 21
0.5
 31
0.0
  0
LINE
  5
5BD
100
AcDbEntity
  8
0
 62
     0
370
    -2
100
AcDbLine
 10
-0.17680339
 20
0.17680339
 30
0.0
 11
-0.5
 21
0.5
 31
0.0
  0
LINE
  5
5BE
100
AcDbEntity
  8
0
 62
     0
370
    -2
100
AcDbLine
 10
0.17680339
 20
-0.17680339
 30
0.0
 11
0.5
 21
-0.5
 31
0.0
  0
LINE
  5
5BF
100
AcDbEntity
  8
0
 62
     0
370
    -2
100
AcDbLine
 10
-0.17680339
 20
-0.17680339
 30
0.0
 11
-0.5
 21
-0.5
 31
0.0
  0
ENDBLK
  5
5C0
100
AcDbEntity
100
AcDbBlockEnd
  0
BLOCK
  5
5C1
100
AcDbEntity
  8
0
100
AcDbBlockBegin
  2
CDWK_PTTYP31
 70
     0
 10
0.0
 20
0.0
 30
0.0
  3
CDWK_PTTYP31
  1

  4
Cadwork node
  0
CIRCLE
  5
5C2
100
AcDbEntity
  8
0
 62
     0
370
    -2
100
AcDbCircle
 10
0.0
 20
0.0
 30
0.0
 40
0.075
  0
LINE
  5
5C3
100
AcDbEntity
  8
0
 62
     0
370
    -2
100
AcDbLine
 10
0.075
 20
0.0
 30
0.0
 11
0.5
 21
0.0
 31
0.0
  0
LINE
  5
5C4
100
AcDbEntity
  8
0
 62
     0
370
    -2
100
AcDbLine
 10
-0.075
 20
0.0
 30
0.0
 11
-0.5
 21
0.0
 31
0.0
  0
LINE
  5
5C5
100
AcDbEntity
  8
0
 62
     0
370
    -2
100
AcDbLine
 10
0.0
 20
0.075
 30
0.0
 11
0.0
 21
0.5
 31
0.0
  0
LINE
  5
5C6
100
AcDbEntity
  8
0
 62
     0
370
    -2
100
AcDbLine
 10
0.0
 20
-0.075
 30
0.0
 11
0.0
 21
-0.5
 31
0.0
  0
ENDBLK
  5
5C7
100
AcDbEntity
100
AcDbBlockEnd
  0
BLOCK
  5
5C8
100
AcDbEntity
  8
0
100
AcDbBlockBegin
  2
CDWK_PTTYP32
 70
     0
 10
0.0
 20
0.0
 30
0.0
  3
CDWK_PTTYP32
  1

  4
Cadwork node
  0
CIRCLE
  5
5C9
100
AcDbEntity
  8
0
 62
     0
370
    -2
100
AcDbCircle
 10
0.0
 20
0.0
 30
0.0
 40
0.5
  0
CIRCLE
  5
5CA
100
AcDbEntity
  8
0
 62
     0
370
    -2
100
AcDbCircle
 10
0.0
 20
0.0
 30
0.0
 40
0.16666667
  0
LINE
  5
5CB
100
AcDbEntity
  8
0
 62
     0
370
    -2
100
AcDbLine
 10
0.11786893
 20
0.11786893
 30
0.0
 11
0.35360678
 21
0.35360678
 31
0.0
  0
LINE
  5
5CC
100
AcDbEntity
  8
0
 62
     0
370
    -2
100
AcDbLine
 10
-0.11786893
 20
0.11786893
 30
0.0
 11
-0.35360678
 21
0.35360678
 31
0.0
  0
LINE
  5
5CD
100
AcDbEntity
  8
0
 62
     0
370
    -2
100
AcDbLine
 10
0.11786893
 20
-0.11786893
 30
0.0
 11
0.35360678
 21
-0.35360678
 31
0.0
  0
LINE
  5
5CE
100
AcDbEntity
  8
0
 62
     0
370
    -2
100
AcDbLine
 10
-0.11786893
 20
-0.11786893
 30
0.0
 11
-0.35360678
 21
-0.35360678
 31
0.0
  0
ENDBLK
  5
5CF
100
AcDbEntity
100
AcDbBlockEnd
  0
BLOCK
  5
5D0
100
AcDbEntity
  8
0
100
AcDbBlockBegin
  2
CDWK_PTTYP33
 70
     0
 10
0.0
 20
0.0
 30
0.0
  3
CDWK_PTTYP33
  1

  4
Cadwork node
  0
CIRCLE
  5
5D1
100
AcDbEntity
  8
0
 62
     0
370
    -2
100
AcDbCircle
 10
0.0
 20
0.0
 30
0.0
 40
0.5
  0
LINE
  5
5D2
100
AcDbEntity
  8
0
 62
     0
370
    -2
100
AcDbLine
 10
0.0
 20
0.5
 30
0.0
 11
0.0
 21
-0.5
 31
0.0
  0
LINE
  5
5D3
100
AcDbEntity
  8
0
 62
     0
370
    -2
100
AcDbLine
 10
-0.5
 20
0.0
 30
0.0
 11
0.5
 21
0.0
 31
0.0
  0
ENDBLK
  5
5D4
100
AcDbEntity
100
AcDbBlockEnd
  0
BLOCK
  5
5D5
100
AcDbEntity
  8
0
100
AcDbBlockBegin
  2
CDWK_PTTYP34
 70
     0
 10
0.0
 20
0.0
 30
0.0
  3
CDWK_PTTYP34
  1

  4
Cadwork node
  0
CIRCLE
  5
5D6
100
AcDbEntity
  8
0
 62
     0
370
    -2
100
AcDbCircle
 10
0.0
 20
0.0
 30
0.0
 40
0.5
  0
LINE
  5
5D7
100
AcDbEntity
  8
0
 62
     0
370
    -2
100
AcDbLine
 10
-0.30360678
 20
-0.40360678
 30
0.0
 11
0.40360678
 21
0.30360678
 31
0.0
  0
LINE
  5
5D8
100
AcDbEntity
  8
0
 62
     0
370
    -2
100
AcDbLine
 10
-0.40360678
 20
-0.30360678
 30
0.0
 11
0.30360678
 21
0.40360678
 31
0.0
  0
ENDBLK
  5
5D9
100
AcDbEntity
100
AcDbBlockEnd
  0
BLOCK
  5
5DA
100
AcDbEntity
  8
0
100
AcDbBlockBegin
  2
CDWK_PTTYP35
 70
     0
 10
0.0
 20
0.0
 30
0.0
  3
CDWK_PTTYP35
  1

  4
Cadwork node
  0
CIRCLE
  5
5DB
100
AcDbEntity
  8
0
 62
     0
370
    -2
100
AcDbCircle
 10
0.0
 20
0.0
 30
0.0
 40
0.21431634
  0
LINE
  5
5DC
100
AcDbEntity
  8
0
 62
     0
370
    -2
100
AcDbLine
 10
0.0
 20
0.21431634
 30
0.0
 11
0.0
 21
0.5
 31
0.0
  0
LINE
  5
5DD
100
AcDbEntity
  8
0
 62
     0
370
    -2
100
AcDbLine
 10
0.0
 20
-0.21431634
 30
0.0
 11
0.0
 21
-0.5
 31
0.0
  0
ENDBLK
  5
5DE
100
AcDbEntity
100
AcDbBlockEnd
  0
BLOCK
  5
5DF
100
AcDbEntity
  8
0
100
AcDbBlockBegin
  2
CDWK_PTTYP36
 70
     0
 10
0.0
 20
0.0
 30
0.0
  3
CDWK_PTTYP36
  1

  4
Cadwork node
  0
LINE
  5
5E0
100
AcDbEntity
  8
0
 62
     0
370
    -2
100
AcDbLine
 10
-0.5
 20
-0.16666667
 30
0.0
 11
0.5
 21
-0.16666667
 31
0.0
  0
LINE
  5
5E1
100
AcDbEntity
  8
0
 62
     0
370
    -2
100
AcDbLine
 10
0.5
 20
-0.16666667
 30
0.0
 11
0.5
 21
0.16666667
 31
0.0
  0
LINE
  5
5E2
100
AcDbEntity
  8
0
 62
     0
370
    -2
100
AcDbLine
 10
0.5
 20
0.16666667
 30
0.0
 11
-0.5
 21
0.16666667
 31
0.0
  0
LINE
  5
5E3
100
AcDbEntity
  8
0
 62
     0
370
    -2
100
AcDbLine
 10
-0.5
 20
0.16666667
 30
0.0
 11
-0.5
 21
-0.16666667
 31
0.0
  0
SOLID
  5
5E4
100
AcDbEntity
  8
0
 62
     0
100
AcDbTrace
 10
-0.5
 20
-0.16666667
 11
0.5
 21
0.16666667
 12
0.5
 22
-0.16666667
 13
0.5
 23
-0.16666667
  0
ENDBLK
  5
5E5
100
AcDbEntity
100
AcDbBlockEnd
  0
BLOCK
  5
5E6
100
AcDbEntity
  8
0
100
AcDbBlockBegin
  2
CDWK_PTTYP37
 70
     0
 10
0.0
 20
0.0
 30
0.0
  3
CDWK_PTTYP37
  1

  4
Cadwork node
  0
CIRCLE
  5
5E7
100
AcDbEntity
  8
0
 62
     0
370
    -2
100
AcDbCircle
 10
0.0
 20
0.0
 30
0.0
 40
0.5
  0
SOLID
  5
5E8
100
AcDbEntity
  8
0
 62
     0
100
AcDbTrace
 10
0.0
 20
0.0
 11
0.35350001
 21
0.35350001
 12
0.5
 22
0.0
 13
0.46200001
 23
0.19149999
  0
SOLID
  5
5E9
100
AcDbEntity
  8
0
 62
     0
100
AcDbTrace
 10
0.0
 20
0.0
 11
0.35350001
 21
-0.35350001
 12
0.5
 22
0.0
 13
0.46200001
 23
-0.19149999
  0
SOLID
  5
5EA
100
AcDbEntity
  8
0
 62
     0
100
AcDbTrace
 10
0.0
 20
0.0
 11
0.0
 21
-0.5
 12
0.35350001
 22
-0.35350001
 13
0.19149999
 23
-0.46200001
  0
SOLID
  5
5EB
100
AcDbEntity
  8
0
 62
     0
100
AcDbTrace
 10
0.0
 20
0.0
 11
0.0
 21
-0.5
 12
-0.35350001
 22
-0.35350001
 13
-0.19149999
 23
-0.46200001
  0
ENDBLK
  5
5EC
100
AcDbEntity
100
AcDbBlockEnd
  0
BLOCK
  5
5ED
100
AcDbEntity
  8
0
100
AcDbBlockBegin
  2
CDWK_PTTYP38
 70
     0
 10
0.0
 20
0.0
 30
0.0
  3
CDWK_PTTYP38
  1

  4
Cadwork node
  0
CIRCLE
  5
5EE
100
AcDbEntity
  8
0
 62
     0
370
    -2
100
AcDbCircle
 10
0.0
 20
0.0
 30
0.0
 40
0.5
  0
SOLID
  5
5EF
100
AcDbEntity
  8
0
 62
     0
100
AcDbTrace
 10
0.0
 20
0.0
 11
0.35350001
 21
0.35350001
 12
0.0
 22
0.5
 13
0.19149999
 23
0.46200001
  0
SOLID
  5
5F0
100
AcDbEntity
  8
0
 62
     0
100
AcDbTrace
 10
0.0
 20
0.0
 11
0.5
 21
0.0
 12
0.35350001
 22
0.35350001
 13
0.46200001
 23
0.19149999
  0
SOLID
  5
5F1
100
AcDbEntity
  8
0
 62
     0
100
AcDbTrace
 10
0.0
 20
0.0
 11
0.0
 21
-0.5
 12
-0.35350001
 22
-0.35350001
 13
-0.19149999
 23
-0.46200001
  0
SOLID
  5
5F2
100
AcDbEntity
  8
0
 62
     0
100
AcDbTrace
 10
0.0
 20
0.0
 11
-0.5
 21
0.0
 12
-0.35350001
 22
-0.35350001
 13
-0.46200001
 23
-0.19149999
  0
ENDBLK
  5
5F3
100
AcDbEntity
100
AcDbBlockEnd
  0
BLOCK
  5
5F4
100
AcDbEntity
  8
Ech.1_5
100
AcDbBlockBegin
  2
*X1
 70
     1
 10
0.0
 20
0.0
 30
0.0
  3
*X1
  1

  4
Cadwork hatch
  0
LINE
  5
5F5
100
AcDbEntity
  8
Ech.1_5
 62
   190
  6
CONTINUOUS
370
    -2
100
AcDbLine
 10
52343.96976229
 20
-10882.41626007
 30
0.0
 11
52298.9643883
 21
-11062.41870614
 31
0.0
  0
LINE
  5
5F6
100
AcDbEntity
  8
Ech.1_5
 62
   190
  6
CONTINUOUS
370
    -2
100
AcDbLine
 10
52298.9643883
 20
-10882.41626007
 30
0.0
 11
52343.96976229
 21
-11062.41870614
 31
0.0
  0
ENDBLK
  5
5F7
100
AcDbEntity
100
AcDbBlockEnd
  0
BLOCK
  5
5F8
100
AcDbEntity
  8
Ech.1_5
100
AcDbBlockBegin
  2
*X2
 70
     1
 10
0.0
 20
0.0
 30
0.0
  3
*X2
  1

  4
Cadwork hatch
  0
LINE
  5
5F9
100
AcDbEntity
  8
Ech.1_5
 62
   190
  6
CONTINUOUS
370
    -2
100
AcDbLine
 10
52388.97037381
 20
-10882.41626007
 30
0.0
 11
52343.96976229
 21
-11062.41870614
 31
0.0
  0
LINE
  5
5FA
100
AcDbEntity
  8
Ech.1_5
 62
   190
  6
CONTINUOUS
370
    -2
100
AcDbLine
 10
52343.96976229
 20
-10882.41626007
 30
0.0
 11
52388.97037381
 21
-11062.41870614
 31
0.0
  0
ENDBLK
  5
5FB
100
AcDbEntity
100
AcDbBlockEnd
  0
BLOCK
  5
5FC
100
AcDbEntity
  8
Ech.1_5
100
AcDbBlockBegin
  2
*X3
 70
     1
 10
0.0
 20
0.0
 30
0.0
  3
*X3
  1

  4
Cadwork hatch
  0
LINE
  5
5FD
100
AcDbEntity
  8
Ech.1_5
 62
   190
  6
CONTINUOUS
370
    -2
100
AcDbLine
 10
52336.62602825
 20
-11071.4173997
 30
0.0
 11
52286.62481962
 21
-11096.41800402
 31
0.0
  0
LINE
  5
5FE
100
AcDbEntity
  8
Ech.1_5
 62
   190
  6
CONTINUOUS
370
    -2
100
AcDbLine
 10
52286.62481962
 20
-11071.4173997
 30
0.0
 11
52336.62602825
 21
-11096.41800402
 31
0.0
  0
ENDBLK
  5
5FF
100
AcDbEntity
100
AcDbBlockEnd
  0
BLOCK
  5
600
100
AcDbEntity
  8
Ech.1_5
100
AcDbBlockBegin
  2
*X4
 70
     1
 10
0.0
 20
0.0
 30
0.0
  3
*X4
  1

  4
Cadwork hatch
  0
LINE
  5
601
100
AcDbEntity
  8
Ech.1_5
 62
   190
  6
CONTINUOUS
370
    -2
100
AcDbLine
 10
52762.35781632
 20
-10882.41626007
 30
0.0
 11
52807.35842784
 21
-11062.41870614
 31
0.0
  0
LINE
  5
602
100
AcDbEntity
  8
Ech.1_5
 62
   190
  6
CONTINUOUS
370
    -2
100
AcDbLine
 10
52807.35842784
 20
-10882.41626007
 30
0.0
 11
52762.35781632
 21
-11062.41870614
 31
0.0
  0
ENDBLK
  5
603
100
AcDbEntity
100
AcDbBlockEnd
  0
BLOCK
  5
604
100
AcDbEntity
  8
Ech.1_5
100
AcDbBlockBegin
  2
*X5
 70
     1
 10
0.0
 20
0.0
 30
0.0
  3
*X5
  1

  4
Cadwork hatch
  0
LINE
  5
605
100
AcDbEntity
  8
Ech.1_5
 62
   190
  6
CONTINUOUS
370
    -2
100
AcDbLine
 10
52717.3572048
 20
-10882.41626007
 30
0.0
 11
52762.35781632
 21
-11062.41870614
 31
0.0
  0
LINE
  5
606
100
AcDbEntity
  8
Ech.1_5
 62
   190
  6
CONTINUOUS
370
    -2
100
AcDbLine
 10
52762.35781632
 20
-10882.41626007
 30
0.0
 11
52717.3572048
 21
-11062.41870614
 31
0.0
  0
ENDBLK
  5
607
100
AcDbEntity
100
AcDbBlockEnd
  0
BLOCK
  5
608
100
AcDbEntity
  8
Ech.1_5
100
AcDbBlockBegin
  2
*X6
 70
     1
 10
0.0
 20
0.0
 30
0.0
  3
*X6
  1

  4
Cadwork hatch
  0
LINE
  5
609
100
AcDbEntity
  8
Ech.1_5
 62
   190
  6
CONTINUOUS
370
    -2
100
AcDbLine
 10
52769.69678789
 20
-11071.4173997
 30
0.0
 11
52819.69799652
 21
-11096.41800402
 31
0.0
  0
LINE
  5
60A
100
AcDbEntity
  8
Ech.1_5
 62
   190
  6
CONTINUOUS
370
    -2
100
AcDbLine
 10
52819.69799652
 20
-11071.4173997
 30
0.0
 11
52769.69678789
 21
-11096.41800402
 31
0.0
  0
ENDBLK
  5
60B
100
AcDbEntity
100
AcDbBlockEnd
  0
BLOCK
  5
60C
100
AcDbEntity
  8
Ech.1_5
100
AcDbBlockBegin
  2
*X7
 70
     1
 10
0.0
 20
0.0
 30
0.0
  3
*X7
  1

  4
Cadwork hatch
  0
LINE
  5
60D
100
AcDbEntity
  8
Ech.1_5
 62
     7
  6
CONTINUOUS
370
    -2
100
AcDbLine
 10
52498.63584968
 20
-10987.4168932
 30
0.0
 11
52505.88433425
 21
-11005.81909056
 31
0.0
  0
LINE
  5
60E
100
AcDbEntity
  8
Ech.1_5
 62
     7
  6
CONTINUOUS
370
    -2
100
AcDbLine
 10
52498.63584968
 20
-11005.81909056
 30
0.0
 11
52505.88433425
 21
-10987.4168932
 31
0.0
  0
ENDBLK
  5
60F
100
AcDbEntity
100
AcDbBlockEnd
  0
BLOCK
  5
610
100
AcDbEntity
  8
Ech.1_5
100
AcDbBlockBegin
  2
*X8
 70
     1
 10
0.0
 20
0.0
 30
0.0
  3
*X8
  1

  4
Cadwork hatch
  0
LINE
  5
611
100
AcDbEntity
  8
Ech.1_5
 62
     7
  6
CONTINUOUS
370
    -2
100
AcDbLine
 10
52607.68696647
 20
-10987.4168932
 30
0.0
 11
52600.44324437
 21
-11005.81909056
 31
0.0
  0
LINE
  5
612
100
AcDbEntity
  8
Ech.1_5
 62
     7
  6
CONTINUOUS
370
    -2
100
AcDbLine
 10
52607.68696647
 20
-11005.81909056
 30
0.0
 11
52600.44324437
 21
-10987.4168932
 31
0.0
  0
ENDBLK
  5
613
100
AcDbEntity
100
AcDbBlockEnd
  0
BLOCK
  5
614
100
AcDbEntity
  8
Ech.1_5
100
AcDbBlockBegin
  2
*D65
 70
     1
 10
0.0
 20
0.0
 30
0.0
  3
*D65
  1

  4
Cadwork dimension
  0
TEXT
  5
615
100
AcDbEntity
  8
Ech.1_5
 62
   190
370
    18
100
AcDbText
 10
52356.44094921
 20
-11149.17515227
 30
0.0
 40
12.5
  1
13 mm mini
  7
ARIAL
 50
0.0
 41
1.0
 51
0.0
100
AcDbText
  0
LINE
  5
616
100
AcDbEntity
  8
Ech.1_5
 62
   190
370
    -2
100
AcDbLine
 10
52366.72325414
 20
-11159.17515227
 30
0.0
 11
52366.72325414
 21
-11081.02661492
 31
0.0
  0
LINE
  5
617
100
AcDbEntity
  8
Ech.1_5
 62
   190
370
    -2
100
AcDbLine
 10
52388.96686419
 20
-11159.17515227
 30
0.0
 11
52388.96686419
 21
-11071.41709217
 31
0.0
  0
LINE
  5
618
100
AcDbEntity
  8
Ech.1_5
 62
   190
370
    -2
100
AcDbLine
 10
52361.72325414
 20
-11154.17515227
 30
0.0
 11
52393.96686419
 21
-11154.17515227
 31
0.0
  0
LINE
  5
619
100
AcDbEntity
  8
Ech.1_5
 62
   190
370
    -2
100
AcDbLine
 10
52364.22325414
 20
-11156.67515227
 30
0.0
 11
52369.22325414
 21
-11151.67515227
 31
0.0
  0
LINE
  5
61A
100
AcDbEntity
  8
Ech.1_5
 62
   190
370
    -2
100
AcDbLine
 10
52386.46686419
 20
-11156.67515227
 30
0.0
 11
52391.46686419
 21
-11151.67515227
 31
0.0
  0
ENDBLK
  5
61B
100
AcDbEntity
100
AcDbBlockEnd
  0
ENDSEC
  0
SECTION
  2
ENTITIES
  0
INSERT
  5
61C
100
AcDbEntity
  8
Ech.1_5
 62
     0
100
AcDbBlockReference
  2
*X1
 10
0.0
 20
0.0
 30
0.0
  0
INSERT
  5
61D
100
AcDbEntity
  8
Ech.1_5
 62
     0
100
AcDbBlockReference
  2
*X2
 10
0.0
 20
0.0
 30
0.0
  0
INSERT
  5
61E
100
AcDbEntity
  8
Ech.1_5
 62
     0
100
AcDbBlockReference
  2
*X3
 10
0.0
 20
0.0
 30
0.0
  0
INSERT
  5
61F
100
AcDbEntity
  8
Ech.1_5
 62
     0
100
AcDbBlockReference
  2
*X4
 10
0.0
 20
0.0
 30
0.0
  0
INSERT
  5
620
100
AcDbEntity
  8
Ech.1_5
 62
     0
100
AcDbBlockReference
  2
*X5
 10
0.0
 20
0.0
 30
0.0
  0
INSERT
  5
621
100
AcDbEntity
  8
Ech.1_5
 62
     0
100
AcDbBlockReference
  2
*X6
 10
0.0
 20
0.0
 30
0.0
  0
INSERT
  5
622
100
AcDbEntity
  8
Ech.1_5
 62
     0
100
AcDbBlockReference
  2
*X7
 10
0.0
 20
0.0
 30
0.0
  0
INSERT
  5
623
100
AcDbEntity
  8
Ech.1_5
 62
     0
100
AcDbBlockReference
  2
*X8
 10
0.0
 20
0.0
 30
0.0
  0
LWPOLYLINE
  5
624
100
AcDbEntity
  8
Ech.1_5
 62
   254
  6
CONTINUOUS
370
    -3
100
AcDbPolyline
 90
        4
 70
     1
 43
0.0
 10
52753.20565011
 20
-10592.41709217
 10
52753.20565011
 20
-10642.41709217
 10
53002.52368718
 20
-10642.41709217
 10
53002.52368718
 20
-10592.41709217
  0
LWPOLYLINE
  5
625
100
AcDbEntity
  8
Ech.1_5
 62
   254
  6
CONTINUOUS
370
    -3
100
AcDbPolyline
 90
        4
 70
     1
 43
0.0
 10
52353.11852694
 20
-10592.41709217
 10
52353.11852694
 20
-10642.41709217
 10
52103.80048986
 20
-10642.41709217
 10
52103.80048986
 20
-10592.41709217
  0
LWPOLYLINE
  5
626
102
{ACAD_REACTORS
330
627
102
}
100
AcDbEntity
  8
Ech.1_5
 62
     9
  6
CONTINUOUS
370
    -3
100
AcDbPolyline
 90
        4
 70
     1
 43
0.0
 10
52353.11852694
 20
-10579.41709217
 10
52353.11852694
 20
-10592.41709217
 10
52103.80048986
 20
-10592.41709217
 10
52103.80048986
 20
-10579.41709217
  0
HATCH
  5
627
100
AcDbEntity
  8
Ech.1_5
 62
     9
  6
CONTINUOUS
100
AcDbHatch
 10
0.0
 20
0.0
 30
0.0
210
0.0
220
0.0
230
1.0
  2
DOTS2
 70
     0
 71
     1
 91
        1
 92
        7
 72
     0
 73
     1
 93
        4
 10
52353.11852694
 20
-10579.41709217
 10
52353.11852694
 20
-10592.41709217
 10
52103.80048986
 20
-10592.41709217
 10
52103.80048986
 20
-10579.41709217
 97
        1
330
626
 75
     0
 76
     2
 52
0.0
 41
4.72440952
 77
     0
 78
     1
 53
0.0
 43
0.0
 44
0.0
 45
3.75
 46
3.535
 79
     2
 49
0.0
 49
-3.535
 47
0.775229
 98
        1
 10
0.0
 20
0.0
  0
LWPOLYLINE
  5
628
102
{ACAD_REACTORS
330
629
102
}
100
AcDbEntity
  8
Ech.1_5
 62
     9
  6
CONTINUOUS
370
    -3
100
AcDbPolyline
 90
        4
 70
     1
 43
0.0
 10
52753.20565011
 20
-10579.41709217
 10
52753.20565011
 20
-10592.41709217
 10
53002.52368718
 20
-10592.41709217
 10
53002.52368718
 20
-10579.41709217
  0
HATCH
  5
629
100
AcDbEntity
  8
Ech.1_5
 62
     9
  6
CONTINUOUS
100
AcDbHatch
 10
0.0
 20
0.0
 30
0.0
210
0.0
220
0.0
230
1.0
  2
DOTS2
 70
     0
 71
     1
 91
        1
 92
        7
 72
     0
 73
     1
 93
        4
 10
52753.20565011
 20
-10579.41709217
 10
52753.20565011
 20
-10592.41709217
 10
53002.52368718
 20
-10592.41709217
 10
53002.52368718
 20
-10579.41709217
 97
        1
330
628
 75
     0
 76
     2
 52
0.0
 41
4.72440952
 77
     0
 78
     1
 53
0.0
 43
0.0
 44
0.0
 45
3.75
 46
3.535
 79
     2
 49
0.0
 49
-3.535
 47
0.775229
 98
        1
 10
0.0
 20
0.0
  0
LWPOLYLINE
  5
62A
100
AcDbEntity
  8
Ech.1_5
 62
   254
  6
CONTINUOUS
370
    -3
100
AcDbPolyline
 90
        4
 70
     1
 43
0.0
 10
52388.96686419
 20
-10625.91691526
 10
52353.11852694
 20
-10625.91691526
 10
52353.11852694
 20
-10642.41709217
 10
52388.96686419
 20
-10642.41709217
  0
LWPOLYLINE
  5
62B
100
AcDbEntity
  8
Ech.1_5
 62
   190
  6
CONTINUOUS
370
    -3
100
AcDbPolyline
 90
        5
 70
     0
 43
0.0
 10
53044.92482703
 20
-10403.63631346
 10
52059.92482703
 20
-10403.63631346
 10
52059.92482703
 20
-11758.63631346
 10
53044.92482703
 20
-11758.63631346
 10
53044.92482703
 20
-10403.63631346
  0
LWPOLYLINE
  5
62C
100
AcDbEntity
  8
Ech.1_5
 62
   190
100
AcDbPolyline
 90
        5
 70
     0
 43
0.0
 10
52102.59277206
 20
-11319.03081317
 10
52237.02155105
 20
-11319.03081317
 10
52237.02155105
 20
-11375.75377198
 10
52102.59277206
 20
-11375.75377198
 10
52102.59277206
 20
-11319.03081317
  0
HATCH
  5
62D
100
AcDbEntity
  8
Ech.1_5
 62
   190
100
AcDbHatch
 10
0.0
 20
0.0
 30
0.0
210
0.0
220
0.0
230
1.0
  2
SOLID
 70
     1
 71
     0
 91
        1
 92
        7
 72
     0
 73
     1
 93
        4
 10
52120.87281784
 20
-11352.6876243
 10
52170.87281784
 20
-11352.6876243
 10
52170.87281784
 20
-11345.27248677
 10
52120.87281784
 20
-11345.27248677
 97
        0
 75
     0
 76
     2
 47
0.775229
 98
        1
 10
0.0
 20
0.0
  0
LWPOLYLINE
  5
62E
100
AcDbEntity
  8
Ech.1_5
 62
   190
100
AcDbPolyline
 90
        5
 70
     0
 43
0.0
 10
52120.87281784
 20
-11352.6876243
 10
52170.87281784
 20
-11352.6876243
 10
52170.87281784
 20
-11345.27248677
 10
52120.87281784
 20
-11345.27248677
 10
52120.87281784
 20
-11352.6876243
  0
LWPOLYLINE
  5
62F
100
AcDbEntity
  8
Ech.1_5
 62
   190
100
AcDbPolyline
 90
        5
 70
     0
 43
0.0
 10
52170.87281784
 20
-11352.6876243
 10
52220.87281784
 20
-11352.6876243
 10
52220.87281784
 20
-11345.27248677
 10
52170.87281784
 20
-11345.27248677
 10
52170.87281784
 20
-11352.6876243
  0
LWPOLYLINE
  5
630
100
AcDbEntity
  8
Ech.1_5
 62
   190
  6
CONTINUOUS
370
    -3
100
AcDbPolyline
 90
        8
 70
     1
 43
0.0
 10
52121.77885657
 20
-11000.24141294
 10
52085.82315656
 20
-10986.13147292
 10
52103.80050497
 20
-11002.61697608
 10
52103.80075939
 20
-11062.41709217
 10
52298.96762778
 20
-11062.41709217
 10
52298.96762778
 20
-10882.41709217
 10
52103.80049382
 20
-10882.41709217
 10
52103.80050497
 20
-10983.75505886
  0
LWPOLYLINE
  5
631
100
AcDbEntity
  8
Ech.1_5
 62
     7
  6
CONTINUOUS
370
    -3
100
AcDbPolyline
 90
        4
 70
     1
 43
0.0
 10
52343.96704678
 20
-11062.41709217
 10
52343.96704678
 20
-10882.41709217
 10
52298.96704678
 20
-10882.41709217
 10
52298.96704678
 20
-11062.41709217
  0
LWPOLYLINE
  5
632
100
AcDbEntity
  8
Ech.1_5
 62
     7
  6
CONTINUOUS
370
    -3
100
AcDbPolyline
 90
        4
 70
     1
 43
0.0
 10
52388.96704678
 20
-11062.41709217
 10
52388.96704678
 20
-10882.41709217
 10
52343.96704678
 20
-10882.41709217
 10
52343.96704678
 20
-11062.41709217
  0
LWPOLYLINE
  5
633
100
AcDbEntity
  8
Ech.1_5
 62
     7
  6
CONTINUOUS
100
AcDbPolyline
 90
        4
 70
     0
 43
0.0
 10
52103.80014498
 20
-11062.41709217
 10
52298.96704678
 20
-11062.41709217
 10
52298.96704678
 20
-10882.41709217
 10
52103.80049382
 20
-10882.41709217
  0
LWPOLYLINE
  5
634
100
AcDbEntity
  8
Ech.1_5
 62
   190
  6
CONTINUOUS
370
    -3
100
AcDbPolyline
 90
        4
 70
     1
 43
0.0
 10
52343.96704678
 20
-10882.41709217
 10
52298.96704678
 20
-10882.41709217
 10
52298.96704678
 20
-11062.41709217
 10
52343.96704678
 20
-11062.41709217
  0
LWPOLYLINE
  5
635
100
AcDbEntity
  8
Ech.1_5
 62
   190
  6
CONTINUOUS
370
    -3
100
AcDbPolyline
 90
       12
 70
     0
 43
0.0
 10
52103.80049382
 20
-10912.41709217
 42
-1.14028181
 10
52162.77826392
 20
-10920.18168101
 10
52134.82272371
 20
-11024.65250334
 42
1.30322619
 10
52192.77826392
 20
-11024.65250334
 10
52164.82272371
 20
-10920.18168101
 42
-1.30322619
 10
52222.77826392
 20
-10920.18168101
 10
52194.82272371
 20
-11024.65250334
 42
1.30322619
 10
52252.77826392
 20
-11024.65250334
 10
52224.82272371
 20
-10920.18168101
 42
-1.30322619
 10
52282.77826392
 20
-10920.18168101
 10
52254.82272371
 20
-11024.65250334
 42
0.67050386
 10
52298.96704678
 20
-11058.30098042
  0
LWPOLYLINE
  5
636
100
AcDbEntity
  8
Ech.1_5
 62
   190
  6
CONTINUOUS
370
    -3
100
AcDbPolyline
 90
        4
 70
     1
 43
0.0
 10
52388.96704678
 20
-10882.41709217
 10
52343.96704678
 20
-10882.41709217
 10
52343.96704678
 20
-11062.41709217
 10
52388.96704678
 20
-11062.41709217
  0
LWPOLYLINE
  5
637
100
AcDbEntity
  8
Ech.1_5
 62
     5
  6
CONTINUOUS
370
    -3
100
AcDbPolyline
 90
        5
 70
     0
 43
0.0
 10
52343.96704678
 20
-11062.41709217
 10
52343.96704678
 20
-10882.41709217
 10
52298.96704678
 20
-10882.41709217
 10
52298.96704678
 20
-11062.41709217
 10
52343.96704678
 20
-11062.41709217
  0
LWPOLYLINE
  5
638
100
AcDbEntity
  8
Ech.1_5
 62
   190
  6
CONTINUOUS
370
    -3
100
AcDbPolyline
 90
        4
 70
     1
 43
0.0
 10
52336.62482859
 20
-11096.41709223
 10
52336.62482859
 20
-11071.41709223
 10
52286.62482859
 20
-11071.41709223
 10
52286.62482859
 20
-11096.41709223
  0
LWPOLYLINE
  5
639
100
AcDbEntity
  8
Ech.1_5
 62
   190
  6
CONTINUOUS
370
    -3
100
AcDbPolyline
 90
        4
 70
     1
 43
0.0
 10
52336.62482859
 20
-11071.41709223
 10
52286.62482859
 20
-11071.41709223
 10
52286.62482859
 20
-11096.41709223
 10
52336.62482859
 20
-11096.41709223
  0
LWPOLYLINE
  5
63A
100
AcDbEntity
  8
Ech.1_5
 62
     7
  6
CONTINUOUS
370
    -3
100
AcDbPolyline
 90
        4
 70
     1
 43
0.0
 10
52103.80049147
 20
-11116.41709223
 10
52363.86336462
 20
-11116.41709223
 10
52363.86336462
 20
-11096.41709223
 10
52103.80049147
 20
-11096.41709223
  0
LWPOLYLINE
  5
63B
100
AcDbEntity
  8
Ech.1_5
 62
     5
  6
CONTINUOUS
370
    -3
100
AcDbPolyline
 90
        5
 70
     0
 43
0.0
 10
52336.62482859
 20
-11071.41709223
 10
52286.62482859
 20
-11071.41709223
 10
52286.62482859
 20
-11096.41709223
 10
52336.62482859
 20
-11096.41709223
 10
52336.62482859
 20
-11071.41709223
  0
LINE
  5
63C
100
AcDbEntity
  8
Ech.1_5
 62
     7
  6
CONTINUOUS
100
AcDbLine
 10
52439.91180446
 20
-10590.66629562
 30
0.0
 11
52552.16842887
 21
-10590.66629562
 31
0.0
  0
LINE
  5
63D
100
AcDbEntity
  8
Ech.1_5
 62
     7
  6
CONTINUOUS
100
AcDbLine
 10
52439.91180446
 20
-10586.66629562
 30
0.0
 11
52552.16842887
 21
-10586.66630211
 31
0.0
  0
LINE
  5
63E
100
AcDbEntity
  8
Ech.1_5
 62
     7
  6
CONTINUOUS
100
AcDbLine
 10
52439.91180446
 20
-10570.66629562
 30
0.0
 11
52552.16842887
 21
-10570.66630211
 31
0.0
  0
LINE
  5
63F
100
AcDbEntity
  8
Ech.1_5
 62
     7
  6
CONTINUOUS
100
AcDbLine
 10
52439.91180446
 20
-10566.66629562
 30
0.0
 11
52552.16842887
 21
-10566.66630211
 31
0.0
  0
LINE
  5
640
100
AcDbEntity
  8
Ech.1_5
 62
     7
  6
CONTINUOUS
100
AcDbLine
 10
52449.41180446
 20
-10570.66629562
 30
0.0
 11
52449.41180446
 21
-10586.66629562
 31
0.0
  0
LINE
  5
641
100
AcDbEntity
  8
Ech.1_5
 62
     7
  6
CONTINUOUS
100
AcDbLine
 10
52439.91180446
 20
-10566.66629562
 30
0.0
 11
52439.91180446
 21
-10590.66629562
 31
0.0
  0
LINE
  5
642
100
AcDbEntity
  8
Ech.1_5
 62
     7
  6
CONTINUOUS
100
AcDbLine
 10
52437.91180446
 20
-10572.66629562
 30
0.0
 11
52439.11180446
 21
-10572.66629562
 31
0.0
  0
LINE
  5
643
100
AcDbEntity
  8
Ech.1_5
 62
     7
  6
CONTINUOUS
100
AcDbLine
 10
52437.91180446
 20
-10584.66629562
 30
0.0
 11
52439.11180446
 21
-10584.66629562
 31
0.0
  0
LINE
  5
644
100
AcDbEntity
  8
Ech.1_5
 62
     7
  6
CONTINUOUS
100
AcDbLine
 10
52437.91180446
 20
-10590.66629562
 30
0.0
 11
52434.91181311
 21
-10566.6662913
 31
0.0
  0
LINE
  5
645
100
AcDbEntity
  8
Ech.1_5
 62
     7
  6
CONTINUOUS
100
AcDbLine
 10
52437.91180446
 20
-10566.66629562
 30
0.0
 11
52434.91181311
 21
-10590.66629562
 31
0.0
  0
LINE
  5
646
100
AcDbEntity
  8
Ech.1_5
 62
     7
  6
CONTINUOUS
100
AcDbLine
 10
52434.91181311
 20
-10590.66629562
 30
0.0
 11
52434.91180446
 21
-10566.66629562
 31
0.0
  0
LINE
  5
647
100
AcDbEntity
  8
Ech.1_5
 62
     7
  6
CONTINUOUS
100
AcDbLine
 10
52434.91180446
 20
-10566.66629562
 30
0.0
 11
52437.91180446
 21
-10566.66629562
 31
0.0
  0
LINE
  5
648
100
AcDbEntity
  8
Ech.1_5
 62
     7
  6
CONTINUOUS
100
AcDbLine
 10
52437.91180446
 20
-10566.66629562
 30
0.0
 11
52437.91180446
 21
-10590.66629562
 31
0.0
  0
LINE
  5
649
100
AcDbEntity
  8
Ech.1_5
 62
     7
  6
CONTINUOUS
100
AcDbLine
 10
52437.91180446
 20
-10590.66629562
 30
0.0
 11
52434.91180446
 21
-10590.66629562
 31
0.0
  0
LINE
  5
64A
100
AcDbEntity
  8
Ech.1_5
 62
     7
  6
CONTINUOUS
100
AcDbLine
 10
52380.54854549
 20
-10554.96919931
 30
0.0
 11
52414.50194967
 21
-10556.74862182
 31
0.0
  0
LINE
  5
64B
100
AcDbEntity
  8
Ech.1_5
 62
     7
  6
CENTER
100
AcDbLine
 10
52367.7826375
 20
-10554.5319006
 30
0.0
 11
52367.7826375
 21
-10579.46930494
 31
0.0
  0
ARC
  5
64C
100
AcDbEntity
  8
Ech.1_5
 62
     7
  6
CONTINUOUS
100
AcDbCircle
 10
52368.9719145
 20
-10557.867297
 30
0.0
 40
6.59090909
100
AcDbArc
 50
96.52728338
 51
257.47271662
  0
LINE
  5
64D
100
AcDbEntity
  8
Ech.1_5
 62
     7
  6
CONTINUOUS
100
AcDbLine
 10
52379.05272437
 20
-10564.40384394
 30
0.0
 11
52379.68075584
 21
-10552.42028952
 31
0.0
  0
LINE
  5
64E
100
AcDbEntity
  8
Ech.1_5
 62
     7
  6
CONTINUOUS
100
AcDbLine
 10
52380.07752188
 20
-10563.95686512
 30
0.0
 11
52380.6532174
 21
-10552.97194024
 31
0.0
  0
LINE
  5
64F
100
AcDbEntity
  8
Ech.1_5
 62
     7
  6
CONTINUOUS
100
AcDbLine
 10
52359.7826375
 20
-10565.41682287
 30
0.0
 11
52359.7826375
 21
-10553.0922134
 31
0.0
  0
LINE
  5
650
100
AcDbEntity
  8
Ech.1_5
 62
     7
  6
CONTINUOUS
100
AcDbLine
 10
52374.77936508
 20
-10551.66273234
 30
0.0
 11
52373.93275949
 21
-10550.60447534
 31
0.0
  0
LINE
  5
651
100
AcDbEntity
  8
Ech.1_5
 62
     7
  6
CONTINUOUS
100
AcDbLine
 10
52379.20760906
 20
-10551.89480677
 30
0.0
 11
52368.22268417
 21
-10551.31911125
 31
0.0
  0
ARC
  5
652
100
AcDbEntity
  8
Ech.1_5
 62
     7
  6
CONTINUOUS
100
AcDbCircle
 10
52379.18144108
 20
-10552.39412154
 30
0.0
 40
0.5
100
AcDbArc
 50
357.0
 51
87.0
  0
LINE
  5
653
100
AcDbEntity
  8
Ech.1_5
 62
     7
  6
CONTINUOUS
100
AcDbLine
 10
52380.6532174
 20
-10552.97194024
 30
0.0
 11
52379.65458787
 21
-10552.91960429
 31
0.0
  0
LINE
  5
654
100
AcDbEntity
  8
Ech.1_5
 62
     7
  6
CONTINUOUS
100
AcDbLine
 10
52372.7826375
 20
-10551.55808828
 30
0.0
 11
52372.7826375
 21
-10550.41682287
 31
0.0
  0
LINE
  5
655
100
AcDbEntity
  8
Ech.1_5
 62
     7
  6
CONTINUOUS
100
AcDbLine
 10
52362.02294993
 20
-10550.41682287
 30
0.0
 11
52373.54232508
 21
-10550.41682287
 31
0.0
  0
ARC
  5
656
100
AcDbEntity
  8
Ech.1_5
 62
     7
  6
CONTINUOUS
100
AcDbCircle
 10
52373.54232508
 20
-10550.91682287
 30
0.0
 40
0.5
100
AcDbArc
 50
38.65980825
 51
90.00000002
  0
ARC
  5
657
100
AcDbEntity
  8
Ech.1_5
 62
     7
  6
CONTINUOUS
100
AcDbCircle
 10
52360.2826375
 20
-10553.0922134
 30
0.0
 40
0.5
100
AcDbArc
 50
141.34019174
 51
180.00000001
  0
ARC
  5
658
100
AcDbEntity
  8
Ech.1_5
 62
     7
  6
CONTINUOUS
100
AcDbCircle
 10
52360.2826375
 20
-10553.0922134
 30
0.0
 40
0.5
100
AcDbArc
 50
141.34019174
 51
180.00000001
  0
ARC
  5
659
100
AcDbEntity
  8
Ech.1_5
 62
     7
  6
CONTINUOUS
100
AcDbCircle
 10
52362.02294993
 20
-10550.91682287
 30
0.0
 40
0.5
100
AcDbArc
 50
89.99999999
 51
141.34019175
  0
LINE
  5
65A
100
AcDbEntity
  8
Ech.1_5
 62
     7
  6
CONTINUOUS
100
AcDbLine
 10
52362.7826375
 20
-10555.54383557
 30
0.0
 11
52362.7826375
 21
-10550.41682287
 31
0.0
  0
LINE
  5
65B
100
AcDbEntity
  8
Ech.1_5
 62
     7
  6
CONTINUOUS
100
AcDbLine
 10
52359.8922031
 20
-10552.77986587
 30
0.0
 11
52361.63251552
 21
-10550.60447534
 31
0.0
  0
LINE
  5
65C
100
AcDbEntity
  8
Ech.1_5
 62
     7
  6
CENTER
100
AcDbLine
 10
52363.31228616
 20
-10557.57068845
 30
0.0
 11
52417.31466243
 21
-10560.40083306
 31
0.0
  0
LINE
  5
65D
100
AcDbEntity
  8
Ech.1_5
 62
     7
  6
CONTINUOUS
100
AcDbLine
 10
52380.1821938
 20
-10561.95960605
 30
0.0
 11
52414.13559798
 21
-10563.73902857
 31
0.0
  0
ARC
  5
65E
100
AcDbEntity
  8
Ech.1_5
 62
     7
  6
CONTINUOUS
100
AcDbCircle
 10
52408.67873337
 20
-10559.9482432
 30
0.0
 40
6.64435287
100
AcDbArc
 50
325.21298885
 51
28.78701115
  0
LINE
  5
65F
100
AcDbEntity
  8
Ech.1_5
 62
     7
  6
CONTINUOUS
100
AcDbLine
 10
52414.13559798
 20
-10563.73902857
 30
0.0
 11
52414.50194967
 21
-10556.74862182
 31
0.0
  0
LINE
  5
660
100
AcDbEntity
  8
Ech.1_5
 62
     7
  6
CONTINUOUS
100
AcDbLine
 10
52378.52724162
 20
-10564.87699072
 30
0.0
 11
52367.54231674
 21
-10564.30129521
 31
0.0
  0
LINE
  5
661
100
AcDbEntity
  8
Ech.1_5
 62
     7
  6
CONTINUOUS
100
AcDbLine
 10
52377.2826375
 20
-10568.41682287
 30
0.0
 11
52358.2826375
 21
-10568.41682287
 31
0.0
  0
LINE
  5
662
100
AcDbEntity
  8
Ech.1_5
 62
     7
  6
CONTINUOUS
100
AcDbLine
 10
52376.7826375
 20
-10565.41682287
 30
0.0
 11
52358.7826375
 21
-10565.41682287
 31
0.0
  0
LINE
  5
663
100
AcDbEntity
  8
Ech.1_5
 62
     7
  6
CONTINUOUS
100
AcDbLine
 10
52375.7826375
 20
-10565.41682287
 30
0.0
 11
52375.7826375
 21
-10564.73315212
 31
0.0
  0
ARC
  5
664
100
AcDbEntity
  8
Ech.1_5
 62
     7
  6
CONTINUOUS
100
AcDbCircle
 10
52378.5534096
 20
-10564.37767596
 30
0.0
 40
0.5
100
AcDbArc
 50
267.0
 51
357.00000001
  0
LINE
  5
665
100
AcDbEntity
  8
Ech.1_5
 62
     7
  6
CONTINUOUS
100
AcDbLine
 10
52380.07752188
 20
-10563.95686512
 30
0.0
 11
52379.07889235
 21
-10563.90452917
 31
0.0
  0
ARC
  5
666
100
AcDbEntity
  8
Ech.1_5
 62
     7
  6
CONTINUOUS
100
AcDbCircle
 10
52376.7826375
 20
-10565.91682287
 30
0.0
 40
0.5
100
AcDbArc
 50
360.0
 51
90.0
  0
LINE
  5
667
100
AcDbEntity
  8
Ech.1_5
 62
     7
  6
CONTINUOUS
100
AcDbLine
 10
52375.7826375
 20
-10568.41682287
 30
0.0
 11
52375.7826375
 21
-10565.41682287
 31
0.0
  0
LINE
  5
668
100
AcDbEntity
  8
Ech.1_5
 62
     7
  6
CONTINUOUS
100
AcDbLine
 10
52377.2826375
 20
-10565.91682287
 30
0.0
 11
52377.2826375
 21
-10568.41682287
 31
0.0
  0
LINE
  5
669
100
AcDbEntity
  8
Ech.1_5
 62
     7
  6
CONTINUOUS
100
AcDbLine
 10
52364.7826375
 20
-10573.41682287
 30
0.0
 11
52364.7826375
 21
-10568.41682287
 31
0.0
  0
LINE
  5
66A
100
AcDbEntity
  8
Ech.1_5
 62
     7
  6
CONTINUOUS
100
AcDbLine
 10
52370.7826375
 20
-10573.41682287
 30
0.0
 11
52370.7826375
 21
-10568.41682287
 31
0.0
  0
ARC
  5
66B
100
AcDbEntity
  8
Ech.1_5
 62
     7
  6
CONTINUOUS
100
AcDbCircle
 10
52367.7826375
 20
-10569.3942929
 30
0.0
 40
5.01804218
100
AcDbArc
 50
233.2844502
 51
306.7155498
  0
LINE
  5
66C
100
AcDbEntity
  8
Ech.1_5
 62
     7
  6
CONTINUOUS
100
AcDbLine
 10
52370.7826375
 20
-10573.41682287
 30
0.0
 11
52364.7826375
 21
-10573.41682287
 31
0.0
  0
LINE
  5
66D
100
AcDbEntity
  8
Ech.1_5
 62
     7
  6
CONTINUOUS
100
AcDbLine
 10
52372.7826375
 20
-10565.41682287
 30
0.0
 11
52372.7826375
 21
-10564.57592878
 31
0.0
  0
LINE
  5
66E
100
AcDbEntity
  8
Ech.1_5
 62
     7
  6
CONTINUOUS
100
AcDbLine
 10
52370.7826375
 20
-10567.41682287
 30
0.0
 11
52364.7826375
 21
-10567.41682287
 31
0.0
  0
LINE
  5
66F
100
AcDbEntity
  8
Ech.1_5
 62
     7
  6
CONTINUOUS
100
AcDbLine
 10
52370.7826375
 20
-10568.41682287
 30
0.0
 11
52370.7826375
 21
-10567.41682287
 31
0.0
  0
LINE
  5
670
100
AcDbEntity
  8
Ech.1_5
 62
     7
  6
CONTINUOUS
100
AcDbLine
 10
52364.7826375
 20
-10568.41682287
 30
0.0
 11
52364.7826375
 21
-10567.41682287
 31
0.0
  0
LINE
  5
671
100
AcDbEntity
  8
Ech.1_5
 62
     7
  6
CONTINUOUS
100
AcDbLine
 10
52371.7826375
 20
-10565.71682287
 30
0.0
 11
52363.7826375
 21
-10565.71682287
 31
0.0
  0
LINE
  5
672
100
AcDbEntity
  8
Ech.1_5
 62
     7
  6
CONTINUOUS
100
AcDbLine
 10
52371.7826375
 20
-10565.71682287
 30
0.0
 11
52371.7826375
 21
-10565.41682287
 31
0.0
  0
ARC
  5
673
100
AcDbEntity
  8
Ech.1_5
 62
     7
  6
CONTINUOUS
100
AcDbCircle
 10
52358.7826375
 20
-10565.91682287
 30
0.0
 40
0.5
100
AcDbArc
 50
90.0
 51
180.0
  0
LINE
  5
674
100
AcDbEntity
  8
Ech.1_5
 62
     7
  6
CONTINUOUS
100
AcDbLine
 10
52363.7826375
 20
-10565.71682287
 30
0.0
 11
52363.7826375
 21
-10565.41682287
 31
0.0
  0
LINE
  5
675
100
AcDbEntity
  8
Ech.1_5
 62
     7
  6
CONTINUOUS
100
AcDbLine
 10
52362.7826375
 20
-10565.41682287
 30
0.0
 11
52362.7826375
 21
-10560.0661037
 31
0.0
  0
LINE
  5
676
100
AcDbEntity
  8
Ech.1_5
 62
     7
  6
CONTINUOUS
100
AcDbLine
 10
52359.7826375
 20
-10568.41682287
 30
0.0
 11
52359.7826375
 21
-10565.41682287
 31
0.0
  0
LINE
  5
677
100
AcDbEntity
  8
Ech.1_5
 62
     7
  6
CONTINUOUS
100
AcDbLine
 10
52358.2826375
 20
-10565.91682287
 30
0.0
 11
52358.2826375
 21
-10568.41682287
 31
0.0
  0
ARC
  5
678
100
AcDbEntity
  8
Ech.1_5
 62
     7
  6
CONTINUOUS
100
AcDbCircle
 10
52437.91181744
 20
-10590.66629778
 30
0.0
 40
3.0
100
AcDbArc
 50
180.0000413
 51
270.0
  0
LINE
  5
679
100
AcDbEntity
  8
Ech.1_5
 62
     7
  6
CONTINUOUS
100
AcDbLine
 10
52437.91181744
 20
-10593.66629778
 30
0.0
 11
52447.98021735
 21
-10593.66629778
 31
0.0
  0
ARC
  5
67A
100
AcDbEntity
  8
Ech.1_5
 62
     7
  6
CONTINUOUS
100
AcDbCircle
 10
52447.98021735
 20
-10595.66629778
 30
0.0
 40
2.0
100
AcDbArc
 50
359.98591679
 51
90.0
  0
ARC
  5
67B
100
AcDbEntity
  8
Ech.1_5
 62
     7
  6
CONTINUOUS
100
AcDbCircle
 10
52449.94181744
 20
-10597.16629778
 30
0.0
 40
1.5
100
AcDbArc
 50
10.91126456
 51
88.53307366
  0
LINE
  5
67C
100
AcDbEntity
  8
Ech.1_5
 62
     7
  6
CONTINUOUS
100
AcDbLine
 10
52451.41469971
 20
-10596.88236504
 30
0.0
 11
52451.41469971
 21
-10598.82643301
 31
0.0
  0
ARC
  5
67D
100
AcDbEntity
  8
Ech.1_5
 62
     7
  6
CONTINUOUS
100
AcDbCircle
 10
52450.41469971
 20
-10598.82643301
 30
0.0
 40
1.0
100
AcDbArc
 50
324.35653925
 51
2.7097308111331E-09
  0
ARC
  5
67E
100
AcDbEntity
  8
Ech.1_5
 62
     7
  6
CONTINUOUS
100
AcDbCircle
 10
52441.47545107
 20
-10592.41629778
 30
0.0
 40
12.0
100
AcDbArc
 50
270.0
 51
324.35653925
  0
LINE
  5
67F
100
AcDbEntity
  8
Ech.1_5
 62
     7
  6
CONTINUOUS
100
AcDbLine
 10
52441.47545107
 20
-10604.41629778
 30
0.0
 11
52440.97545107
 21
-10604.41629778
 31
0.0
  0
LINE
  5
680
100
AcDbEntity
  8
Ech.1_5
 62
     7
  6
CONTINUOUS
100
AcDbLine
 10
52440.97545107
 20
-10604.41629778
 30
0.0
 11
52440.97545107
 21
-10606.41629778
 31
0.0
  0
LINE
  5
681
100
AcDbEntity
  8
Ech.1_5
 62
     7
  6
CONTINUOUS
100
AcDbLine
 10
52440.97545107
 20
-10606.41629778
 30
0.0
 11
52439.97545107
 21
-10607.41629778
 31
0.0
  0
LINE
  5
682
100
AcDbEntity
  8
Ech.1_5
 62
     7
  6
CONTINUOUS
100
AcDbLine
 10
52439.97545107
 20
-10607.41629778
 30
0.0
 11
52406.62896293
 21
-10607.41602834
 31
0.0
  0
LINE
  5
683
100
AcDbEntity
  8
Ech.1_5
 62
     7
  6
CONTINUOUS
100
AcDbLine
 10
52406.62896293
 20
-10607.41602834
 30
0.0
 11
52404.46390495
 21
-10603.66603791
 31
0.0
  0
LINE
  5
684
100
AcDbEntity
  8
Ech.1_5
 62
     7
  6
CONTINUOUS
100
AcDbLine
 10
52404.46390495
 20
-10603.66603791
 30
0.0
 11
52409.88004134
 21
-10603.66603791
 31
0.0
  0
LINE
  5
685
100
AcDbEntity
  8
Ech.1_5
 62
     7
  6
CONTINUOUS
100
AcDbLine
 10
52409.88004134
 20
-10603.66603791
 30
0.0
 11
52409.88004134
 21
-10600.76603789
 31
0.0
  0
LINE
  5
686
100
AcDbEntity
  8
Ech.1_5
 62
     7
  6
CONTINUOUS
100
AcDbLine
 10
52409.88004134
 20
-10600.76603789
 30
0.0
 11
52400.414016
 21
-10600.76603789
 31
0.0
  0
ARC
  5
687
100
AcDbEntity
  8
Ech.1_5
 62
     7
  6
CONTINUOUS
100
AcDbCircle
 10
52400.414016
 20
-10599.76603789
 30
0.0
 40
1.0
100
AcDbArc
 50
180.00000082
 51
270.0
  0
LINE
  5
688
100
AcDbEntity
  8
Ech.1_5
 62
     7
  6
CONTINUOUS
100
AcDbLine
 10
52399.414016
 20
-10599.7660379
 30
0.0
 11
52399.41401596
 21
-10597.42691374
 31
0.0
  0
LINE
  5
689
100
AcDbEntity
  8
Ech.1_5
 62
     7
  6
CONTINUOUS
100
AcDbLine
 10
52399.41401596
 20
-10597.42691374
 30
0.0
 11
52405.41401628
 21
-10593.22689535
 31
0.0
  0
LINE
  5
68A
100
AcDbEntity
  8
Ech.1_5
 62
     7
  6
CONTINUOUS
100
AcDbLine
 10
52405.41401628
 20
-10593.22689535
 30
0.0
 11
52405.41401628
 21
-10589.02691369
 31
0.0
  0
LINE
  5
68B
100
AcDbEntity
  8
Ech.1_5
 62
     7
  6
CONTINUOUS
100
AcDbLine
 10
52405.41401628
 20
-10589.02691369
 30
0.0
 11
52397.41401562
 21
-10587.61629772
 31
0.0
  0
LINE
  5
68C
100
AcDbEntity
  8
Ech.1_5
 62
     7
  6
CONTINUOUS
100
AcDbLine
 10
52397.41401562
 20
-10587.61629772
 30
0.0
 11
52397.41401487
 21
-10585.61629995
 31
0.0
  0
LINE
  5
68D
100
AcDbEntity
  8
Ech.1_5
 62
     7
  6
CONTINUOUS
100
AcDbLine
 10
52397.41401487
 20
-10585.61629995
 30
0.0
 11
52399.61401596
 21
-10585.61629995
 31
0.0
  0
LINE
  5
68E
100
AcDbEntity
  8
Ech.1_5
 62
     7
  6
CONTINUOUS
100
AcDbLine
 10
52399.61401596
 20
-10585.61629995
 30
0.0
 11
52399.61401596
 21
-10583.61629995
 31
0.0
  0
LINE
  5
68F
100
AcDbEntity
  8
Ech.1_5
 62
     7
  6
CONTINUOUS
100
AcDbLine
 10
52399.61401596
 20
-10583.61629995
 30
0.0
 11
52408.91401596
 21
-10583.61629995
 31
0.0
  0
LINE
  5
690
100
AcDbEntity
  8
Ech.1_5
 62
     7
  6
CONTINUOUS
100
AcDbLine
 10
52408.91401596
 20
-10583.61629995
 30
0.0
 11
52408.91401596
 21
-10571.41629995
 31
0.0
  0
LINE
  5
691
100
AcDbEntity
  8
Ech.1_5
 62
     7
  6
CONTINUOUS
100
AcDbLine
 10
52408.91401596
 20
-10571.41629995
 30
0.0
 11
52399.61401596
 21
-10571.41629995
 31
0.0
  0
LINE
  5
692
100
AcDbEntity
  8
Ech.1_5
 62
     7
  6
CONTINUOUS
100
AcDbLine
 10
52399.61401596
 20
-10571.41629995
 30
0.0
 11
52399.61401596
 21
-10569.41629995
 31
0.0
  0
LINE
  5
693
100
AcDbEntity
  8
Ech.1_5
 62
     7
  6
CONTINUOUS
100
AcDbLine
 10
52399.61401596
 20
-10569.41629995
 30
0.0
 11
52397.41400899
 21
-10569.41629995
 31
0.0
  0
LINE
  5
694
100
AcDbEntity
  8
Ech.1_5
 62
     7
  6
CONTINUOUS
100
AcDbLine
 10
52397.41400899
 20
-10569.41629995
 30
0.0
 11
52397.41400866
 21
-10568.41629778
 31
0.0
  0
LINE
  5
695
100
AcDbEntity
  8
Ech.1_5
 62
     7
  6
CONTINUOUS
100
AcDbLine
 10
52397.41400866
 20
-10568.41629778
 30
0.0
 11
52402.91400866
 21
-10568.41629778
 31
0.0
  0
LINE
  5
696
100
AcDbEntity
  8
Ech.1_5
 62
     7
  6
CONTINUOUS
100
AcDbLine
 10
52402.91400866
 20
-10568.41629778
 30
0.0
 11
52402.91400866
 21
-10565.41629778
 31
0.0
  0
LINE
  5
697
100
AcDbEntity
  8
Ech.1_5
 62
     7
  6
CONTINUOUS
100
AcDbLine
 10
52402.91400866
 20
-10565.41629778
 30
0.0
 11
52381.41400866
 21
-10565.41629778
 31
0.0
  0
ARC
  5
698
100
AcDbEntity
  8
Ech.1_5
 62
     7
  6
CONTINUOUS
100
AcDbCircle
 10
52381.41400866
 20
-10563.41629778
 30
0.0
 40
2.0
100
AcDbArc
 50
180.0
 51
270.0
  0
LINE
  5
699
100
AcDbEntity
  8
Ech.1_5
 62
     7
  6
CONTINUOUS
100
AcDbLine
 10
52379.41400866
 20
-10563.41629778
 30
0.0
 11
52379.41400866
 21
-10554.91629788
 31
0.0
  0
ARC
  5
69A
100
AcDbEntity
  8
Ech.1_5
 62
     7
  6
CONTINUOUS
100
AcDbCircle
 10
52384.41400866
 20
-10554.91629788
 30
0.0
 40
5.0
100
AcDbArc
 50
89.99999541
 51
180.0
  0
LINE
  5
69B
100
AcDbEntity
  8
Ech.1_5
 62
     7
  6
CONTINUOUS
100
AcDbLine
 10
52384.41400906
 20
-10549.91629788
 30
0.0
 11
52439.97545657
 21
-10549.91630329
 31
0.0
  0
LINE
  5
69C
100
AcDbEntity
  8
Ech.1_5
 62
     7
  6
CONTINUOUS
100
AcDbLine
 10
52439.97545657
 20
-10549.91630329
 30
0.0
 11
52440.97545107
 21
-10550.91629778
 31
0.0
  0
LINE
  5
69D
100
AcDbEntity
  8
Ech.1_5
 62
     7
  6
CONTINUOUS
100
AcDbLine
 10
52440.97545107
 20
-10550.91629778
 30
0.0
 11
52440.97545107
 21
-10552.91629778
 31
0.0
  0
LINE
  5
69E
100
AcDbEntity
  8
Ech.1_5
 62
     7
  6
CONTINUOUS
100
AcDbLine
 10
52440.97545107
 20
-10552.91629778
 30
0.0
 11
52441.47545107
 21
-10552.91629778
 31
0.0
  0
ARC
  5
69F
100
AcDbEntity
  8
Ech.1_5
 62
     7
  6
CONTINUOUS
100
AcDbCircle
 10
52441.47545107
 20
-10564.91629778
 30
0.0
 40
12.0
100
AcDbArc
 50
35.64346075
 51
90.0
  0
ARC
  5
6A0
100
AcDbEntity
  8
Ech.1_5
 62
     7
  6
CONTINUOUS
100
AcDbCircle
 10
52450.41469971
 20
-10558.50616255
 30
0.0
 40
1.0
100
AcDbArc
 50
4.3772574625139E-09
 51
35.64346074
  0
LINE
  5
6A1
100
AcDbEntity
  8
Ech.1_5
 62
     7
  6
CONTINUOUS
100
AcDbLine
 10
52451.41469971
 20
-10558.50616255
 30
0.0
 11
52451.41469971
 21
-10560.45023053
 31
0.0
  0
ARC
  5
6A2
100
AcDbEntity
  8
Ech.1_5
 62
     7
  6
CONTINUOUS
100
AcDbCircle
 10
52449.94181744
 20
-10560.16629778
 30
0.0
 40
1.5
100
AcDbArc
 50
271.46692634
 51
349.08873545
  0
ARC
  5
6A3
100
AcDbEntity
  8
Ech.1_5
 62
     7
  6
CONTINUOUS
100
AcDbCircle
 10
52447.98021735
 20
-10561.66629778
 30
0.0
 40
2.0
100
AcDbArc
 50
270.0
 51
0.01408321
  0
LINE
  5
6A4
100
AcDbEntity
  8
Ech.1_5
 62
     7
  6
CONTINUOUS
100
AcDbLine
 10
52447.98021735
 20
-10563.66629778
 30
0.0
 11
52437.91180014
 21
-10563.66629778
 31
0.0
  0
ARC
  5
6A5
100
AcDbEntity
  8
Ech.1_5
 62
     7
  6
CONTINUOUS
100
AcDbCircle
 10
52437.91180014
 20
-10566.66629778
 30
0.0
 40
3.0
100
AcDbArc
 50
90.0
 51
180.0000413
  0
LINE
  5
6A6
100
AcDbEntity
  8
Ech.1_5
 62
     7
  6
CONTINUOUS
100
AcDbLine
 10
52434.91180014
 20
-10566.66629995
 30
0.0
 11
52434.91181744
 21
-10590.66629995
 31
0.0
  0
LWPOLYLINE
  5
6A7
100
AcDbEntity
  8
Ech.1_5
 62
     7
  6
CONTINUOUS
100
AcDbPolyline
 90
        5
 70
     0
 43
0.0
 10
52382.59413589
 20
-10566.01629778
 42
-0.73157417
 10
52382.53057459
 20
-10567.47059523
 42
0.1352145
 10
52381.22372559
 20
-10567.23710614
 42
-0.92591457
 10
52381.22372559
 20
-10566.01629778
 10
52382.59413589
 20
-10566.01629778
  0
LWPOLYLINE
  5
6A8
100
AcDbEntity
  8
Ech.1_5
 62
     7
  6
CONTINUOUS
100
AcDbPolyline
 90
       65
 70
     0
 43
0.0
 10
52382.52360648
 20
-10567.46728019
 10
52382.56139833
 20
-10567.47705569
 10
52382.59891017
 20
-10567.48648248
 10
52382.63586391
 20
-10567.49521429
 10
52382.67198147
 20
-10567.50290483
 10
52382.70698479
 20
-10567.50920782
 10
52382.74059577
 20
-10567.51377696
 10
52382.77253635
 20
-10567.51626597
 10
52382.80252844
 20
-10567.51632857
 10
52382.83029397
 20
-10567.51361847
 10
52382.85555485
 20
-10567.50778939
 10
52382.87803301
 20
-10567.49849504
 10
52382.89745037
 20
-10567.48538914
 10
52382.91352886
 20
-10567.46812539
 10
52382.92610279
 20
-10567.44649318
 10
52382.93552385
 20
-10567.42090627
 10
52382.94229244
 20
-10567.39195793
 10
52382.946909
 20
-10567.36024146
 10
52382.94987396
 20
-10567.32635015
 10
52382.95168773
 20
-10567.2908773
 10
52382.95285075
 20
-10567.2544162
 10
52382.95386344
 20
-10567.21756014
 10
52382.95522624
 20
-10567.18090242
 10
52382.95743957
 20
-10567.14503632
 10
52382.96100386
 20
-10567.11055515
 10
52382.96641954
 20
-10567.0780522
 10
52382.97418703
 20
-10567.04812076
 10
52382.98480676
 20
-10567.02135412
 10
52382.99877917
 20
-10566.99834558
 10
52383.01660466
 20
-10566.97968843
 10
52383.03878369
 20
-10566.96597597
 10
52383.06577464
 20
-10566.95780161
 10
52383.09619731
 20
-10566.95576436
 10
52383.12615754
 20
-10566.96047085
 10
52383.1523729
 20
-10566.97223419
 10
52383.17445603
 20
-10566.99029389
 10
52383.19268003
 20
-10567.01364454
 10
52383.20731804
 20
-10567.04128071
 10
52383.21864317
 20
-10567.07219699
 10
52383.22692853
 20
-10567.10538797
 10
52383.23244725
 20
-10567.13984823
 10
52383.23547321
 20
-10567.17457776
 10
52383.23632897
 20
-10567.20892382
 10
52383.23541449
 20
-10567.24278539
 10
52383.23313658
 20
-10567.27611048
 10
52383.22990206
 20
-10567.30884714
 10
52383.22611776
 20
-10567.34094339
 10
52383.2221905
 20
-10567.37234725
 10
52383.2185271
 20
-10567.40300677
 10
52383.21553438
 20
-10567.43286996
 10
52383.21361917
 20
-10567.46188485
 10
52383.21318828
 20
-10567.48999949
 10
52383.21464854
 20
-10567.51716189
 10
52383.21840677
 20
-10567.54332008
 10
52383.22486979
 20
-10567.5684221
 10
52383.23444443
 20
-10567.59241597
 10
52383.24741795
 20
-10567.61527649
 10
52383.26355929
 20
-10567.63709448
 10
52383.28249692
 20
-10567.65799221
 10
52383.30385931
 20
-10567.67809195
 10
52383.32727494
 20
-10567.69751597
 10
52383.35237229
 20
-10567.71638654
 10
52383.37877981
 20
-10567.73482593
 10
52383.40612599
 20
-10567.75295641
 10
52383.43403931
 20
-10567.77090025
  0
LWPOLYLINE
  5
6A9
100
AcDbEntity
  8
Ech.1_5
 62
     7
  6
CONTINUOUS
100
AcDbPolyline
 90
       40
 70
     0
 43
0.0
 10
52382.52360648
 20
-10567.46728019
 42
0.20099848
 10
52380.59416331
 20
-10567.37885111
 42
-0.55145662
 10
52380.46023052
 20
-10567.27554567
 42
0.1294239
 10
52380.27597337
 20
-10566.1571377
 42
-0.54354517
 10
52380.36725372
 20
-10566.01629778
 10
52382.59413589
 20
-10566.01629778
 10
52382.59413589
 20
-10566.01629778
 10
52383.09413589
 20
-10566.51629778
 10
52383.59413589
 20
-10566.01629778
 10
52396.71400866
 20
-10566.01629778
 42
-0.41421356
 10
52396.81400866
 20
-10566.11629778
 10
52396.81400866
 20
-10569.31629778
 42
0.41421356
 10
52396.91400866
 20
-10569.41629778
 10
52397.31400866
 20
-10569.41629778
 42
0.41421356
 10
52397.41400866
 20
-10569.31629778
 10
52397.41400866
 20
-10566.51629778
 42
-0.41421356
 10
52397.51400866
 20
-10566.41629778
 10
52399.96336484
 20
-10566.41629778
 42
-0.74863712
 10
52400.01741889
 20
-10566.60042958
 10
52398.06093965
 20
-10567.85745295
 42
0.41421356
 10
52398.03086191
 20
-10567.9956388
 10
52398.24707813
 20
-10568.33216599
 42
0.41421356
 10
52398.38526398
 20
-10568.36224373
 10
52401.36806272
 20
-10566.44581771
 42
0.25526652
 10
52401.41400866
 20
-10566.36168592
 10
52401.41400866
 20
-10565.51629778
 42
0.41421356
 10
52401.31400866
 20
-10565.41629778
 10
52379.71400866
 20
-10565.41629778
 42
0.41421356
 10
52379.61400866
 20
-10565.51629778
 10
52379.61400866
 20
-10565.98291624
 42
0.16012282
 10
52379.63350743
 20
-10566.04224205
 42
-0.24300643
 10
52379.88330247
 20
-10567.60673645
 42
-0.06909489
 10
52379.87117943
 20
-10567.63142748
 42
0.7595554
 10
52380.27733283
 20
-10568.10896533
 42
-0.27525427
 10
52382.31507537
 20
-10567.92177157
 42
0.2097
 10
52386.51866432
 20
-10567.98996136
 42
0.9750995
 10
52386.32525032
 20
-10567.52888542
 42
-0.15529906
 10
52383.46605018
 20
-10567.78418002
 42
-0.06565639
 10
52383.44148762
 20
-10567.77520818
 42
-0.02152096
 10
52383.43403931
 20
-10567.77090025
  0
LINE
  5
6AA
100
AcDbEntity
  8
Ech.1_5
 62
     7
  6
CONTINUOUS
100
AcDbLine
 10
52400.414016
 20
-10600.76603789
 30
0.0
 11
52401.314016
 21
-10600.7660505
 31
0.0
  0
LINE
  5
6AB
100
AcDbEntity
  8
Ech.1_5
 62
     7
  6
CONTINUOUS
100
AcDbLine
 10
52401.31399919
 20
-10601.96605051
 30
0.0
 11
52403.4154287
 21
-10601.96607993
 31
0.0
  0
LINE
  5
6AC
100
AcDbEntity
  8
Ech.1_5
 62
     7
  6
CONTINUOUS
100
AcDbLine
 10
52404.27159329
 20
-10600.76609194
 30
0.0
 11
52404.77159329
 21
-10600.76609894
 31
0.0
  0
LINE
  5
6AD
100
AcDbEntity
  8
Ech.1_5
 62
     7
  6
CONTINUOUS
100
AcDbLine
 10
52401.31399919
 20
-10601.96605051
 30
0.0
 11
52401.31401601
 21
-10600.7660505
 31
0.0
  0
LINE
  5
6AE
100
AcDbEntity
  8
Ech.1_5
 62
     7
  6
CONTINUOUS
100
AcDbLine
 10
52401.314016
 20
-10600.7660505
 30
0.0
 11
52404.27159329
 21
-10600.76609194
 31
0.0
  0
LINE
  5
6AF
100
AcDbEntity
  8
Ech.1_5
 62
     7
  6
CONTINUOUS
100
AcDbLine
 10
52407.4367842
 20
-10601.96613625
 30
0.0
 11
52407.46518382
 21
-10601.96613665
 31
0.0
  0
LINE
  5
6B0
100
AcDbEntity
  8
Ech.1_5
 62
     7
  6
CONTINUOUS
100
AcDbLine
 10
52408.207567
 20
-10601.96614704
 30
0.0
 11
52409.11115648
 21
-10601.9661597
 31
0.0
  0
LINE
  5
6B1
100
AcDbEntity
  8
Ech.1_5
 62
     7
  6
CONTINUOUS
100
AcDbLine
 10
52406.335477
 20
-10601.96612083
 30
0.0
 11
52407.4367842
 21
-10601.96613625
 31
0.0
  0
ARC
  5
6B2
100
AcDbEntity
  8
Ech.1_5
 62
     7
  6
CONTINUOUS
100
AcDbCircle
 10
52408.11115603
 20
-10601.99819596
 30
0.0
 40
1.0
100
AcDbArc
 50
329.99915113
 51
359.99919763
  0
ARC
  5
6B3
100
AcDbEntity
  8
Ech.1_5
 62
     7
  6
CONTINUOUS
100
AcDbCircle
 10
52408.31116208
 20
-10601.5661484
 30
0.0
 40
0.8
100
AcDbArc
 50
359.99919762
 51
89.99234457
  0
LINE
  5
6B4
100
AcDbEntity
  8
Ech.1_5
 62
     7
  6
CONTINUOUS
100
AcDbLine
 10
52409.11115603
 20
-10601.99820997
 30
0.0
 11
52409.11116208
 21
-10601.5661596
 31
0.0
  0
LINE
  5
6B5
100
AcDbEntity
  8
Ech.1_5
 62
     7
  6
CONTINUOUS
100
AcDbLine
 10
52408.31126897
 20
-10600.7661484
 30
0.0
 11
52408.11245878
 21
-10600.76614562
 31
0.0
  0
LINE
  5
6B6
100
AcDbEntity
  8
Ech.1_5
 62
     7
  6
CONTINUOUS
100
AcDbLine
 10
52408.11245878
 20
-10600.76614562
 30
0.0
 11
52407.97271106
 21
-10600.76614367
 31
0.0
  0
LINE
  5
6B7
100
AcDbEntity
  8
Ech.1_5
 62
     7
  6
CONTINUOUS
100
AcDbLine
 10
52407.46518382
 20
-10601.96613665
 30
0.0
 11
52408.207567
 21
-10601.96614704
 31
0.0
  0
LINE
  5
6B8
100
AcDbEntity
  8
Ech.1_5
 62
     7
  6
CONTINUOUS
100
AcDbLine
 10
52403.4154287
 20
-10601.96607993
 30
0.0
 11
52406.335477
 21
-10601.96612083
 31
0.0
  0
LINE
  5
6B9
100
AcDbEntity
  8
Ech.1_5
 62
     7
  6
CONTINUOUS
100
AcDbLine
 10
52407.97271106
 20
-10600.76614367
 30
0.0
 11
52404.77159329
 21
-10600.76609894
 31
0.0
  0
HATCH
  5
6BA
100
AcDbEntity
  8
Ech.1_5
 62
     7
100
AcDbHatch
 10
0.0
 20
0.0
 30
0.0
210
0.0
220
0.0
230
1.0
  2
_USER_1
 70
     0
 71
     0
 91
        1
 92
        7
 72
     0
 73
     1
 93
       19
 10
52409.11116208
 20
-10601.5661596
 10
52409.11115648
 20
-10601.9661597
 10
52401.31399919
 20
-10601.96605051
 10
52401.31401601
 20
-10600.7660505
 10
52404.27159329
 20
-10600.76609194
 10
52404.77159329
 20
-10600.76609894
 10
52407.97271106
 20
-10600.76614367
 10
52408.11245878
 20
-10600.76614562
 10
52408.31126897
 20
-10600.7661484
 10
52408.42511115
 20
-10600.77430522
 10
52408.536634
 20
-10600.79857924
 10
52408.64356759
 20
-10600.83847637
 10
52408.74373539
 20
-10600.89318455
 10
52408.83509858
 20
-10600.96159026
 10
52408.91579756
 20
-10601.04230115
 10
52408.98418978
 20
-10601.13367444
 10
52409.03888318
 20
-10601.23385032
 10
52409.07876452
 20
-10601.34078979
 10
52409.10302207
 20
-10601.45231623
 97
        0
 75
     0
 76
     2
 52
0.0
 41
1.0
 77
     0
 78
     1
 53
135.00079346
 43
0.0
 44
0.0
 45
-1.76774247
 46
-1.76779143
 79
     2
 49
50.0
 49
0.0
 47
0.775229
 98
        1
 10
0.0
 20
0.0
  0
ARC
  5
6BB
100
AcDbEntity
  8
Ech.1_5
 62
     7
  6
CONTINUOUS
100
AcDbCircle
 10
52403.11540358
 20
-10603.76031159
 30
0.0
 40
0.3
100
AcDbArc
 50
269.99919763
 51
359.99919763
  0
LINE
  5
6BC
100
AcDbEntity
  8
Ech.1_5
 62
     7
  6
CONTINUOUS
100
AcDbLine
 10
52401.61396986
 20
-10604.06029056
 30
0.0
 11
52403.11539938
 21
-10604.06031159
 31
0.0
  0
ARC
  5
6BD
100
AcDbEntity
  8
Ech.1_5
 62
     7
  6
CONTINUOUS
100
AcDbCircle
 10
52404.06421635
 20
-10605.16032487
 30
0.0
 40
0.3
100
AcDbArc
 50
29.99919762
 51
89.99919763
  0
ARC
  5
6BE
100
AcDbEntity
  8
Ech.1_5
 62
     7
  6
CONTINUOUS
100
AcDbCircle
 10
52401.58785203
 20
-10605.16029019
 30
0.0
 40
0.3
100
AcDbArc
 50
89.99919762
 51
171.66297769
  0
ARC
  5
6BF
100
AcDbEntity
  8
Ech.1_5
 62
     7
  6
CONTINUOUS
100
AcDbCircle
 10
52401.61397406
 20
-10603.76029056
 30
0.0
 40
0.3
100
AcDbArc
 50
179.99919764
 51
269.99919762
  0
ARC
  5
6C0
100
AcDbEntity
  8
Ech.1_5
 62
     7
  6
CONTINUOUS
100
AcDbCircle
 10
52405.28000632
 20
-10603.26610594
 30
0.0
 40
1.0
100
AcDbArc
 50
179.99919763
 51
209.99919762
  0
ARC
  5
6C1
100
AcDbEntity
  8
Ech.1_5
 62
     7
  6
CONTINUOUS
100
AcDbCircle
 10
52405.07248631
 20
-10605.90673189
 30
0.0
 40
0.2
100
AcDbArc
 50
209.99919762
 51
269.99919763
  0
LINE
  5
6C2
100
AcDbEntity
  8
Ech.1_5
 62
     7
  6
CONTINUOUS
100
AcDbLine
 10
52404.06422055
 20
-10604.86032487
 30
0.0
 11
52401.58785623
 21
-10604.86029019
 31
0.0
  0
LINE
  5
6C3
100
AcDbEntity
  8
Ech.1_5
 62
     7
  6
CONTINUOUS
100
AcDbLine
 10
52404.89927983
 20
-10606.00672946
 30
0.0
 11
52404.32402607
 21
-10605.01032851
 31
0.0
  0
ARC
  5
6C4
100
AcDbEntity
  8
Ech.1_5
 62
     7
  6
CONTINUOUS
100
AcDbCircle
 10
52401.1291646
 20
-10607.04328179
 30
0.0
 40
0.71967841
100
AcDbArc
 50
186.3682794
 51
272.15422193
  0
ARC
  5
6C5
100
AcDbEntity
  8
Ech.1_5
 62
     7
  6
CONTINUOUS
100
AcDbCircle
 10
52401.3283202
 20
-10607.35376915
 30
0.0
 40
0.2
100
AcDbArc
 50
94.75462475
 51
160.23931181
  0
ARC
  5
6C6
100
AcDbEntity
  8
Ech.1_5
 62
     7
  6
CONTINUOUS
100
AcDbCircle
 10
52403.91787974
 20
-10607.46933508
 30
0.0
 40
0.3
100
AcDbArc
 50
41.62452238
 51
94.75462473
  0
ARC
  5
6C7
100
AcDbEntity
  8
Ech.1_5
 62
     7
  6
CONTINUOUS
100
AcDbCircle
 10
52401.04311061
 20
-10607.16225693
 30
0.0
 40
0.15734085
100
AcDbArc
 50
100.68854034
 51
308.05468956
  0
ARC
  5
6C8
100
AcDbEntity
  8
Ech.1_5
 62
     7
  6
CONTINUOUS
100
AcDbCircle
 10
52404.30449964
 20
-10607.19030006
 30
0.0
 40
0.18089908
100
AcDbArc
 50
206.16228875
 51
94.07750255
  0
LINE
  5
6C9
100
AcDbEntity
  8
Ech.1_5
 62
     7
  6
CONTINUOUS
100
AcDbLine
 10
52401.31174247
 20
-10607.15445738
 30
0.0
 11
52403.89301315
 21
-10607.17036743
 31
0.0
  0
LINE
  5
6CA
100
AcDbEntity
  8
Ech.1_5
 62
     7
  6
CONTINUOUS
100
AcDbLine
 10
52401.29102234
 20
-10605.11679152
 30
0.0
 11
52401.01392859
 21
-10607.00764596
 31
0.0
  0
ARC
  5
6CB
100
AcDbEntity
  8
Ech.1_5
 62
     7
  6
CONTINUOUS
100
AcDbCircle
 10
52405.97277907
 20
-10606.66611572
 30
0.0
 40
0.1
100
AcDbArc
 50
273.32793488
 51
29.99919764
  0
ARC
  5
6CC
100
AcDbEntity
  8
Ech.1_5
 62
     7
  6
CONTINUOUS
100
AcDbCircle
 10
52405.932182
 20
-10605.96795775
 30
0.0
 40
0.79933731
100
AcDbArc
 50
262.62351877
 51
273.32793487
  0
ARC
  5
6CD
100
AcDbEntity
  8
Ech.1_5
 62
     7
  6
CONTINUOUS
100
AcDbCircle
 10
52407.15781796
 20
-10602.96764975
 30
0.0
 40
0.3
100
AcDbArc
 50
123.72102228
 51
293.65562081
  0
LINE
  5
6CE
100
AcDbEntity
  8
Ech.1_5
 62
     7
  6
CONTINUOUS
100
AcDbLine
 10
52406.05938231
 20
-10606.61611693
 30
0.0
 11
52404.41397391
 21
-10603.76609381
 31
0.0
  0
ARC
  5
6CF
100
AcDbEntity
  8
Ech.1_5
 62
     7
  6
CONTINUOUS
100
AcDbCircle
 10
52405.1613964
 20
-10602.97560747
 30
0.0
 40
0.3
100
AcDbArc
 50
130.57753821
 51
300.51213674
  0
LINE
  5
6D0
100
AcDbEntity
  8
Ech.1_5
 62
     7
  6
CONTINUOUS
100
AcDbLine
 10
52408.97717403
 20
-10602.49820879
 30
0.0
 11
52407.27818948
 21
-10603.24244185
 31
0.0
  0
LINE
  5
6D1
100
AcDbEntity
  8
Ech.1_5
 62
     7
  6
CONTINUOUS
100
AcDbLine
 10
52400.41392697
 20
-10607.12310761
 30
0.0
 11
52400.414016
 21
-10600.76603789
 31
0.0
  0
LINE
  5
6D2
100
AcDbEntity
  8
Ech.1_5
 62
     7
  6
CONTINUOUS
100
AcDbLine
 10
52403.4154287
 20
-10601.96607993
 30
0.0
 11
52403.41540358
 21
-10603.76031579
 31
0.0
  0
LINE
  5
6D3
100
AcDbEntity
  8
Ech.1_5
 62
     7
  6
CONTINUOUS
100
AcDbLine
 10
52401.31397406
 20
-10603.76028636
 30
0.0
 11
52401.31399919
 21
-10601.96605051
 31
0.0
  0
LINE
  5
6D4
100
AcDbEntity
  8
Ech.1_5
 62
     7
  6
CONTINUOUS
100
AcDbLine
 10
52404.28002452
 20
-10601.96609204
 30
0.0
 11
52404.28000632
 21
-10603.26609194
 31
0.0
  0
LINE
  5
6D5
100
AcDbEntity
  8
Ech.1_5
 62
     7
  6
CONTINUOUS
100
AcDbLine
 10
52408.117922
 20
-10601.96614579
 30
0.0
 11
52406.99127307
 21
-10602.71812461
 31
0.0
  0
LINE
  5
6D6
100
AcDbEntity
  8
Ech.1_5
 62
     7
  6
CONTINUOUS
100
AcDbLine
 10
52405.87892667
 20
-10601.96611443
 30
0.0
 11
52404.96625345
 21
-10602.74774955
 31
0.0
  0
LINE
  5
6D7
100
AcDbEntity
  8
Ech.1_5
 62
     7
  6
CONTINUOUS
100
AcDbLine
 10
52407.46518382
 20
-10601.96613665
 30
0.0
 11
52405.31371266
 21
-10603.23406396
 31
0.0
  0
ARC
  5
6D8
100
AcDbEntity
  8
Ech.1_5
 62
     7
  6
CONTINUOUS
100
AcDbCircle
 10
52405.81252871
 20
-10607.41531318
 30
0.0
 40
0.35
100
AcDbArc
 50
44.75462472
 51
82.47710656
  0
ARC
  5
6D9
100
AcDbEntity
  8
Ech.1_5
 62
     7
  6
CONTINUOUS
100
AcDbCircle
 10
52405.81252871
 20
-10607.41531318
 30
0.0
 40
0.35
100
AcDbArc
 50
274.75462476
 51
314.75462473
  0
ARC
  5
6DA
100
AcDbEntity
  8
Ech.1_5
 62
     7
  6
CONTINUOUS
100
AcDbCircle
 10
52405.81252871
 20
-10607.41531318
 30
0.0
 40
0.35
100
AcDbArc
 50
314.75462474
 51
44.75462474
  0
LINE
  5
6DB
100
AcDbEntity
  8
Ech.1_5
 62
     7
  6
CONTINUOUS
100
AcDbLine
 10
52401.15621688
 20
-10607.76245159
 30
0.0
 11
52405.84153973
 21
-10607.76410876
 31
0.0
  0
LINE
  5
6DC
100
AcDbEntity
  8
Ech.1_5
 62
     7
  6
CONTINUOUS
100
AcDbLine
 10
52405.85835152
 20
-10607.06832576
 30
0.0
 11
52405.02207242
 21
-10606.83445767
 31
0.0
  0
ARC
  5
6DD
100
AcDbEntity
  8
Ech.1_5
 62
     7
  6
CONTINUOUS
100
AcDbCircle
 10
52405.04222977
 20
-10606.23390503
 30
0.0
 40
0.13072221
100
AcDbArc
 50
175.44010615
 51
76.61841136
  0
LINE
  5
6DE
100
AcDbEntity
  8
Ech.1_5
 62
     7
  6
CONTINUOUS
100
AcDbLine
 10
52405.82955626
 20
-10606.7606797
 30
0.0
 11
52404.85476418
 21
-10606.59462225
 31
0.0
  0
LINE
  5
6DF
100
AcDbEntity
  8
Ech.1_5
 62
     7
  6
CONTINUOUS
100
AcDbLine
 10
52404.29163667
 20
-10607.00985888
 30
0.0
 11
52403.61438301
 21
-10606.91470904
 31
0.0
  0
ARC
  5
6E0
100
AcDbEntity
  8
Ech.1_5
 62
     7
  6
CONTINUOUS
100
AcDbCircle
 10
52403.69395194
 20
-10606.06224682
 30
0.0
 40
0.85616766
100
AcDbArc
 50
220.10312529
 51
264.66745481
  0
ARC
  5
6E1
100
AcDbEntity
  8
Ech.1_5
 62
     7
  6
CONTINUOUS
100
AcDbCircle
 10
52403.11556969
 20
-10606.54934382
 30
0.0
 40
0.1
100
AcDbArc
 50
138.94922935
 51
220.10312531
  0
ARC
  5
6E2
100
AcDbEntity
  8
Ech.1_5
 62
     7
  6
CONTINUOUS
100
AcDbCircle
 10
52403.69395194
 20
-10606.06224682
 30
0.0
 40
0.85616766
100
AcDbArc
 50
146.09413302
 51
179.34195758
  0
ARC
  5
6E3
100
AcDbEntity
  8
Ech.1_5
 62
     7
  6
CONTINUOUS
100
AcDbCircle
 10
52403.06636669
 20
-10605.64043374
 30
0.0
 40
0.1
100
AcDbArc
 50
65.1272658
 51
146.09413297
  0
ARC
  5
6E4
100
AcDbEntity
  8
Ech.1_5
 62
     7
  6
CONTINUOUS
100
AcDbCircle
 10
52403.69395194
 20
-10606.06224682
 30
0.0
 40
0.45616766
100
AcDbArc
 50
108.45221529
 51
264.66745481
  0
ARC
  5
6E5
100
AcDbEntity
  8
Ech.1_5
 62
     7
  6
CONTINUOUS
100
AcDbCircle
 10
52401.99324614
 20
-10616.77519677
 30
0.0
 40
10.39192391
100
AcDbArc
 50
73.05463793
 51
80.8176593
  0
ARC
  5
6E6
100
AcDbEntity
  8
Ech.1_5
 62
     7
  6
CONTINUOUS
100
AcDbCircle
 10
52404.88899321
 20
-10606.18763292
 30
0.0
 40
0.40842618
100
AcDbArc
 50
226.93764348
 51
265.19256514
  0
LINE
  5
6E7
100
AcDbEntity
  8
Ech.1_5
 62
     7
  6
CONTINUOUS
100
AcDbLine
 10
52404.91192133
 20
-10606.22351246
 30
0.0
 11
52404.12657483
 21
-10605.32066398
 31
0.0
  0
LINE
  5
6E8
100
AcDbEntity
  8
Ech.1_5
 62
     7
  6
CONTINUOUS
100
AcDbLine
 10
52404.6101223
 20
-10606.48603359
 30
0.0
 11
52403.88417699
 21
-10605.65147379
 31
0.0
  0
ARC
  5
6E9
100
AcDbEntity
  8
Ech.1_5
 62
     7
  6
CONTINUOUS
100
AcDbCircle
 10
52403.67861433
 20
-10606.22392895
 30
0.0
 40
1.00824413
100
AcDbArc
 50
63.62158809
 51
101.93839713
  0
ARC
  5
6EA
100
AcDbEntity
  8
Ech.1_5
 62
     7
  6
CONTINUOUS
100
AcDbCircle
 10
52403.67861433
 20
-10606.22392895
 30
0.0
 40
0.60824413
100
AcDbArc
 50
70.24731718
 51
102.24902159
  0
ARC
  5
6EB
100
AcDbEntity
  8
Ech.1_5
 62
     7
  6
CONTINUOUS
100
AcDbCircle
 10
52402.88800892
 20
-10606.35117397
 30
0.0
 40
0.20175353
100
AcDbArc
 50
318.94922937
 51
80.4958535
  0
ARC
  5
6EC
100
AcDbEntity
  8
Ech.1_5
 62
     7
  6
CONTINUOUS
100
AcDbCircle
 10
52402.93783415
 20
-10606.05356242
 30
0.0
 40
0.1
100
AcDbArc
 50
179.34195755
 51
260.49585354
  0
ARC
  5
6ED
100
AcDbEntity
  8
Ech.1_5
 62
     7
  6
CONTINUOUS
100
AcDbCircle
 10
52403.19254792
 20
-10605.36826045
 30
0.0
 40
0.2
100
AcDbArc
 50
245.1272658
 51
6.30202509
  0
ARC
  5
6EE
100
AcDbEntity
  8
Ech.1_5
 62
     7
  6
CONTINUOUS
100
AcDbCircle
 10
52403.49073505
 20
-10605.33532962
 30
0.0
 40
0.1
100
AcDbArc
 50
101.93839713
 51
186.30202514
  0
LWPOLYLINE
  5
6EF
100
AcDbEntity
  8
Ech.1_5
 62
     7
  6
CONTINUOUS
100
AcDbPolyline
 90
       99
 70
     0
 43
0.0
 10
52449.1359521
 20
-10565.43949821
 10
52445.76533608
 20
-10566.66630211
 10
52440.81180446
 20
-10566.66630211
 10
52440.51180446
 20
-10566.36630211
 10
52439.81180446
 20
-10566.36630211
 42
0.95548796
 10
52439.77544083
 20
-10567.16464579
 42
-0.38779458
 10
52439.91180446
 20
-10567.31402467
 10
52439.91180446
 20
-10570.54918565
 42
-0.34415073
 10
52439.79818481
 20
-10570.69470702
 10
52439.22542412
 20
-10570.83789719
 42
0.34415073
 10
52439.11180446
 20
-10570.98341857
 10
52439.11180446
 20
-10586.34918565
 42
0.34415073
 10
52439.22542412
 20
-10586.49470702
 10
52439.79818481
 20
-10586.63789719
 42
-0.34415073
 10
52439.91180446
 20
-10586.78341857
 10
52439.91180446
 20
-10590.01857955
 42
-0.38779458
 10
52439.77544083
 20
-10590.16795843
 42
0.95548796
 10
52439.81180446
 20
-10590.96630211
 10
52440.51180446
 20
-10590.96630211
 10
52440.81180446
 20
-10590.66630211
 10
52445.76533608
 20
-10590.66630211
 10
52449.11053856
 20
-10591.88385624
 42
1.10738051
 10
52449.20106791
 20
-10591.63512889
 10
52447.89947829
 20
-10591.3065956
 42
-0.93251509
 10
52448.0124843
 20
-10590.66810224
 10
52450.43348661
 20
-10590.99494607
 42
0.18531675
 10
52451.08737254
 20
-10590.84026691
 42
-0.15081813
 10
52451.65099108
 20
-10590.66630211
 10
52451.94225279
 20
-10590.66630211
 10
52452.94225279
 20
-10590.66630211
 42
-0.30843151
 10
52453.29786557
 20
-10590.92352628
 42
-0.26795044
 10
52451.05630561
 20
-10596.19015778
 42
-0.52171267
 10
52450.81386342
 20
-10596.14814614
 42
0.15565301
 10
52449.71143988
 20
-10595.31708861
 10
52449.91180446
 20
-10593.65968821
 42
0.31529879
 10
52449.78020849
 20
-10593.47174968
 10
52447.10485608
 20
-10592.49800104
 42
0.87140053
 10
52447.05856076
 20
-10592.58557744
 10
52447.77706418
 20
-10593.10233778
 42
-1.00812133
 10
52447.46787433
 20
-10593.62256899
 10
52445.16307502
 20
-10592.14534499
 42
0.14346618
 10
52444.89326933
 20
-10592.06630211
 10
52443.31203374
 20
-10592.06630211
 42
0.72472287
 10
52443.25287014
 20
-10592.24692263
 10
52444.14119741
 20
-10592.89882411
 42
-0.94855512
 10
52443.67552878
 20
-10593.60846029
 10
52441.72570946
 20
-10592.16448997
 42
0.16072186
 10
52441.42814097
 20
-10592.06630211
 10
52439.87030405
 20
-10592.06630211
 42
-0.08748866
 10
52439.80190003
 20
-10592.05424063
 10
52438.01050144
 20
-10591.40222487
 42
-0.31529879
 10
52437.91180446
 20
-10591.26127098
 10
52437.91180446
 20
-10589.88341857
 42
-0.34415073
 10
52438.02542412
 20
-10589.73789719
 10
52438.59818481
 20
-10589.59470702
 42
0.34415073
 10
52438.71180446
 20
-10589.44918565
 10
52438.71180446
 20
-10587.68341857
 42
0.34415073
 10
52438.59818481
 20
-10587.53789719
 10
52438.02542412
 20
-10587.39470702
 42
-0.34415073
 10
52437.91180446
 20
-10587.24918565
 10
52437.91180446
 20
-10570.08341857
 42
-0.34415073
 10
52438.02542412
 20
-10569.93789719
 10
52438.59818481
 20
-10569.79470702
 42
0.34415073
 10
52438.71180446
 20
-10569.64918565
 10
52438.71180446
 20
-10567.88341857
 42
0.34415073
 10
52438.59818481
 20
-10567.73789719
 10
52438.02542412
 20
-10567.59470702
 42
-0.34415073
 10
52437.91180446
 20
-10567.44918565
 10
52437.91180446
 20
-10566.07133324
 42
-0.31529879
 10
52438.01050144
 20
-10565.93037935
 10
52439.80190003
 20
-10565.27836358
 42
-0.08748866
 10
52439.87030405
 20
-10565.26630211
 10
52441.42814097
 20
-10565.26630211
 42
0.16072186
 10
52441.72570946
 20
-10565.16811424
 10
52443.67552878
 20
-10563.72414393
 42
-0.94855512
 10
52444.14119741
 20
-10564.43378011
 10
52443.25287014
 20
-10565.08568159
 42
0.72472287
 10
52443.31203374
 20
-10565.26630211
 10
52444.89326933
 20
-10565.26630211
 42
0.14346618
 10
52445.16307502
 20
-10565.18725922
 10
52447.46787433
 20
-10563.71003523
 42
-1.00812133
 10
52447.77706418
 20
-10564.23026643
 10
52447.05856076
 20
-10564.74702678
 42
0.87140053
 10
52447.10485608
 20
-10564.83460318
 10
52449.78020849
 20
-10563.86085453
 42
0.31529879
 10
52449.91180446
 20
-10563.67291601
 10
52449.71143988
 20
-10562.01547529
 42
0.15565608
 10
52450.81384513
 20
-10561.18443882
 42
-0.52171267
 10
52451.05628733
 20
-10561.14242718
 42
-0.26794928
 10
52453.29786557
 20
-10566.40907793
 42
-0.30843151
 10
52452.94225279
 20
-10566.66630211
 10
52451.94225279
 20
-10566.66630211
 10
52451.65099108
 20
-10566.66630211
 42
-0.15081813
 10
52451.08737254
 20
-10566.4923373
 42
0.18531675
 10
52450.43348661
 20
-10566.33765815
 10
52448.0124843
 20
-10566.66450197
 42
-0.93251509
 10
52447.89947829
 20
-10566.02600861
 10
52449.20106791
 20
-10565.69747533
 42
1.10738051
 10
52449.11053856
 20
-10565.44874798
  0
LWPOLYLINE
  5
6F0
100
AcDbEntity
  8
Ech.1_5
 62
     7
  6
CONTINUOUS
100
AcDbPolyline
 90
       25
 70
     0
 43
0.0
 10
52378.41091395
 20
-10625.91693845
 10
52360.38931017
 20
-10625.9168595
 42
-0.40824515
 10
52359.40978281
 20
-10624.91701535
 10
52359.40985267
 20
-10623.61705512
 10
52354.40986664
 20
-10623.61699923
 42
-0.41421487
 10
52353.40988062
 20
-10622.61698079
 10
52353.41067701
 20
-10579.41709217
 42
0.41422032
 10
52352.41067701
 20
-10578.41706909
 10
52348.91071194
 20
-10578.41706909
 42
-0.41421356
 10
52347.41071194
 20
-10576.91706909
 10
52347.41071194
 20
-10574.41703626
 42
-0.41421036
 10
52353.41064629
 20
-10568.41703626
 10
52392.41373123
 20
-10568.41660947
 42
-0.41421752
 10
52393.41374475
 20
-10569.41660947
 10
52393.41374475
 20
-10599.40609518
 42
-0.36397023
 10
52392.58739292
 20
-10600.39090293
 10
52390.13253565
 20
-10600.8237605
 42
0.31529879
 10
52389.32137607
 20
-10601.63492008
 10
52388.42069059
 20
-10606.74296129
 42
0.46630766
 10
52389.40549834
 20
-10607.91660947
 10
52410.4187356
 20
-10607.91660947
 42
-0.44001053
 10
52411.4149303
 20
-10609.00376521
 10
52410.09493505
 20
-10624.09138
 42
-0.38887999
 10
52408.10253689
 20
-10625.91706851
 10
52378.41091395
 20
-10625.91693845
  0
LWPOLYLINE
  5
6F1
102
{ACAD_REACTORS
330
6F2
102
}
100
AcDbEntity
  8
Ech.1_5
 62
     9
  6
CONTINUOUS
370
    -3
100
AcDbPolyline
 90
        4
 70
     1
 43
0.0
 10
52388.96686419
 20
-10662.41709217
 10
52388.96686419
 20
-10862.41709217
 10
52103.80048581
 20
-10862.41999374
 10
52103.80048581
 20
-10662.41709217
  0
HATCH
  5
6F2
100
AcDbEntity
  8
Ech.1_5
 62
     9
  6
CONTINUOUS
100
AcDbHatch
 10
0.0
 20
0.0
 30
0.0
210
0.0
220
0.0
230
1.0
  2
AR-CONC
 70
     0
 71
     1
 91
        1
 92
        7
 72
     0
 73
     1
 93
        4
 10
52388.96686419
 20
-10662.41709217
 10
52388.96686419
 20
-10862.41709217
 10
52103.80048581
 20
-10862.41999374
 10
52103.80048581
 20
-10662.41709217
 97
        1
330
6F1
 75
     0
 76
     2
 52
0.0
 41
0.11811097
 77
     0
 78
    13
 53
50.0
 43
0.0
 44
0.0
 45
-18.84283637
 46
1.64853443
 79
     2
 49
1.97029307
 49
-21.67322338
 53
355.0
 43
0.0
 44
0.0
 45
-3.64507756
 46
19.76051824
 79
     2
 49
1.57623377
 49
-17.3385787
 53
100.45140076
 43
1.57023568
 44
-0.13737749
 45
-15.19777228
 46
-18.11197244
 79
     2
 49
1.67449124
 49
-18.41940522
 53
46.18420029
 43
0.0
 44
5.25411576
 45
-28.03703353
 46
4.34827878
 79
     2
 49
2.95543872
 49
-32.50983238
 53
96.63559723
 43
2.33641885
 44
4.89175692
 45
-24.55412615
 46
-25.59063404
 79
     2
 49
2.51173697
 49
-27.62910426
 53
351.1842041
 43
0.0
 44
5.25411576
 45
24.55410288
 46
25.59065715
 79
     2
 49
2.36435249
 49
-26.00786805
 53
21.0
 43
2.62705699
 44
3.94058615
 45
-15.68109068
 46
10.57702905
 79
     2
 49
1.97029307
 49
-21.67322338
 53
326.0
 43
2.62705699
 44
3.94058615
 45
6.39203268
 46
19.05010734
 79
     2
 49
1.57623377
 49
-17.3385787
 53
71.45140076
 43
3.93381357
 44
3.05916555
 45
-22.07312962
 46
-8.47306182
 79
     2
 49
1.67449124
 49
-18.41940522
 53
37.5
 43
0.0
 44
0.0
 45
0.31944534
 46
8.74531245
 79
     6
 49
0.01875
 49
-17.12841332
 49
0.01875
 49
-17.60128498
 49
0.01875
 49
-17.40425348
 53
7.5
 43
0.0
 44
0.0
 45
6.91098818
 46
10.3614222
 79
     6
 49
0.01875
 49
-10.03535807
 49
0.01875
 49
-16.7343539
 49
0.01875
 49
-6.6333206
 53
-32.5
 43
-5.85833833
 44
0.0
 45
14.02382061
 46
-0.59253003
 79
     6
 49
0.01875
 49
-6.56764314
 49
0.01875
 49
-20.49104869
 49
0.01875
 49
-27.19004452
 53
-42.5
 43
-8.48539531
 44
0.0
 45
15.32063571
 46
2.62981542
 79
     6
 49
0.01875
 49
-8.53793621
 49
0.01875
 49
-13.60815793
 49
0.01875
 49
-19.30887222
 47
0.775229
 98
        1
 10
0.0
 20
0.0
  0
3DFACE
  5
6F3
100
AcDbEntity
  8
Ech.1_5
 62
    36
  6
CONTINUOUS
370
    -3
100
AcDbFace
 70
     0
 10
52336.62482859
 20
-11096.41709223
 30
3064.17890968
 11
52336.62482859
 21
-11096.41709223
 31
1455.0
 12
52336.62482859
 22
-11071.41709223
 32
1455.0
 13
52336.62482859
 23
-11071.41709223
 33
3064.17890968
  0
3DFACE
  5
6F4
100
AcDbEntity
  8
Ech.1_5
 62
    36
  6
CONTINUOUS
370
    -3
100
AcDbFace
 70
     0
 10
52291.62482859
 20
-11096.41709223
 30
3064.17890968
 11
52291.62482859
 21
-11096.41709223
 31
1455.0
 12
52336.62482859
 22
-11096.41709223
 32
1455.0
 13
52336.62482859
 23
-11096.41709223
 33
3064.17890968
  0
LWPOLYLINE
  5
6F5
100
AcDbEntity
  8
Ech.1_5
 62
     5
  6
CONTINUOUS
370
    -3
100
AcDbPolyline
 90
        5
 70
     0
 43
0.0
 10
52343.96686419
 20
-11062.41709217
 10
52343.96686419
 20
-10882.41709217
 10
52388.96686419
 20
-10882.41709217
 10
52388.96686419
 20
-11062.41709217
 10
52343.96686419
 20
-11062.41709217
  0
LWPOLYLINE
  5
6F6
100
AcDbEntity
  8
Ech.1_5
 62
     1
  6
CADWORK_22
 48
-5.0
370
    35
100
AcDbPolyline
 90
        3
 70
     0
 43
0.0
 10
52103.80049382
 20
-10882.41709217
 10
52388.96704678
 20
-10882.41709217
 10
52388.96704678
 20
-10982.93770285
  0
LWPOLYLINE
  5
6F7
100
AcDbEntity
  8
Ech.1_5
 62
   150
  6
CADWORK_22
370
    35
100
AcDbPolyline
 90
        3
 70
     0
 43
0.0
 38
2500.0
 10
52103.80049529
 20
-11072.91709223
 10
52388.96745971
 20
-11072.91709223
 10
52388.96745971
 20
-10978.86692631
  0
LWPOLYLINE
  5
6F8
100
AcDbEntity
  8
Ech.1_5
 62
   254
  6
CONTINUOUS
370
    -3
100
AcDbPolyline
 90
        4
 70
     1
 43
0.0
 10
52717.35731285
 20
-10625.91691526
 10
52753.20565011
 20
-10625.91691526
 10
52753.20565011
 20
-10642.41709217
 10
52717.35731285
 20
-10642.41709217
  0
LWPOLYLINE
  5
6F9
100
AcDbEntity
  8
Ech.1_5
 62
   190
  6
CONTINUOUS
370
    -3
100
AcDbPolyline
 90
        8
 70
     1
 43
0.0
 10
52984.54532047
 20
-11000.24141294
 10
53020.50102048
 20
-10986.13147292
 10
53002.52367208
 20
-11002.61697608
 10
53002.52341765
 20
-11062.41709217
 10
52807.35654927
 20
-11062.41709217
 10
52807.35654927
 20
-10882.41709217
 10
53002.52368323
 20
-10882.41709217
 10
53002.52367208
 20
-10983.75505886
  0
LWPOLYLINE
  5
6FA
100
AcDbEntity
  8
Ech.1_5
 62
     7
  6
CONTINUOUS
370
    -3
100
AcDbPolyline
 90
        4
 70
     1
 43
0.0
 10
52762.35713026
 20
-11062.41709217
 10
52762.35713026
 20
-10882.41709217
 10
52807.35713026
 20
-10882.41709217
 10
52807.35713026
 20
-11062.41709217
  0
LWPOLYLINE
  5
6FB
100
AcDbEntity
  8
Ech.1_5
 62
     7
  6
CONTINUOUS
370
    -3
100
AcDbPolyline
 90
        4
 70
     1
 43
0.0
 10
52717.35713026
 20
-11062.41709217
 10
52717.35713026
 20
-10882.41709217
 10
52762.35713026
 20
-10882.41709217
 10
52762.35713026
 20
-11062.41709217
  0
LWPOLYLINE
  5
6FC
100
AcDbEntity
  8
Ech.1_5
 62
     7
  6
CONTINUOUS
100
AcDbPolyline
 90
        4
 70
     0
 43
0.0
 10
53002.52403207
 20
-11062.41709217
 10
52807.35713026
 20
-11062.41709217
 10
52807.35713026
 20
-10882.41709217
 10
53002.52368323
 20
-10882.41709217
  0
LWPOLYLINE
  5
6FD
100
AcDbEntity
  8
Ech.1_5
 62
   190
  6
CONTINUOUS
370
    -3
100
AcDbPolyline
 90
        4
 70
     1
 43
0.0
 10
52762.35713026
 20
-10882.41709217
 10
52807.35713026
 20
-10882.41709217
 10
52807.35713026
 20
-11062.41709217
 10
52762.35713026
 20
-11062.41709217
  0
LWPOLYLINE
  5
6FE
100
AcDbEntity
  8
Ech.1_5
 62
   190
  6
CONTINUOUS
370
    -3
100
AcDbPolyline
 90
       12
 70
     0
 43
0.0
 10
53002.52368323
 20
-10912.41709217
 42
1.14028181
 10
52943.54591312
 20
-10920.18168101
 10
52971.50145333
 20
-11024.65250334
 42
-1.30322619
 10
52913.54591312
 20
-11024.65250334
 10
52941.50145333
 20
-10920.18168101
 42
1.30322619
 10
52883.54591312
 20
-10920.18168101
 10
52911.50145333
 20
-11024.65250334
 42
-1.30322619
 10
52853.54591312
 20
-11024.65250334
 10
52881.50145333
 20
-10920.18168101
 42
1.30322619
 10
52823.54591312
 20
-10920.18168101
 10
52851.50145333
 20
-11024.65250334
 42
-0.67050386
 10
52807.35713026
 20
-11058.30098042
  0
LWPOLYLINE
  5
6FF
100
AcDbEntity
  8
Ech.1_5
 62
   190
  6
CONTINUOUS
370
    -3
100
AcDbPolyline
 90
        4
 70
     1
 43
0.0
 10
52717.35713026
 20
-10882.41709217
 10
52762.35713026
 20
-10882.41709217
 10
52762.35713026
 20
-11062.41709217
 10
52717.35713026
 20
-11062.41709217
  0
LWPOLYLINE
  5
700
100
AcDbEntity
  8
Ech.1_5
 62
     5
  6
CONTINUOUS
370
    -3
100
AcDbPolyline
 90
        5
 70
     0
 43
0.0
 10
52762.35713026
 20
-11062.41709217
 10
52762.35713026
 20
-10882.41709217
 10
52807.35713026
 20
-10882.41709217
 10
52807.35713026
 20
-11062.41709217
 10
52762.35713026
 20
-11062.41709217
  0
LWPOLYLINE
  5
701
100
AcDbEntity
  8
Ech.1_5
 62
   190
  6
CONTINUOUS
370
    -3
100
AcDbPolyline
 90
        4
 70
     1
 43
0.0
 10
52769.69934845
 20
-11096.41709223
 10
52769.69934845
 20
-11071.41709223
 10
52819.69934845
 20
-11071.41709223
 10
52819.69934845
 20
-11096.41709223
  0
LWPOLYLINE
  5
702
100
AcDbEntity
  8
Ech.1_5
 62
   190
  6
CONTINUOUS
370
    -3
100
AcDbPolyline
 90
        4
 70
     1
 43
0.0
 10
52769.69934845
 20
-11071.41709223
 10
52819.69934845
 20
-11071.41709223
 10
52819.69934845
 20
-11096.41709223
 10
52769.69934845
 20
-11096.41709223
  0
LWPOLYLINE
  5
703
100
AcDbEntity
  8
Ech.1_5
 62
     7
  6
CONTINUOUS
370
    -3
100
AcDbPolyline
 90
        4
 70
     1
 43
0.0
 10
53002.52368557
 20
-11116.41709223
 10
52742.46081242
 20
-11116.41709223
 10
52742.46081242
 20
-11096.41709223
 10
53002.52368557
 20
-11096.41709223
  0
LWPOLYLINE
  5
704
100
AcDbEntity
  8
Ech.1_5
 62
     5
  6
CONTINUOUS
370
    -3
100
AcDbPolyline
 90
        5
 70
     0
 43
0.0
 10
52769.69934845
 20
-11071.41709223
 10
52819.69934845
 20
-11071.41709223
 10
52819.69934845
 20
-11096.41709223
 10
52769.69934845
 20
-11096.41709223
 10
52769.69934845
 20
-11071.41709223
  0
LINE
  5
705
100
AcDbEntity
  8
Ech.1_5
 62
     7
  6
CONTINUOUS
100
AcDbLine
 10
52666.41237258
 20
-10590.66629562
 30
0.0
 11
52554.15574817
 21
-10590.66629562
 31
0.0
  0
LINE
  5
706
100
AcDbEntity
  8
Ech.1_5
 62
     7
  6
CONTINUOUS
100
AcDbLine
 10
52666.41237258
 20
-10586.66629562
 30
0.0
 11
52554.15574817
 21
-10586.66630211
 31
0.0
  0
LINE
  5
707
100
AcDbEntity
  8
Ech.1_5
 62
     7
  6
CONTINUOUS
100
AcDbLine
 10
52666.41237258
 20
-10570.66629562
 30
0.0
 11
52554.15574817
 21
-10570.66630211
 31
0.0
  0
LINE
  5
708
100
AcDbEntity
  8
Ech.1_5
 62
     7
  6
CONTINUOUS
100
AcDbLine
 10
52666.41237258
 20
-10566.66629562
 30
0.0
 11
52554.15574817
 21
-10566.66630211
 31
0.0
  0
LINE
  5
709
100
AcDbEntity
  8
Ech.1_5
 62
     7
  6
CONTINUOUS
100
AcDbLine
 10
52656.91237258
 20
-10570.66629562
 30
0.0
 11
52656.91237258
 21
-10586.66629562
 31
0.0
  0
LINE
  5
70A
100
AcDbEntity
  8
Ech.1_5
 62
     7
  6
CONTINUOUS
100
AcDbLine
 10
52666.41237258
 20
-10566.66629562
 30
0.0
 11
52666.41237258
 21
-10590.66629562
 31
0.0
  0
LINE
  5
70B
100
AcDbEntity
  8
Ech.1_5
 62
     7
  6
CONTINUOUS
100
AcDbLine
 10
52668.41237258
 20
-10572.66629562
 30
0.0
 11
52667.21237258
 21
-10572.66629562
 31
0.0
  0
LINE
  5
70C
100
AcDbEntity
  8
Ech.1_5
 62
     7
  6
CONTINUOUS
100
AcDbLine
 10
52668.41237258
 20
-10584.66629562
 30
0.0
 11
52667.21237258
 21
-10584.66629562
 31
0.0
  0
LINE
  5
70D
100
AcDbEntity
  8
Ech.1_5
 62
     7
  6
CONTINUOUS
100
AcDbLine
 10
52668.41237258
 20
-10590.66629562
 30
0.0
 11
52671.41236393
 21
-10566.6662913
 31
0.0
  0
LINE
  5
70E
100
AcDbEntity
  8
Ech.1_5
 62
     7
  6
CONTINUOUS
100
AcDbLine
 10
52668.41237258
 20
-10566.66629562
 30
0.0
 11
52671.41236393
 21
-10590.66629562
 31
0.0
  0
LINE
  5
70F
100
AcDbEntity
  8
Ech.1_5
 62
     7
  6
CONTINUOUS
100
AcDbLine
 10
52671.41236393
 20
-10590.66629562
 30
0.0
 11
52671.41237258
 21
-10566.66629562
 31
0.0
  0
LINE
  5
710
100
AcDbEntity
  8
Ech.1_5
 62
     7
  6
CONTINUOUS
100
AcDbLine
 10
52671.41237258
 20
-10566.66629562
 30
0.0
 11
52668.41237258
 21
-10566.66629562
 31
0.0
  0
LINE
  5
711
100
AcDbEntity
  8
Ech.1_5
 62
     7
  6
CONTINUOUS
100
AcDbLine
 10
52668.41237258
 20
-10566.66629562
 30
0.0
 11
52668.41237258
 21
-10590.66629562
 31
0.0
  0
LINE
  5
712
100
AcDbEntity
  8
Ech.1_5
 62
     7
  6
CONTINUOUS
100
AcDbLine
 10
52668.41237258
 20
-10590.66629562
 30
0.0
 11
52671.41237258
 21
-10590.66629562
 31
0.0
  0
LINE
  5
713
100
AcDbEntity
  8
Ech.1_5
 62
     7
  6
CONTINUOUS
100
AcDbLine
 10
52725.77563155
 20
-10554.96919931
 30
0.0
 11
52691.82222737
 21
-10556.74862182
 31
0.0
  0
LINE
  5
714
100
AcDbEntity
  8
Ech.1_5
 62
     7
  6
CENTER
100
AcDbLine
 10
52738.54153954
 20
-10554.5319006
 30
0.0
 11
52738.54153954
 21
-10579.46930494
 31
0.0
  0
ARC
  5
715
100
AcDbEntity
  8
Ech.1_5
 62
     7
  6
CONTINUOUS
100
AcDbCircle
 10
52737.35226255
 20
-10557.867297
 30
0.0
 40
6.59090909
100
AcDbArc
 50
282.52728338
 51
83.47271662
  0
LINE
  5
716
100
AcDbEntity
  8
Ech.1_5
 62
     7
  6
CONTINUOUS
100
AcDbLine
 10
52727.27145267
 20
-10564.40384394
 30
0.0
 11
52726.6434212
 21
-10552.42028952
 31
0.0
  0
LINE
  5
717
100
AcDbEntity
  8
Ech.1_5
 62
     7
  6
CONTINUOUS
100
AcDbLine
 10
52726.24665516
 20
-10563.95686512
 30
0.0
 11
52725.67095964
 21
-10552.97194024
 31
0.0
  0
LINE
  5
718
100
AcDbEntity
  8
Ech.1_5
 62
     7
  6
CONTINUOUS
100
AcDbLine
 10
52746.54153954
 20
-10565.41682287
 30
0.0
 11
52746.54153954
 21
-10553.0922134
 31
0.0
  0
LINE
  5
719
100
AcDbEntity
  8
Ech.1_5
 62
     7
  6
CONTINUOUS
100
AcDbLine
 10
52731.54481196
 20
-10551.66273234
 30
0.0
 11
52732.39141756
 21
-10550.60447534
 31
0.0
  0
LINE
  5
71A
100
AcDbEntity
  8
Ech.1_5
 62
     7
  6
CONTINUOUS
100
AcDbLine
 10
52727.11656799
 20
-10551.89480677
 30
0.0
 11
52738.10149287
 21
-10551.31911125
 31
0.0
  0
ARC
  5
71B
100
AcDbEntity
  8
Ech.1_5
 62
     7
  6
CONTINUOUS
100
AcDbCircle
 10
52727.14273597
 20
-10552.39412154
 30
0.0
 40
0.5
100
AcDbArc
 50
93.0
 51
183.0
  0
LINE
  5
71C
100
AcDbEntity
  8
Ech.1_5
 62
     7
  6
CONTINUOUS
100
AcDbLine
 10
52725.67095964
 20
-10552.97194024
 30
0.0
 11
52726.66958918
 21
-10552.91960429
 31
0.0
  0
LINE
  5
71D
100
AcDbEntity
  8
Ech.1_5
 62
     7
  6
CONTINUOUS
100
AcDbLine
 10
52733.54153954
 20
-10551.55808828
 30
0.0
 11
52733.54153954
 21
-10550.41682287
 31
0.0
  0
LINE
  5
71E
100
AcDbEntity
  8
Ech.1_5
 62
     7
  6
CONTINUOUS
100
AcDbLine
 10
52744.30122712
 20
-10550.41682287
 30
0.0
 11
52732.78185196
 21
-10550.41682287
 31
0.0
  0
ARC
  5
71F
100
AcDbEntity
  8
Ech.1_5
 62
     7
  6
CONTINUOUS
100
AcDbCircle
 10
52732.78185196
 20
-10550.91682287
 30
0.0
 40
0.5
100
AcDbArc
 50
89.99999998
 51
141.34019175
  0
ARC
  5
720
100
AcDbEntity
  8
Ech.1_5
 62
     7
  6
CONTINUOUS
100
AcDbCircle
 10
52746.04153954
 20
-10553.0922134
 30
0.0
 40
0.5
100
AcDbArc
 50
360.0
 51
38.65980826
  0
ARC
  5
721
100
AcDbEntity
  8
Ech.1_5
 62
     7
  6
CONTINUOUS
100
AcDbCircle
 10
52746.04153954
 20
-10553.0922134
 30
0.0
 40
0.5
100
AcDbArc
 50
360.0
 51
38.65980826
  0
ARC
  5
722
100
AcDbEntity
  8
Ech.1_5
 62
     7
  6
CONTINUOUS
100
AcDbCircle
 10
52744.30122712
 20
-10550.91682287
 30
0.0
 40
0.5
100
AcDbArc
 50
38.65980825
 51
90.00000002
  0
LINE
  5
723
100
AcDbEntity
  8
Ech.1_5
 62
     7
  6
CONTINUOUS
100
AcDbLine
 10
52743.54153954
 20
-10555.54383557
 30
0.0
 11
52743.54153954
 21
-10550.41682287
 31
0.0
  0
LINE
  5
724
100
AcDbEntity
  8
Ech.1_5
 62
     7
  6
CONTINUOUS
100
AcDbLine
 10
52746.43197394
 20
-10552.77986587
 30
0.0
 11
52744.69166152
 21
-10550.60447534
 31
0.0
  0
LINE
  5
725
100
AcDbEntity
  8
Ech.1_5
 62
     7
  6
CENTER
100
AcDbLine
 10
52743.01189089
 20
-10557.57068845
 30
0.0
 11
52689.00951462
 21
-10560.40083306
 31
0.0
  0
LINE
  5
726
100
AcDbEntity
  8
Ech.1_5
 62
     7
  6
CONTINUOUS
100
AcDbLine
 10
52726.14198325
 20
-10561.95960605
 30
0.0
 11
52692.18857907
 21
-10563.73902857
 31
0.0
  0
ARC
  5
727
100
AcDbEntity
  8
Ech.1_5
 62
     7
  6
CONTINUOUS
100
AcDbCircle
 10
52697.64544367
 20
-10559.9482432
 30
0.0
 40
6.64435287
100
AcDbArc
 50
151.21298885
 51
214.78701115
  0
LINE
  5
728
100
AcDbEntity
  8
Ech.1_5
 62
     7
  6
CONTINUOUS
100
AcDbLine
 10
52692.18857907
 20
-10563.73902857
 30
0.0
 11
52691.82222737
 21
-10556.74862182
 31
0.0
  0
LINE
  5
729
100
AcDbEntity
  8
Ech.1_5
 62
     7
  6
CONTINUOUS
100
AcDbLine
 10
52727.79693542
 20
-10564.87699072
 30
0.0
 11
52738.7818603
 21
-10564.30129521
 31
0.0
  0
LINE
  5
72A
100
AcDbEntity
  8
Ech.1_5
 62
     7
  6
CONTINUOUS
100
AcDbLine
 10
52729.04153954
 20
-10568.41682287
 30
0.0
 11
52748.04153954
 21
-10568.41682287
 31
0.0
  0
LINE
  5
72B
100
AcDbEntity
  8
Ech.1_5
 62
     7
  6
CONTINUOUS
100
AcDbLine
 10
52729.54153954
 20
-10565.41682287
 30
0.0
 11
52747.54153954
 21
-10565.41682287
 31
0.0
  0
LINE
  5
72C
100
AcDbEntity
  8
Ech.1_5
 62
     7
  6
CONTINUOUS
100
AcDbLine
 10
52730.54153954
 20
-10565.41682287
 30
0.0
 11
52730.54153954
 21
-10564.73315212
 31
0.0
  0
ARC
  5
72D
100
AcDbEntity
  8
Ech.1_5
 62
     7
  6
CONTINUOUS
100
AcDbCircle
 10
52727.77076744
 20
-10564.37767596
 30
0.0
 40
0.5
100
AcDbArc
 50
182.99999999
 51
273.0
  0
LINE
  5
72E
100
AcDbEntity
  8
Ech.1_5
 62
     7
  6
CONTINUOUS
100
AcDbLine
 10
52726.24665516
 20
-10563.95686512
 30
0.0
 11
52727.2452847
 21
-10563.90452917
 31
0.0
  0
ARC
  5
72F
100
AcDbEntity
  8
Ech.1_5
 62
     7
  6
CONTINUOUS
100
AcDbCircle
 10
52729.54153954
 20
-10565.91682287
 30
0.0
 40
0.5
100
AcDbArc
 50
90.0
 51
180.0
  0
LINE
  5
730
100
AcDbEntity
  8
Ech.1_5
 62
     7
  6
CONTINUOUS
100
AcDbLine
 10
52730.54153954
 20
-10568.41682287
 30
0.0
 11
52730.54153954
 21
-10565.41682287
 31
0.0
  0
LINE
  5
731
100
AcDbEntity
  8
Ech.1_5
 62
     7
  6
CONTINUOUS
100
AcDbLine
 10
52729.04153954
 20
-10565.91682287
 30
0.0
 11
52729.04153954
 21
-10568.41682287
 31
0.0
  0
LINE
  5
732
100
AcDbEntity
  8
Ech.1_5
 62
     7
  6
CONTINUOUS
100
AcDbLine
 10
52741.54153954
 20
-10573.41682287
 30
0.0
 11
52741.54153954
 21
-10568.41682287
 31
0.0
  0
LINE
  5
733
100
AcDbEntity
  8
Ech.1_5
 62
     7
  6
CONTINUOUS
100
AcDbLine
 10
52735.54153954
 20
-10573.41682287
 30
0.0
 11
52735.54153954
 21
-10568.41682287
 31
0.0
  0
ARC
  5
734
100
AcDbEntity
  8
Ech.1_5
 62
     7
  6
CONTINUOUS
100
AcDbCircle
 10
52738.54153954
 20
-10569.3942929
 30
0.0
 40
5.01804218
100
AcDbArc
 50
233.2844502
 51
306.7155498
  0
LINE
  5
735
100
AcDbEntity
  8
Ech.1_5
 62
     7
  6
CONTINUOUS
100
AcDbLine
 10
52735.54153954
 20
-10573.41682287
 30
0.0
 11
52741.54153954
 21
-10573.41682287
 31
0.0
  0
LINE
  5
736
100
AcDbEntity
  8
Ech.1_5
 62
     7
  6
CONTINUOUS
100
AcDbLine
 10
52733.54153954
 20
-10565.41682287
 30
0.0
 11
52733.54153954
 21
-10564.57592878
 31
0.0
  0
LINE
  5
737
100
AcDbEntity
  8
Ech.1_5
 62
     7
  6
CONTINUOUS
100
AcDbLine
 10
52735.54153954
 20
-10567.41682287
 30
0.0
 11
52741.54153954
 21
-10567.41682287
 31
0.0
  0
LINE
  5
738
100
AcDbEntity
  8
Ech.1_5
 62
     7
  6
CONTINUOUS
100
AcDbLine
 10
52735.54153954
 20
-10568.41682287
 30
0.0
 11
52735.54153954
 21
-10567.41682287
 31
0.0
  0
LINE
  5
739
100
AcDbEntity
  8
Ech.1_5
 62
     7
  6
CONTINUOUS
100
AcDbLine
 10
52741.54153954
 20
-10568.41682287
 30
0.0
 11
52741.54153954
 21
-10567.41682287
 31
0.0
  0
LINE
  5
73A
100
AcDbEntity
  8
Ech.1_5
 62
     7
  6
CONTINUOUS
100
AcDbLine
 10
52734.54153954
 20
-10565.71682287
 30
0.0
 11
52742.54153954
 21
-10565.71682287
 31
0.0
  0
LINE
  5
73B
100
AcDbEntity
  8
Ech.1_5
 62
     7
  6
CONTINUOUS
100
AcDbLine
 10
52734.54153954
 20
-10565.71682287
 30
0.0
 11
52734.54153954
 21
-10565.41682287
 31
0.0
  0
ARC
  5
73C
100
AcDbEntity
  8
Ech.1_5
 62
     7
  6
CONTINUOUS
100
AcDbCircle
 10
52747.54153954
 20
-10565.91682287
 30
0.0
 40
0.5
100
AcDbArc
 50
360.0
 51
90.0
  0
LINE
  5
73D
100
AcDbEntity
  8
Ech.1_5
 62
     7
  6
CONTINUOUS
100
AcDbLine
 10
52742.54153954
 20
-10565.71682287
 30
0.0
 11
52742.54153954
 21
-10565.41682287
 31
0.0
  0
LINE
  5
73E
100
AcDbEntity
  8
Ech.1_5
 62
     7
  6
CONTINUOUS
100
AcDbLine
 10
52743.54153954
 20
-10565.41682287
 30
0.0
 11
52743.54153954
 21
-10560.0661037
 31
0.0
  0
LINE
  5
73F
100
AcDbEntity
  8
Ech.1_5
 62
     7
  6
CONTINUOUS
100
AcDbLine
 10
52746.54153954
 20
-10568.41682287
 30
0.0
 11
52746.54153954
 21
-10565.41682287
 31
0.0
  0
LINE
  5
740
100
AcDbEntity
  8
Ech.1_5
 62
     7
  6
CONTINUOUS
100
AcDbLine
 10
52748.04153954
 20
-10565.91682287
 30
0.0
 11
52748.04153954
 21
-10568.41682287
 31
0.0
  0
ARC
  5
741
100
AcDbEntity
  8
Ech.1_5
 62
     7
  6
CONTINUOUS
100
AcDbCircle
 10
52668.41235961
 20
-10590.66629778
 30
0.0
 40
3.0
100
AcDbArc
 50
270.0
 51
359.9999587
  0
LINE
  5
742
100
AcDbEntity
  8
Ech.1_5
 62
     7
  6
CONTINUOUS
100
AcDbLine
 10
52668.41235961
 20
-10593.66629778
 30
0.0
 11
52658.3439597
 21
-10593.66629778
 31
0.0
  0
ARC
  5
743
100
AcDbEntity
  8
Ech.1_5
 62
     7
  6
CONTINUOUS
100
AcDbCircle
 10
52658.3439597
 20
-10595.66629778
 30
0.0
 40
2.0
100
AcDbArc
 50
90.0
 51
180.01408321
  0
ARC
  5
744
100
AcDbEntity
  8
Ech.1_5
 62
     7
  6
CONTINUOUS
100
AcDbCircle
 10
52656.38235961
 20
-10597.16629778
 30
0.0
 40
1.5
100
AcDbArc
 50
91.46692634
 51
169.08873544
  0
LINE
  5
745
100
AcDbEntity
  8
Ech.1_5
 62
     7
  6
CONTINUOUS
100
AcDbLine
 10
52654.90947733
 20
-10596.88236504
 30
0.0
 11
52654.90947733
 21
-10598.82643301
 31
0.0
  0
ARC
  5
746
100
AcDbEntity
  8
Ech.1_5
 62
     7
  6
CONTINUOUS
100
AcDbCircle
 10
52655.90947733
 20
-10598.82643301
 30
0.0
 40
1.0
100
AcDbArc
 50
180.0
 51
215.64346075
  0
ARC
  5
747
100
AcDbEntity
  8
Ech.1_5
 62
     7
  6
CONTINUOUS
100
AcDbCircle
 10
52664.84872597
 20
-10592.41629778
 30
0.0
 40
12.0
100
AcDbArc
 50
215.64346075
 51
270.0
  0
LINE
  5
748
100
AcDbEntity
  8
Ech.1_5
 62
     7
  6
CONTINUOUS
100
AcDbLine
 10
52664.84872597
 20
-10604.41629778
 30
0.0
 11
52665.34872597
 21
-10604.41629778
 31
0.0
  0
LINE
  5
749
100
AcDbEntity
  8
Ech.1_5
 62
     7
  6
CONTINUOUS
100
AcDbLine
 10
52665.34872597
 20
-10604.41629778
 30
0.0
 11
52665.34872597
 21
-10606.41629778
 31
0.0
  0
LINE
  5
74A
100
AcDbEntity
  8
Ech.1_5
 62
     7
  6
CONTINUOUS
100
AcDbLine
 10
52665.34872597
 20
-10606.41629778
 30
0.0
 11
52666.34872597
 21
-10607.41629778
 31
0.0
  0
LINE
  5
74B
100
AcDbEntity
  8
Ech.1_5
 62
     7
  6
CONTINUOUS
100
AcDbLine
 10
52666.34872597
 20
-10607.41629778
 30
0.0
 11
52699.69521411
 21
-10607.41602834
 31
0.0
  0
LINE
  5
74C
100
AcDbEntity
  8
Ech.1_5
 62
     7
  6
CONTINUOUS
100
AcDbLine
 10
52699.69521411
 20
-10607.41602834
 30
0.0
 11
52701.86027209
 21
-10603.66603791
 31
0.0
  0
LINE
  5
74D
100
AcDbEntity
  8
Ech.1_5
 62
     7
  6
CONTINUOUS
100
AcDbLine
 10
52701.86027209
 20
-10603.66603791
 30
0.0
 11
52696.4441357
 21
-10603.66603791
 31
0.0
  0
LINE
  5
74E
100
AcDbEntity
  8
Ech.1_5
 62
     7
  6
CONTINUOUS
100
AcDbLine
 10
52696.4441357
 20
-10603.66603791
 30
0.0
 11
52696.4441357
 21
-10600.76603789
 31
0.0
  0
LINE
  5
74F
100
AcDbEntity
  8
Ech.1_5
 62
     7
  6
CONTINUOUS
100
AcDbLine
 10
52696.4441357
 20
-10600.76603789
 30
0.0
 11
52705.91016105
 21
-10600.76603789
 31
0.0
  0
ARC
  5
750
100
AcDbEntity
  8
Ech.1_5
 62
     7
  6
CONTINUOUS
100
AcDbCircle
 10
52705.91016105
 20
-10599.76603789
 30
0.0
 40
1.0
100
AcDbArc
 50
270.0
 51
359.99999918
  0
LINE
  5
751
100
AcDbEntity
  8
Ech.1_5
 62
     7
  6
CONTINUOUS
100
AcDbLine
 10
52706.91016105
 20
-10599.7660379
 30
0.0
 11
52706.91016108
 21
-10597.42691374
 31
0.0
  0
LINE
  5
752
100
AcDbEntity
  8
Ech.1_5
 62
     7
  6
CONTINUOUS
100
AcDbLine
 10
52706.91016108
 20
-10597.42691374
 30
0.0
 11
52700.91016076
 21
-10593.22689535
 31
0.0
  0
LINE
  5
753
100
AcDbEntity
  8
Ech.1_5
 62
     7
  6
CONTINUOUS
100
AcDbLine
 10
52700.91016076
 20
-10593.22689535
 30
0.0
 11
52700.91016076
 21
-10589.02691369
 31
0.0
  0
LINE
  5
754
100
AcDbEntity
  8
Ech.1_5
 62
     7
  6
CONTINUOUS
100
AcDbLine
 10
52700.91016076
 20
-10589.02691369
 30
0.0
 11
52708.91016142
 21
-10587.61629772
 31
0.0
  0
LINE
  5
755
100
AcDbEntity
  8
Ech.1_5
 62
     7
  6
CONTINUOUS
100
AcDbLine
 10
52708.91016142
 20
-10587.61629772
 30
0.0
 11
52708.91016217
 21
-10585.61629995
 31
0.0
  0
LINE
  5
756
100
AcDbEntity
  8
Ech.1_5
 62
     7
  6
CONTINUOUS
100
AcDbLine
 10
52708.91016217
 20
-10585.61629995
 30
0.0
 11
52706.71016108
 21
-10585.61629995
 31
0.0
  0
LINE
  5
757
100
AcDbEntity
  8
Ech.1_5
 62
     7
  6
CONTINUOUS
100
AcDbLine
 10
52706.71016108
 20
-10585.61629995
 30
0.0
 11
52706.71016108
 21
-10583.61629995
 31
0.0
  0
LINE
  5
758
100
AcDbEntity
  8
Ech.1_5
 62
     7
  6
CONTINUOUS
100
AcDbLine
 10
52706.71016108
 20
-10583.61629995
 30
0.0
 11
52697.41016108
 21
-10583.61629995
 31
0.0
  0
LINE
  5
759
100
AcDbEntity
  8
Ech.1_5
 62
     7
  6
CONTINUOUS
100
AcDbLine
 10
52697.41016108
 20
-10583.61629995
 30
0.0
 11
52697.41016108
 21
-10571.41629995
 31
0.0
  0
LINE
  5
75A
100
AcDbEntity
  8
Ech.1_5
 62
     7
  6
CONTINUOUS
100
AcDbLine
 10
52697.41016108
 20
-10571.41629995
 30
0.0
 11
52706.71016108
 21
-10571.41629995
 31
0.0
  0
LINE
  5
75B
100
AcDbEntity
  8
Ech.1_5
 62
     7
  6
CONTINUOUS
100
AcDbLine
 10
52706.71016108
 20
-10571.41629995
 30
0.0
 11
52706.71016108
 21
-10569.41629995
 31
0.0
  0
LINE
  5
75C
100
AcDbEntity
  8
Ech.1_5
 62
     7
  6
CONTINUOUS
100
AcDbLine
 10
52706.71016108
 20
-10569.41629995
 30
0.0
 11
52708.91016805
 21
-10569.41629995
 31
0.0
  0
LINE
  5
75D
100
AcDbEntity
  8
Ech.1_5
 62
     7
  6
CONTINUOUS
100
AcDbLine
 10
52708.91016805
 20
-10569.41629995
 30
0.0
 11
52708.91016838
 21
-10568.41629778
 31
0.0
  0
LINE
  5
75E
100
AcDbEntity
  8
Ech.1_5
 62
     7
  6
CONTINUOUS
100
AcDbLine
 10
52708.91016838
 20
-10568.41629778
 30
0.0
 11
52703.41016838
 21
-10568.41629778
 31
0.0
  0
LINE
  5
75F
100
AcDbEntity
  8
Ech.1_5
 62
     7
  6
CONTINUOUS
100
AcDbLine
 10
52703.41016838
 20
-10568.41629778
 30
0.0
 11
52703.41016838
 21
-10565.41629778
 31
0.0
  0
LINE
  5
760
100
AcDbEntity
  8
Ech.1_5
 62
     7
  6
CONTINUOUS
100
AcDbLine
 10
52703.41016838
 20
-10565.41629778
 30
0.0
 11
52724.91016838
 21
-10565.41629778
 31
0.0
  0
ARC
  5
761
100
AcDbEntity
  8
Ech.1_5
 62
     7
  6
CONTINUOUS
100
AcDbCircle
 10
52724.91016838
 20
-10563.41629778
 30
0.0
 40
2.0
100
AcDbArc
 50
270.0
 51
1.1464245738450E-09
  0
LINE
  5
762
100
AcDbEntity
  8
Ech.1_5
 62
     7
  6
CONTINUOUS
100
AcDbLine
 10
52726.91016838
 20
-10563.41629778
 30
0.0
 11
52726.91016838
 21
-10554.91629788
 31
0.0
  0
ARC
  5
763
100
AcDbEntity
  8
Ech.1_5
 62
     7
  6
CONTINUOUS
100
AcDbCircle
 10
52721.91016838
 20
-10554.91629788
 30
0.0
 40
5.0
100
AcDbArc
 50
360.0
 51
90.00000459
  0
LINE
  5
764
100
AcDbEntity
  8
Ech.1_5
 62
     7
  6
CONTINUOUS
100
AcDbLine
 10
52721.91016798
 20
-10549.91629788
 30
0.0
 11
52666.34872047
 21
-10549.91630329
 31
0.0
  0
LINE
  5
765
100
AcDbEntity
  8
Ech.1_5
 62
     7
  6
CONTINUOUS
100
AcDbLine
 10
52666.34872047
 20
-10549.91630329
 30
0.0
 11
52665.34872597
 21
-10550.91629778
 31
0.0
  0
LINE
  5
766
100
AcDbEntity
  8
Ech.1_5
 62
     7
  6
CONTINUOUS
100
AcDbLine
 10
52665.34872597
 20
-10550.91629778
 30
0.0
 11
52665.34872597
 21
-10552.91629778
 31
0.0
  0
LINE
  5
767
100
AcDbEntity
  8
Ech.1_5
 62
     7
  6
CONTINUOUS
100
AcDbLine
 10
52665.34872597
 20
-10552.91629778
 30
0.0
 11
52664.84872597
 21
-10552.91629778
 31
0.0
  0
ARC
  5
768
100
AcDbEntity
  8
Ech.1_5
 62
     7
  6
CONTINUOUS
100
AcDbCircle
 10
52664.84872597
 20
-10564.91629778
 30
0.0
 40
12.0
100
AcDbArc
 50
90.0
 51
144.35653925
  0
ARC
  5
769
100
AcDbEntity
  8
Ech.1_5
 62
     7
  6
CONTINUOUS
100
AcDbCircle
 10
52655.90947733
 20
-10558.50616255
 30
0.0
 40
1.0
100
AcDbArc
 50
144.35653926
 51
180.0
  0
LINE
  5
76A
100
AcDbEntity
  8
Ech.1_5
 62
     7
  6
CONTINUOUS
100
AcDbLine
 10
52654.90947733
 20
-10558.50616255
 30
0.0
 11
52654.90947733
 21
-10560.45023053
 31
0.0
  0
ARC
  5
76B
100
AcDbEntity
  8
Ech.1_5
 62
     7
  6
CONTINUOUS
100
AcDbCircle
 10
52656.38235961
 20
-10560.16629778
 30
0.0
 40
1.5
100
AcDbArc
 50
190.91126455
 51
268.53307366
  0
ARC
  5
76C
100
AcDbEntity
  8
Ech.1_5
 62
     7
  6
CONTINUOUS
100
AcDbCircle
 10
52658.3439597
 20
-10561.66629778
 30
0.0
 40
2.0
100
AcDbArc
 50
179.98591679
 51
270.0
  0
LINE
  5
76D
100
AcDbEntity
  8
Ech.1_5
 62
     7
  6
CONTINUOUS
100
AcDbLine
 10
52658.3439597
 20
-10563.66629778
 30
0.0
 11
52668.4123769
 21
-10563.66629778
 31
0.0
  0
ARC
  5
76E
100
AcDbEntity
  8
Ech.1_5
 62
     7
  6
CONTINUOUS
100
AcDbCircle
 10
52668.4123769
 20
-10566.66629778
 30
0.0
 40
3.0
100
AcDbArc
 50
359.9999587
 51
90.0
  0
LINE
  5
76F
100
AcDbEntity
  8
Ech.1_5
 62
     7
  6
CONTINUOUS
100
AcDbLine
 10
52671.4123769
 20
-10566.66629995
 30
0.0
 11
52671.41235961
 21
-10590.66629995
 31
0.0
  0
LWPOLYLINE
  5
770
100
AcDbEntity
  8
Ech.1_5
 62
     7
  6
CONTINUOUS
100
AcDbPolyline
 90
        5
 70
     0
 43
0.0
 10
52723.73004116
 20
-10566.01629778
 42
0.73157417
 10
52723.79360245
 20
-10567.47059523
 42
-0.1352145
 10
52725.10045146
 20
-10567.23710614
 42
0.92591457
 10
52725.10045146
 20
-10566.01629778
 10
52723.73004116
 20
-10566.01629778
  0
LWPOLYLINE
  5
771
100
AcDbEntity
  8
Ech.1_5
 62
     7
  6
CONTINUOUS
100
AcDbPolyline
 90
       65
 70
     0
 43
0.0
 10
52723.80057057
 20
-10567.46728019
 10
52723.76277871
 20
-10567.47705569
 10
52723.72526688
 20
-10567.48648248
 10
52723.68831314
 20
-10567.49521429
 10
52723.65219557
 20
-10567.50290483
 10
52723.61719226
 20
-10567.50920782
 10
52723.58358127
 20
-10567.51377696
 10
52723.55164069
 20
-10567.51626597
 10
52723.5216486
 20
-10567.51632857
 10
52723.49388308
 20
-10567.51361847
 10
52723.4686222
 20
-10567.50778939
 10
52723.44614403
 20
-10567.49849504
 10
52723.42672667
 20
-10567.48538914
 10
52723.41064819
 20
-10567.46812539
 10
52723.39807425
 20
-10567.44649318
 10
52723.38865319
 20
-10567.42090627
 10
52723.3818846
 20
-10567.39195793
 10
52723.37726804
 20
-10567.36024146
 10
52723.37430309
 20
-10567.32635015
 10
52723.37248932
 20
-10567.2908773
 10
52723.3713263
 20
-10567.2544162
 10
52723.3703136
 20
-10567.21756014
 10
52723.3689508
 20
-10567.18090242
 10
52723.36673747
 20
-10567.14503632
 10
52723.36317318
 20
-10567.11055515
 10
52723.3577575
 20
-10567.0780522
 10
52723.34999001
 20
-10567.04812076
 10
52723.33937028
 20
-10567.02135412
 10
52723.32539788
 20
-10566.99834558
 10
52723.30757238
 20
-10566.97968843
 10
52723.28539335
 20
-10566.96597597
 10
52723.25840241
 20
-10566.95780161
 10
52723.22797974
 20
-10566.95576436
 10
52723.1980195
 20
-10566.96047085
 10
52723.17180414
 20
-10566.97223419
 10
52723.14972102
 20
-10566.99029389
 10
52723.13149701
 20
-10567.01364454
 10
52723.116859
 20
-10567.04128071
 10
52723.10553388
 20
-10567.07219699
 10
52723.09724851
 20
-10567.10538797
 10
52723.09172979
 20
-10567.13984823
 10
52723.08870383
 20
-10567.17457776
 10
52723.08784807
 20
-10567.20892382
 10
52723.08876255
 20
-10567.24278539
 10
52723.09104047
 20
-10567.27611048
 10
52723.09427498
 20
-10567.30884714
 10
52723.09805928
 20
-10567.34094339
 10
52723.10198654
 20
-10567.37234725
 10
52723.10564994
 20
-10567.40300677
 10
52723.10864266
 20
-10567.43286996
 10
52723.11055788
 20
-10567.46188485
 10
52723.11098877
 20
-10567.48999949
 10
52723.1095285
 20
-10567.51716189
 10
52723.10577027
 20
-10567.54332008
 10
52723.09930725
 20
-10567.5684221
 10
52723.08973262
 20
-10567.59241597
 10
52723.07675909
 20
-10567.61527649
 10
52723.06061775
 20
-10567.63709448
 10
52723.04168012
 20
-10567.65799221
 10
52723.02031773
 20
-10567.67809195
 10
52722.9969021
 20
-10567.69751597
 10
52722.97180476
 20
-10567.71638654
 10
52722.94539723
 20
-10567.73482593
 10
52722.91805105
 20
-10567.75295641
 10
52722.89013774
 20
-10567.77090025
  0
LWPOLYLINE
  5
772
100
AcDbEntity
  8
Ech.1_5
 62
     7
  6
CONTINUOUS
100
AcDbPolyline
 90
       40
 70
     0
 43
0.0
 10
52723.80057057
 20
-10567.46728019
 42
-0.20099848
 10
52725.73001374
 20
-10567.37885111
 42
0.55145662
 10
52725.86394653
 20
-10567.27554567
 42
-0.1294239
 10
52726.04820367
 20
-10566.1571377
 42
0.54354517
 10
52725.95692333
 20
-10566.01629778
 10
52723.73004116
 20
-10566.01629778
 10
52723.73004116
 20
-10566.01629778
 10
52723.23004116
 20
-10566.51629778
 10
52722.73004116
 20
-10566.01629778
 10
52709.61016838
 20
-10566.01629778
 42
0.41421356
 10
52709.51016838
 20
-10566.11629778
 10
52709.51016838
 20
-10569.31629778
 42
-0.41421356
 10
52709.41016838
 20
-10569.41629778
 10
52709.01016838
 20
-10569.41629778
 42
-0.41421356
 10
52708.91016838
 20
-10569.31629778
 10
52708.91016838
 20
-10566.51629778
 42
0.41421356
 10
52708.81016838
 20
-10566.41629778
 10
52706.3608122
 20
-10566.41629778
 42
0.74863712
 10
52706.30675815
 20
-10566.60042958
 10
52708.26323739
 20
-10567.85745295
 42
-0.41421356
 10
52708.29331513
 20
-10567.9956388
 10
52708.07709892
 20
-10568.33216599
 42
-0.41421356
 10
52707.93891307
 20
-10568.36224373
 10
52704.95611433
 20
-10566.44581771
 42
-0.25526652
 10
52704.91016838
 20
-10566.36168592
 10
52704.91016838
 20
-10565.51629778
 42
-0.41421356
 10
52705.01016838
 20
-10565.41629778
 10
52726.61016838
 20
-10565.41629778
 42
-0.41421356
 10
52726.71016838
 20
-10565.51629778
 10
52726.71016838
 20
-10565.98291624
 42
-0.16012282
 10
52726.69066961
 20
-10566.04224205
 42
0.24300643
 10
52726.44087458
 20
-10567.60673645
 42
0.06909489
 10
52726.45299762
 20
-10567.63142748
 42
-0.7595554
 10
52726.04684421
 20
-10568.10896533
 42
0.27525427
 10
52724.00910167
 20
-10567.92177157
 42
-0.2097
 10
52719.80551272
 20
-10567.98996136
 42
-0.9750995
 10
52719.99892672
 20
-10567.52888542
 42
0.15529906
 10
52722.85812686
 20
-10567.78418002
 42
0.06565639
 10
52722.88268943
 20
-10567.77520818
 42
0.02152096
 10
52722.89013774
 20
-10567.77090025
  0
LINE
  5
773
100
AcDbEntity
  8
Ech.1_5
 62
     7
  6
CONTINUOUS
100
AcDbLine
 10
52705.91016105
 20
-10600.76603789
 30
0.0
 11
52705.01016105
 21
-10600.7660505
 31
0.0
  0
LINE
  5
774
100
AcDbEntity
  8
Ech.1_5
 62
     7
  6
CONTINUOUS
100
AcDbLine
 10
52705.01017785
 20
-10601.96605051
 30
0.0
 11
52702.90874834
 21
-10601.96607993
 31
0.0
  0
LINE
  5
775
100
AcDbEntity
  8
Ech.1_5
 62
     7
  6
CONTINUOUS
100
AcDbLine
 10
52702.05258376
 20
-10600.76609194
 30
0.0
 11
52701.55258376
 21
-10600.76609894
 31
0.0
  0
LINE
  5
776
100
AcDbEntity
  8
Ech.1_5
 62
     7
  6
CONTINUOUS
100
AcDbLine
 10
52705.01017785
 20
-10601.96605051
 30
0.0
 11
52705.01016104
 21
-10600.7660505
 31
0.0
  0
LINE
  5
777
100
AcDbEntity
  8
Ech.1_5
 62
     7
  6
CONTINUOUS
100
AcDbLine
 10
52705.01016105
 20
-10600.7660505
 30
0.0
 11
52702.05258376
 21
-10600.76609194
 31
0.0
  0
LINE
  5
778
100
AcDbEntity
  8
Ech.1_5
 62
     7
  6
CONTINUOUS
100
AcDbLine
 10
52698.88739285
 20
-10601.96613625
 30
0.0
 11
52698.85899322
 21
-10601.96613665
 31
0.0
  0
LINE
  5
779
100
AcDbEntity
  8
Ech.1_5
 62
     7
  6
CONTINUOUS
100
AcDbLine
 10
52698.11661005
 20
-10601.96614704
 30
0.0
 11
52697.21302056
 21
-10601.9661597
 31
0.0
  0
LINE
  5
77A
100
AcDbEntity
  8
Ech.1_5
 62
     7
  6
CONTINUOUS
100
AcDbLine
 10
52699.98870005
 20
-10601.96612083
 30
0.0
 11
52698.88739285
 21
-10601.96613625
 31
0.0
  0
ARC
  5
77B
100
AcDbEntity
  8
Ech.1_5
 62
     7
  6
CONTINUOUS
100
AcDbCircle
 10
52698.21302101
 20
-10601.99819596
 30
0.0
 40
1.0
100
AcDbArc
 50
180.00080237
 51
210.00084887
  0
ARC
  5
77C
100
AcDbEntity
  8
Ech.1_5
 62
     7
  6
CONTINUOUS
100
AcDbCircle
 10
52698.01301496
 20
-10601.5661484
 30
0.0
 40
0.8
100
AcDbArc
 50
90.00765543
 51
180.00080238
  0
LINE
  5
77D
100
AcDbEntity
  8
Ech.1_5
 62
     7
  6
CONTINUOUS
100
AcDbLine
 10
52697.21302101
 20
-10601.99820997
 30
0.0
 11
52697.21301496
 21
-10601.5661596
 31
0.0
  0
LINE
  5
77E
100
AcDbEntity
  8
Ech.1_5
 62
     7
  6
CONTINUOUS
100
AcDbLine
 10
52698.01290807
 20
-10600.7661484
 30
0.0
 11
52698.21171827
 21
-10600.76614562
 31
0.0
  0
LINE
  5
77F
100
AcDbEntity
  8
Ech.1_5
 62
     7
  6
CONTINUOUS
100
AcDbLine
 10
52698.21171827
 20
-10600.76614562
 30
0.0
 11
52698.35146599
 21
-10600.76614367
 31
0.0
  0
LINE
  5
780
100
AcDbEntity
  8
Ech.1_5
 62
     7
  6
CONTINUOUS
100
AcDbLine
 10
52698.85899322
 20
-10601.96613665
 30
0.0
 11
52698.11661005
 21
-10601.96614704
 31
0.0
  0
LINE
  5
781
100
AcDbEntity
  8
Ech.1_5
 62
     7
  6
CONTINUOUS
100
AcDbLine
 10
52702.90874834
 20
-10601.96607993
 30
0.0
 11
52699.98870005
 21
-10601.96612083
 31
0.0
  0
LINE
  5
782
100
AcDbEntity
  8
Ech.1_5
 62
     7
  6
CONTINUOUS
100
AcDbLine
 10
52698.35146599
 20
-10600.76614367
 30
0.0
 11
52701.55258376
 21
-10600.76609894
 31
0.0
  0
HATCH
  5
783
100
AcDbEntity
  8
Ech.1_5
 62
     7
100
AcDbHatch
 10
0.0
 20
0.0
 30
0.0
210
0.0
220
0.0
230
1.0
  2
_USER_1
 70
     0
 71
     0
 91
        1
 92
        7
 72
     0
 73
     1
 93
       19
 10
52697.21301496
 20
-10601.5661596
 10
52697.21302056
 20
-10601.9661597
 10
52705.01017785
 20
-10601.96605051
 10
52705.01016104
 20
-10600.7660505
 10
52702.05258376
 20
-10600.76609194
 10
52701.55258376
 20
-10600.76609894
 10
52698.35146599
 20
-10600.76614367
 10
52698.21171827
 20
-10600.76614562
 10
52698.01290807
 20
-10600.7661484
 10
52697.8990659
 20
-10600.77430522
 10
52697.78754305
 20
-10600.79857924
 10
52697.68060946
 20
-10600.83847637
 10
52697.58044166
 20
-10600.89318455
 10
52697.48907846
 20
-10600.96159026
 10
52697.40837948
 20
-10601.04230115
 10
52697.33998727
 20
-10601.13367444
 10
52697.28529387
 20
-10601.23385032
 10
52697.24541252
 20
-10601.34078979
 10
52697.22115497
 20
-10601.45231623
 97
        0
 75
     0
 76
     2
 52
0.0
 41
1.0
 77
     0
 78
     1
 53
135.00079346
 43
0.0
 44
0.0
 45
-1.76774247
 46
-1.76779143
 79
     2
 49
50.0
 49
0.0
 47
0.775229
 98
        1
 10
0.0
 20
0.0
  0
ARC
  5
784
100
AcDbEntity
  8
Ech.1_5
 62
     7
  6
CONTINUOUS
100
AcDbCircle
 10
52703.20877347
 20
-10603.76031159
 30
0.0
 40
0.3
100
AcDbArc
 50
180.00080237
 51
270.00080237
  0
LINE
  5
785
100
AcDbEntity
  8
Ech.1_5
 62
     7
  6
CONTINUOUS
100
AcDbLine
 10
52704.71020718
 20
-10604.06029056
 30
0.0
 11
52703.20877767
 21
-10604.06031159
 31
0.0
  0
ARC
  5
786
100
AcDbEntity
  8
Ech.1_5
 62
     7
  6
CONTINUOUS
100
AcDbCircle
 10
52702.25996069
 20
-10605.16032487
 30
0.0
 40
0.3
100
AcDbArc
 50
90.00080237
 51
150.00080238
  0
ARC
  5
787
100
AcDbEntity
  8
Ech.1_5
 62
     7
  6
CONTINUOUS
100
AcDbCircle
 10
52704.73632502
 20
-10605.16029019
 30
0.0
 40
0.3
100
AcDbArc
 50
8.33702231
 51
90.00080237
  0
ARC
  5
788
100
AcDbEntity
  8
Ech.1_5
 62
     7
  6
CONTINUOUS
100
AcDbCircle
 10
52704.71020298
 20
-10603.76029056
 30
0.0
 40
0.3
100
AcDbArc
 50
270.00080239
 51
0.00080236
  0
ARC
  5
789
100
AcDbEntity
  8
Ech.1_5
 62
     7
  6
CONTINUOUS
100
AcDbCircle
 10
52701.04417073
 20
-10603.26610594
 30
0.0
 40
1.0
100
AcDbArc
 50
330.00080238
 51
0.00080237
  0
ARC
  5
78A
100
AcDbEntity
  8
Ech.1_5
 62
     7
  6
CONTINUOUS
100
AcDbCircle
 10
52701.25169074
 20
-10605.90673189
 30
0.0
 40
0.2
100
AcDbArc
 50
270.00080237
 51
330.00080237
  0
LINE
  5
78B
100
AcDbEntity
  8
Ech.1_5
 62
     7
  6
CONTINUOUS
100
AcDbLine
 10
52702.25995649
 20
-10604.86032487
 30
0.0
 11
52704.73632082
 21
-10604.86029019
 31
0.0
  0
LINE
  5
78C
100
AcDbEntity
  8
Ech.1_5
 62
     7
  6
CONTINUOUS
100
AcDbLine
 10
52701.42489722
 20
-10606.00672946
 30
0.0
 11
52702.00015097
 21
-10605.01032851
 31
0.0
  0
ARC
  5
78D
100
AcDbEntity
  8
Ech.1_5
 62
     7
  6
CONTINUOUS
100
AcDbCircle
 10
52705.19501245
 20
-10607.04328179
 30
0.0
 40
0.71967841
100
AcDbArc
 50
267.84577807
 51
353.6317206
  0
ARC
  5
78E
100
AcDbEntity
  8
Ech.1_5
 62
     7
  6
CONTINUOUS
100
AcDbCircle
 10
52704.99585684
 20
-10607.35376915
 30
0.0
 40
0.2
100
AcDbArc
 50
19.76068819
 51
85.24537524
  0
ARC
  5
78F
100
AcDbEntity
  8
Ech.1_5
 62
     7
  6
CONTINUOUS
100
AcDbCircle
 10
52702.4062973
 20
-10607.46933508
 30
0.0
 40
0.3
100
AcDbArc
 50
85.24537527
 51
138.37547762
  0
ARC
  5
790
100
AcDbEntity
  8
Ech.1_5
 62
     7
  6
CONTINUOUS
100
AcDbCircle
 10
52705.28106644
 20
-10607.16225693
 30
0.0
 40
0.15734085
100
AcDbArc
 50
231.94531044
 51
79.31145966
  0
ARC
  5
791
100
AcDbEntity
  8
Ech.1_5
 62
     7
  6
CONTINUOUS
100
AcDbCircle
 10
52702.0196774
 20
-10607.19030006
 30
0.0
 40
0.18089908
100
AcDbArc
 50
85.92249745
 51
333.83771125
  0
LINE
  5
792
100
AcDbEntity
  8
Ech.1_5
 62
     7
  6
CONTINUOUS
100
AcDbLine
 10
52705.01243457
 20
-10607.15445738
 30
0.0
 11
52702.4311639
 21
-10607.17036743
 31
0.0
  0
LINE
  5
793
100
AcDbEntity
  8
Ech.1_5
 62
     7
  6
CONTINUOUS
100
AcDbLine
 10
52705.03315471
 20
-10605.11679152
 30
0.0
 11
52705.31024846
 21
-10607.00764596
 31
0.0
  0
ARC
  5
794
100
AcDbEntity
  8
Ech.1_5
 62
     7
  6
CONTINUOUS
100
AcDbCircle
 10
52700.35139797
 20
-10606.66611572
 30
0.0
 40
0.1
100
AcDbArc
 50
150.00080238
 51
266.67206511
  0
ARC
  5
795
100
AcDbEntity
  8
Ech.1_5
 62
     7
  6
CONTINUOUS
100
AcDbCircle
 10
52700.39199504
 20
-10605.96795775
 30
0.0
 40
0.79933731
100
AcDbArc
 50
266.67206513
 51
277.37648123
  0
ARC
  5
796
100
AcDbEntity
  8
Ech.1_5
 62
     7
  6
CONTINUOUS
100
AcDbCircle
 10
52699.16635909
 20
-10602.96764975
 30
0.0
 40
0.3
100
AcDbArc
 50
246.34437919
 51
56.27897772
  0
LINE
  5
797
100
AcDbEntity
  8
Ech.1_5
 62
     7
  6
CONTINUOUS
100
AcDbLine
 10
52700.26479473
 20
-10606.61611693
 30
0.0
 11
52701.91020313
 21
-10603.76609381
 31
0.0
  0
ARC
  5
798
100
AcDbEntity
  8
Ech.1_5
 62
     7
  6
CONTINUOUS
100
AcDbCircle
 10
52701.16278064
 20
-10602.97560747
 30
0.0
 40
0.3
100
AcDbArc
 50
239.48786326
 51
49.42246179
  0
LINE
  5
799
100
AcDbEntity
  8
Ech.1_5
 62
     7
  6
CONTINUOUS
100
AcDbLine
 10
52697.34700301
 20
-10602.49820879
 30
0.0
 11
52699.04598756
 21
-10603.24244185
 31
0.0
  0
LINE
  5
79A
100
AcDbEntity
  8
Ech.1_5
 62
     7
  6
CONTINUOUS
100
AcDbLine
 10
52705.91025007
 20
-10607.12310761
 30
0.0
 11
52705.91016105
 21
-10600.76603789
 31
0.0
  0
LINE
  5
79B
100
AcDbEntity
  8
Ech.1_5
 62
     7
  6
CONTINUOUS
100
AcDbLine
 10
52702.90874834
 20
-10601.96607993
 30
0.0
 11
52702.90877347
 21
-10603.76031579
 31
0.0
  0
LINE
  5
79C
100
AcDbEntity
  8
Ech.1_5
 62
     7
  6
CONTINUOUS
100
AcDbLine
 10
52705.01020298
 20
-10603.76028636
 30
0.0
 11
52705.01017785
 21
-10601.96605051
 31
0.0
  0
LINE
  5
79D
100
AcDbEntity
  8
Ech.1_5
 62
     7
  6
CONTINUOUS
100
AcDbLine
 10
52702.04415252
 20
-10601.96609204
 30
0.0
 11
52702.04417073
 21
-10603.26609194
 31
0.0
  0
LINE
  5
79E
100
AcDbEntity
  8
Ech.1_5
 62
     7
  6
CONTINUOUS
100
AcDbLine
 10
52698.20625505
 20
-10601.96614579
 30
0.0
 11
52699.33290398
 21
-10602.71812461
 31
0.0
  0
LINE
  5
79F
100
AcDbEntity
  8
Ech.1_5
 62
     7
  6
CONTINUOUS
100
AcDbLine
 10
52700.44525038
 20
-10601.96611443
 30
0.0
 11
52701.3579236
 21
-10602.74774955
 31
0.0
  0
LINE
  5
7A0
100
AcDbEntity
  8
Ech.1_5
 62
     7
  6
CONTINUOUS
100
AcDbLine
 10
52698.85899322
 20
-10601.96613665
 30
0.0
 11
52701.01046438
 21
-10603.23406396
 31
0.0
  0
ARC
  5
7A1
100
AcDbEntity
  8
Ech.1_5
 62
     7
  6
CONTINUOUS
100
AcDbCircle
 10
52700.51164834
 20
-10607.41531318
 30
0.0
 40
0.35
100
AcDbArc
 50
97.52289342
 51
135.24537528
  0
ARC
  5
7A2
100
AcDbEntity
  8
Ech.1_5
 62
     7
  6
CONTINUOUS
100
AcDbCircle
 10
52700.51164834
 20
-10607.41531318
 30
0.0
 40
0.35
100
AcDbArc
 50
225.24537528
 51
265.24537524
  0
ARC
  5
7A3
100
AcDbEntity
  8
Ech.1_5
 62
     7
  6
CONTINUOUS
100
AcDbCircle
 10
52700.51164834
 20
-10607.41531318
 30
0.0
 40
0.35
100
AcDbArc
 50
135.24537526
 51
225.24537526
  0
LINE
  5
7A4
100
AcDbEntity
  8
Ech.1_5
 62
     7
  6
CONTINUOUS
100
AcDbLine
 10
52705.16796016
 20
-10607.76245159
 30
0.0
 11
52700.48263731
 21
-10607.76410876
 31
0.0
  0
LINE
  5
7A5
100
AcDbEntity
  8
Ech.1_5
 62
     7
  6
CONTINUOUS
100
AcDbLine
 10
52700.46582552
 20
-10607.06832576
 30
0.0
 11
52701.30210462
 21
-10606.83445767
 31
0.0
  0
ARC
  5
7A6
100
AcDbEntity
  8
Ech.1_5
 62
     7
  6
CONTINUOUS
100
AcDbCircle
 10
52701.28194727
 20
-10606.23390503
 30
0.0
 40
0.13072221
100
AcDbArc
 50
103.38158865
 51
4.55989385
  0
LINE
  5
7A7
100
AcDbEntity
  8
Ech.1_5
 62
     7
  6
CONTINUOUS
100
AcDbLine
 10
52700.49462078
 20
-10606.7606797
 30
0.0
 11
52701.46941287
 21
-10606.59462225
 31
0.0
  0
LINE
  5
7A8
100
AcDbEntity
  8
Ech.1_5
 62
     7
  6
CONTINUOUS
100
AcDbLine
 10
52702.03254037
 20
-10607.00985888
 30
0.0
 11
52702.70979404
 21
-10606.91470904
 31
0.0
  0
ARC
  5
7A9
100
AcDbEntity
  8
Ech.1_5
 62
     7
  6
CONTINUOUS
100
AcDbCircle
 10
52702.6302251
 20
-10606.06224682
 30
0.0
 40
0.85616766
100
AcDbArc
 50
275.33254518
 51
319.89687471
  0
ARC
  5
7AA
100
AcDbEntity
  8
Ech.1_5
 62
     7
  6
CONTINUOUS
100
AcDbCircle
 10
52703.20860736
 20
-10606.54934382
 30
0.0
 40
0.1
100
AcDbArc
 50
319.89687469
 51
41.05077064
  0
ARC
  5
7AB
100
AcDbEntity
  8
Ech.1_5
 62
     7
  6
CONTINUOUS
100
AcDbCircle
 10
52702.6302251
 20
-10606.06224682
 30
0.0
 40
0.85616766
100
AcDbArc
 50
0.65804242
 51
33.90586697
  0
ARC
  5
7AC
100
AcDbEntity
  8
Ech.1_5
 62
     7
  6
CONTINUOUS
100
AcDbCircle
 10
52703.25781036
 20
-10605.64043374
 30
0.0
 40
0.1
100
AcDbArc
 50
33.90586702
 51
114.87273419
  0
ARC
  5
7AD
100
AcDbEntity
  8
Ech.1_5
 62
     7
  6
CONTINUOUS
100
AcDbCircle
 10
52702.6302251
 20
-10606.06224682
 30
0.0
 40
0.45616766
100
AcDbArc
 50
275.33254519
 51
71.54778471
  0
ARC
  5
7AE
100
AcDbEntity
  8
Ech.1_5
 62
     7
  6
CONTINUOUS
100
AcDbCircle
 10
52704.33093091
 20
-10616.77519677
 30
0.0
 40
10.39192391
100
AcDbArc
 50
99.1823407
 51
106.94536207
  0
ARC
  5
7AF
100
AcDbEntity
  8
Ech.1_5
 62
     7
  6
CONTINUOUS
100
AcDbCircle
 10
52701.43518383
 20
-10606.18763292
 30
0.0
 40
0.40842618
100
AcDbArc
 50
274.80743486
 51
313.06235652
  0
LINE
  5
7B0
100
AcDbEntity
  8
Ech.1_5
 62
     7
  6
CONTINUOUS
100
AcDbLine
 10
52701.41225572
 20
-10606.22351246
 30
0.0
 11
52702.19760221
 21
-10605.32066398
 31
0.0
  0
LINE
  5
7B1
100
AcDbEntity
  8
Ech.1_5
 62
     7
  6
CONTINUOUS
100
AcDbLine
 10
52701.71405474
 20
-10606.48603359
 30
0.0
 11
52702.44000005
 21
-10605.65147379
 31
0.0
  0
ARC
  5
7B2
100
AcDbEntity
  8
Ech.1_5
 62
     7
  6
CONTINUOUS
100
AcDbCircle
 10
52702.64556271
 20
-10606.22392895
 30
0.0
 40
1.00824413
100
AcDbArc
 50
78.06160287
 51
116.37841191
  0
ARC
  5
7B3
100
AcDbEntity
  8
Ech.1_5
 62
     7
  6
CONTINUOUS
100
AcDbCircle
 10
52702.64556271
 20
-10606.22392895
 30
0.0
 40
0.60824413
100
AcDbArc
 50
77.75097841
 51
109.75268282
  0
ARC
  5
7B4
100
AcDbEntity
  8
Ech.1_5
 62
     7
  6
CONTINUOUS
100
AcDbCircle
 10
52703.43616813
 20
-10606.35117397
 30
0.0
 40
0.20175353
100
AcDbArc
 50
99.50414649
 51
221.05077063
  0
ARC
  5
7B5
100
AcDbEntity
  8
Ech.1_5
 62
     7
  6
CONTINUOUS
100
AcDbCircle
 10
52703.38634289
 20
-10606.05356242
 30
0.0
 40
0.1
100
AcDbArc
 50
279.50414645
 51
0.65804245
  0
ARC
  5
7B6
100
AcDbEntity
  8
Ech.1_5
 62
     7
  6
CONTINUOUS
100
AcDbCircle
 10
52703.13162912
 20
-10605.36826045
 30
0.0
 40
0.2
100
AcDbArc
 50
173.69797491
 51
294.8727342
  0
ARC
  5
7B7
100
AcDbEntity
  8
Ech.1_5
 62
     7
  6
CONTINUOUS
100
AcDbCircle
 10
52702.833442
 20
-10605.33532962
 30
0.0
 40
0.1
100
AcDbArc
 50
353.69797487
 51
78.06160285
  0
LWPOLYLINE
  5
7B8
100
AcDbEntity
  8
Ech.1_5
 62
     7
  6
CONTINUOUS
100
AcDbPolyline
 90
       99
 70
     0
 43
0.0
 10
52657.18822495
 20
-10565.43949821
 10
52660.55884097
 20
-10566.66630211
 10
52665.51237258
 20
-10566.66630211
 10
52665.81237258
 20
-10566.36630211
 10
52666.51237258
 20
-10566.36630211
 42
-0.95548796
 10
52666.54873622
 20
-10567.16464579
 42
0.38779458
 10
52666.41237258
 20
-10567.31402467
 10
52666.41237258
 20
-10570.54918565
 42
0.34415073
 10
52666.52599224
 20
-10570.69470702
 10
52667.09875292
 20
-10570.83789719
 42
-0.34415073
 10
52667.21237258
 20
-10570.98341857
 10
52667.21237258
 20
-10586.34918565
 42
-0.34415073
 10
52667.09875292
 20
-10586.49470702
 10
52666.52599224
 20
-10586.63789719
 42
0.34415073
 10
52666.41237258
 20
-10586.78341857
 10
52666.41237258
 20
-10590.01857955
 42
0.38779458
 10
52666.54873622
 20
-10590.16795843
 42
-0.95548796
 10
52666.51237258
 20
-10590.96630211
 10
52665.81237258
 20
-10590.96630211
 10
52665.51237258
 20
-10590.66630211
 10
52660.55884097
 20
-10590.66630211
 10
52657.21363848
 20
-10591.88385624
 42
-1.10738051
 10
52657.12310913
 20
-10591.63512889
 10
52658.42469876
 20
-10591.3065956
 42
0.93251509
 10
52658.31169274
 20
-10590.66810224
 10
52655.89069044
 20
-10590.99494607
 42
-0.18531675
 10
52655.23680451
 20
-10590.84026691
 42
0.15081813
 10
52654.67318597
 20
-10590.66630211
 10
52654.38192426
 20
-10590.66630211
 10
52653.38192426
 20
-10590.66630211
 42
0.30843151
 10
52653.02631147
 20
-10590.92352628
 42
0.26795044
 10
52655.26787143
 20
-10596.19015778
 42
0.52171267
 10
52655.51031363
 20
-10596.14814614
 42
-0.15565301
 10
52656.61273717
 20
-10595.31708861
 10
52656.41237258
 20
-10593.65968821
 42
-0.31529879
 10
52656.54396855
 20
-10593.47174968
 10
52659.21932096
 20
-10592.49800104
 42
-0.87140053
 10
52659.26561629
 20
-10592.58557744
 10
52658.54711286
 20
-10593.10233778
 42
1.00812133
 10
52658.85630272
 20
-10593.62256899
 10
52661.16110203
 20
-10592.14534499
 42
-0.14346618
 10
52661.43090771
 20
-10592.06630211
 10
52663.01214331
 20
-10592.06630211
 42
-0.72472287
 10
52663.0713069
 20
-10592.24692263
 10
52662.18297963
 20
-10592.89882411
 42
0.94855512
 10
52662.64864826
 20
-10593.60846029
 10
52664.59846758
 20
-10592.16448997
 42
-0.16072186
 10
52664.89603607
 20
-10592.06630211
 10
52666.45387299
 20
-10592.06630211
 42
0.08748866
 10
52666.52227702
 20
-10592.05424063
 10
52668.3136756
 20
-10591.40222487
 42
0.31529879
 10
52668.41237258
 20
-10591.26127098
 10
52668.41237258
 20
-10589.88341857
 42
0.34415073
 10
52668.29875292
 20
-10589.73789719
 10
52667.72599224
 20
-10589.59470702
 42
-0.34415073
 10
52667.61237258
 20
-10589.44918565
 10
52667.61237258
 20
-10587.68341857
 42
-0.34415073
 10
52667.72599224
 20
-10587.53789719
 10
52668.29875292
 20
-10587.39470702
 42
0.34415073
 10
52668.41237258
 20
-10587.24918565
 10
52668.41237258
 20
-10570.08341857
 42
0.34415073
 10
52668.29875292
 20
-10569.93789719
 10
52667.72599224
 20
-10569.79470702
 42
-0.34415073
 10
52667.61237258
 20
-10569.64918565
 10
52667.61237258
 20
-10567.88341857
 42
-0.34415073
 10
52667.72599224
 20
-10567.73789719
 10
52668.29875292
 20
-10567.59470702
 42
0.34415073
 10
52668.41237258
 20
-10567.44918565
 10
52668.41237258
 20
-10566.07133324
 42
0.31529879
 10
52668.3136756
 20
-10565.93037935
 10
52666.52227702
 20
-10565.27836358
 42
0.08748866
 10
52666.45387299
 20
-10565.26630211
 10
52664.89603607
 20
-10565.26630211
 42
-0.16072186
 10
52664.59846758
 20
-10565.16811424
 10
52662.64864826
 20
-10563.72414393
 42
0.94855512
 10
52662.18297963
 20
-10564.43378011
 10
52663.0713069
 20
-10565.08568159
 42
-0.72472287
 10
52663.01214331
 20
-10565.26630211
 10
52661.43090771
 20
-10565.26630211
 42
-0.14346618
 10
52661.16110203
 20
-10565.18725922
 10
52658.85630272
 20
-10563.71003523
 42
1.00812133
 10
52658.54711286
 20
-10564.23026643
 10
52659.26561629
 20
-10564.74702678
 42
-0.87140053
 10
52659.21932096
 20
-10564.83460318
 10
52656.54396855
 20
-10563.86085453
 42
-0.31529879
 10
52656.41237258
 20
-10563.67291601
 10
52656.61273717
 20
-10562.01547529
 42
-0.15565608
 10
52655.51033191
 20
-10561.18443882
 42
0.52171267
 10
52655.26788972
 20
-10561.14242718
 42
0.26794928
 10
52653.02631147
 20
-10566.40907793
 42
0.30843151
 10
52653.38192426
 20
-10566.66630211
 10
52654.38192426
 20
-10566.66630211
 10
52654.67318597
 20
-10566.66630211
 42
0.15081813
 10
52655.23680451
 20
-10566.4923373
 42
-0.18531675
 10
52655.89069044
 20
-10566.33765815
 10
52658.31169274
 20
-10566.66450197
 42
0.93251509
 10
52658.42469876
 20
-10566.02600861
 10
52657.12310913
 20
-10565.69747533
 42
-1.10738051
 10
52657.21363848
 20
-10565.44874798
  0
LWPOLYLINE
  5
7B9
100
AcDbEntity
  8
Ech.1_5
 62
     7
  6
CONTINUOUS
100
AcDbPolyline
 90
       25
 70
     0
 43
0.0
 10
52727.91326309
 20
-10625.91693845
 10
52745.93486687
 20
-10625.9168595
 42
0.40824515
 10
52746.91439423
 20
-10624.91701535
 10
52746.91432437
 20
-10623.61705512
 10
52751.9143104
 20
-10623.61699923
 42
0.41421487
 10
52752.91429643
 20
-10622.61698079
 10
52752.91350003
 20
-10579.41709217
 42
-0.41422032
 10
52753.91350003
 20
-10578.41706909
 10
52757.4134651
 20
-10578.41706909
 42
0.41421356
 10
52758.9134651
 20
-10576.91706909
 10
52758.9134651
 20
-10574.41703626
 42
0.41421036
 10
52752.91353076
 20
-10568.41703626
 10
52713.91044581
 20
-10568.41660947
 42
0.41421752
 10
52712.9104323
 20
-10569.41660947
 10
52712.9104323
 20
-10599.40609518
 42
0.36397023
 10
52713.73678412
 20
-10600.39090293
 10
52716.1916414
 20
-10600.8237605
 42
-0.31529879
 10
52717.00280097
 20
-10601.63492008
 10
52717.90348646
 20
-10606.74296129
 42
-0.46630766
 10
52716.9186787
 20
-10607.91660947
 10
52695.90544144
 20
-10607.91660947
 42
0.44001053
 10
52694.90924674
 20
-10609.00376521
 10
52696.229242
 20
-10624.09138
 42
0.38887999
 10
52698.22164015
 20
-10625.91706851
 10
52727.91326309
 20
-10625.91693845
  0
LWPOLYLINE
  5
7BA
102
{ACAD_REACTORS
330
7BB
102
}
100
AcDbEntity
  8
Ech.1_5
 62
     9
  6
CONTINUOUS
370
    -3
100
AcDbPolyline
 90
        4
 70
     1
 43
0.0
 10
52717.35731285
 20
-10662.41709217
 10
52717.35731285
 20
-10862.41709217
 10
53002.52369123
 20
-10862.41999374
 10
53002.52369123
 20
-10662.41709217
  0
HATCH
  5
7BB
100
AcDbEntity
  8
Ech.1_5
 62
     9
  6
CONTINUOUS
100
AcDbHatch
 10
0.0
 20
0.0
 30
0.0
210
0.0
220
0.0
230
1.0
  2
AR-CONC
 70
     0
 71
     1
 91
        1
 92
        7
 72
     0
 73
     1
 93
        4
 10
52717.35731285
 20
-10662.41709217
 10
52717.35731285
 20
-10862.41709217
 10
53002.52369123
 20
-10862.41999374
 10
53002.52369123
 20
-10662.41709217
 97
        1
330
7BA
 75
     0
 76
     2
 52
0.0
 41
0.11811097
 77
     0
 78
    13
 53
50.0
 43
0.0
 44
0.0
 45
-18.84283637
 46
1.64853443
 79
     2
 49
1.97029307
 49
-21.67322338
 53
355.0
 43
0.0
 44
0.0
 45
-3.64507756
 46
19.76051824
 79
     2
 49
1.57623377
 49
-17.3385787
 53
100.45140076
 43
1.57023568
 44
-0.13737749
 45
-15.19777228
 46
-18.11197244
 79
     2
 49
1.67449124
 49
-18.41940522
 53
46.18420029
 43
0.0
 44
5.25411576
 45
-28.03703353
 46
4.34827878
 79
     2
 49
2.95543872
 49
-32.50983238
 53
96.63559723
 43
2.33641885
 44
4.89175692
 45
-24.55412615
 46
-25.59063404
 79
     2
 49
2.51173697
 49
-27.62910426
 53
351.1842041
 43
0.0
 44
5.25411576
 45
24.55410288
 46
25.59065715
 79
     2
 49
2.36435249
 49
-26.00786805
 53
21.0
 43
2.62705699
 44
3.94058615
 45
-15.68109068
 46
10.57702905
 79
     2
 49
1.97029307
 49
-21.67322338
 53
326.0
 43
2.62705699
 44
3.94058615
 45
6.39203268
 46
19.05010734
 79
     2
 49
1.57623377
 49
-17.3385787
 53
71.45140076
 43
3.93381357
 44
3.05916555
 45
-22.07312962
 46
-8.47306182
 79
     2
 49
1.67449124
 49
-18.41940522
 53
37.5
 43
0.0
 44
0.0
 45
0.31944534
 46
8.74531245
 79
     6
 49
0.01875
 49
-17.12841332
 49
0.01875
 49
-17.60128498
 49
0.01875
 49
-17.40425348
 53
7.5
 43
0.0
 44
0.0
 45
6.91098818
 46
10.3614222
 79
     6
 49
0.01875
 49
-10.03535807
 49
0.01875
 49
-16.7343539
 49
0.01875
 49
-6.6333206
 53
-32.5
 43
-5.85833833
 44
0.0
 45
14.02382061
 46
-0.59253003
 79
     6
 49
0.01875
 49
-6.56764314
 49
0.01875
 49
-20.49104869
 49
0.01875
 49
-27.19004452
 53
-42.5
 43
-8.48539531
 44
0.0
 45
15.32063571
 46
2.62981542
 79
     6
 49
0.01875
 49
-8.53793621
 49
0.01875
 49
-13.60815793
 49
0.01875
 49
-19.30887222
 47
0.775229
 98
        1
 10
0.0
 20
0.0
  0
3DFACE
  5
7BC
100
AcDbEntity
  8
Ech.1_5
 62
    36
  6
CONTINUOUS
370
    -3
100
AcDbFace
 70
     0
 10
52769.69934845
 20
-11096.41709223
 30
3064.17890968
 11
52769.69934845
 21
-11096.41709223
 31
1455.0
 12
52769.69934845
 22
-11071.41709223
 32
1455.0
 13
52769.69934845
 23
-11071.41709223
 33
3064.17890968
  0
3DFACE
  5
7BD
100
AcDbEntity
  8
Ech.1_5
 62
    36
  6
CONTINUOUS
370
    -3
100
AcDbFace
 70
     0
 10
52814.69934845
 20
-11096.41709223
 30
3064.17890968
 11
52814.69934845
 21
-11096.41709223
 31
1455.0
 12
52769.69934845
 22
-11096.41709223
 32
1455.0
 13
52769.69934845
 23
-11096.41709223
 33
3064.17890968
  0
LWPOLYLINE
  5
7BE
100
AcDbEntity
  8
Ech.1_5
 62
     5
  6
CONTINUOUS
370
    -3
100
AcDbPolyline
 90
        5
 70
     0
 43
0.0
 10
52762.35731285
 20
-11062.41709217
 10
52762.35731285
 20
-10882.41709217
 10
52717.35731285
 20
-10882.41709217
 10
52717.35731285
 20
-11062.41709217
 10
52762.35731285
 20
-11062.41709217
  0
LWPOLYLINE
  5
7BF
100
AcDbEntity
  8
Ech.1_5
 62
     1
  6
CADWORK_22
 48
-5.0
370
    35
100
AcDbPolyline
 90
        3
 70
     0
 43
0.0
 10
53002.52368323
 20
-10882.41709217
 10
52717.35713026
 20
-10882.41709217
 10
52717.35713026
 20
-10982.93770285
  0
LWPOLYLINE
  5
7C0
100
AcDbEntity
  8
Ech.1_5
 62
   150
  6
CADWORK_22
370
    35
100
AcDbPolyline
 90
        3
 70
     0
 43
0.0
 38
2500.0
 10
53002.52368175
 20
-11072.91709223
 10
52717.35671734
 20
-11072.91709223
 10
52717.35671734
 20
-10978.86692631
  0
LWPOLYLINE
  5
7C1
100
AcDbEntity
  8
Ech.1_5
 62
     3
370
    70
100
AcDbPolyline
 90
        4
 70
     0
 43
0.0
 10
52397.94621114
 20
-10967.32193868
 10
52397.94621114
 20
-10985.62629336
 10
52401.88094328
 20
-10991.30690631
 10
52419.30101268
 20
-10991.30690631
  0
LWPOLYLINE
  5
7C2
100
AcDbEntity
  8
Ech.1_5
 62
     3
370
    70
100
AcDbPolyline
 90
        4
 70
     0
 43
0.0
 10
52307.74668916
 20
-10877.38310527
 10
52320.73582258
 20
-10877.38310527
 10
52324.67055472
 20
-10871.70249229
 10
52338.14898472
 20
-10871.70249229
  0
LINE
  5
7C3
100
AcDbEntity
  8
Ech.1_5
 62
     7
  6
CONTINUOUS
370
    -3
100
AcDbLine
 10
52494.63825272
 20
-11005.81709218
 30
0.0
 11
52494.63825272
 21
-11007.81709218
 31
0.0
  0
LINE
  5
7C4
100
AcDbEntity
  8
Ech.1_5
 62
     7
  6
CONTINUOUS
370
    -3
100
AcDbLine
 10
52494.63825272
 20
-10983.41709217
 30
0.0
 11
52494.63825272
 21
-10985.41709217
 31
0.0
  0
LINE
  5
7C5
100
AcDbEntity
  8
Ech.1_5
 62
     7
  6
CONTINUOUS
370
    -3
100
AcDbLine
 10
52439.17415112
 20
-10979.41709217
 30
0.0
 11
52439.36164452
 21
-10979.12278646
 31
0.0
  0
LINE
  5
7C6
100
AcDbEntity
  8
Ech.1_5
 62
     7
  6
CONTINUOUS
370
    -3
100
AcDbLine
 10
52497.56661552
 20
-10978.11895886
 30
0.0
 11
52497.75957312
 21
-10978.29577186
 31
0.0
  0
LINE
  5
7C7
100
AcDbEntity
  8
Ech.1_5
 62
     7
  6
CONTINUOUS
370
    -3
100
AcDbLine
 10
52497.75957312
 20
-10978.29577186
 30
0.0
 11
52497.93638602
 21
-10978.48872935
 31
0.0
  0
LINE
  5
7C8
100
AcDbEntity
  8
Ech.1_5
 62
     7
  6
CONTINUOUS
370
    -3
100
AcDbLine
 10
52497.93638602
 20
-10978.48872935
 30
0.0
 11
52498.09570882
 21
-10978.69636288
 31
0.0
  0
LINE
  5
7C9
100
AcDbEntity
  8
Ech.1_5
 62
     7
  6
CONTINUOUS
370
    -3
100
AcDbLine
 10
52498.09570882
 20
-10978.69636288
 30
0.0
 11
52498.23632892
 21
-10978.91709217
 31
0.0
  0
LINE
  5
7CA
100
AcDbEntity
  8
Ech.1_5
 62
     7
  6
CONTINUOUS
370
    -3
100
AcDbLine
 10
52498.23632892
 20
-10978.91709217
 30
0.0
 11
52498.35717612
 21
-10979.14923748
 31
0.0
  0
LINE
  5
7CB
100
AcDbEntity
  8
Ech.1_5
 62
     7
  6
CONTINUOUS
370
    -3
100
AcDbLine
 10
52498.35717612
 20
-10979.14923748
 30
0.0
 11
52498.45733062
 21
-10979.39103177
 31
0.0
  0
LINE
  5
7CC
100
AcDbEntity
  8
Ech.1_5
 62
     7
  6
CONTINUOUS
370
    -3
100
AcDbLine
 10
52498.45733062
 20
-10979.39103177
 30
0.0
 11
52498.53603022
 21
-10979.64063507
 31
0.0
  0
LINE
  5
7CD
100
AcDbEntity
  8
Ech.1_5
 62
     7
  6
CONTINUOUS
370
    -3
100
AcDbLine
 10
52498.53603022
 20
-10979.64063507
 30
0.0
 11
52498.59267602
 21
-10979.89614766
 31
0.0
  0
LINE
  5
7CE
100
AcDbEntity
  8
Ech.1_5
 62
     7
  6
CONTINUOUS
370
    -3
100
AcDbLine
 10
52455.26898632
 20
-10992.42280018
 30
0.0
 11
52455.39872502
 21
-10992.43988058
 31
0.0
  0
LINE
  5
7CF
100
AcDbEntity
  8
Ech.1_5
 62
     7
  6
CONTINUOUS
370
    -3
100
AcDbLine
 10
52498.62683682
 20
-10980.15562498
 30
0.0
 11
52498.63825272
 21
-10980.41709217
 31
0.0
  0
LINE
  5
7D0
100
AcDbEntity
  8
Ech.1_5
 62
     7
  6
CONTINUOUS
370
    -3
100
AcDbLine
 10
52498.63825272
 20
-10980.41709217
 30
0.0
 11
52498.63825272
 21
-10983.41709217
 31
0.0
  0
LINE
  5
7D1
100
AcDbEntity
  8
Ech.1_5
 62
     7
  6
CONTINUOUS
370
    -3
100
AcDbLine
 10
52494.63825272
 20
-10983.41709217
 30
0.0
 11
52498.63825272
 21
-10983.41709217
 31
0.0
  0
LINE
  5
7D2
100
AcDbEntity
  8
Ech.1_5
 62
     7
  6
CONTINUOUS
370
    -3
100
AcDbLine
 10
52494.63825272
 20
-10983.41709217
 30
0.0
 11
52494.63825272
 21
-10987.41709217
 31
0.0
  0
LINE
  5
7D3
100
AcDbEntity
  8
Ech.1_5
 62
     7
  6
CONTINUOUS
370
    -3
100
AcDbLine
 10
52494.63825272
 20
-10987.41709217
 30
0.0
 11
52498.63825272
 21
-10987.41709217
 31
0.0
  0
LINE
  5
7D4
100
AcDbEntity
  8
Ech.1_5
 62
     7
  6
CONTINUOUS
370
    -3
100
AcDbLine
 10
52498.63825272
 20
-10987.41709217
 30
0.0
 11
52498.63825272
 21
-11005.81709218
 31
0.0
  0
LINE
  5
7D5
100
AcDbEntity
  8
Ech.1_5
 62
     7
  6
CONTINUOUS
370
    -3
100
AcDbLine
 10
52494.63825272
 20
-11005.81709218
 30
0.0
 11
52498.63825272
 21
-11005.81709218
 31
0.0
  0
LINE
  5
7D6
100
AcDbEntity
  8
Ech.1_5
 62
     7
  6
CONTINUOUS
370
    -3
100
AcDbLine
 10
52494.63825272
 20
-11005.81709218
 30
0.0
 11
52494.63825272
 21
-11009.81709218
 31
0.0
  0
LINE
  5
7D7
100
AcDbEntity
  8
Ech.1_5
 62
     7
  6
CONTINUOUS
370
    -3
100
AcDbLine
 10
52439.36164452
 20
-10979.12278646
 30
0.0
 11
52439.57407492
 21
-10978.84594178
 31
0.0
  0
LINE
  5
7D8
100
AcDbEntity
  8
Ech.1_5
 62
     7
  6
CONTINUOUS
370
    -3
100
AcDbLine
 10
52504.34198232
 20
-11035.12782478
 30
0.0
 11
52505.91662142
 21
-11034.76842367
 31
0.0
  0
LINE
  5
7D9
100
AcDbEntity
  8
Ech.1_5
 62
     7
  6
CONTINUOUS
370
    -3
100
AcDbLine
 10
52497.35898202
 20
-10977.95963606
 30
0.0
 11
52497.56661552
 21
-10978.11895886
 31
0.0
  0
LINE
  5
7DA
100
AcDbEntity
  8
Ech.1_5
 62
     7
  6
CONTINUOUS
370
    -3
100
AcDbLine
 10
52439.57407492
 20
-10978.84594178
 30
0.0
 11
52439.80982562
 21
-10978.58866506
 31
0.0
  0
LINE
  5
7DB
100
AcDbEntity
  8
Ech.1_5
 62
     7
  6
CONTINUOUS
370
    -3
100
AcDbLine
 10
52439.80982562
 20
-10978.58866506
 30
0.0
 11
52440.06710232
 21
-10978.35291448
 31
0.0
  0
LINE
  5
7DC
100
AcDbEntity
  8
Ech.1_5
 62
     7
  6
CONTINUOUS
370
    -3
100
AcDbLine
 10
52440.06710232
 20
-10978.35291448
 30
0.0
 11
52440.34394702
 21
-10978.14048406
 31
0.0
  0
LINE
  5
7DD
100
AcDbEntity
  8
Ech.1_5
 62
     7
  6
CONTINUOUS
370
    -3
100
AcDbLine
 10
52440.34394702
 20
-10978.14048406
 30
0.0
 11
52440.63825272
 21
-10977.95299056
 31
0.0
  0
LINE
  5
7DE
100
AcDbEntity
  8
Ech.1_5
 62
     7
  6
CONTINUOUS
370
    -3
100
AcDbLine
 10
52440.63825272
 20
-10977.95299056
 30
0.0
 11
52440.94777972
 21
-10977.79186105
 31
0.0
  0
LINE
  5
7DF
100
AcDbEntity
  8
Ech.1_5
 62
     7
  6
CONTINUOUS
370
    -3
100
AcDbLine
 10
52440.94777972
 20
-10977.79186105
 30
0.0
 11
52441.27017212
 21
-10977.65832176
 31
0.0
  0
LINE
  5
7E0
100
AcDbEntity
  8
Ech.1_5
 62
     7
  6
CONTINUOUS
370
    -3
100
AcDbLine
 10
52441.27017212
 20
-10977.65832176
 30
0.0
 11
52441.60297652
 21
-10977.55338886
 31
0.0
  0
LINE
  5
7E1
100
AcDbEntity
  8
Ech.1_5
 62
     7
  6
CONTINUOUS
370
    -3
100
AcDbLine
 10
52438.64396072
 20
-10991.04782587
 30
0.0
 11
52438.66104112
 21
-10991.17756447
 31
0.0
  0
LINE
  5
7E2
100
AcDbEntity
  8
Ech.1_5
 62
     7
  6
CONTINUOUS
370
    -3
100
AcDbLine
 10
52441.94366002
 20
-10977.47786116
 30
0.0
 11
52442.28962972
 21
-10977.43231338
 31
0.0
  0
LINE
  5
7E3
100
AcDbEntity
  8
Ech.1_5
 62
     7
  6
CONTINUOUS
370
    -3
100
AcDbLine
 10
52442.28962972
 20
-10977.43231338
 30
0.0
 11
52442.63825272
 21
-10977.41709217
 31
0.0
  0
LINE
  5
7E4
100
AcDbEntity
  8
Ech.1_5
 62
     7
  6
CONTINUOUS
370
    -3
100
AcDbLine
 10
52442.63825272
 20
-10977.41709217
 30
0.0
 11
52495.63825272
 21
-10977.41709217
 31
0.0
  0
LINE
  5
7E5
100
AcDbEntity
  8
Ech.1_5
 62
     7
  6
CONTINUOUS
370
    -3
100
AcDbLine
 10
52495.63825272
 20
-10977.41709217
 30
0.0
 11
52495.89971992
 21
-10977.42850807
 31
0.0
  0
LINE
  5
7E6
100
AcDbEntity
  8
Ech.1_5
 62
     7
  6
CONTINUOUS
370
    -3
100
AcDbLine
 10
52495.89971992
 20
-10977.42850807
 30
0.0
 11
52496.15919722
 21
-10977.46266898
 31
0.0
  0
LINE
  5
7E7
100
AcDbEntity
  8
Ech.1_5
 62
     7
  6
CONTINUOUS
370
    -3
100
AcDbLine
 10
52496.15919722
 20
-10977.46266898
 30
0.0
 11
52496.41470982
 21
-10977.51931476
 31
0.0
  0
LINE
  5
7E8
100
AcDbEntity
  8
Ech.1_5
 62
     7
  6
CONTINUOUS
370
    -3
100
AcDbLine
 10
52496.41470982
 20
-10977.51931476
 30
0.0
 11
52496.66431312
 21
-10977.59801438
 31
0.0
  0
LINE
  5
7E9
100
AcDbEntity
  8
Ech.1_5
 62
     7
  6
CONTINUOUS
370
    -3
100
AcDbLine
 10
52496.66431312
 20
-10977.59801438
 30
0.0
 11
52496.90610752
 21
-10977.69816887
 31
0.0
  0
LINE
  5
7EA
100
AcDbEntity
  8
Ech.1_5
 62
     7
  6
CONTINUOUS
370
    -3
100
AcDbLine
 10
52496.90610752
 20
-10977.69816887
 30
0.0
 11
52497.13825272
 21
-10977.81901598
 31
0.0
  0
LINE
  5
7EB
100
AcDbEntity
  8
Ech.1_5
 62
     7
  6
CONTINUOUS
370
    -3
100
AcDbLine
 10
52439.17407132
 20
-10992.06615886
 30
0.0
 11
52439.27788812
 21
-10992.14582026
 31
0.0
  0
LINE
  5
7EC
100
AcDbEntity
  8
Ech.1_5
 62
     7
  6
CONTINUOUS
370
    -3
100
AcDbLine
 10
52439.07759252
 20
-10991.97775235
 30
0.0
 11
52439.17407132
 21
-10992.06615886
 31
0.0
  0
LINE
  5
7ED
100
AcDbEntity
  8
Ech.1_5
 62
     7
  6
CONTINUOUS
370
    -3
100
AcDbLine
 10
52438.98918602
 20
-10991.88127365
 30
0.0
 11
52439.07759252
 21
-10991.97775235
 31
0.0
  0
LINE
  5
7EE
100
AcDbEntity
  8
Ech.1_5
 62
     7
  6
CONTINUOUS
370
    -3
100
AcDbLine
 10
52438.90952462
 20
-10991.77745688
 30
0.0
 11
52438.98918602
 21
-10991.88127365
 31
0.0
  0
LINE
  5
7EF
100
AcDbEntity
  8
Ech.1_5
 62
     7
  6
CONTINUOUS
370
    -3
100
AcDbLine
 10
52438.83921462
 20
-10991.66709217
 30
0.0
 11
52438.90952462
 21
-10991.77745688
 31
0.0
  0
LINE
  5
7F0
100
AcDbEntity
  8
Ech.1_5
 62
     7
  6
CONTINUOUS
370
    -3
100
AcDbLine
 10
52438.77879102
 20
-10991.55101958
 30
0.0
 11
52438.83921462
 21
-10991.66709217
 31
0.0
  0
LINE
  5
7F1
100
AcDbEntity
  8
Ech.1_5
 62
     7
  6
CONTINUOUS
370
    -3
100
AcDbLine
 10
52438.72871382
 20
-10991.43012246
 30
0.0
 11
52438.77879102
 21
-10991.55101958
 31
0.0
  0
LINE
  5
7F2
100
AcDbEntity
  8
Ech.1_5
 62
     7
  6
CONTINUOUS
370
    -3
100
AcDbLine
 10
52438.68936402
 20
-10991.30532077
 30
0.0
 11
52438.72871382
 21
-10991.43012246
 31
0.0
  0
LINE
  5
7F3
100
AcDbEntity
  8
Ech.1_5
 62
     7
  6
CONTINUOUS
370
    -3
100
AcDbLine
 10
52438.66104112
 20
-10991.17756447
 30
0.0
 11
52438.68936402
 21
-10991.30532077
 31
0.0
  0
LINE
  5
7F4
100
AcDbEntity
  8
Ech.1_5
 62
     7
  6
CONTINUOUS
370
    -3
100
AcDbLine
 10
52441.60297652
 20
-10977.55338886
 30
0.0
 11
52441.94366002
 21
-10977.47786116
 31
0.0
  0
LINE
  5
7F5
100
AcDbEntity
  8
Ech.1_5
 62
     7
  6
CONTINUOUS
370
    -3
100
AcDbLine
 10
52438.63825272
 20
-10990.91709217
 30
0.0
 11
52438.64396072
 21
-10991.04782587
 31
0.0
  0
LINE
  5
7F6
100
AcDbEntity
  8
Ech.1_5
 62
     7
  6
CONTINUOUS
370
    -3
100
AcDbLine
 10
52438.63825272
 20
-10990.91709217
 30
0.0
 11
52438.63825272
 21
-10981.41709217
 31
0.0
  0
LINE
  5
7F7
100
AcDbEntity
  8
Ech.1_5
 62
     7
  6
CONTINUOUS
370
    -3
100
AcDbLine
 10
52438.63825272
 20
-10981.41709217
 30
0.0
 11
52438.65347392
 21
-10981.06846925
 31
0.0
  0
LINE
  5
7F8
100
AcDbEntity
  8
Ech.1_5
 62
     7
  6
CONTINUOUS
370
    -3
100
AcDbLine
 10
52438.65347392
 20
-10981.06846925
 30
0.0
 11
52438.69902172
 21
-10980.72249946
 31
0.0
  0
LINE
  5
7F9
100
AcDbEntity
  8
Ech.1_5
 62
     7
  6
CONTINUOUS
370
    -3
100
AcDbLine
 10
52438.69902172
 20
-10980.72249946
 30
0.0
 11
52438.77454942
 21
-10980.38181606
 31
0.0
  0
LINE
  5
7FA
100
AcDbEntity
  8
Ech.1_5
 62
     7
  6
CONTINUOUS
370
    -3
100
AcDbLine
 10
52438.77454942
 20
-10980.38181606
 30
0.0
 11
52438.87948222
 21
-10980.04901167
 31
0.0
  0
LINE
  5
7FB
100
AcDbEntity
  8
Ech.1_5
 62
     7
  6
CONTINUOUS
370
    -3
100
AcDbLine
 10
52438.87948222
 20
-10980.04901167
 30
0.0
 11
52439.01302162
 21
-10979.72661918
 31
0.0
  0
LINE
  5
7FC
100
AcDbEntity
  8
Ech.1_5
 62
     7
  6
CONTINUOUS
370
    -3
100
AcDbLine
 10
52457.49109982
 20
-11013.05539626
 30
0.0
 11
52457.63825272
 21
-11013.14914298
 31
0.0
  0
LINE
  5
7FD
100
AcDbEntity
  8
Ech.1_5
 62
     7
  6
CONTINUOUS
370
    -3
100
AcDbLine
 10
52456.28731942
 20
-10992.95291078
 30
0.0
 11
52456.36698082
 21
-10993.05672755
 31
0.0
  0
LINE
  5
7FE
100
AcDbEntity
  8
Ech.1_5
 62
     7
  6
CONTINUOUS
370
    -3
100
AcDbLine
 10
52439.01302162
 20
-10979.72661918
 30
0.0
 11
52439.17415112
 21
-10979.41709217
 31
0.0
  0
LINE
  5
7FF
100
AcDbEntity
  8
Ech.1_5
 62
     7
  6
CONTINUOUS
370
    -3
100
AcDbLine
 10
52456.19891292
 20
-10992.85643208
 30
0.0
 11
52456.28731942
 21
-10992.95291078
 31
0.0
  0
LINE
  5
800
100
AcDbEntity
  8
Ech.1_5
 62
     7
  6
CONTINUOUS
370
    -3
100
AcDbLine
 10
52456.10243412
 20
-10992.76802557
 30
0.0
 11
52456.19891292
 21
-10992.85643208
 31
0.0
  0
LINE
  5
801
100
AcDbEntity
  8
Ech.1_5
 62
     7
  6
CONTINUOUS
370
    -3
100
AcDbLine
 10
52455.99861742
 20
-10992.68836417
 30
0.0
 11
52456.10243412
 21
-10992.76802557
 31
0.0
  0
LINE
  5
802
100
AcDbEntity
  8
Ech.1_5
 62
     7
  6
CONTINUOUS
370
    -3
100
AcDbLine
 10
52455.88825272
 20
-10992.61805406
 30
0.0
 11
52455.99861742
 21
-10992.68836417
 31
0.0
  0
LINE
  5
803
100
AcDbEntity
  8
Ech.1_5
 62
     7
  6
CONTINUOUS
370
    -3
100
AcDbLine
 10
52455.77218012
 20
-10992.55763057
 30
0.0
 11
52455.88825272
 21
-10992.61805406
 31
0.0
  0
LINE
  5
804
100
AcDbEntity
  8
Ech.1_5
 62
     7
  6
CONTINUOUS
370
    -3
100
AcDbLine
 10
52455.65128292
 20
-10992.50755328
 30
0.0
 11
52455.77218012
 21
-10992.55763057
 31
0.0
  0
LINE
  5
805
100
AcDbEntity
  8
Ech.1_5
 62
     7
  6
CONTINUOUS
370
    -3
100
AcDbLine
 10
52455.52648132
 20
-10992.46820348
 30
0.0
 11
52455.65128292
 21
-10992.50755328
 31
0.0
  0
LINE
  5
806
100
AcDbEntity
  8
Ech.1_5
 62
     7
  6
CONTINUOUS
370
    -3
100
AcDbLine
 10
52455.39872502
 20
-10992.43988058
 30
0.0
 11
52455.52648132
 21
-10992.46820348
 31
0.0
  0
LINE
  5
807
100
AcDbEntity
  8
Ech.1_5
 62
     7
  6
CONTINUOUS
370
    -3
100
AcDbLine
 10
52498.59267602
 20
-10979.89614766
 30
0.0
 11
52498.62683682
 21
-10980.15562498
 31
0.0
  0
LINE
  5
808
100
AcDbEntity
  8
Ech.1_5
 62
     7
  6
CONTINUOUS
370
    -3
100
AcDbLine
 10
52455.13825272
 20
-10992.41709217
 30
0.0
 11
52455.26898632
 21
-10992.42280018
 31
0.0
  0
LINE
  5
809
100
AcDbEntity
  8
Ech.1_5
 62
     7
  6
CONTINUOUS
370
    -3
100
AcDbLine
 10
52440.13825272
 20
-10992.41709217
 30
0.0
 11
52455.13825272
 21
-10992.41709217
 31
0.0
  0
LINE
  5
80A
100
AcDbEntity
  8
Ech.1_5
 62
     7
  6
CONTINUOUS
370
    -3
100
AcDbLine
 10
52440.00751912
 20
-10992.41138428
 30
0.0
 11
52440.13825272
 21
-10992.41709217
 31
0.0
  0
LINE
  5
80B
100
AcDbEntity
  8
Ech.1_5
 62
     7
  6
CONTINUOUS
370
    -3
100
AcDbLine
 10
52439.87778042
 20
-10992.39430385
 30
0.0
 11
52440.00751912
 21
-10992.41138428
 31
0.0
  0
LINE
  5
80C
100
AcDbEntity
  8
Ech.1_5
 62
     7
  6
CONTINUOUS
370
    -3
100
AcDbLine
 10
52439.75002412
 20
-10992.36598098
 30
0.0
 11
52439.87778042
 21
-10992.39430385
 31
0.0
  0
LINE
  5
80D
100
AcDbEntity
  8
Ech.1_5
 62
     7
  6
CONTINUOUS
370
    -3
100
AcDbLine
 10
52439.62522252
 20
-10992.32663116
 30
0.0
 11
52439.75002412
 21
-10992.36598098
 31
0.0
  0
LINE
  5
80E
100
AcDbEntity
  8
Ech.1_5
 62
     7
  6
CONTINUOUS
370
    -3
100
AcDbLine
 10
52439.50432532
 20
-10992.27655387
 30
0.0
 11
52439.62522252
 21
-10992.32663116
 31
0.0
  0
LINE
  5
80F
100
AcDbEntity
  8
Ech.1_5
 62
     7
  6
CONTINUOUS
370
    -3
100
AcDbLine
 10
52439.38825272
 20
-10992.21613025
 30
0.0
 11
52439.50432532
 21
-10992.27655387
 31
0.0
  0
LINE
  5
810
100
AcDbEntity
  8
Ech.1_5
 62
     7
  6
CONTINUOUS
370
    -3
100
AcDbLine
 10
52456.36698082
 20
-10993.05672755
 30
0.0
 11
52456.43729082
 21
-10993.16709217
 31
0.0
  0
LINE
  5
811
100
AcDbEntity
  8
Ech.1_5
 62
     7
  6
CONTINUOUS
370
    -3
100
AcDbLine
 10
52456.43729082
 20
-10993.16709217
 30
0.0
 11
52456.49771442
 21
-10993.28316477
 31
0.0
  0
LINE
  5
812
100
AcDbEntity
  8
Ech.1_5
 62
     7
  6
CONTINUOUS
370
    -3
100
AcDbLine
 10
52457.35267752
 20
-11012.94918108
 30
0.0
 11
52457.49109982
 21
-11013.05539626
 31
0.0
  0
LINE
  5
813
100
AcDbEntity
  8
Ech.1_5
 62
     7
  6
CONTINUOUS
370
    -3
100
AcDbLine
 10
52457.22403912
 20
-11012.83130577
 30
0.0
 11
52457.35267752
 21
-11012.94918108
 31
0.0
  0
LINE
  5
814
100
AcDbEntity
  8
Ech.1_5
 62
     7
  6
CONTINUOUS
370
    -3
100
AcDbLine
 10
52457.10616382
 20
-11012.70266747
 30
0.0
 11
52457.22403912
 21
-11012.83130577
 31
0.0
  0
LINE
  5
815
100
AcDbEntity
  8
Ech.1_5
 62
     7
  6
CONTINUOUS
370
    -3
100
AcDbLine
 10
52456.99994862
 20
-11012.56424507
 30
0.0
 11
52457.10616382
 21
-11012.70266747
 31
0.0
  0
LINE
  5
816
100
AcDbEntity
  8
Ech.1_5
 62
     7
  6
CONTINUOUS
370
    -3
100
AcDbLine
 10
52456.90620192
 20
-11012.41709217
 30
0.0
 11
52456.99994862
 21
-11012.56424507
 31
0.0
  0
LINE
  5
817
100
AcDbEntity
  8
Ech.1_5
 62
     7
  6
CONTINUOUS
370
    -3
100
AcDbLine
 10
52456.82563712
 20
-11012.26232877
 30
0.0
 11
52456.90620192
 21
-11012.41709217
 31
0.0
  0
LINE
  5
818
100
AcDbEntity
  8
Ech.1_5
 62
     7
  6
CONTINUOUS
370
    -3
100
AcDbLine
 10
52456.75886752
 20
-11012.10113248
 30
0.0
 11
52456.82563712
 21
-11012.26232877
 31
0.0
  0
LINE
  5
819
100
AcDbEntity
  8
Ech.1_5
 62
     7
  6
CONTINUOUS
370
    -3
100
AcDbLine
 10
52456.70640112
 20
-11011.93473026
 30
0.0
 11
52456.75886752
 21
-11012.10113248
 31
0.0
  0
LINE
  5
81A
100
AcDbEntity
  8
Ech.1_5
 62
     7
  6
CONTINUOUS
370
    -3
100
AcDbLine
 10
52516.97867782
 20
-11025.94672817
 30
0.0
 11
52517.67945812
 21
-11024.49154275
 31
0.0
  0
LINE
  5
81B
100
AcDbEntity
  8
Ech.1_5
 62
     7
  6
CONTINUOUS
370
    -3
100
AcDbLine
 10
52456.64586332
 20
-11011.59140366
 30
0.0
 11
52456.66863722
 21
-11011.76438856
 31
0.0
  0
LINE
  5
81C
100
AcDbEntity
  8
Ech.1_5
 62
     7
  6
CONTINUOUS
370
    -3
100
AcDbLine
 10
52456.63825272
 20
-11011.41709217
 30
0.0
 11
52456.64586332
 21
-11011.59140366
 31
0.0
  0
LINE
  5
81D
100
AcDbEntity
  8
Ech.1_5
 62
     7
  6
CONTINUOUS
370
    -3
100
AcDbLine
 10
52456.63825272
 20
-11011.41709217
 30
0.0
 11
52456.63825272
 21
-10993.91709217
 31
0.0
  0
LINE
  5
81E
100
AcDbEntity
  8
Ech.1_5
 62
     7
  6
CONTINUOUS
370
    -3
100
AcDbLine
 10
52456.63254482
 20
-10993.78635856
 30
0.0
 11
52456.63825272
 21
-10993.91709217
 31
0.0
  0
LINE
  5
81F
100
AcDbEntity
  8
Ech.1_5
 62
     7
  6
CONTINUOUS
370
    -3
100
AcDbLine
 10
52456.61546432
 20
-10993.65661996
 30
0.0
 11
52456.63254482
 21
-10993.78635856
 31
0.0
  0
LINE
  5
820
100
AcDbEntity
  8
Ech.1_5
 62
     7
  6
CONTINUOUS
370
    -3
100
AcDbLine
 10
52456.58714152
 20
-10993.52886367
 30
0.0
 11
52456.61546432
 21
-10993.65661996
 31
0.0
  0
LINE
  5
821
100
AcDbEntity
  8
Ech.1_5
 62
     7
  6
CONTINUOUS
370
    -3
100
AcDbLine
 10
52456.54779162
 20
-10993.40406197
 30
0.0
 11
52456.58714152
 21
-10993.52886367
 31
0.0
  0
LINE
  5
822
100
AcDbEntity
  8
Ech.1_5
 62
     7
  6
CONTINUOUS
370
    -3
100
AcDbLine
 10
52456.49771442
 20
-10993.28316477
 30
0.0
 11
52456.54779162
 21
-10993.40406197
 31
0.0
  0
LINE
  5
823
100
AcDbEntity
  8
Ech.1_5
 62
     7
  6
CONTINUOUS
370
    -3
100
AcDbLine
 10
52457.63825272
 20
-11013.14914298
 30
0.0
 11
52457.79301622
 21
-11013.22970777
 31
0.0
  0
LINE
  5
824
100
AcDbEntity
  8
Ech.1_5
 62
     7
  6
CONTINUOUS
370
    -3
100
AcDbLine
 10
52439.27788812
 20
-10992.14582026
 30
0.0
 11
52439.38825272
 21
-10992.21613025
 31
0.0
  0
LINE
  5
825
100
AcDbEntity
  8
Ech.1_5
 62
     7
  6
CONTINUOUS
370
    -3
100
AcDbLine
 10
52468.64966862
 20
-11032.67855948
 30
0.0
 11
52468.68382952
 21
-11032.93803677
 31
0.0
  0
LINE
  5
826
100
AcDbEntity
  8
Ech.1_5
 62
     7
  6
CONTINUOUS
370
    -3
100
AcDbLine
 10
52468.63825272
 20
-11032.41709217
 30
0.0
 11
52468.64966862
 21
-11032.67855948
 31
0.0
  0
LINE
  5
827
100
AcDbEntity
  8
Ech.1_5
 62
     7
  6
CONTINUOUS
370
    -3
100
AcDbLine
 10
52468.63825272
 20
-11032.41709217
 30
0.0
 11
52469.37943372
 21
-11030.21849337
 31
0.0
  0
LINE
  5
828
100
AcDbEntity
  8
Ech.1_5
 62
     7
  6
CONTINUOUS
370
    -3
100
AcDbLine
 10
52469.37943372
 20
-11030.21849337
 30
0.0
 11
52473.63825272
 21
-11028.31001928
 31
0.0
  0
LINE
  5
829
100
AcDbEntity
  8
Ech.1_5
 62
     7
  6
CONTINUOUS
370
    -3
100
AcDbLine
 10
52472.89707182
 20
-11024.55823937
 30
0.0
 11
52473.63825272
 21
-11028.31001928
 31
0.0
  0
LINE
  5
82A
100
AcDbEntity
  8
Ech.1_5
 62
     7
  6
CONTINUOUS
370
    -3
100
AcDbLine
 10
52468.63825272
 20
-11022.64976516
 30
0.0
 11
52472.89707182
 21
-11024.55823937
 31
0.0
  0
LINE
  5
82B
100
AcDbEntity
  8
Ech.1_5
 62
     7
  6
CONTINUOUS
370
    -3
100
AcDbLine
 10
52468.63825272
 20
-11022.64976516
 30
0.0
 11
52468.63825272
 21
-11017.71709215
 31
0.0
  0
LINE
  5
82C
100
AcDbEntity
  8
Ech.1_5
 62
     7
  6
CONTINUOUS
370
    -3
100
AcDbLine
 10
52470.13825272
 20
-11035.01516837
 30
0.0
 11
52470.37039792
 21
-11035.13601556
 31
0.0
  0
LINE
  5
82D
100
AcDbEntity
  8
Ech.1_5
 62
     7
  6
CONTINUOUS
370
    -3
100
AcDbLine
 10
52476.63825272
 20
-11017.71709215
 30
0.0
 11
52476.63825272
 21
-11013.71709215
 31
0.0
  0
LINE
  5
82E
100
AcDbEntity
  8
Ech.1_5
 62
     7
  6
CONTINUOUS
370
    -3
100
AcDbLine
 10
52468.63825272
 20
-11013.71709215
 30
0.0
 11
52476.63825272
 21
-11013.71709215
 31
0.0
  0
LINE
  5
82F
100
AcDbEntity
  8
Ech.1_5
 62
     7
  6
CONTINUOUS
370
    -3
100
AcDbLine
 10
52468.63825272
 20
-11013.71709215
 30
0.0
 11
52468.63825272
 21
-11013.41709217
 31
0.0
  0
LINE
  5
830
100
AcDbEntity
  8
Ech.1_5
 62
     7
  6
CONTINUOUS
370
    -3
100
AcDbLine
 10
52458.63825272
 20
-11013.41709217
 30
0.0
 11
52468.63825272
 21
-11013.41709217
 31
0.0
  0
LINE
  5
831
100
AcDbEntity
  8
Ech.1_5
 62
     7
  6
CONTINUOUS
370
    -3
100
AcDbLine
 10
52458.46394122
 20
-11013.40948158
 30
0.0
 11
52458.63825272
 21
-11013.41709217
 31
0.0
  0
LINE
  5
832
100
AcDbEntity
  8
Ech.1_5
 62
     7
  6
CONTINUOUS
370
    -3
100
AcDbLine
 10
52458.29095642
 20
-11013.38670766
 30
0.0
 11
52458.46394122
 21
-11013.40948158
 31
0.0
  0
LINE
  5
833
100
AcDbEntity
  8
Ech.1_5
 62
     7
  6
CONTINUOUS
370
    -3
100
AcDbLine
 10
52458.12061462
 20
-11013.34894386
 30
0.0
 11
52458.29095642
 21
-11013.38670766
 31
0.0
  0
LINE
  5
834
100
AcDbEntity
  8
Ech.1_5
 62
     7
  6
CONTINUOUS
370
    -3
100
AcDbLine
 10
52457.95421242
 20
-11013.29647746
 30
0.0
 11
52458.12061462
 21
-11013.34894386
 31
0.0
  0
LINE
  5
835
100
AcDbEntity
  8
Ech.1_5
 62
     7
  6
CONTINUOUS
370
    -3
100
AcDbLine
 10
52457.79301622
 20
-11013.22970777
 30
0.0
 11
52457.95421242
 21
-11013.29647746
 31
0.0
  0
LINE
  5
836
100
AcDbEntity
  8
Ech.1_5
 62
     7
  6
CONTINUOUS
370
    -3
100
AcDbLine
 10
52468.74047522
 20
-11033.19354936
 30
0.0
 11
52468.81917482
 21
-11033.44315266
 31
0.0
  0
LINE
  5
837
100
AcDbEntity
  8
Ech.1_5
 62
     7
  6
CONTINUOUS
370
    -3
100
AcDbLine
 10
52497.13825272
 20
-10977.81901598
 30
0.0
 11
52497.35898202
 21
-10977.95963606
 31
0.0
  0
LINE
  5
838
100
AcDbEntity
  8
Ech.1_5
 62
     7
  6
CONTINUOUS
370
    -3
100
AcDbLine
 10
52502.74146572
 20
-11035.34462946
 30
0.0
 11
52504.34198232
 21
-11035.12782478
 31
0.0
  0
LINE
  5
839
100
AcDbEntity
  8
Ech.1_5
 62
     7
  6
CONTINUOUS
370
    -3
100
AcDbLine
 10
52501.12795822
 20
-11035.41709217
 30
0.0
 11
52502.74146572
 21
-11035.34462946
 31
0.0
  0
LINE
  5
83A
100
AcDbEntity
  8
Ech.1_5
 62
     7
  6
CONTINUOUS
370
    -3
100
AcDbLine
 10
52471.63825272
 20
-11035.41709217
 30
0.0
 11
52501.12795822
 21
-11035.41709217
 31
0.0
  0
LINE
  5
83B
100
AcDbEntity
  8
Ech.1_5
 62
     7
  6
CONTINUOUS
370
    -3
100
AcDbLine
 10
52471.37678552
 20
-11035.40567627
 30
0.0
 11
52471.63825272
 21
-11035.41709217
 31
0.0
  0
LINE
  5
83C
100
AcDbEntity
  8
Ech.1_5
 62
     7
  6
CONTINUOUS
370
    -3
100
AcDbLine
 10
52471.11730822
 20
-11035.37151548
 30
0.0
 11
52471.37678552
 21
-11035.40567627
 31
0.0
  0
LINE
  5
83D
100
AcDbEntity
  8
Ech.1_5
 62
     7
  6
CONTINUOUS
370
    -3
100
AcDbLine
 10
52470.86179562
 20
-11035.31486967
 30
0.0
 11
52471.11730822
 21
-11035.37151548
 31
0.0
  0
LINE
  5
83E
100
AcDbEntity
  8
Ech.1_5
 62
     7
  6
CONTINUOUS
370
    -3
100
AcDbLine
 10
52470.61219232
 20
-11035.23617008
 30
0.0
 11
52470.86179562
 21
-11035.31486967
 31
0.0
  0
LINE
  5
83F
100
AcDbEntity
  8
Ech.1_5
 62
     7
  6
CONTINUOUS
370
    -3
100
AcDbLine
 10
52470.37039792
 20
-11035.13601556
 30
0.0
 11
52470.61219232
 21
-11035.23617008
 31
0.0
  0
LINE
  5
840
100
AcDbEntity
  8
Ech.1_5
 62
     7
  6
CONTINUOUS
370
    -3
100
AcDbLine
 10
52468.63825272
 20
-11017.71709215
 30
0.0
 11
52476.63825272
 21
-11017.71709215
 31
0.0
  0
LINE
  5
841
100
AcDbEntity
  8
Ech.1_5
 62
     7
  6
CONTINUOUS
370
    -3
100
AcDbLine
 10
52469.91752342
 20
-11034.87454837
 30
0.0
 11
52470.13825272
 21
-11035.01516837
 31
0.0
  0
LINE
  5
842
100
AcDbEntity
  8
Ech.1_5
 62
     7
  6
CONTINUOUS
370
    -3
100
AcDbLine
 10
52469.70988992
 20
-11034.71522557
 30
0.0
 11
52469.91752342
 21
-11034.87454837
 31
0.0
  0
LINE
  5
843
100
AcDbEntity
  8
Ech.1_5
 62
     7
  6
CONTINUOUS
370
    -3
100
AcDbLine
 10
52469.51693242
 20
-11034.53841257
 30
0.0
 11
52469.70988992
 21
-11034.71522557
 31
0.0
  0
LINE
  5
844
100
AcDbEntity
  8
Ech.1_5
 62
     7
  6
CONTINUOUS
370
    -3
100
AcDbLine
 10
52469.34011942
 20
-11034.34545508
 30
0.0
 11
52469.51693242
 21
-11034.53841257
 31
0.0
  0
LINE
  5
845
100
AcDbEntity
  8
Ech.1_5
 62
     7
  6
CONTINUOUS
370
    -3
100
AcDbLine
 10
52469.18079662
 20
-11034.13782146
 30
0.0
 11
52469.34011942
 21
-11034.34545508
 31
0.0
  0
LINE
  5
846
100
AcDbEntity
  8
Ech.1_5
 62
     7
  6
CONTINUOUS
370
    -3
100
AcDbLine
 10
52469.04017652
 20
-11033.91709217
 30
0.0
 11
52469.18079662
 21
-11034.13782146
 31
0.0
  0
LINE
  5
847
100
AcDbEntity
  8
Ech.1_5
 62
     7
  6
CONTINUOUS
370
    -3
100
AcDbLine
 10
52468.91932942
 20
-11033.68494698
 30
0.0
 11
52469.04017652
 21
-11033.91709217
 31
0.0
  0
LINE
  5
848
100
AcDbEntity
  8
Ech.1_5
 62
     7
  6
CONTINUOUS
370
    -3
100
AcDbLine
 10
52505.91662142
 20
-11034.76842367
 30
0.0
 11
52507.45270502
 21
-11034.26931986
 31
0.0
  0
LINE
  5
849
100
AcDbEntity
  8
Ech.1_5
 62
     7
  6
CONTINUOUS
370
    -3
100
AcDbLine
 10
52468.68382952
 20
-11032.93803677
 30
0.0
 11
52468.74047522
 21
-11033.19354936
 31
0.0
  0
LINE
  5
84A
100
AcDbEntity
  8
Ech.1_5
 62
     7
  6
CONTINUOUS
370
    -3
100
AcDbLine
 10
52468.81917482
 20
-11033.44315266
 30
0.0
 11
52468.91932942
 21
-11033.68494698
 31
0.0
  0
LINE
  5
84B
100
AcDbEntity
  8
Ech.1_5
 62
     7
  6
CONTINUOUS
370
    -3
100
AcDbLine
 10
52494.63825272
 20
-11009.81709218
 30
0.0
 11
52498.63825272
 21
-11009.81709218
 31
0.0
  0
LINE
  5
84C
100
AcDbEntity
  8
Ech.1_5
 62
     7
  6
CONTINUOUS
370
    -3
100
AcDbLine
 10
52498.63825272
 20
-11009.81709218
 30
0.0
 11
52498.63825272
 21
-11019.11709216
 31
0.0
  0
LINE
  5
84D
100
AcDbEntity
  8
Ech.1_5
 62
     7
  6
CONTINUOUS
370
    -3
100
AcDbLine
 10
52498.63825272
 20
-11019.11709216
 30
0.0
 11
52506.13825272
 21
-11019.11709216
 31
0.0
  0
LINE
  5
84E
100
AcDbEntity
  8
Ech.1_5
 62
     7
  6
CONTINUOUS
370
    -3
100
AcDbLine
 10
52506.13825272
 20
-11019.11709216
 30
0.0
 11
52506.13825272
 21
-11020.31709218
 31
0.0
  0
LINE
  5
84F
100
AcDbEntity
  8
Ech.1_5
 62
     7
  6
CONTINUOUS
370
    -3
100
AcDbLine
 10
52506.13825272
 20
-11020.31709218
 30
0.0
 11
52517.63825272
 21
-11020.31709218
 31
0.0
  0
LINE
  5
850
100
AcDbEntity
  8
Ech.1_5
 62
     7
  6
CONTINUOUS
370
    -3
100
AcDbLine
 10
52517.63825272
 20
-11020.31709218
 30
0.0
 11
52518.59909792
 21
-11021.89567667
 31
0.0
  0
LINE
  5
851
100
AcDbEntity
  8
Ech.1_5
 62
     7
  6
CONTINUOUS
370
    -3
100
AcDbLine
 10
52518.24697552
 20
-11022.97939807
 30
0.0
 11
52518.59909792
 21
-11021.89567667
 31
0.0
  0
LINE
  5
852
100
AcDbEntity
  8
Ech.1_5
 62
     7
  6
CONTINUOUS
370
    -3
100
AcDbLine
 10
52517.67945812
 20
-11024.49154275
 30
0.0
 11
52518.24697552
 21
-11022.97939807
 31
0.0
  0
LINE
  5
853
100
AcDbEntity
  8
Ech.1_5
 62
     7
  6
CONTINUOUS
370
    -3
100
AcDbLine
 10
52456.66863722
 20
-11011.76438856
 30
0.0
 11
52456.70640112
 21
-11011.93473026
 31
0.0
  0
LINE
  5
854
100
AcDbEntity
  8
Ech.1_5
 62
     7
  6
CONTINUOUS
370
    -3
100
AcDbLine
 10
52516.15027682
 20
-11027.33323785
 30
0.0
 11
52516.97867782
 21
-11025.94672817
 31
0.0
  0
LINE
  5
855
100
AcDbEntity
  8
Ech.1_5
 62
     7
  6
CONTINUOUS
370
    -3
100
AcDbLine
 10
52515.20092492
 20
-11028.63990867
 30
0.0
 11
52516.15027682
 21
-11027.33323785
 31
0.0
  0
LINE
  5
856
100
AcDbEntity
  8
Ech.1_5
 62
     7
  6
CONTINUOUS
370
    -3
100
AcDbLine
 10
52514.13826572
 20
-11029.85621985
 30
0.0
 11
52515.20092492
 21
-11028.63990867
 31
0.0
  0
LINE
  5
857
100
AcDbEntity
  8
Ech.1_5
 62
     7
  6
CONTINUOUS
370
    -3
100
AcDbLine
 10
52512.97085532
 20
-11030.97237858
 30
0.0
 11
52514.13826572
 21
-11029.85621985
 31
0.0
  0
LINE
  5
858
100
AcDbEntity
  8
Ech.1_5
 62
     7
  6
CONTINUOUS
370
    -3
100
AcDbLine
 10
52511.70809272
 20
-11031.97939807
 30
0.0
 11
52512.97085532
 21
-11030.97237858
 31
0.0
  0
LINE
  5
859
100
AcDbEntity
  8
Ech.1_5
 62
     7
  6
CONTINUOUS
370
    -3
100
AcDbLine
 10
52510.36014522
 20
-11032.86917045
 30
0.0
 11
52511.70809272
 21
-11031.97939807
 31
0.0
  0
LINE
  5
85A
100
AcDbEntity
  8
Ech.1_5
 62
     7
  6
CONTINUOUS
370
    -3
100
AcDbLine
 10
52508.93786552
 20
-11033.63453188
 30
0.0
 11
52510.36014522
 21
-11032.86917045
 31
0.0
  0
LINE
  5
85B
100
AcDbEntity
  8
Ech.1_5
 62
     7
  6
CONTINUOUS
370
    -3
100
AcDbLine
 10
52507.45270502
 20
-11034.26931986
 30
0.0
 11
52508.93786552
 21
-11033.63453188
 31
0.0
  0
3DFACE
  5
85C
100
AcDbEntity
  8
Ech.1_5
 62
     7
  6
CONTINUOUS
370
    -3
100
AcDbFace
 70
     0
 10
52552.20044053
 20
-10987.41709217
 30
2500.0
 11
52552.20044053
 21
-10983.41709217
 31
2500.0
 12
52494.63825272
 22
-10983.41709217
 32
2500.0
 13
52494.63825272
 23
-10987.41709217
 33
2500.0
  0
LWPOLYLINE
  5
85D
100
AcDbEntity
  8
Ech.1_5
 62
     7
  6
CONTINUOUS
370
    -3
100
AcDbPolyline
 90
        4
 70
     1
 43
0.0
 10
52498.63825272
 20
-10987.41709217
 10
52498.63825272
 20
-11005.81709218
 10
52505.8824883
 20
-11005.81709218
 10
52505.8824883
 20
-10987.41709217
  0
3DFACE
  5
85E
100
AcDbEntity
  8
Ech.1_5
 62
     7
  6
CONTINUOUS
370
    -3
100
AcDbFace
 70
     0
 10
52552.20044053
 20
-11009.81709218
 30
2500.0
 11
52552.20044053
 21
-11005.81709218
 31
2500.0
 12
52494.63825272
 22
-11005.81709218
 32
2500.0
 13
52494.63825272
 23
-11009.81709218
 33
2500.0
  0
LWPOLYLINE
  5
85F
102
{ACAD_REACTORS
330
860
102
}
100
AcDbEntity
  8
Ech.1_5
 62
     9
  6
CONTINUOUS
370
     5
100
AcDbPolyline
 90
        4
 70
     1
 43
0.0
 10
52384.75852556
 20
-11071.86899943
 10
52374.75852556
 20
-11071.86899943
 10
52374.75852556
 20
-11080.86899943
 10
52384.75852556
 20
-11080.86899943
  0
HATCH
  5
860
100
AcDbEntity
  8
Ech.1_5
 62
     2
  6
CONTINUOUS
100
AcDbHatch
 10
0.0
 20
0.0
 30
0.0
210
0.0
220
0.0
230
1.0
  2
SOLID
 70
     1
 71
     1
 91
        1
 92
        7
 72
     0
 73
     1
 93
        4
 10
52384.75852556
 20
-11071.86899943
 10
52374.75852556
 20
-11071.86899943
 10
52374.75852556
 20
-11080.86899943
 10
52384.75852556
 20
-11080.86899943
 97
        1
330
85F
 75
     0
 76
     2
 47
0.775229
 98
        1
 10
0.0
 20
0.0
  0
HATCH
  5
861
100
AcDbEntity
  8
Ech.1_5
 62
     9
  6
CONTINUOUS
100
AcDbHatch
 10
0.0
 20
0.0
 30
0.0
210
0.0
220
0.0
230
1.0
  2
ANSI31
 70
     0
 71
     1
 91
        1
 92
        7
 72
     0
 73
     1
 93
        4
 10
52384.75852556
 20
-11071.86899943
 10
52374.75852556
 20
-11071.86899943
 10
52374.75852556
 20
-11080.86899943
 10
52384.75852556
 20
-11080.86899943
 97
        1
330
860
 75
     0
 76
     2
 52
0.0
 41
0.94488785
 77
     0
 78
     1
 53
45.0
 43
0.0
 44
0.0
 45
2.12132043
 46
-2.12132043
 79
     0
 47
0.775229
 98
        1
 10
0.0
 20
0.0
  0
LWPOLYLINE
  5
862
100
AcDbEntity
  8
Ech.1_5
 62
     7
  6
CONTINUOUS
370
    -3
100
AcDbPolyline
 90
      163
 70
     0
 43
0.0
 10
52451.39872502
 20
-11012.43988058
 10
52451.52648132
 20
-11012.46820348
 10
52451.65128292
 20
-11012.50755328
 10
52451.77218012
 20
-11012.55763057
 10
52451.88825272
 20
-11012.61805406
 10
52451.99861742
 20
-11012.68836417
 10
52452.10243412
 20
-11012.76802557
 10
52452.19891292
 20
-11012.85643208
 10
52452.28731942
 20
-11012.95291078
 10
52452.36698082
 20
-11013.05672755
 10
52452.43729082
 20
-11013.16709217
 10
52452.49771442
 20
-11013.28316477
 10
52452.54779162
 20
-11013.40406197
 10
52452.58714152
 20
-11013.52886367
 10
52452.61546432
 20
-11013.65661996
 10
52452.63254482
 20
-11013.78635856
 10
52452.63825272
 20
-11013.91709217
 10
52452.63825272
 20
-11016.91709217
 10
52452.64586332
 20
-11017.09140366
 10
52452.66863722
 20
-11017.26438856
 10
52452.70640112
 20
-11017.43473026
 10
52452.75886752
 20
-11017.60113248
 10
52452.82563712
 20
-11017.76232877
 10
52452.90620192
 20
-11017.91709217
 10
52452.99994862
 20
-11018.06424507
 10
52453.10616382
 20
-11018.20266747
 10
52453.22403912
 20
-11018.33130577
 10
52453.35267752
 20
-11018.44918108
 10
52453.49109982
 20
-11018.55539626
 10
52453.63825272
 20
-11018.64914298
 10
52453.79301622
 20
-11018.72970777
 10
52453.95421242
 20
-11018.79647746
 10
52454.12061462
 20
-11018.84894386
 10
52454.29095642
 20
-11018.88670766
 10
52454.46394122
 20
-11018.90948158
 10
52454.63825272
 20
-11018.91709217
 10
52463.13825272
 20
-11018.91709217
 10
52463.26898632
 20
-11018.92280018
 10
52463.39872502
 20
-11018.93988058
 10
52463.52648132
 20
-11018.96820348
 10
52463.65128292
 20
-11019.00755328
 10
52463.77218012
 20
-11019.05763057
 10
52463.88825272
 20
-11019.11805406
 10
52463.99861742
 20
-11019.18836417
 10
52464.10243412
 20
-11019.26802557
 10
52464.19891292
 20
-11019.35643208
 10
52464.28731942
 20
-11019.45291078
 10
52464.36698082
 20
-11019.55672755
 10
52464.43729082
 20
-11019.66709217
 10
52464.49771442
 20
-11019.78316477
 10
52464.54779162
 20
-11019.90406197
 10
52464.58714152
 20
-11020.02886367
 10
52464.61546432
 20
-11020.15661996
 10
52464.63254482
 20
-11020.28635856
 10
52464.63825272
 20
-11020.41709217
 10
52464.63254482
 20
-11020.54782587
 10
52464.61546432
 20
-11020.67756447
 10
52464.33292332
 20
-11022.27993416
 10
52464.29515952
 20
-11022.45027586
 10
52464.24269312
 20
-11022.61667806
 10
52464.17592342
 20
-11022.77787438
 10
52464.09535862
 20
-11022.93263778
 10
52464.00161192
 20
-11023.07979068
 10
52463.89539672
 20
-11023.21821308
 10
52463.77752142
 20
-11023.34685138
 10
52463.64888302
 20
-11023.46472665
 10
52463.51046072
 20
-11023.57094186
 10
52463.36330782
 20
-11023.66468855
 10
52460.62591032
 20
-11025.24512577
 10
52460.18445172
 20
-11025.52636596
 10
52459.76918472
 20
-11025.84501156
 10
52459.38326972
 20
-11026.19863757
 10
52459.02964372
 20
-11026.58455255
 10
52458.71099812
 20
-11026.99981957
 10
52458.42975792
 20
-11027.44127816
 10
52458.18806362
 20
-11027.90556866
 10
52457.98775462
 20
-11028.38915738
 10
52457.83035542
 20
-11028.88836395
 10
52457.71706382
 20
-11029.39938917
 10
52456.87823572
 20
-11034.15661996
 10
52456.86115532
 20
-11034.28635856
 10
52456.85544732
 20
-11034.41709217
 10
52456.86115532
 20
-11034.54782587
 10
52456.87823572
 20
-11034.67756447
 10
52456.90655862
 20
-11034.80532077
 10
52456.94590842
 20
-11034.93012246
 10
52456.99598562
 20
-11035.05101958
 10
52457.05640922
 20
-11035.16709217
 10
52457.12671922
 20
-11035.27745688
 10
52457.20638062
 20
-11035.38127365
 10
52457.29478712
 20
-11035.47775235
 10
52457.39126592
 20
-11035.56615886
 10
52457.49508272
 20
-11035.64582026
 10
52457.60544732
 20
-11035.71613025
 10
52457.72151992
 20
-11035.77655387
 10
52457.84241712
 20
-11035.82663116
 10
52457.96721872
 20
-11035.86598098
 10
52458.09497502
 20
-11035.89430385
 10
52458.22471372
 20
-11035.91138428
 10
52458.35544732
 20
-11035.91709217
 10
52478.13825272
 20
-11035.91709217
 10
52478.26898632
 20
-11035.92280018
 10
52478.39872502
 20
-11035.93988058
 10
52478.52648132
 20
-11035.96820348
 10
52478.65128292
 20
-11036.00755328
 10
52478.77218012
 20
-11036.05763057
 10
52478.88825272
 20
-11036.11805406
 10
52478.99861742
 20
-11036.18836417
 10
52479.10243412
 20
-11036.26802557
 10
52479.19891292
 20
-11036.35643208
 10
52479.28731942
 20
-11036.45291078
 10
52479.36698082
 20
-11036.55672755
 10
52479.43729082
 20
-11036.66709217
 10
52479.49771442
 20
-11036.78316477
 10
52479.54779162
 20
-11036.90406197
 10
52479.58714152
 20
-11037.02886367
 10
52479.61546432
 20
-11037.15661996
 10
52479.63254482
 20
-11037.28635856
 10
52479.63825272
 20
-11037.41709217
 10
52479.63254482
 20
-11037.54782587
 10
52479.61546432
 20
-11037.67756447
 10
52479.58714152
 20
-11037.80532077
 10
52476.73427362
 20
-11048.45236838
 10
52476.62934082
 20
-11048.78517276
 10
52476.49580152
 20
-11049.10756528
 10
52476.33467202
 20
-11049.41709217
 10
52476.14717852
 20
-11049.71139797
 10
52475.93474812
 20
-11049.98824268
 10
52475.69899752
 20
-11050.24551937
 10
52475.44172082
 20
-11050.48126998
 10
52475.16487612
 20
-11050.69370037
 10
52474.87057032
 20
-11050.88119387
 10
52474.56104342
 20
-11051.04232338
 10
52474.23865092
 20
-11051.17586267
 10
52473.90584652
 20
-11051.28079548
 10
52473.56516302
 20
-11051.35632318
 10
52473.21919332
 20
-11051.40187096
 10
52472.87057032
 20
-11051.41709217
 10
52399.58714152
 20
-11051.41709217
 10
52399.58714152
 20
-10993.41709217
 10
52442.63825272
 20
-10993.41709217
 10
52442.81256422
 20
-10993.42470276
 10
52442.98554912
 20
-10993.44747668
 10
52443.15589082
 20
-10993.48524058
 10
52443.32229302
 20
-10993.53770697
 10
52443.48348922
 20
-10993.60447666
 10
52443.63825272
 20
-10993.68504136
 10
52443.78540562
 20
-10993.77878806
 10
52443.92382792
 20
-10993.88500335
 10
52444.05246632
 20
-10994.00287866
 10
52444.17034162
 20
-10994.13151696
 10
52444.27655682
 20
-10994.26993936
 10
52444.37030352
 20
-10994.41709217
 10
52444.45086832
 20
-10994.57185566
 10
52444.51763802
 20
-10994.73305198
 10
52444.57010442
 20
-10994.89945405
 10
52444.60786822
 20
-10995.06979587
 10
52444.63064212
 20
-10995.24278077
 10
52444.63825272
 20
-10995.41709217
 10
52444.63825272
 20
-11012.41709217
 10
52451.13825272
 20
-11012.41709217
 10
52451.26898632
 20
-11012.42280018
 10
52451.39872502
 20
-11012.43988058
  0
LWPOLYLINE
  5
863
100
AcDbEntity
  8
Ech.1_5
 62
     7
  6
CONTINUOUS
370
    -3
100
AcDbPolyline
 90
        8
 70
     0
 43
0.0
 10
52399.58714152
 20
-11051.41709217
 10
52399.58714152
 20
-11081.02661492
 10
52366.72325414
 20
-11081.02661492
 10
52366.72325414
 20
-11088.02661492
 10
52369.72325414
 20
-11091.98297138
 10
52417.48070674
 20
-11091.98297138
 10
52426.23070674
 20
-11081.02661492
 10
52426.23070674
 20
-11051.41709217
  0
LINE
  5
864
100
AcDbEntity
  8
Ech.1_5
 62
     7
  6
CENTER
370
    18
100
AcDbLine
 10
52552.20044053
 20
-11091.90196897
 30
0.0
 11
52552.20044053
 21
-10543.81742195
 31
0.0
  0
LINE
  5
865
100
AcDbEntity
  8
Ech.1_5
 62
     7
  6
CONTINUOUS
370
    -3
100
AcDbLine
 10
52611.68592433
 20
-11005.81709218
 30
0.0
 11
52611.68592433
 21
-11007.81709218
 31
0.0
  0
LINE
  5
866
100
AcDbEntity
  8
Ech.1_5
 62
     7
  6
CONTINUOUS
370
    -3
100
AcDbLine
 10
52611.68592433
 20
-10983.41709217
 30
0.0
 11
52611.68592433
 21
-10985.41709217
 31
0.0
  0
LINE
  5
867
100
AcDbEntity
  8
Ech.1_5
 62
     7
  6
CONTINUOUS
370
    -3
100
AcDbLine
 10
52667.15002593
 20
-10979.41709217
 30
0.0
 11
52666.96253253
 21
-10979.12278646
 31
0.0
  0
LINE
  5
868
100
AcDbEntity
  8
Ech.1_5
 62
     7
  6
CONTINUOUS
370
    -3
100
AcDbLine
 10
52608.75756153
 20
-10978.11895886
 30
0.0
 11
52608.56460393
 21
-10978.29577186
 31
0.0
  0
LINE
  5
869
100
AcDbEntity
  8
Ech.1_5
 62
     7
  6
CONTINUOUS
370
    -3
100
AcDbLine
 10
52608.56460393
 20
-10978.29577186
 30
0.0
 11
52608.38779103
 21
-10978.48872935
 31
0.0
  0
LINE
  5
86A
100
AcDbEntity
  8
Ech.1_5
 62
     7
  6
CONTINUOUS
370
    -3
100
AcDbLine
 10
52608.38779103
 20
-10978.48872935
 30
0.0
 11
52608.22846823
 21
-10978.69636288
 31
0.0
  0
LINE
  5
86B
100
AcDbEntity
  8
Ech.1_5
 62
     7
  6
CONTINUOUS
370
    -3
100
AcDbLine
 10
52608.22846823
 20
-10978.69636288
 30
0.0
 11
52608.08784813
 21
-10978.91709217
 31
0.0
  0
LINE
  5
86C
100
AcDbEntity
  8
Ech.1_5
 62
     7
  6
CONTINUOUS
370
    -3
100
AcDbLine
 10
52608.08784813
 20
-10978.91709217
 30
0.0
 11
52607.96700093
 21
-10979.14923748
 31
0.0
  0
LINE
  5
86D
100
AcDbEntity
  8
Ech.1_5
 62
     7
  6
CONTINUOUS
370
    -3
100
AcDbLine
 10
52607.96700093
 20
-10979.14923748
 30
0.0
 11
52607.86684643
 21
-10979.39103177
 31
0.0
  0
LINE
  5
86E
100
AcDbEntity
  8
Ech.1_5
 62
     7
  6
CONTINUOUS
370
    -3
100
AcDbLine
 10
52607.86684643
 20
-10979.39103177
 30
0.0
 11
52607.78814683
 21
-10979.64063507
 31
0.0
  0
LINE
  5
86F
100
AcDbEntity
  8
Ech.1_5
 62
     7
  6
CONTINUOUS
370
    -3
100
AcDbLine
 10
52607.78814683
 20
-10979.64063507
 30
0.0
 11
52607.73150103
 21
-10979.89614766
 31
0.0
  0
LINE
  5
870
100
AcDbEntity
  8
Ech.1_5
 62
     7
  6
CONTINUOUS
370
    -3
100
AcDbLine
 10
52651.05519073
 20
-10992.42280018
 30
0.0
 11
52650.92545203
 21
-10992.43988058
 31
0.0
  0
LINE
  5
871
100
AcDbEntity
  8
Ech.1_5
 62
     7
  6
CONTINUOUS
370
    -3
100
AcDbLine
 10
52607.69734023
 20
-10980.15562498
 30
0.0
 11
52607.68592433
 21
-10980.41709217
 31
0.0
  0
LINE
  5
872
100
AcDbEntity
  8
Ech.1_5
 62
     7
  6
CONTINUOUS
370
    -3
100
AcDbLine
 10
52607.68592433
 20
-10980.41709217
 30
0.0
 11
52607.68592433
 21
-10983.41709217
 31
0.0
  0
LINE
  5
873
100
AcDbEntity
  8
Ech.1_5
 62
     7
  6
CONTINUOUS
370
    -3
100
AcDbLine
 10
52611.68592433
 20
-10983.41709217
 30
0.0
 11
52607.68592433
 21
-10983.41709217
 31
0.0
  0
LINE
  5
874
100
AcDbEntity
  8
Ech.1_5
 62
     7
  6
CONTINUOUS
370
    -3
100
AcDbLine
 10
52611.68592433
 20
-10983.41709217
 30
0.0
 11
52611.68592433
 21
-10987.41709217
 31
0.0
  0
LINE
  5
875
100
AcDbEntity
  8
Ech.1_5
 62
     7
  6
CONTINUOUS
370
    -3
100
AcDbLine
 10
52611.68592433
 20
-10987.41709217
 30
0.0
 11
52607.68592433
 21
-10987.41709217
 31
0.0
  0
LINE
  5
876
100
AcDbEntity
  8
Ech.1_5
 62
     7
  6
CONTINUOUS
370
    -3
100
AcDbLine
 10
52607.68592433
 20
-10987.41709217
 30
0.0
 11
52607.68592433
 21
-11005.81709218
 31
0.0
  0
LINE
  5
877
100
AcDbEntity
  8
Ech.1_5
 62
     7
  6
CONTINUOUS
370
    -3
100
AcDbLine
 10
52611.68592433
 20
-11005.81709218
 30
0.0
 11
52607.68592433
 21
-11005.81709218
 31
0.0
  0
LINE
  5
878
100
AcDbEntity
  8
Ech.1_5
 62
     7
  6
CONTINUOUS
370
    -3
100
AcDbLine
 10
52611.68592433
 20
-11005.81709218
 30
0.0
 11
52611.68592433
 21
-11009.81709218
 31
0.0
  0
LINE
  5
879
100
AcDbEntity
  8
Ech.1_5
 62
     7
  6
CONTINUOUS
370
    -3
100
AcDbLine
 10
52666.96253253
 20
-10979.12278646
 30
0.0
 11
52666.75010213
 21
-10978.84594178
 31
0.0
  0
LINE
  5
87A
100
AcDbEntity
  8
Ech.1_5
 62
     7
  6
CONTINUOUS
370
    -3
100
AcDbLine
 10
52601.98219473
 20
-11035.12782478
 30
0.0
 11
52600.40755563
 21
-11034.76842367
 31
0.0
  0
LINE
  5
87B
100
AcDbEntity
  8
Ech.1_5
 62
     7
  6
CONTINUOUS
370
    -3
100
AcDbLine
 10
52608.96519503
 20
-10977.95963606
 30
0.0
 11
52608.75756153
 21
-10978.11895886
 31
0.0
  0
LINE
  5
87C
100
AcDbEntity
  8
Ech.1_5
 62
     7
  6
CONTINUOUS
370
    -3
100
AcDbLine
 10
52666.75010213
 20
-10978.84594178
 30
0.0
 11
52666.51435143
 21
-10978.58866506
 31
0.0
  0
LINE
  5
87D
100
AcDbEntity
  8
Ech.1_5
 62
     7
  6
CONTINUOUS
370
    -3
100
AcDbLine
 10
52666.51435143
 20
-10978.58866506
 30
0.0
 11
52666.25707473
 21
-10978.35291448
 31
0.0
  0
LINE
  5
87E
100
AcDbEntity
  8
Ech.1_5
 62
     7
  6
CONTINUOUS
370
    -3
100
AcDbLine
 10
52666.25707473
 20
-10978.35291448
 30
0.0
 11
52665.98023003
 21
-10978.14048406
 31
0.0
  0
LINE
  5
87F
100
AcDbEntity
  8
Ech.1_5
 62
     7
  6
CONTINUOUS
370
    -3
100
AcDbLine
 10
52665.98023003
 20
-10978.14048406
 30
0.0
 11
52665.68592433
 21
-10977.95299056
 31
0.0
  0
LINE
  5
880
100
AcDbEntity
  8
Ech.1_5
 62
     7
  6
CONTINUOUS
370
    -3
100
AcDbLine
 10
52665.68592433
 20
-10977.95299056
 30
0.0
 11
52665.37639733
 21
-10977.79186105
 31
0.0
  0
LINE
  5
881
100
AcDbEntity
  8
Ech.1_5
 62
     7
  6
CONTINUOUS
370
    -3
100
AcDbLine
 10
52665.37639733
 20
-10977.79186105
 30
0.0
 11
52665.05400493
 21
-10977.65832176
 31
0.0
  0
LINE
  5
882
100
AcDbEntity
  8
Ech.1_5
 62
     7
  6
CONTINUOUS
370
    -3
100
AcDbLine
 10
52665.05400493
 20
-10977.65832176
 30
0.0
 11
52664.72120053
 21
-10977.55338886
 31
0.0
  0
LINE
  5
883
100
AcDbEntity
  8
Ech.1_5
 62
     7
  6
CONTINUOUS
370
    -3
100
AcDbLine
 10
52667.68021633
 20
-10991.04782587
 30
0.0
 11
52667.66313593
 21
-10991.17756447
 31
0.0
  0
LINE
  5
884
100
AcDbEntity
  8
Ech.1_5
 62
     7
  6
CONTINUOUS
370
    -3
100
AcDbLine
 10
52664.38051703
 20
-10977.47786116
 30
0.0
 11
52664.03454733
 21
-10977.43231338
 31
0.0
  0
LINE
  5
885
100
AcDbEntity
  8
Ech.1_5
 62
     7
  6
CONTINUOUS
370
    -3
100
AcDbLine
 10
52664.03454733
 20
-10977.43231338
 30
0.0
 11
52663.68592433
 21
-10977.41709217
 31
0.0
  0
LINE
  5
886
100
AcDbEntity
  8
Ech.1_5
 62
     7
  6
CONTINUOUS
370
    -3
100
AcDbLine
 10
52663.68592433
 20
-10977.41709217
 30
0.0
 11
52610.68592433
 21
-10977.41709217
 31
0.0
  0
LINE
  5
887
100
AcDbEntity
  8
Ech.1_5
 62
     7
  6
CONTINUOUS
370
    -3
100
AcDbLine
 10
52610.68592433
 20
-10977.41709217
 30
0.0
 11
52610.42445713
 21
-10977.42850807
 31
0.0
  0
LINE
  5
888
100
AcDbEntity
  8
Ech.1_5
 62
     7
  6
CONTINUOUS
370
    -3
100
AcDbLine
 10
52610.42445713
 20
-10977.42850807
 30
0.0
 11
52610.16497983
 21
-10977.46266898
 31
0.0
  0
LINE
  5
889
100
AcDbEntity
  8
Ech.1_5
 62
     7
  6
CONTINUOUS
370
    -3
100
AcDbLine
 10
52610.16497983
 20
-10977.46266898
 30
0.0
 11
52609.90946723
 21
-10977.51931476
 31
0.0
  0
LINE
  5
88A
100
AcDbEntity
  8
Ech.1_5
 62
     7
  6
CONTINUOUS
370
    -3
100
AcDbLine
 10
52609.90946723
 20
-10977.51931476
 30
0.0
 11
52609.65986393
 21
-10977.59801438
 31
0.0
  0
LINE
  5
88B
100
AcDbEntity
  8
Ech.1_5
 62
     7
  6
CONTINUOUS
370
    -3
100
AcDbLine
 10
52609.65986393
 20
-10977.59801438
 30
0.0
 11
52609.41806953
 21
-10977.69816887
 31
0.0
  0
LINE
  5
88C
100
AcDbEntity
  8
Ech.1_5
 62
     7
  6
CONTINUOUS
370
    -3
100
AcDbLine
 10
52609.41806953
 20
-10977.69816887
 30
0.0
 11
52609.18592433
 21
-10977.81901598
 31
0.0
  0
LINE
  5
88D
100
AcDbEntity
  8
Ech.1_5
 62
     7
  6
CONTINUOUS
370
    -3
100
AcDbLine
 10
52667.15010573
 20
-10992.06615886
 30
0.0
 11
52667.04628893
 21
-10992.14582026
 31
0.0
  0
LINE
  5
88E
100
AcDbEntity
  8
Ech.1_5
 62
     7
  6
CONTINUOUS
370
    -3
100
AcDbLine
 10
52667.24658453
 20
-10991.97775235
 30
0.0
 11
52667.15010573
 21
-10992.06615886
 31
0.0
  0
LINE
  5
88F
100
AcDbEntity
  8
Ech.1_5
 62
     7
  6
CONTINUOUS
370
    -3
100
AcDbLine
 10
52667.33499103
 20
-10991.88127365
 30
0.0
 11
52667.24658453
 21
-10991.97775235
 31
0.0
  0
LINE
  5
890
100
AcDbEntity
  8
Ech.1_5
 62
     7
  6
CONTINUOUS
370
    -3
100
AcDbLine
 10
52667.41465243
 20
-10991.77745688
 30
0.0
 11
52667.33499103
 21
-10991.88127365
 31
0.0
  0
LINE
  5
891
100
AcDbEntity
  8
Ech.1_5
 62
     7
  6
CONTINUOUS
370
    -3
100
AcDbLine
 10
52667.48496243
 20
-10991.66709217
 30
0.0
 11
52667.41465243
 21
-10991.77745688
 31
0.0
  0
LINE
  5
892
100
AcDbEntity
  8
Ech.1_5
 62
     7
  6
CONTINUOUS
370
    -3
100
AcDbLine
 10
52667.54538603
 20
-10991.55101958
 30
0.0
 11
52667.48496243
 21
-10991.66709217
 31
0.0
  0
LINE
  5
893
100
AcDbEntity
  8
Ech.1_5
 62
     7
  6
CONTINUOUS
370
    -3
100
AcDbLine
 10
52667.59546323
 20
-10991.43012246
 30
0.0
 11
52667.54538603
 21
-10991.55101958
 31
0.0
  0
LINE
  5
894
100
AcDbEntity
  8
Ech.1_5
 62
     7
  6
CONTINUOUS
370
    -3
100
AcDbLine
 10
52667.63481303
 20
-10991.30532077
 30
0.0
 11
52667.59546323
 21
-10991.43012246
 31
0.0
  0
LINE
  5
895
100
AcDbEntity
  8
Ech.1_5
 62
     7
  6
CONTINUOUS
370
    -3
100
AcDbLine
 10
52667.66313593
 20
-10991.17756447
 30
0.0
 11
52667.63481303
 21
-10991.30532077
 31
0.0
  0
LINE
  5
896
100
AcDbEntity
  8
Ech.1_5
 62
     7
  6
CONTINUOUS
370
    -3
100
AcDbLine
 10
52664.72120053
 20
-10977.55338886
 30
0.0
 11
52664.38051703
 21
-10977.47786116
 31
0.0
  0
LINE
  5
897
100
AcDbEntity
  8
Ech.1_5
 62
     7
  6
CONTINUOUS
370
    -3
100
AcDbLine
 10
52667.68592433
 20
-10990.91709217
 30
0.0
 11
52667.68021633
 21
-10991.04782587
 31
0.0
  0
LINE
  5
898
100
AcDbEntity
  8
Ech.1_5
 62
     7
  6
CONTINUOUS
370
    -3
100
AcDbLine
 10
52667.68592433
 20
-10990.91709217
 30
0.0
 11
52667.68592433
 21
-10981.41709217
 31
0.0
  0
LINE
  5
899
100
AcDbEntity
  8
Ech.1_5
 62
     7
  6
CONTINUOUS
370
    -3
100
AcDbLine
 10
52667.68592433
 20
-10981.41709217
 30
0.0
 11
52667.67070313
 21
-10981.06846925
 31
0.0
  0
LINE
  5
89A
100
AcDbEntity
  8
Ech.1_5
 62
     7
  6
CONTINUOUS
370
    -3
100
AcDbLine
 10
52667.67070313
 20
-10981.06846925
 30
0.0
 11
52667.62515533
 21
-10980.72249946
 31
0.0
  0
LINE
  5
89B
100
AcDbEntity
  8
Ech.1_5
 62
     7
  6
CONTINUOUS
370
    -3
100
AcDbLine
 10
52667.62515533
 20
-10980.72249946
 30
0.0
 11
52667.54962763
 21
-10980.38181606
 31
0.0
  0
LINE
  5
89C
100
AcDbEntity
  8
Ech.1_5
 62
     7
  6
CONTINUOUS
370
    -3
100
AcDbLine
 10
52667.54962763
 20
-10980.38181606
 30
0.0
 11
52667.44469483
 21
-10980.04901167
 31
0.0
  0
LINE
  5
89D
100
AcDbEntity
  8
Ech.1_5
 62
     7
  6
CONTINUOUS
370
    -3
100
AcDbLine
 10
52667.44469483
 20
-10980.04901167
 30
0.0
 11
52667.31115543
 21
-10979.72661918
 31
0.0
  0
LINE
  5
89E
100
AcDbEntity
  8
Ech.1_5
 62
     7
  6
CONTINUOUS
370
    -3
100
AcDbLine
 10
52648.83307723
 20
-11013.05539626
 30
0.0
 11
52648.68592433
 21
-11013.14914298
 31
0.0
  0
LINE
  5
89F
100
AcDbEntity
  8
Ech.1_5
 62
     7
  6
CONTINUOUS
370
    -3
100
AcDbLine
 10
52650.03685763
 20
-10992.95291078
 30
0.0
 11
52649.95719623
 21
-10993.05672755
 31
0.0
  0
LINE
  5
8A0
100
AcDbEntity
  8
Ech.1_5
 62
     7
  6
CONTINUOUS
370
    -3
100
AcDbLine
 10
52667.31115543
 20
-10979.72661918
 30
0.0
 11
52667.15002593
 21
-10979.41709217
 31
0.0
  0
LINE
  5
8A1
100
AcDbEntity
  8
Ech.1_5
 62
     7
  6
CONTINUOUS
370
    -3
100
AcDbLine
 10
52650.12526413
 20
-10992.85643208
 30
0.0
 11
52650.03685763
 21
-10992.95291078
 31
0.0
  0
LINE
  5
8A2
100
AcDbEntity
  8
Ech.1_5
 62
     7
  6
CONTINUOUS
370
    -3
100
AcDbLine
 10
52650.22174293
 20
-10992.76802557
 30
0.0
 11
52650.12526413
 21
-10992.85643208
 31
0.0
  0
LINE
  5
8A3
100
AcDbEntity
  8
Ech.1_5
 62
     7
  6
CONTINUOUS
370
    -3
100
AcDbLine
 10
52650.32555963
 20
-10992.68836417
 30
0.0
 11
52650.22174293
 21
-10992.76802557
 31
0.0
  0
LINE
  5
8A4
100
AcDbEntity
  8
Ech.1_5
 62
     7
  6
CONTINUOUS
370
    -3
100
AcDbLine
 10
52650.43592433
 20
-10992.61805406
 30
0.0
 11
52650.32555963
 21
-10992.68836417
 31
0.0
  0
LINE
  5
8A5
100
AcDbEntity
  8
Ech.1_5
 62
     7
  6
CONTINUOUS
370
    -3
100
AcDbLine
 10
52650.55199693
 20
-10992.55763057
 30
0.0
 11
52650.43592433
 21
-10992.61805406
 31
0.0
  0
LINE
  5
8A6
100
AcDbEntity
  8
Ech.1_5
 62
     7
  6
CONTINUOUS
370
    -3
100
AcDbLine
 10
52650.67289413
 20
-10992.50755328
 30
0.0
 11
52650.55199693
 21
-10992.55763057
 31
0.0
  0
LINE
  5
8A7
100
AcDbEntity
  8
Ech.1_5
 62
     7
  6
CONTINUOUS
370
    -3
100
AcDbLine
 10
52650.79769573
 20
-10992.46820348
 30
0.0
 11
52650.67289413
 21
-10992.50755328
 31
0.0
  0
LINE
  5
8A8
100
AcDbEntity
  8
Ech.1_5
 62
     7
  6
CONTINUOUS
370
    -3
100
AcDbLine
 10
52650.92545203
 20
-10992.43988058
 30
0.0
 11
52650.79769573
 21
-10992.46820348
 31
0.0
  0
LINE
  5
8A9
100
AcDbEntity
  8
Ech.1_5
 62
     7
  6
CONTINUOUS
370
    -3
100
AcDbLine
 10
52607.73150103
 20
-10979.89614766
 30
0.0
 11
52607.69734023
 21
-10980.15562498
 31
0.0
  0
LINE
  5
8AA
100
AcDbEntity
  8
Ech.1_5
 62
     7
  6
CONTINUOUS
370
    -3
100
AcDbLine
 10
52651.18592433
 20
-10992.41709217
 30
0.0
 11
52651.05519073
 21
-10992.42280018
 31
0.0
  0
LINE
  5
8AB
100
AcDbEntity
  8
Ech.1_5
 62
     7
  6
CONTINUOUS
370
    -3
100
AcDbLine
 10
52666.18592433
 20
-10992.41709217
 30
0.0
 11
52651.18592433
 21
-10992.41709217
 31
0.0
  0
LINE
  5
8AC
100
AcDbEntity
  8
Ech.1_5
 62
     7
  6
CONTINUOUS
370
    -3
100
AcDbLine
 10
52666.31665793
 20
-10992.41138428
 30
0.0
 11
52666.18592433
 21
-10992.41709217
 31
0.0
  0
LINE
  5
8AD
100
AcDbEntity
  8
Ech.1_5
 62
     7
  6
CONTINUOUS
370
    -3
100
AcDbLine
 10
52666.44639663
 20
-10992.39430385
 30
0.0
 11
52666.31665793
 21
-10992.41138428
 31
0.0
  0
LINE
  5
8AE
100
AcDbEntity
  8
Ech.1_5
 62
     7
  6
CONTINUOUS
370
    -3
100
AcDbLine
 10
52666.57415293
 20
-10992.36598098
 30
0.0
 11
52666.44639663
 21
-10992.39430385
 31
0.0
  0
LINE
  5
8AF
100
AcDbEntity
  8
Ech.1_5
 62
     7
  6
CONTINUOUS
370
    -3
100
AcDbLine
 10
52666.69895453
 20
-10992.32663116
 30
0.0
 11
52666.57415293
 21
-10992.36598098
 31
0.0
  0
LINE
  5
8B0
100
AcDbEntity
  8
Ech.1_5
 62
     7
  6
CONTINUOUS
370
    -3
100
AcDbLine
 10
52666.81985173
 20
-10992.27655387
 30
0.0
 11
52666.69895453
 21
-10992.32663116
 31
0.0
  0
LINE
  5
8B1
100
AcDbEntity
  8
Ech.1_5
 62
     7
  6
CONTINUOUS
370
    -3
100
AcDbLine
 10
52666.93592433
 20
-10992.21613025
 30
0.0
 11
52666.81985173
 21
-10992.27655387
 31
0.0
  0
LINE
  5
8B2
100
AcDbEntity
  8
Ech.1_5
 62
     7
  6
CONTINUOUS
370
    -3
100
AcDbLine
 10
52649.95719623
 20
-10993.05672755
 30
0.0
 11
52649.88688623
 21
-10993.16709217
 31
0.0
  0
LINE
  5
8B3
100
AcDbEntity
  8
Ech.1_5
 62
     7
  6
CONTINUOUS
370
    -3
100
AcDbLine
 10
52649.88688623
 20
-10993.16709217
 30
0.0
 11
52649.82646263
 21
-10993.28316477
 31
0.0
  0
LINE
  5
8B4
100
AcDbEntity
  8
Ech.1_5
 62
     7
  6
CONTINUOUS
370
    -3
100
AcDbLine
 10
52648.97149953
 20
-11012.94918108
 30
0.0
 11
52648.83307723
 21
-11013.05539626
 31
0.0
  0
LINE
  5
8B5
100
AcDbEntity
  8
Ech.1_5
 62
     7
  6
CONTINUOUS
370
    -3
100
AcDbLine
 10
52649.10013793
 20
-11012.83130577
 30
0.0
 11
52648.97149953
 21
-11012.94918108
 31
0.0
  0
LINE
  5
8B6
100
AcDbEntity
  8
Ech.1_5
 62
     7
  6
CONTINUOUS
370
    -3
100
AcDbLine
 10
52649.21801323
 20
-11012.70266747
 30
0.0
 11
52649.10013793
 21
-11012.83130577
 31
0.0
  0
LINE
  5
8B7
100
AcDbEntity
  8
Ech.1_5
 62
     7
  6
CONTINUOUS
370
    -3
100
AcDbLine
 10
52649.32422843
 20
-11012.56424507
 30
0.0
 11
52649.21801323
 21
-11012.70266747
 31
0.0
  0
LINE
  5
8B8
100
AcDbEntity
  8
Ech.1_5
 62
     7
  6
CONTINUOUS
370
    -3
100
AcDbLine
 10
52649.41797513
 20
-11012.41709217
 30
0.0
 11
52649.32422843
 21
-11012.56424507
 31
0.0
  0
LINE
  5
8B9
100
AcDbEntity
  8
Ech.1_5
 62
     7
  6
CONTINUOUS
370
    -3
100
AcDbLine
 10
52649.49853993
 20
-11012.26232877
 30
0.0
 11
52649.41797513
 21
-11012.41709217
 31
0.0
  0
LINE
  5
8BA
100
AcDbEntity
  8
Ech.1_5
 62
     7
  6
CONTINUOUS
370
    -3
100
AcDbLine
 10
52649.56530953
 20
-11012.10113248
 30
0.0
 11
52649.49853993
 21
-11012.26232877
 31
0.0
  0
LINE
  5
8BB
100
AcDbEntity
  8
Ech.1_5
 62
     7
  6
CONTINUOUS
370
    -3
100
AcDbLine
 10
52649.61777593
 20
-11011.93473026
 30
0.0
 11
52649.56530953
 21
-11012.10113248
 31
0.0
  0
LINE
  5
8BC
100
AcDbEntity
  8
Ech.1_5
 62
     7
  6
CONTINUOUS
370
    -3
100
AcDbLine
 10
52589.34549923
 20
-11025.94672817
 30
0.0
 11
52588.64471893
 21
-11024.49154275
 31
0.0
  0
LINE
  5
8BD
100
AcDbEntity
  8
Ech.1_5
 62
     7
  6
CONTINUOUS
370
    -3
100
AcDbLine
 10
52649.67831373
 20
-11011.59140366
 30
0.0
 11
52649.65553983
 21
-11011.76438856
 31
0.0
  0
LINE
  5
8BE
100
AcDbEntity
  8
Ech.1_5
 62
     7
  6
CONTINUOUS
370
    -3
100
AcDbLine
 10
52649.68592433
 20
-11011.41709217
 30
0.0
 11
52649.67831373
 21
-11011.59140366
 31
0.0
  0
LINE
  5
8BF
100
AcDbEntity
  8
Ech.1_5
 62
     7
  6
CONTINUOUS
370
    -3
100
AcDbLine
 10
52649.68592433
 20
-11011.41709217
 30
0.0
 11
52649.68592433
 21
-10993.91709217
 31
0.0
  0
LINE
  5
8C0
100
AcDbEntity
  8
Ech.1_5
 62
     7
  6
CONTINUOUS
370
    -3
100
AcDbLine
 10
52649.69163223
 20
-10993.78635856
 30
0.0
 11
52649.68592433
 21
-10993.91709217
 31
0.0
  0
LINE
  5
8C1
100
AcDbEntity
  8
Ech.1_5
 62
     7
  6
CONTINUOUS
370
    -3
100
AcDbLine
 10
52649.70871273
 20
-10993.65661996
 30
0.0
 11
52649.69163223
 21
-10993.78635856
 31
0.0
  0
LINE
  5
8C2
100
AcDbEntity
  8
Ech.1_5
 62
     7
  6
CONTINUOUS
370
    -3
100
AcDbLine
 10
52649.73703553
 20
-10993.52886367
 30
0.0
 11
52649.70871273
 21
-10993.65661996
 31
0.0
  0
LINE
  5
8C3
100
AcDbEntity
  8
Ech.1_5
 62
     7
  6
CONTINUOUS
370
    -3
100
AcDbLine
 10
52649.77638543
 20
-10993.40406197
 30
0.0
 11
52649.73703553
 21
-10993.52886367
 31
0.0
  0
LINE
  5
8C4
100
AcDbEntity
  8
Ech.1_5
 62
     7
  6
CONTINUOUS
370
    -3
100
AcDbLine
 10
52649.82646263
 20
-10993.28316477
 30
0.0
 11
52649.77638543
 21
-10993.40406197
 31
0.0
  0
LINE
  5
8C5
100
AcDbEntity
  8
Ech.1_5
 62
     7
  6
CONTINUOUS
370
    -3
100
AcDbLine
 10
52648.68592433
 20
-11013.14914298
 30
0.0
 11
52648.53116083
 21
-11013.22970777
 31
0.0
  0
LINE
  5
8C6
100
AcDbEntity
  8
Ech.1_5
 62
     7
  6
CONTINUOUS
370
    -3
100
AcDbLine
 10
52667.04628893
 20
-10992.14582026
 30
0.0
 11
52666.93592433
 21
-10992.21613025
 31
0.0
  0
LINE
  5
8C7
100
AcDbEntity
  8
Ech.1_5
 62
     7
  6
CONTINUOUS
370
    -3
100
AcDbLine
 10
52637.67450843
 20
-11032.67855948
 30
0.0
 11
52637.64034753
 21
-11032.93803677
 31
0.0
  0
LINE
  5
8C8
100
AcDbEntity
  8
Ech.1_5
 62
     7
  6
CONTINUOUS
370
    -3
100
AcDbLine
 10
52637.68592433
 20
-11032.41709217
 30
0.0
 11
52637.67450843
 21
-11032.67855948
 31
0.0
  0
LINE
  5
8C9
100
AcDbEntity
  8
Ech.1_5
 62
     7
  6
CONTINUOUS
370
    -3
100
AcDbLine
 10
52637.68592433
 20
-11032.41709217
 30
0.0
 11
52636.94474333
 21
-11030.21849337
 31
0.0
  0
LINE
  5
8CA
100
AcDbEntity
  8
Ech.1_5
 62
     7
  6
CONTINUOUS
370
    -3
100
AcDbLine
 10
52636.94474333
 20
-11030.21849337
 30
0.0
 11
52632.68592433
 21
-11028.31001928
 31
0.0
  0
LINE
  5
8CB
100
AcDbEntity
  8
Ech.1_5
 62
     7
  6
CONTINUOUS
370
    -3
100
AcDbLine
 10
52633.42710523
 20
-11024.55823937
 30
0.0
 11
52632.68592433
 21
-11028.31001928
 31
0.0
  0
LINE
  5
8CC
100
AcDbEntity
  8
Ech.1_5
 62
     7
  6
CONTINUOUS
370
    -3
100
AcDbLine
 10
52637.68592433
 20
-11022.64976516
 30
0.0
 11
52633.42710523
 21
-11024.55823937
 31
0.0
  0
LINE
  5
8CD
100
AcDbEntity
  8
Ech.1_5
 62
     7
  6
CONTINUOUS
370
    -3
100
AcDbLine
 10
52637.68592433
 20
-11022.64976516
 30
0.0
 11
52637.68592433
 21
-11017.71709215
 31
0.0
  0
LINE
  5
8CE
100
AcDbEntity
  8
Ech.1_5
 62
     7
  6
CONTINUOUS
370
    -3
100
AcDbLine
 10
52636.18592433
 20
-11035.01516837
 30
0.0
 11
52635.95377913
 21
-11035.13601556
 31
0.0
  0
LINE
  5
8CF
100
AcDbEntity
  8
Ech.1_5
 62
     7
  6
CONTINUOUS
370
    -3
100
AcDbLine
 10
52629.68592433
 20
-11017.71709215
 30
0.0
 11
52629.68592433
 21
-11013.71709215
 31
0.0
  0
LINE
  5
8D0
100
AcDbEntity
  8
Ech.1_5
 62
     7
  6
CONTINUOUS
370
    -3
100
AcDbLine
 10
52637.68592433
 20
-11013.71709215
 30
0.0
 11
52629.68592433
 21
-11013.71709215
 31
0.0
  0
LINE
  5
8D1
100
AcDbEntity
  8
Ech.1_5
 62
     7
  6
CONTINUOUS
370
    -3
100
AcDbLine
 10
52637.68592433
 20
-11013.71709215
 30
0.0
 11
52637.68592433
 21
-11013.41709217
 31
0.0
  0
LINE
  5
8D2
100
AcDbEntity
  8
Ech.1_5
 62
     7
  6
CONTINUOUS
370
    -3
100
AcDbLine
 10
52647.68592433
 20
-11013.41709217
 30
0.0
 11
52637.68592433
 21
-11013.41709217
 31
0.0
  0
LINE
  5
8D3
100
AcDbEntity
  8
Ech.1_5
 62
     7
  6
CONTINUOUS
370
    -3
100
AcDbLine
 10
52647.86023583
 20
-11013.40948158
 30
0.0
 11
52647.68592433
 21
-11013.41709217
 31
0.0
  0
LINE
  5
8D4
100
AcDbEntity
  8
Ech.1_5
 62
     7
  6
CONTINUOUS
370
    -3
100
AcDbLine
 10
52648.03322063
 20
-11013.38670766
 30
0.0
 11
52647.86023583
 21
-11013.40948158
 31
0.0
  0
LINE
  5
8D5
100
AcDbEntity
  8
Ech.1_5
 62
     7
  6
CONTINUOUS
370
    -3
100
AcDbLine
 10
52648.20356243
 20
-11013.34894386
 30
0.0
 11
52648.03322063
 21
-11013.38670766
 31
0.0
  0
LINE
  5
8D6
100
AcDbEntity
  8
Ech.1_5
 62
     7
  6
CONTINUOUS
370
    -3
100
AcDbLine
 10
52648.36996463
 20
-11013.29647746
 30
0.0
 11
52648.20356243
 21
-11013.34894386
 31
0.0
  0
LINE
  5
8D7
100
AcDbEntity
  8
Ech.1_5
 62
     7
  6
CONTINUOUS
370
    -3
100
AcDbLine
 10
52648.53116083
 20
-11013.22970777
 30
0.0
 11
52648.36996463
 21
-11013.29647746
 31
0.0
  0
LINE
  5
8D8
100
AcDbEntity
  8
Ech.1_5
 62
     7
  6
CONTINUOUS
370
    -3
100
AcDbLine
 10
52637.58370183
 20
-11033.19354936
 30
0.0
 11
52637.50500223
 21
-11033.44315266
 31
0.0
  0
LINE
  5
8D9
100
AcDbEntity
  8
Ech.1_5
 62
     7
  6
CONTINUOUS
370
    -3
100
AcDbLine
 10
52609.18592433
 20
-10977.81901598
 30
0.0
 11
52608.96519503
 21
-10977.95963606
 31
0.0
  0
LINE
  5
8DA
100
AcDbEntity
  8
Ech.1_5
 62
     7
  6
CONTINUOUS
370
    -3
100
AcDbLine
 10
52603.58271133
 20
-11035.34462946
 30
0.0
 11
52601.98219473
 21
-11035.12782478
 31
0.0
  0
LINE
  5
8DB
100
AcDbEntity
  8
Ech.1_5
 62
     7
  6
CONTINUOUS
370
    -3
100
AcDbLine
 10
52605.19621883
 20
-11035.41709217
 30
0.0
 11
52603.58271133
 21
-11035.34462946
 31
0.0
  0
LINE
  5
8DC
100
AcDbEntity
  8
Ech.1_5
 62
     7
  6
CONTINUOUS
370
    -3
100
AcDbLine
 10
52634.68592433
 20
-11035.41709217
 30
0.0
 11
52605.19621883
 21
-11035.41709217
 31
0.0
  0
LINE
  5
8DD
100
AcDbEntity
  8
Ech.1_5
 62
     7
  6
CONTINUOUS
370
    -3
100
AcDbLine
 10
52634.94739153
 20
-11035.40567627
 30
0.0
 11
52634.68592433
 21
-11035.41709217
 31
0.0
  0
LINE
  5
8DE
100
AcDbEntity
  8
Ech.1_5
 62
     7
  6
CONTINUOUS
370
    -3
100
AcDbLine
 10
52635.20686883
 20
-11035.37151548
 30
0.0
 11
52634.94739153
 21
-11035.40567627
 31
0.0
  0
LINE
  5
8DF
100
AcDbEntity
  8
Ech.1_5
 62
     7
  6
CONTINUOUS
370
    -3
100
AcDbLine
 10
52635.46238143
 20
-11035.31486967
 30
0.0
 11
52635.20686883
 21
-11035.37151548
 31
0.0
  0
LINE
  5
8E0
100
AcDbEntity
  8
Ech.1_5
 62
     7
  6
CONTINUOUS
370
    -3
100
AcDbLine
 10
52635.71198473
 20
-11035.23617008
 30
0.0
 11
52635.46238143
 21
-11035.31486967
 31
0.0
  0
LINE
  5
8E1
100
AcDbEntity
  8
Ech.1_5
 62
     7
  6
CONTINUOUS
370
    -3
100
AcDbLine
 10
52635.95377913
 20
-11035.13601556
 30
0.0
 11
52635.71198473
 21
-11035.23617008
 31
0.0
  0
LINE
  5
8E2
100
AcDbEntity
  8
Ech.1_5
 62
     7
  6
CONTINUOUS
370
    -3
100
AcDbLine
 10
52637.68592433
 20
-11017.71709215
 30
0.0
 11
52629.68592433
 21
-11017.71709215
 31
0.0
  0
LINE
  5
8E3
100
AcDbEntity
  8
Ech.1_5
 62
     7
  6
CONTINUOUS
370
    -3
100
AcDbLine
 10
52636.40665363
 20
-11034.87454837
 30
0.0
 11
52636.18592433
 21
-11035.01516837
 31
0.0
  0
LINE
  5
8E4
100
AcDbEntity
  8
Ech.1_5
 62
     7
  6
CONTINUOUS
370
    -3
100
AcDbLine
 10
52636.61428713
 20
-11034.71522557
 30
0.0
 11
52636.40665363
 21
-11034.87454837
 31
0.0
  0
LINE
  5
8E5
100
AcDbEntity
  8
Ech.1_5
 62
     7
  6
CONTINUOUS
370
    -3
100
AcDbLine
 10
52636.80724463
 20
-11034.53841257
 30
0.0
 11
52636.61428713
 21
-11034.71522557
 31
0.0
  0
LINE
  5
8E6
100
AcDbEntity
  8
Ech.1_5
 62
     7
  6
CONTINUOUS
370
    -3
100
AcDbLine
 10
52636.98405763
 20
-11034.34545508
 30
0.0
 11
52636.80724463
 21
-11034.53841257
 31
0.0
  0
LINE
  5
8E7
100
AcDbEntity
  8
Ech.1_5
 62
     7
  6
CONTINUOUS
370
    -3
100
AcDbLine
 10
52637.14338043
 20
-11034.13782146
 30
0.0
 11
52636.98405763
 21
-11034.34545508
 31
0.0
  0
LINE
  5
8E8
100
AcDbEntity
  8
Ech.1_5
 62
     7
  6
CONTINUOUS
370
    -3
100
AcDbLine
 10
52637.28400053
 20
-11033.91709217
 30
0.0
 11
52637.14338043
 21
-11034.13782146
 31
0.0
  0
LINE
  5
8E9
100
AcDbEntity
  8
Ech.1_5
 62
     7
  6
CONTINUOUS
370
    -3
100
AcDbLine
 10
52637.40484763
 20
-11033.68494698
 30
0.0
 11
52637.28400053
 21
-11033.91709217
 31
0.0
  0
LINE
  5
8EA
100
AcDbEntity
  8
Ech.1_5
 62
     7
  6
CONTINUOUS
370
    -3
100
AcDbLine
 10
52600.40755563
 20
-11034.76842367
 30
0.0
 11
52598.87147203
 21
-11034.26931986
 31
0.0
  0
LINE
  5
8EB
100
AcDbEntity
  8
Ech.1_5
 62
     7
  6
CONTINUOUS
370
    -3
100
AcDbLine
 10
52637.64034753
 20
-11032.93803677
 30
0.0
 11
52637.58370183
 21
-11033.19354936
 31
0.0
  0
LINE
  5
8EC
100
AcDbEntity
  8
Ech.1_5
 62
     7
  6
CONTINUOUS
370
    -3
100
AcDbLine
 10
52637.50500223
 20
-11033.44315266
 30
0.0
 11
52637.40484763
 21
-11033.68494698
 31
0.0
  0
LINE
  5
8ED
100
AcDbEntity
  8
Ech.1_5
 62
     7
  6
CONTINUOUS
370
    -3
100
AcDbLine
 10
52611.68592433
 20
-11009.81709218
 30
0.0
 11
52607.68592433
 21
-11009.81709218
 31
0.0
  0
LINE
  5
8EE
100
AcDbEntity
  8
Ech.1_5
 62
     7
  6
CONTINUOUS
370
    -3
100
AcDbLine
 10
52607.68592433
 20
-11009.81709218
 30
0.0
 11
52607.68592433
 21
-11019.11709216
 31
0.0
  0
LINE
  5
8EF
100
AcDbEntity
  8
Ech.1_5
 62
     7
  6
CONTINUOUS
370
    -3
100
AcDbLine
 10
52607.68592433
 20
-11019.11709216
 30
0.0
 11
52600.18592433
 21
-11019.11709216
 31
0.0
  0
LINE
  5
8F0
100
AcDbEntity
  8
Ech.1_5
 62
     7
  6
CONTINUOUS
370
    -3
100
AcDbLine
 10
52600.18592433
 20
-11019.11709216
 30
0.0
 11
52600.18592433
 21
-11020.31709218
 31
0.0
  0
LINE
  5
8F1
100
AcDbEntity
  8
Ech.1_5
 62
     7
  6
CONTINUOUS
370
    -3
100
AcDbLine
 10
52600.18592433
 20
-11020.31709218
 30
0.0
 11
52588.68592433
 21
-11020.31709218
 31
0.0
  0
LINE
  5
8F2
100
AcDbEntity
  8
Ech.1_5
 62
     7
  6
CONTINUOUS
370
    -3
100
AcDbLine
 10
52588.68592433
 20
-11020.31709218
 30
0.0
 11
52587.72507913
 21
-11021.89567667
 31
0.0
  0
LINE
  5
8F3
100
AcDbEntity
  8
Ech.1_5
 62
     7
  6
CONTINUOUS
370
    -3
100
AcDbLine
 10
52588.07720153
 20
-11022.97939807
 30
0.0
 11
52587.72507913
 21
-11021.89567667
 31
0.0
  0
LINE
  5
8F4
100
AcDbEntity
  8
Ech.1_5
 62
     7
  6
CONTINUOUS
370
    -3
100
AcDbLine
 10
52588.64471893
 20
-11024.49154275
 30
0.0
 11
52588.07720153
 21
-11022.97939807
 31
0.0
  0
LINE
  5
8F5
100
AcDbEntity
  8
Ech.1_5
 62
     7
  6
CONTINUOUS
370
    -3
100
AcDbLine
 10
52649.65553983
 20
-11011.76438856
 30
0.0
 11
52649.61777593
 21
-11011.93473026
 31
0.0
  0
LINE
  5
8F6
100
AcDbEntity
  8
Ech.1_5
 62
     7
  6
CONTINUOUS
370
    -3
100
AcDbLine
 10
52590.17390023
 20
-11027.33323785
 30
0.0
 11
52589.34549923
 21
-11025.94672817
 31
0.0
  0
LINE
  5
8F7
100
AcDbEntity
  8
Ech.1_5
 62
     7
  6
CONTINUOUS
370
    -3
100
AcDbLine
 10
52591.12325213
 20
-11028.63990867
 30
0.0
 11
52590.17390023
 21
-11027.33323785
 31
0.0
  0
LINE
  5
8F8
100
AcDbEntity
  8
Ech.1_5
 62
     7
  6
CONTINUOUS
370
    -3
100
AcDbLine
 10
52592.18591133
 20
-11029.85621985
 30
0.0
 11
52591.12325213
 21
-11028.63990867
 31
0.0
  0
LINE
  5
8F9
100
AcDbEntity
  8
Ech.1_5
 62
     7
  6
CONTINUOUS
370
    -3
100
AcDbLine
 10
52593.35332173
 20
-11030.97237858
 30
0.0
 11
52592.18591133
 21
-11029.85621985
 31
0.0
  0
LINE
  5
8FA
100
AcDbEntity
  8
Ech.1_5
 62
     7
  6
CONTINUOUS
370
    -3
100
AcDbLine
 10
52594.61608433
 20
-11031.97939807
 30
0.0
 11
52593.35332173
 21
-11030.97237858
 31
0.0
  0
LINE
  5
8FB
100
AcDbEntity
  8
Ech.1_5
 62
     7
  6
CONTINUOUS
370
    -3
100
AcDbLine
 10
52595.96403183
 20
-11032.86917045
 30
0.0
 11
52594.61608433
 21
-11031.97939807
 31
0.0
  0
LINE
  5
8FC
100
AcDbEntity
  8
Ech.1_5
 62
     7
  6
CONTINUOUS
370
    -3
100
AcDbLine
 10
52597.38631153
 20
-11033.63453188
 30
0.0
 11
52595.96403183
 21
-11032.86917045
 31
0.0
  0
LINE
  5
8FD
100
AcDbEntity
  8
Ech.1_5
 62
     7
  6
CONTINUOUS
370
    -3
100
AcDbLine
 10
52598.87147203
 20
-11034.26931986
 30
0.0
 11
52597.38631153
 21
-11033.63453188
 31
0.0
  0
3DFACE
  5
8FE
100
AcDbEntity
  8
Ech.1_5
 62
     7
  6
CONTINUOUS
370
    -3
100
AcDbFace
 70
     0
 10
52554.15574817
 20
-10987.41709217
 30
2500.0
 11
52554.15574817
 21
-10983.41709217
 31
2500.0
 12
52611.68592433
 22
-10983.41709217
 32
2500.0
 13
52611.68592433
 23
-10987.41709217
 33
2500.0
  0
LWPOLYLINE
  5
8FF
100
AcDbEntity
  8
Ech.1_5
 62
     7
  6
CONTINUOUS
370
    -3
100
AcDbPolyline
 90
        4
 70
     1
 43
0.0
 10
52607.68592433
 20
-10987.41709217
 10
52607.68592433
 20
-11005.81709218
 10
52600.44168874
 20
-11005.81709218
 10
52600.44168874
 20
-10987.41709217
  0
3DFACE
  5
900
100
AcDbEntity
  8
Ech.1_5
 62
     7
  6
CONTINUOUS
370
    -3
100
AcDbFace
 70
     0
 10
52554.15574817
 20
-11009.81709218
 30
2500.0
 11
52554.15574817
 21
-11005.81709218
 31
2500.0
 12
52611.68592433
 22
-11005.81709218
 32
2500.0
 13
52611.68592433
 23
-11009.81709218
 33
2500.0
  0
LWPOLYLINE
  5
901
102
{ACAD_REACTORS
330
902
102
}
100
AcDbEntity
  8
Ech.1_5
 62
     9
  6
CONTINUOUS
370
     5
100
AcDbPolyline
 90
        4
 70
     1
 43
0.0
 10
52721.56565148
 20
-11071.86899943
 10
52731.56565148
 20
-11071.86899943
 10
52731.56565148
 20
-11080.86899943
 10
52721.56565148
 20
-11080.86899943
  0
HATCH
  5
902
100
AcDbEntity
  8
Ech.1_5
 62
     2
  6
CONTINUOUS
100
AcDbHatch
 10
0.0
 20
0.0
 30
0.0
210
0.0
220
0.0
230
1.0
  2
SOLID
 70
     1
 71
     1
 91
        1
 92
        7
 72
     0
 73
     1
 93
        4
 10
52721.56565148
 20
-11071.86899943
 10
52731.56565148
 20
-11071.86899943
 10
52731.56565148
 20
-11080.86899943
 10
52721.56565148
 20
-11080.86899943
 97
        1
330
901
 75
     0
 76
     2
 47
0.775229
 98
        1
 10
0.0
 20
0.0
  0
HATCH
  5
903
100
AcDbEntity
  8
Ech.1_5
 62
     9
  6
CONTINUOUS
100
AcDbHatch
 10
0.0
 20
0.0
 30
0.0
210
0.0
220
0.0
230
1.0
  2
ANSI31
 70
     0
 71
     1
 91
        1
 92
        7
 72
     0
 73
     1
 93
        4
 10
52721.56565148
 20
-11071.86899943
 10
52731.56565148
 20
-11071.86899943
 10
52731.56565148
 20
-11080.86899943
 10
52721.56565148
 20
-11080.86899943
 97
        1
330
902
 75
     0
 76
     2
 52
0.0
 41
0.94488785
 77
     0
 78
     1
 53
45.0
 43
0.0
 44
0.0
 45
2.12132043
 46
-2.12132043
 79
     0
 47
0.775229
 98
        1
 10
0.0
 20
0.0
  0
LWPOLYLINE
  5
904
100
AcDbEntity
  8
Ech.1_5
 62
     7
  6
CONTINUOUS
370
    -3
100
AcDbPolyline
 90
      163
 70
     0
 43
0.0
 10
52654.92545203
 20
-11012.43988058
 10
52654.79769573
 20
-11012.46820348
 10
52654.67289413
 20
-11012.50755328
 10
52654.55199693
 20
-11012.55763057
 10
52654.43592433
 20
-11012.61805406
 10
52654.32555963
 20
-11012.68836417
 10
52654.22174293
 20
-11012.76802557
 10
52654.12526413
 20
-11012.85643208
 10
52654.03685763
 20
-11012.95291078
 10
52653.95719623
 20
-11013.05672755
 10
52653.88688623
 20
-11013.16709217
 10
52653.82646263
 20
-11013.28316477
 10
52653.77638543
 20
-11013.40406197
 10
52653.73703553
 20
-11013.52886367
 10
52653.70871273
 20
-11013.65661996
 10
52653.69163223
 20
-11013.78635856
 10
52653.68592433
 20
-11013.91709217
 10
52653.68592433
 20
-11016.91709217
 10
52653.67831373
 20
-11017.09140366
 10
52653.65553983
 20
-11017.26438856
 10
52653.61777593
 20
-11017.43473026
 10
52653.56530953
 20
-11017.60113248
 10
52653.49853993
 20
-11017.76232877
 10
52653.41797513
 20
-11017.91709217
 10
52653.32422843
 20
-11018.06424507
 10
52653.21801323
 20
-11018.20266747
 10
52653.10013793
 20
-11018.33130577
 10
52652.97149953
 20
-11018.44918108
 10
52652.83307723
 20
-11018.55539626
 10
52652.68592433
 20
-11018.64914298
 10
52652.53116083
 20
-11018.72970777
 10
52652.36996463
 20
-11018.79647746
 10
52652.20356243
 20
-11018.84894386
 10
52652.03322063
 20
-11018.88670766
 10
52651.86023583
 20
-11018.90948158
 10
52651.68592433
 20
-11018.91709217
 10
52643.18592433
 20
-11018.91709217
 10
52643.05519073
 20
-11018.92280018
 10
52642.92545203
 20
-11018.93988058
 10
52642.79769573
 20
-11018.96820348
 10
52642.67289413
 20
-11019.00755328
 10
52642.55199693
 20
-11019.05763057
 10
52642.43592433
 20
-11019.11805406
 10
52642.32555963
 20
-11019.18836417
 10
52642.22174293
 20
-11019.26802557
 10
52642.12526413
 20
-11019.35643208
 10
52642.03685763
 20
-11019.45291078
 10
52641.95719623
 20
-11019.55672755
 10
52641.88688623
 20
-11019.66709217
 10
52641.82646263
 20
-11019.78316477
 10
52641.77638543
 20
-11019.90406197
 10
52641.73703553
 20
-11020.02886367
 10
52641.70871273
 20
-11020.15661996
 10
52641.69163223
 20
-11020.28635856
 10
52641.68592433
 20
-11020.41709217
 10
52641.69163223
 20
-11020.54782587
 10
52641.70871273
 20
-11020.67756447
 10
52641.99125373
 20
-11022.27993416
 10
52642.02901753
 20
-11022.45027586
 10
52642.08148393
 20
-11022.61667806
 10
52642.14825363
 20
-11022.77787438
 10
52642.22881843
 20
-11022.93263778
 10
52642.32256513
 20
-11023.07979068
 10
52642.42878033
 20
-11023.21821308
 10
52642.54665563
 20
-11023.34685138
 10
52642.67529403
 20
-11023.46472665
 10
52642.81371633
 20
-11023.57094186
 10
52642.96086923
 20
-11023.66468855
 10
52645.69826673
 20
-11025.24512577
 10
52646.13972533
 20
-11025.52636596
 10
52646.55499233
 20
-11025.84501156
 10
52646.94090733
 20
-11026.19863757
 10
52647.29453333
 20
-11026.58455255
 10
52647.61317893
 20
-11026.99981957
 10
52647.89441913
 20
-11027.44127816
 10
52648.13611343
 20
-11027.90556866
 10
52648.33642243
 20
-11028.38915738
 10
52648.49382163
 20
-11028.88836395
 10
52648.60711323
 20
-11029.39938917
 10
52649.44594133
 20
-11034.15661996
 10
52649.46302173
 20
-11034.28635856
 10
52649.46872973
 20
-11034.41709217
 10
52649.46302173
 20
-11034.54782587
 10
52649.44594133
 20
-11034.67756447
 10
52649.41761843
 20
-11034.80532077
 10
52649.37826863
 20
-11034.93012246
 10
52649.32819143
 20
-11035.05101958
 10
52649.26776783
 20
-11035.16709217
 10
52649.19745783
 20
-11035.27745688
 10
52649.11779643
 20
-11035.38127365
 10
52649.02938993
 20
-11035.47775235
 10
52648.93291113
 20
-11035.56615886
 10
52648.82909433
 20
-11035.64582026
 10
52648.71872973
 20
-11035.71613025
 10
52648.60265713
 20
-11035.77655387
 10
52648.48175993
 20
-11035.82663116
 10
52648.35695833
 20
-11035.86598098
 10
52648.22920203
 20
-11035.89430385
 10
52648.09946333
 20
-11035.91138428
 10
52647.96872973
 20
-11035.91709217
 10
52628.18592433
 20
-11035.91709217
 10
52628.05519073
 20
-11035.92280018
 10
52627.92545203
 20
-11035.93988058
 10
52627.79769573
 20
-11035.96820348
 10
52627.67289413
 20
-11036.00755328
 10
52627.55199693
 20
-11036.05763057
 10
52627.43592433
 20
-11036.11805406
 10
52627.32555963
 20
-11036.18836417
 10
52627.22174293
 20
-11036.26802557
 10
52627.12526413
 20
-11036.35643208
 10
52627.03685763
 20
-11036.45291078
 10
52626.95719623
 20
-11036.55672755
 10
52626.88688623
 20
-11036.66709217
 10
52626.82646263
 20
-11036.78316477
 10
52626.77638543
 20
-11036.90406197
 10
52626.73703553
 20
-11037.02886367
 10
52626.70871273
 20
-11037.15661996
 10
52626.69163223
 20
-11037.28635856
 10
52626.68592433
 20
-11037.41709217
 10
52626.69163223
 20
-11037.54782587
 10
52626.70871273
 20
-11037.67756447
 10
52626.73703553
 20
-11037.80532077
 10
52629.58990343
 20
-11048.45236838
 10
52629.69483623
 20
-11048.78517276
 10
52629.82837553
 20
-11049.10756528
 10
52629.98950503
 20
-11049.41709217
 10
52630.17699853
 20
-11049.71139797
 10
52630.38942893
 20
-11049.98824268
 10
52630.62517953
 20
-11050.24551937
 10
52630.88245623
 20
-11050.48126998
 10
52631.15930093
 20
-11050.69370037
 10
52631.45360673
 20
-11050.88119387
 10
52631.76313363
 20
-11051.04232338
 10
52632.08552613
 20
-11051.17586267
 10
52632.41833053
 20
-11051.28079548
 10
52632.75901403
 20
-11051.35632318
 10
52633.10498373
 20
-11051.40187096
 10
52633.45360673
 20
-11051.41709217
 10
52706.73703553
 20
-11051.41709217
 10
52706.73703553
 20
-10993.41709217
 10
52663.68592433
 20
-10993.41709217
 10
52663.51161283
 20
-10993.42470276
 10
52663.33862793
 20
-10993.44747668
 10
52663.16828623
 20
-10993.48524058
 10
52663.00188403
 20
-10993.53770697
 10
52662.84068783
 20
-10993.60447666
 10
52662.68592433
 20
-10993.68504136
 10
52662.53877143
 20
-10993.77878806
 10
52662.40034913
 20
-10993.88500335
 10
52662.27171073
 20
-10994.00287866
 10
52662.15383543
 20
-10994.13151696
 10
52662.04762023
 20
-10994.26993936
 10
52661.95387353
 20
-10994.41709217
 10
52661.87330873
 20
-10994.57185566
 10
52661.80653903
 20
-10994.73305198
 10
52661.75407263
 20
-10994.89945405
 10
52661.71630883
 20
-10995.06979587
 10
52661.69353493
 20
-10995.24278077
 10
52661.68592433
 20
-10995.41709217
 10
52661.68592433
 20
-11012.41709217
 10
52655.18592433
 20
-11012.41709217
 10
52655.05519073
 20
-11012.42280018
 10
52654.92545203
 20
-11012.43988058
  0
LWPOLYLINE
  5
905
100
AcDbEntity
  8
Ech.1_5
 62
     7
  6
CONTINUOUS
370
    -3
100
AcDbPolyline
 90
        8
 70
     0
 43
0.0
 10
52706.73703553
 20
-11051.41709217
 10
52706.73703553
 20
-11081.02661492
 10
52739.60092291
 20
-11081.02661492
 10
52739.60092291
 20
-11088.02661492
 10
52736.60092291
 20
-11091.98297138
 10
52688.84347031
 20
-11091.98297138
 10
52680.09347031
 20
-11081.02661492
 10
52680.09347031
 20
-11051.41709217
  0
LWPOLYLINE
  5
906
100
AcDbEntity
  8
Ech.1_5
 62
   106
  6
CADWORK_22
370
    35
100
AcDbPolyline
 90
        3
 70
     0
 43
0.0
 10
52323.35902729
 20
-10878.15344386
 10
52392.96686419
 20
-10878.15344386
 10
52392.96686419
 20
-11011.17828436
  0
LWPOLYLINE
  5
907
100
AcDbEntity
  8
Ech.1_5
 62
     3
370
    70
100
AcDbPolyline
 90
        4
 70
     0
 43
0.0
 10
52706.45466992
 20
-10967.32193868
 10
52706.45466992
 20
-10985.62629336
 10
52702.51993778
 20
-10991.30690631
 10
52685.09986839
 20
-10991.30690631
  0
LWPOLYLINE
  5
908
100
AcDbEntity
  8
Ech.1_5
 62
     3
370
    70
100
AcDbPolyline
 90
        4
 70
     0
 43
0.0
 10
52796.65419191
 20
-10877.38310527
 10
52783.66505849
 20
-10877.38310527
 10
52779.73032634
 20
-10871.70249229
 10
52766.25189634
 20
-10871.70249229
  0
LWPOLYLINE
  5
909
100
AcDbEntity
  8
Ech.1_5
 62
   106
  6
CADWORK_22
370
    35
100
AcDbPolyline
 90
        3
 70
     0
 43
0.0
 10
52781.04185378
 20
-10878.15344386
 10
52711.43401688
 20
-10878.15344386
 10
52711.43401688
 20
-11011.17828436
  0
LINE
  5
90A
100
AcDbEntity
  8
Ech.1_5
 62
     7
  6
CENTER
370
    18
100
AcDbLine
 10
52554.15574817
 20
-11091.90196897
 30
0.0
 11
52554.15574817
 21
-10543.81742195
 31
0.0
  0
LWPOLYLINE
  5
90B
100
AcDbEntity
  8
Ech.1_5
 62
     9
  6
CONTINUOUS
370
    -3
100
AcDbPolyline
 90
       58
 70
     0
 43
0.0
 10
52353.11852694
 20
-10600.7504255
 42
1.14028181
 10
52336.73581302
 20
-10602.90725574
 10
52344.50124085
 20
-10631.92692861
 42
-1.30322619
 10
52328.40247969
 20
-10631.92692861
 10
52336.16790752
 20
-10602.90725574
 42
1.30322619
 10
52320.06914635
 20
-10602.90725574
 10
52327.83457419
 20
-10631.92692861
 42
-1.30322619
 10
52311.73581302
 20
-10631.92692861
 10
52319.50124085
 20
-10602.90725574
 42
1.30322619
 10
52303.40247969
 20
-10602.90725574
 10
52311.16790752
 20
-10631.92692861
 42
-1.30322619
 10
52295.06914635
 20
-10631.92692861
 10
52302.83457419
 20
-10602.90725574
 42
1.30322619
 10
52286.73581302
 20
-10602.90725574
 10
52294.50124085
 20
-10631.92692861
 42
-1.30322619
 10
52278.40247969
 20
-10631.92692861
 10
52286.16790752
 20
-10602.90725574
 42
1.30322619
 10
52270.06914635
 20
-10602.90725574
 10
52277.83457419
 20
-10631.92692861
 42
-1.30322619
 10
52261.73581302
 20
-10631.92692861
 10
52269.50124085
 20
-10602.90725574
 42
1.30322619
 10
52253.40247969
 20
-10602.90725574
 10
52261.16790752
 20
-10631.92692861
 42
-1.30322619
 10
52245.06914635
 20
-10631.92692861
 10
52252.83457419
 20
-10602.90725574
 42
1.30322619
 10
52236.73581302
 20
-10602.90725574
 10
52244.50124085
 20
-10631.92692861
 42
-1.30322619
 10
52228.40247969
 20
-10631.92692861
 10
52236.16790752
 20
-10602.90725574
 42
1.30322619
 10
52220.06914635
 20
-10602.90725574
 10
52227.83457419
 20
-10631.92692861
 42
-1.30322619
 10
52211.73581302
 20
-10631.92692861
 10
52219.50124085
 20
-10602.90725574
 42
1.30322619
 10
52203.40247969
 20
-10602.90725574
 10
52211.16790752
 20
-10631.92692861
 42
-1.30322619
 10
52195.06914635
 20
-10631.92692861
 10
52202.83457419
 20
-10602.90725574
 42
1.30322619
 10
52186.73581302
 20
-10602.90725574
 10
52194.50124085
 20
-10631.92692861
 42
-1.30322619
 10
52178.40247969
 20
-10631.92692861
 10
52186.16790752
 20
-10602.90725574
 42
1.30322619
 10
52170.06914635
 20
-10602.90725574
 10
52177.83457419
 20
-10631.92692861
 42
-1.30322619
 10
52161.73581302
 20
-10631.92692861
 10
52169.50124085
 20
-10602.90725574
 42
1.30322619
 10
52153.40247969
 20
-10602.90725574
 10
52161.16790752
 20
-10631.92692861
 42
-1.30322619
 10
52145.06914635
 20
-10631.92692861
 10
52152.83457419
 20
-10602.90725574
 42
1.30322619
 10
52136.73581302
 20
-10602.90725574
 10
52144.50124085
 20
-10631.92692861
 42
-1.30322619
 10
52128.40247969
 20
-10631.92692861
 10
52136.16790752
 20
-10602.90725574
 42
1.30322619
 10
52120.06914635
 20
-10602.90725574
 10
52127.83457419
 20
-10631.92692861
 42
-1.30322619
 10
52111.73581302
 20
-10631.92692861
 10
52119.50124085
 20
-10602.90725574
 42
0.92973906
 10
52103.80048986
 20
-10597.44876299
  0
LWPOLYLINE
  5
90C
100
AcDbEntity
  8
Ech.1_5
 62
     9
  6
CONTINUOUS
370
    -3
100
AcDbPolyline
 90
       26
 70
     0
 43
0.0
 10
52388.96686419
 20
-10628.66694474
 42
1.14028181
 10
52383.56051063
 20
-10629.37870635
 10
52386.12312929
 20
-10638.95530108
 42
-1.30322619
 10
52380.81048115
 20
-10638.95530108
 10
52383.37309981
 20
-10629.37870635
 42
1.30322619
 10
52378.06045166
 20
-10629.37870635
 10
52380.62307032
 20
-10638.95530108
 42
-1.30322619
 10
52375.31042217
 20
-10638.95530108
 10
52377.87304084
 20
-10629.37870635
 42
1.30322619
 10
52372.56039269
 20
-10629.37870635
 10
52375.12301135
 20
-10638.95530108
 42
-1.30322619
 10
52369.8103632
 20
-10638.95530108
 10
52372.37298187
 20
-10629.37870635
 42
1.30322619
 10
52367.06033372
 20
-10629.37870635
 10
52369.62295238
 20
-10638.95530108
 42
-1.30322619
 10
52364.31030423
 20
-10638.95530108
 10
52366.87292289
 20
-10629.37870635
 42
1.30322619
 10
52361.56027475
 20
-10629.37870635
 10
52364.12289341
 20
-10638.95530108
 42
-1.30322619
 10
52358.81024526
 20
-10638.95530108
 10
52361.37286392
 20
-10629.37870635
 42
1.30322619
 10
52356.06021578
 20
-10629.37870635
 10
52358.62283444
 20
-10638.95530108
 42
-1.30322619
 10
52353.31018629
 20
-10638.95530108
 10
52355.87280495
 20
-10629.37870635
 42
0.50426749
 10
52353.11852694
 20
-10625.91866033
  0
LWPOLYLINE
  5
90D
102
{ACAD_REACTORS
330
90E
102
}
100
AcDbEntity
  8
Ech.1_5
 62
     7
  6
CONTINUOUS
370
     5
100
AcDbPolyline
 90
        4
 70
     1
 43
0.0
 10
52805.29439784
 20
-11330.98477991
 10
52805.29439784
 20
-11320.98477991
 10
52752.29439784
 20
-11320.98477991
 10
52752.29439784
 20
-11330.98477991
  0
HATCH
  5
90E
100
AcDbEntity
  8
Ech.1_5
 62
     2
  6
CONTINUOUS
100
AcDbHatch
 10
0.0
 20
0.0
 30
0.0
210
0.0
220
0.0
230
1.0
  2
SOLID
 70
     1
 71
     1
 91
        1
 92
        7
 72
     0
 73
     1
 93
        4
 10
52805.29439784
 20
-11330.98477991
 10
52805.29439784
 20
-11320.98477991
 10
52752.29439784
 20
-11320.98477991
 10
52752.29439784
 20
-11330.98477991
 97
        1
330
90D
 75
     0
 76
     2
 47
0.775229
 98
        1
 10
0.0
 20
0.0
  0
LWPOLYLINE
  5
90F
100
AcDbEntity
  8
Ech.1_5
 62
   190
  6
CONTINUOUS
370
    -3
100
AcDbPolyline
 90
        4
 70
     0
 43
0.0
 10
52805.29439784
 20
-11330.98566349
 10
52752.29439784
 20
-11320.98389633
 10
52752.29439784
 20
-11330.98477991
 10
52805.29439784
 20
-11320.98477991
  0
LWPOLYLINE
  5
910
102
{ACAD_REACTORS
330
911
102
}
100
AcDbEntity
  8
Ech.1_5
 62
     9
  6
CONTINUOUS
370
     5
100
AcDbPolyline
 90
        4
 70
     1
 43
0.0
 10
52789.57469831
 20
-11296.99603884
 10
52782.78570712
 20
-11296.99603884
 10
52782.78570712
 20
-11306.42869892
 10
52789.57469831
 20
-11306.42869892
  0
HATCH
  5
911
100
AcDbEntity
  8
Ech.1_5
 62
     2
  6
CONTINUOUS
100
AcDbHatch
 10
0.0
 20
0.0
 30
0.0
210
0.0
220
0.0
230
1.0
  2
SOLID
 70
     1
 71
     1
 91
        1
 92
        7
 72
     0
 73
     1
 93
        4
 10
52789.57469831
 20
-11296.99603884
 10
52782.78570712
 20
-11296.99603884
 10
52782.78570712
 20
-11306.42869892
 10
52789.57469831
 20
-11306.42869892
 97
        1
330
910
 75
     0
 76
     2
 47
0.775229
 98
        1
 10
0.0
 20
0.0
  0
HATCH
  5
912
100
AcDbEntity
  8
Ech.1_5
 62
     9
  6
CONTINUOUS
100
AcDbHatch
 10
0.0
 20
0.0
 30
0.0
210
0.0
220
0.0
230
1.0
  2
ANSI31
 70
     0
 71
     1
 91
        1
 92
        7
 72
     0
 73
     1
 93
        4
 10
52789.57469831
 20
-11296.99603884
 10
52782.78570712
 20
-11296.99603884
 10
52782.78570712
 20
-11306.42869892
 10
52789.57469831
 20
-11306.42869892
 97
        1
330
911
 75
     0
 76
     2
 52
0.0
 41
0.94488785
 77
     0
 78
     1
 53
45.0
 43
0.0
 44
0.0
 45
2.12132043
 46
-2.12132043
 79
     0
 47
0.775229
 98
        1
 10
0.0
 20
0.0
  0
LINE
  5
913
100
AcDbEntity
  8
Ech.1_5
 62
   150
  6
CADWORK_22
370
    35
100
AcDbLine
 10
52806.03576428
 20
-11426.21815556
 30
2500.0
 11
52728.01104245
 21
-11426.21815556
 31
2500.0
  0
LINE
  5
914
100
AcDbEntity
  8
Ech.1_5
 62
     1
  6
CADWORK_22
 48
-5.0
370
    35
100
AcDbLine
 10
52805.29439784
 20
-11352.9268388
 30
0.0
 11
52728.01104245
 21
-11352.9268388
 31
0.0
  0
LWPOLYLINE
  5
915
100
AcDbEntity
  8
Ech.1_5
 62
     3
370
    70
100
AcDbPolyline
 90
        4
 70
     0
 43
0.0
 10
52806.14210713
 20
-11456.84697575
 10
52793.15297371
 20
-11456.84697575
 10
52789.21824156
 20
-11451.16636276
 10
52775.73981156
 20
-11451.16636276
  0
LINE
  5
916
100
AcDbEntity
  8
Ech.1_5
 62
   106
  6
CADWORK_22
370
    35
100
AcDbLine
 10
52806.80280265
 20
-11376.32178754
 30
0.0
 11
52728.01104245
 21
-11376.32178754
 31
0.0
  0
LWPOLYLINE
  5
917
100
AcDbEntity
  8
Ech.1_5
 62
   190
  6
CONTINUOUS
370
    -3
100
AcDbPolyline
 90
        6
 70
     0
 43
0.0
 10
52103.80107246
 20
-11136.00043895
 10
52103.80050497
 20
-11002.61697608
 10
52085.82315656
 20
-10986.13147292
 10
52121.77885657
 20
-11000.24141294
 10
52103.80050497
 20
-10983.75505886
 10
52103.80048581
 20
-10550.85362772
  0
LWPOLYLINE
  5
918
100
AcDbEntity
  8
Ech.1_5
 62
   190
  6
CONTINUOUS
370
    -3
100
AcDbPolyline
 90
        6
 70
     0
 43
0.0
 10
53002.52310458
 20
-11136.00043895
 10
53002.52367208
 20
-11002.61697608
 10
53020.50102048
 20
-10986.13147292
 10
52984.54532047
 20
-11000.24141294
 10
53002.52367208
 20
-10983.75505886
 10
53002.52369123
 20
-10550.85362772
  0
LWPOLYLINE
  5
919
100
AcDbEntity
  8
Ech.1_5
 62
     9
  6
CONTINUOUS
370
    -3
100
AcDbPolyline
 90
       58
 70
     0
 43
0.0
 10
52753.23766177
 20
-10600.7504255
 42
-1.14028181
 10
52769.62037569
 20
-10602.90725574
 10
52761.85494785
 20
-10631.92692861
 42
1.30322619
 10
52777.95370902
 20
-10631.92692861
 10
52770.18828119
 20
-10602.90725574
 42
-1.30322619
 10
52786.28704236
 20
-10602.90725574
 10
52778.52161452
 20
-10631.92692861
 42
1.30322619
 10
52794.62037569
 20
-10631.92692861
 10
52786.85494785
 20
-10602.90725574
 42
-1.30322619
 10
52802.95370902
 20
-10602.90725574
 10
52795.18828119
 20
-10631.92692861
 42
1.30322619
 10
52811.28704236
 20
-10631.92692861
 10
52803.52161452
 20
-10602.90725574
 42
-1.30322619
 10
52819.62037569
 20
-10602.90725574
 10
52811.85494785
 20
-10631.92692861
 42
1.30322619
 10
52827.95370902
 20
-10631.92692861
 10
52820.18828119
 20
-10602.90725574
 42
-1.30322619
 10
52836.28704236
 20
-10602.90725574
 10
52828.52161452
 20
-10631.92692861
 42
1.30322619
 10
52844.62037569
 20
-10631.92692861
 10
52836.85494785
 20
-10602.90725574
 42
-1.30322619
 10
52852.95370902
 20
-10602.90725574
 10
52845.18828119
 20
-10631.92692861
 42
1.30322619
 10
52861.28704236
 20
-10631.92692861
 10
52853.52161452
 20
-10602.90725574
 42
-1.30322619
 10
52869.62037569
 20
-10602.90725574
 10
52861.85494785
 20
-10631.92692861
 42
1.30322619
 10
52877.95370902
 20
-10631.92692861
 10
52870.18828119
 20
-10602.90725574
 42
-1.30322619
 10
52886.28704236
 20
-10602.90725574
 10
52878.52161452
 20
-10631.92692861
 42
1.30322619
 10
52894.62037569
 20
-10631.92692861
 10
52886.85494785
 20
-10602.90725574
 42
-1.30322619
 10
52902.95370902
 20
-10602.90725574
 10
52895.18828119
 20
-10631.92692861
 42
1.30322619
 10
52911.28704236
 20
-10631.92692861
 10
52903.52161452
 20
-10602.90725574
 42
-1.30322619
 10
52919.62037569
 20
-10602.90725574
 10
52911.85494785
 20
-10631.92692861
 42
1.30322619
 10
52927.95370902
 20
-10631.92692861
 10
52920.18828119
 20
-10602.90725574
 42
-1.30322619
 10
52936.28704236
 20
-10602.90725574
 10
52928.52161452
 20
-10631.92692861
 42
1.30322619
 10
52944.62037569
 20
-10631.92692861
 10
52936.85494785
 20
-10602.90725574
 42
-1.30322619
 10
52952.95370902
 20
-10602.90725574
 10
52945.18828119
 20
-10631.92692861
 42
1.30322619
 10
52961.28704236
 20
-10631.92692861
 10
52953.52161452
 20
-10602.90725574
 42
-1.30322619
 10
52969.62037569
 20
-10602.90725574
 10
52961.85494785
 20
-10631.92692861
 42
1.30322619
 10
52977.95370902
 20
-10631.92692861
 10
52970.18828119
 20
-10602.90725574
 42
-1.30322619
 10
52986.28704236
 20
-10602.90725574
 10
52978.52161452
 20
-10631.92692861
 42
1.30322619
 10
52994.62037569
 20
-10631.92692861
 10
52986.85494785
 20
-10602.90725574
 42
-0.92973906
 10
53002.55569884
 20
-10597.44876299
  0
LWPOLYLINE
  5
91A
100
AcDbEntity
  8
Ech.1_5
 62
     9
  6
CONTINUOUS
370
    -3
100
AcDbPolyline
 90
       26
 70
     0
 43
0.0
 10
52717.38932452
 20
-10628.66694474
 42
-1.14028181
 10
52722.79567808
 20
-10629.37870635
 10
52720.23305942
 20
-10638.95530108
 42
1.30322619
 10
52725.54570756
 20
-10638.95530108
 10
52722.9830889
 20
-10629.37870635
 42
-1.30322619
 10
52728.29573705
 20
-10629.37870635
 10
52725.73311839
 20
-10638.95530108
 42
1.30322619
 10
52731.04576653
 20
-10638.95530108
 10
52728.48314787
 20
-10629.37870635
 42
-1.30322619
 10
52733.79579602
 20
-10629.37870635
 10
52731.23317736
 20
-10638.95530108
 42
1.30322619
 10
52736.5458255
 20
-10638.95530108
 10
52733.98320684
 20
-10629.37870635
 42
-1.30322619
 10
52739.29585499
 20
-10629.37870635
 10
52736.73323633
 20
-10638.95530108
 42
1.30322619
 10
52742.04588447
 20
-10638.95530108
 10
52739.48326581
 20
-10629.37870635
 42
-1.30322619
 10
52744.79591396
 20
-10629.37870635
 10
52742.2332953
 20
-10638.95530108
 42
1.30322619
 10
52747.54594345
 20
-10638.95530108
 10
52744.98332478
 20
-10629.37870635
 42
-1.30322619
 10
52750.29597293
 20
-10629.37870635
 10
52747.73335427
 20
-10638.95530108
 42
1.30322619
 10
52753.04600242
 20
-10638.95530108
 10
52750.48338375
 20
-10629.37870635
 42
-0.50426749
 10
52753.23766177
 20
-10625.91866033
  0
TEXT
  5
91B
100
AcDbEntity
  8
Ech.1_5
 62
   190
100
AcDbText
 10
52132.16711047
 20
-11335.68648369
 30
0.0
 40
8.00000012
  1
Echelle en mm
  7
ARIAL
 50
0.0
 41
1.0
 51
0.0
100
AcDbText
  0
TEXT
  5
91C
100
AcDbEntity
  8
Ech.1_5
 62
   190
100
AcDbText
 10
52118.18652572
 20
-11363.89631922
 30
0.0
 40
8.00000012
  1
0
  7
ARIAL
 50
0.0
 41
1.0
 51
0.0
100
AcDbText
  0
TEXT
  5
91D
100
AcDbEntity
  8
Ech.1_5
 62
   190
100
AcDbText
 10
52204.78358361
 20
-11363.89631922
 30
0.0
 40
8.00000012
  1
100
  7
ARIAL
 50
0.0
 41
1.0
 51
0.0
100
AcDbText
  0
TEXT
  5
91E
100
AcDbEntity
  8
Ech.1_5
 62
   190
100
AcDbText
 10
52166.04315205
 20
-11363.89631922
 30
0.0
 40
8.00000012
  1
50
  7
ARIAL
 50
0.0
 41
1.0
 51
0.0
100
AcDbText
  0
INSERT
  5
91F
100
AcDbEntity
  8
Ech.1_5
 62
     0
370
    -3
100
AcDbBlockReference
  2
*D65
 10
0.0
 20
0.0
 30
0.0
  0
ENDSEC
  0
SECTION
  2
OBJECTS
  0
DICTIONARY
  5
1
100
AcDbDictionary
  3
ACAD_GROUP
350
2
  3
ACAD_MLINESTYLE
350
3
  0
DICTIONARY
  5
2
102
{CDWK_REACTORS
330
1
102
}
100
AcDbDictionary
  0
DICTIONARY
  5
3
102
{CDWK_REACTORS
330
1
102
}
100
AcDbDictionary
  3
STANDARD
350
4
  0
MLINESTYLE
  5
4
102
{CDWK_REACTORS
330
3
102
}
100
AcDbMlineStyle
  2
STANDARD
 70
     0
  3

 62
     0
 51
90.0
 52
90.0
 71
     2
 49
0.5
 62
   256
  6
BYLAYER
 49
-0.5
 62
   256
  6
BYLAYER
  0
ENDSEC
  0
EOF
