  0
SECTION
  2
HEADER
  9
$ACADVER
  1
AC1014
  9
$DWGCODEPAGE
  3
ANSI_1252
  9
$INSBASE
 10
0.0
 20
0.0
 30
0.0
  9
$EXTMIN
 10
1033.98771282
 20
-21718.34332712
  9
$EXTMAX
 10
122326.07664696
 20
2240.3362527
  9
$LIMMIN
 10
1033.98771282
 20
-21718.34332712
  9
$LIMMAX
 10
122326.07664696
 20
2240.3362527
  9
$ORTHOMODE
 70
     0
  9
$REGENMODE
 70
     1
  9
$FILLMODE
 70
     1
  9
$QTEXTMODE
 70
     0
  9
$MIRRTEXT
 70
     1
  9
$DRAGMODE
 70
     2
  9
$LTSCALE
 40
5.0
  9
$OSMODE
 70
     0
  9
$ATTMODE
 70
     1
  9
$TEXTSIZE
 40
3.5
  9
$TRACEWID
 40
1.0
  9
$TEXTSTYLE
  7
STANDARD
  9
$CLAYER
  8
0
  9
$CELTYPE
  6
BYLAYER
  9
$CECOLOR
 62
   256
  9
$DIMSCALE
 40
1.0
  9
$DIMASZ
 40
2.0
  9
$DIMEXO
 40
5.0
  9
$DIMDLI
 40
10.0
  9
$DIMRND
 40
0.0
  9
$DIMDLE
 40
2.0
  9
$DIMEXE
 40
2.0
  9
$DIMTP
 40
0.0
  9
$DIMTM
 40
0.0
  9
$DIMTXT
 40
2.5
  9
$DIMCEN
 40
1.5
  9
$DIMTSZ
 40
0.0
  9
$DIMTOL
 70
     0
  9
$DIMLIM
 70
     0
  9
$DIMTIH
 70
     1
  9
$DIMTOH
 70
     0
  9
$DIMSE1
 70
     0
  9
$DIMSE2
 70
     0
  9
$DIMTAD
 70
     1
  9
$DIMZIN
 70
     8
  9
$DIMBLK
  1

  9
$DIMASO
 70
     1
  9
$DIMSHO
 70
     1
  9
$DIMPOST
  1

  9
$DIMAPOST
  1

  9
$DIMALT
 70
     0
  9
$DIMALTD
 70
     2
  9
$DIMALTF
 40
25.4
  9
$DIMLFAC
 40
1.0
  9
$DIMTOFL
 70
     0
  9
$DIMTVP
 40
0.0
  9
$DIMTIX
 70
     0
  9
$DIMSOXD
 70
     0
  9
$DIMSAH
 70
     0
  9
$DIMBLK1
  1

  9
$DIMBLK2
  1

  9
$DIMSTYLE
  2
*UNNAMED
  9
$DIMCLRD
 70
   190
  9
$DIMCLRE
 70
   190
  9
$DIMCLRT
 70
   190
  9
$DIMTFAC
 40
1.0
  9
$DIMGAP
 40
0.09
  9
$DIMUNIT
 70
     2
  9
$LUNITS
 70
     2
  9
$LUPREC
 70
     6
  9
$AXISMODE
 70
     0
  9
$AXISUNIT
 10
0.0
 20
0.0
  9
$SKETCHINC
 40
0.1
  9
$FILLETRAD
 40
0.0
  9
$AUNITS
 70
     0
  9
$AUPREC
 70
     0
  9
$MENU
  1
ACAD
  9
$ELEVATION
 40
0.0
  9
$PELEVATION
 40
0.0
  9
$THICKNESS
 40
0.0
  9
$LIMCHECK
 70
     0
  9
$BLIPMODE
 70
     1
  9
$CHAMFERA
 40
0.0
  9
$CHAMFERB
 40
0.0
  9
$SKPOLY
 70
     1
  9
$TDCREATE
 40
2457808.0000000000
  9
$TDUPDATE
 40
2457808.0000000000
  9
$TDINDWG
 40
0.0
  9
$TDUSRTIMER
 40
0.0
  9
$USRTIMER
 70
     1
  9
$ANGBASE
 50
0.0
  9
$ANGDIR
 70
     0
  9
$PDMODE
 70
     0
  9
$PDSIZE
 40
0.0
  9
$PLINEWID
 40
0.0
  9
$COORDS
 70
     2
  9
$SPLFRAME
 70
     0
  9
$SPLINETYPE
 70
     6
  9
$SPLINESEGS
 70
     8
  9
$ATTDIA
 70
     1
  9
$ATTREQ
 70
     1
  9
$HANDLING
 70
     1
  9
$HANDSEED
  5
     954
  9
$SURFTAB1
 70
     6
  9
$SURFTAB2
 70
     6
  9
$SURFTYPE
 70
     6
  9
$SURFU
 70
     6
  9
$SURFV
 70
     6
  9
$UCSNAME
  2

  9
$UCSORG
 10
0.0
 20
0.0
 30
0.0
  9
$UCSXDIR
 10
1.0
 20
0.0
 30
0.0
  9
$UCSYDIR
 10
0.0
 20
1.0
 30
0.0
  9
$PUCSNAME
  2

  9
$PUCSORG
 10
0.0
 20
0.0
 30
0.0
  9
$PUCSXDIR
 10
1.0
 20
0.0
 30
0.0
  9
$PUCSYDIR
 10
0.0
 20
1.0
 30
0.0
  9
$USERI1
 70
     0
  9
$USERI2
 70
     0
  9
$USERI3
 70
     0
  9
$USERI4
 70
     0
  9
$USERI5
 70
     0
  9
$USERR1
 40
0.0
  9
$USERR2
 40
0.0
  9
$USERR3
 40
0.0
  9
$USERR4
 40
0.0
  9
$USERR5
 40
0.0
  9
$WORLDVIEW
 70
     1
  9
$SHADEDGE
 70
     3
  9
$SHADEDIF
 70
    70
  9
$TILEMODE
 70
     1
  9
$MAXACTVP
 70
    16
  9
$PINSBASE
 10
0.0
 20
0.0
 30
0.0
  9
$PLIMCHECK
 70
     0
  9
$PEXTMIN
 10
1.0000000000000E+20
 20
1.0000000000000E+20
 30
1.0000000000000E+20
  9
$PEXTMAX
 10
-1.0000000000000E+20
 20
-1.0000000000000E+20
 30
-1.0000000000000E+20
  9
$PLIMMIN
 10
0.0
 20
0.0
  9
$UNITMODE
 70
     0
  9
$VISRETAIN
 70
     0
  9
$MEASUREMENT
 70
     1
  0
ENDSEC
  0
SECTION
  2
TABLES
  0
TABLE
  2
VPORT
  5
4A2
100
AcDbSymbolTable
 70
     1
  0
ENDTAB
  0
TABLE
  2
STYLE
  5
4A3
100
AcDbSymbolTable
 70
     3
  0
STYLE
  5
4A4
100
AcDbSymbolTableRecord
100
AcDbTextStyleTableRecord
  2
STANDARD
 70
     0
 40
0.0
 41
1.0
 50
0.0
 71
     0
 42
3.5
  3
MONOTXT
  4

  0
STYLE
  5
4A5
100
AcDbSymbolTableRecord
100
AcDbTextStyleTableRecord
  2
SYMAP
 70
     0
 40
0.0
 41
1.0
 50
0.0
 71
     0
 42
3.5
  3
SYMAP
  4

  0
STYLE
  5
4A6
100
AcDbSymbolTableRecord
100
AcDbTextStyleTableRecord
  2
CADWORK1
 70
     0
 40
0.0
 41
1.0
 50
0.0
 71
     0
 42
3.5
  3
MONOTXT
  4

  0
STYLE
  5
4A7
100
AcDbSymbolTableRecord
100
AcDbTextStyleTableRecord
  2
MONOTXT
 70
     0
 40
0.0
 41
1.0
 50
0.0
 71
     0
 42
3.5
  3
MONOTXT
  4

  0
STYLE
  5
4A8
100
AcDbSymbolTableRecord
100
AcDbTextStyleTableRecord
  2
ARIAL
 70
     0
 40
0.0
 41
1.0
 50
0.0
 71
     0
 42
3.5
  3

  4

1001
ACAD
1000
Arial
1071
        0
  0
ENDTAB
  0
TABLE
  2
LTYPE
  5
4A9
100
AcDbSymbolTable
 70
    15
  0
LTYPE
  5
4AA
100
AcDbSymbolTableRecord
100
AcDbLinetypeTableRecord
  2
BYBLOCK
 70
    64
  3

 72
    65
 73
     0
 40
0.0
  0
LTYPE
  5
4AB
100
AcDbSymbolTableRecord
100
AcDbLinetypeTableRecord
  2
BYLAYER
 70
    64
  3

 72
    65
 73
     0
 40
0.0
  0
LTYPE
  5
4AC
100
AcDbSymbolTableRecord
100
AcDbLinetypeTableRecord
  2
CONTINUOUS
 70
    64
  3
Solid line
 72
    65
 73
     0
 40
0.0
  0
LTYPE
  5
4AD
100
AcDbSymbolTableRecord
100
AcDbLinetypeTableRecord
  2
DOT2
 70
    64
  3
...............................................
 72
    65
 73
     2
 40
1.25
 49
0.0
 74
     0
 49
-1.25
 74
     0
  0
LTYPE
  5
4AE
100
AcDbSymbolTableRecord
100
AcDbLinetypeTableRecord
  2
CADWORK_13
 70
    64
  3
13 =======================================
 72
    65
 73
     2
 40
4.0
 49
2.0
 74
     0
 49
-2.0
 74
     0
  0
LTYPE
  5
4AF
100
AcDbSymbolTableRecord
100
AcDbLinetypeTableRecord
  2
DASHDOT
 70
    64
  3
 __ . __ . __ . __ . __ . __ . __ . __ . __ . __
 72
    65
 73
     4
 40
10.0
 49
5.0
 74
     0
 49
-2.5
 74
     0
 49
0.0
 74
     0
 49
-2.5
 74
     0
  0
LTYPE
  5
4B0
100
AcDbSymbolTableRecord
100
AcDbLinetypeTableRecord
  2
CENTER
 70
    64
  3
 ____ _ ____ _ ____ _ ____ _ ____ _ ____ _ ____
 72
    65
 73
     4
 40
20.0
 49
12.5
 74
     0
 49
-2.5
 74
     0
 49
2.5
 74
     0
 49
-2.5
 74
     0
  0
LTYPE
  5
4B1
100
AcDbSymbolTableRecord
100
AcDbLinetypeTableRecord
  2
DASHEDX2
 70
    64
  3
____  ____  ____  ____  ____  ____  ____  ____
 72
    65
 73
     2
 40
3.75
 49
2.5
 74
     0
 49
-1.25
 74
     0
  0
LTYPE
  5
4B2
100
AcDbSymbolTableRecord
100
AcDbLinetypeTableRecord
  2
CADWORK_22
 70
    64
  3
22 =======================================
 72
    65
 73
     0
 40
0.0
  0
LTYPE
  5
4B3
100
AcDbSymbolTableRecord
100
AcDbLinetypeTableRecord
  2
DAL
 70
    64
  3
Solid line (for MAPS)
 72
    65
 73
     0
 40
0.0
  0
LTYPE
  5
4B4
100
AcDbSymbolTableRecord
100
AcDbLinetypeTableRecord
  2
MUR
 70
    64
  3
Solid line (for MAPS)
 72
    65
 73
     0
 40
0.0
  0
LTYPE
  5
4B5
100
AcDbSymbolTableRecord
100
AcDbLinetypeTableRecord
  2
SOM
 70
    64
  3
Solid line (for MAPS)
 72
    65
 73
     0
 40
0.0
  0
LTYPE
  5
4B6
100
AcDbSymbolTableRecord
100
AcDbLinetypeTableRecord
  2
COL
 70
    64
  3
Solid line (for MAPS)
 72
    65
 73
     0
 40
0.0
  0
LTYPE
  5
4B7
100
AcDbSymbolTableRecord
100
AcDbLinetypeTableRecord
  2
LGN
 70
    64
  3
Solid line (for MAPS)
 72
    65
 73
     0
 40
0.0
  0
LTYPE
  5
4B8
100
AcDbSymbolTableRecord
100
AcDbLinetypeTableRecord
  2
PNT
 70
    64
  3
Solid line (for MAPS)
 72
    65
 73
     0
 40
0.0
  0
ENDTAB
  0
TABLE
  2
LAYER
  5
4B9
100
AcDbSymbolTable
 70
    32
  0
LAYER
  5
4BA
100
AcDbSymbolTableRecord
100
AcDbLayerTableRecord
  2
Standard
 70
     0
 62
     7
  6
CONTINUOUS
370
    -3
  0
LAYER
  5
4BB
100
AcDbSymbolTableRecord
100
AcDbLayerTableRecord
  2
Ech.1_1
 70
     0
 62
     7
  6
CONTINUOUS
370
    -3
  0
LAYER
  5
4BC
100
AcDbSymbolTableRecord
100
AcDbLayerTableRecord
  2
Ech.1_2
 70
     0
 62
     7
  6
CONTINUOUS
370
    -3
  0
LAYER
  5
4BD
100
AcDbSymbolTableRecord
100
AcDbLayerTableRecord
  2
Ech.1_5
 70
     0
 62
     7
  6
CONTINUOUS
370
    -3
  0
LAYER
  5
4BE
100
AcDbSymbolTableRecord
100
AcDbLayerTableRecord
  2
Ech.1_10
 70
     0
 62
     7
  6
CONTINUOUS
370
    -3
  0
LAYER
  5
4BF
100
AcDbSymbolTableRecord
100
AcDbLayerTableRecord
  2
Ech.1_20
 70
     0
 62
     7
  6
CONTINUOUS
370
    -3
  0
LAYER
  5
4C0
100
AcDbSymbolTableRecord
100
AcDbLayerTableRecord
  2
Ech.1_25
 70
     0
 62
     7
  6
CONTINUOUS
370
    -3
  0
LAYER
  5
4C1
100
AcDbSymbolTableRecord
100
AcDbLayerTableRecord
  2
Ech.1_33
 70
     0
 62
     7
  6
CONTINUOUS
370
    -3
  0
LAYER
  5
4C2
100
AcDbSymbolTableRecord
100
AcDbLayerTableRecord
  2
Ech.1_50
 70
     0
 62
     7
  6
CONTINUOUS
370
    -3
  0
LAYER
  5
4C3
100
AcDbSymbolTableRecord
100
AcDbLayerTableRecord
  2
Ech.1_75
 70
     0
 62
     7
  6
CONTINUOUS
370
    -3
  0
LAYER
  5
4C4
100
AcDbSymbolTableRecord
100
AcDbLayerTableRecord
  2
Ech.1_100
 70
     0
 62
     7
  6
CONTINUOUS
370
    -3
  0
LAYER
  5
4C5
100
AcDbSymbolTableRecord
100
AcDbLayerTableRecord
  2
Ech.1_200
 70
     0
 62
     7
  6
CONTINUOUS
370
    -3
  0
LAYER
  5
4C6
100
AcDbSymbolTableRecord
100
AcDbLayerTableRecord
  2
Ech.1_500
 70
     0
 62
     7
  6
CONTINUOUS
370
    -3
  0
LAYER
  5
4C7
100
AcDbSymbolTableRecord
100
AcDbLayerTableRecord
  2
Ech.1_1000
 70
     0
 62
     7
  6
CONTINUOUS
370
    -3
  0
LAYER
  5
4C8
100
AcDbSymbolTableRecord
100
AcDbLayerTableRecord
  2
Cadres traceur
 70
     0
 62
     7
  6
CONTINUOUS
370
    18
  0
LAYER
  5
4C9
100
AcDbSymbolTableRecord
100
AcDbLayerTableRecord
  2
Cadres laser
 70
     0
 62
     7
  6
CONTINUOUS
370
    18
  0
LAYER
  5
4CA
100
AcDbSymbolTableRecord
100
AcDbLayerTableRecord
  2
Légende d_aide
 70
     0
 62
     7
  6
CONTINUOUS
370
    18
  0
LAYER
  5
4CB
100
AcDbSymbolTableRecord
100
AcDbLayerTableRecord
  2
hachures ok
 70
     0
 62
     7
  6
CONTINUOUS
370
    18
  0
LAYER
  5
4CC
100
AcDbSymbolTableRecord
100
AcDbLayerTableRecord
  2
ossature bois
 70
     0
 62
     7
  6
CONTINUOUS
370
    18
  0
LAYER
  5
4CD
100
AcDbSymbolTableRecord
100
AcDbLayerTableRecord
  2
VR
 70
     0
 62
     7
  6
CONTINUOUS
370
    25
  0
LAYER
  5
4CE
100
AcDbSymbolTableRecord
100
AcDbLayerTableRecord
  2
Calque1
 70
     0
 62
     7
  6
CONTINUOUS
370
     9
  0
LAYER
  5
4CF
100
AcDbSymbolTableRecord
100
AcDbLayerTableRecord
  2
0
 70
     0
 62
     7
  6
CONTINUOUS
370
    -3
  0
LAYER
  5
4D0
100
AcDbSymbolTableRecord
100
AcDbLayerTableRecord
  2
menuiserie
 70
     0
 62
     7
  6
CONTINUOUS
370
    -3
  0
LAYER
  5
4D1
100
AcDbSymbolTableRecord
100
AcDbLayerTableRecord
  2
cotation
 70
     0
 62
   250
  6
CONTINUOUS
370
     9
  0
LAYER
  5
4D2
100
AcDbSymbolTableRecord
100
AcDbLayerTableRecord
  2
Defpoints
 70
     0
 62
    10
  6
CONTINUOUS
370
    -3
  0
LAYER
  5
4D3
100
AcDbSymbolTableRecord
100
AcDbLayerTableRecord
  2
HACHURE
 70
     0
 62
   254
  6
CONTINUOUS
370
    25
  0
LAYER
  5
4D4
100
AcDbSymbolTableRecord
100
AcDbLayerTableRecord
  2
mat1
 70
     0
 62
     7
  6
CONTINUOUS
370
    30
  0
LAYER
  5
4D5
100
AcDbSymbolTableRecord
100
AcDbLayerTableRecord
  2
mat2
 70
     0
 62
     7
  6
CONTINUOUS
370
     5
  0
LAYER
  5
4D6
100
AcDbSymbolTableRecord
100
AcDbLayerTableRecord
  2
hach
 70
     0
 62
     8
  6
CONTINUOUS
370
     5
  0
LAYER
  5
4D7
100
AcDbSymbolTableRecord
100
AcDbLayerTableRecord
  2
menuiseries
 70
     0
 62
     7
  6
CONTINUOUS
370
     9
  0
LAYER
  5
4D8
100
AcDbSymbolTableRecord
100
AcDbLayerTableRecord
  2
BétonMétal
 70
     0
 62
     7
  6
CONTINUOUS
370
    80
  0
LAYER
  5
4D9
100
AcDbSymbolTableRecord
100
AcDbLayerTableRecord
  2
bois
 70
     0
 62
     7
  6
CONTINUOUS
370
    60
  0
ENDTAB
  0
TABLE
  2
VIEW
  5
4DA
100
AcDbSymbolTable
 70
     0
  0
ENDTAB
  0
TABLE
  2
UCS
  5
4DB
100
AcDbSymbolTable
 70
     0
  0
ENDTAB
  0
TABLE
  2
APPID
  5
4DC
100
AcDbSymbolTable
 70
     1
  0
APPID
  5
4DD
100
AcDbSymbolTableRecord
100
AcDbRegAppTableRecord
  2
ACAD
 70
     0
  0
ENDTAB
  0
TABLE
  2
DIMSTYLE
  5
4DE
100
AcDbSymbolTable
 70
     0
  0
ENDTAB
  0
TABLE
  2
BLOCK_RECORD
  5
4DF
100
AcDbSymbolTable
 70
     0
  0
BLOCK_RECORD
  5
4E0
100
AcDbSymbolTableRecord
100
AcDbBlockTableRecord
  2
*MODEL_SPACE
  0
BLOCK_RECORD
  5
4E1
100
AcDbSymbolTableRecord
100
AcDbBlockTableRecord
  2
*PAPER_SPACE
  0
BLOCK_RECORD
  5
4E2
100
AcDbSymbolTableRecord
100
AcDbBlockTableRecord
  2
CDWK_EXTR_0
  0
BLOCK_RECORD
  5
4E3
100
AcDbSymbolTableRecord
100
AcDbBlockTableRecord
  2
CDWK_EXTR_1D
  0
BLOCK_RECORD
  5
4E4
100
AcDbSymbolTableRecord
100
AcDbBlockTableRecord
  2
CDWK_EXTR_1G
  0
BLOCK_RECORD
  5
4E5
100
AcDbSymbolTableRecord
100
AcDbBlockTableRecord
  2
CDWK_EXTR_2
  0
BLOCK_RECORD
  5
4E6
100
AcDbSymbolTableRecord
100
AcDbBlockTableRecord
  2
CDWK_EXTR_3
  0
BLOCK_RECORD
  5
4E7
100
AcDbSymbolTableRecord
100
AcDbBlockTableRecord
  2
CDWK_EXTR_4
  0
BLOCK_RECORD
  5
4E8
100
AcDbSymbolTableRecord
100
AcDbBlockTableRecord
  2
CDWK_PTTYP0
  0
BLOCK_RECORD
  5
4E9
100
AcDbSymbolTableRecord
100
AcDbBlockTableRecord
  2
CDWK_PTTYP1
  0
BLOCK_RECORD
  5
4EA
100
AcDbSymbolTableRecord
100
AcDbBlockTableRecord
  2
CDWK_PTTYP2
  0
BLOCK_RECORD
  5
4EB
100
AcDbSymbolTableRecord
100
AcDbBlockTableRecord
  2
CDWK_PTTYP3
  0
BLOCK_RECORD
  5
4EC
100
AcDbSymbolTableRecord
100
AcDbBlockTableRecord
  2
CDWK_PTTYP4
  0
BLOCK_RECORD
  5
4ED
100
AcDbSymbolTableRecord
100
AcDbBlockTableRecord
  2
CDWK_PTTYP5
  0
BLOCK_RECORD
  5
4EE
100
AcDbSymbolTableRecord
100
AcDbBlockTableRecord
  2
CDWK_PTTYP6
  0
BLOCK_RECORD
  5
4EF
100
AcDbSymbolTableRecord
100
AcDbBlockTableRecord
  2
CDWK_PTTYP7
  0
BLOCK_RECORD
  5
4F0
100
AcDbSymbolTableRecord
100
AcDbBlockTableRecord
  2
CDWK_PTTYP8
  0
BLOCK_RECORD
  5
4F1
100
AcDbSymbolTableRecord
100
AcDbBlockTableRecord
  2
CDWK_PTTYP9
  0
BLOCK_RECORD
  5
4F2
100
AcDbSymbolTableRecord
100
AcDbBlockTableRecord
  2
CDWK_PTTYP10
  0
BLOCK_RECORD
  5
4F3
100
AcDbSymbolTableRecord
100
AcDbBlockTableRecord
  2
CDWK_PTTYP11
  0
BLOCK_RECORD
  5
4F4
100
AcDbSymbolTableRecord
100
AcDbBlockTableRecord
  2
CDWK_PTTYP12
  0
BLOCK_RECORD
  5
4F5
100
AcDbSymbolTableRecord
100
AcDbBlockTableRecord
  2
CDWK_PTTYP13
  0
BLOCK_RECORD
  5
4F6
100
AcDbSymbolTableRecord
100
AcDbBlockTableRecord
  2
CDWK_PTTYP14
  0
BLOCK_RECORD
  5
4F7
100
AcDbSymbolTableRecord
100
AcDbBlockTableRecord
  2
CDWK_PTTYP15
  0
BLOCK_RECORD
  5
4F8
100
AcDbSymbolTableRecord
100
AcDbBlockTableRecord
  2
CDWK_PTTYP16
  0
BLOCK_RECORD
  5
4F9
100
AcDbSymbolTableRecord
100
AcDbBlockTableRecord
  2
CDWK_PTTYP17
  0
BLOCK_RECORD
  5
4FA
100
AcDbSymbolTableRecord
100
AcDbBlockTableRecord
  2
CDWK_PTTYP18
  0
BLOCK_RECORD
  5
4FB
100
AcDbSymbolTableRecord
100
AcDbBlockTableRecord
  2
CDWK_PTTYP19
  0
BLOCK_RECORD
  5
4FC
100
AcDbSymbolTableRecord
100
AcDbBlockTableRecord
  2
CDWK_PTTYP20
  0
BLOCK_RECORD
  5
4FD
100
AcDbSymbolTableRecord
100
AcDbBlockTableRecord
  2
CDWK_PTTYP21
  0
BLOCK_RECORD
  5
4FE
100
AcDbSymbolTableRecord
100
AcDbBlockTableRecord
  2
CDWK_PTTYP22
  0
BLOCK_RECORD
  5
4FF
100
AcDbSymbolTableRecord
100
AcDbBlockTableRecord
  2
CDWK_PTTYP23
  0
BLOCK_RECORD
  5
500
100
AcDbSymbolTableRecord
100
AcDbBlockTableRecord
  2
CDWK_PTTYP24
  0
BLOCK_RECORD
  5
501
100
AcDbSymbolTableRecord
100
AcDbBlockTableRecord
  2
CDWK_PTTYP25
  0
BLOCK_RECORD
  5
502
100
AcDbSymbolTableRecord
100
AcDbBlockTableRecord
  2
CDWK_PTTYP26
  0
BLOCK_RECORD
  5
503
100
AcDbSymbolTableRecord
100
AcDbBlockTableRecord
  2
CDWK_PTTYP27
  0
BLOCK_RECORD
  5
504
100
AcDbSymbolTableRecord
100
AcDbBlockTableRecord
  2
CDWK_PTTYP28
  0
BLOCK_RECORD
  5
505
100
AcDbSymbolTableRecord
100
AcDbBlockTableRecord
  2
CDWK_PTTYP29
  0
BLOCK_RECORD
  5
506
100
AcDbSymbolTableRecord
100
AcDbBlockTableRecord
  2
CDWK_PTTYP30
  0
BLOCK_RECORD
  5
507
100
AcDbSymbolTableRecord
100
AcDbBlockTableRecord
  2
CDWK_PTTYP31
  0
BLOCK_RECORD
  5
508
100
AcDbSymbolTableRecord
100
AcDbBlockTableRecord
  2
CDWK_PTTYP32
  0
BLOCK_RECORD
  5
509
100
AcDbSymbolTableRecord
100
AcDbBlockTableRecord
  2
CDWK_PTTYP33
  0
BLOCK_RECORD
  5
50A
100
AcDbSymbolTableRecord
100
AcDbBlockTableRecord
  2
CDWK_PTTYP34
  0
BLOCK_RECORD
  5
50B
100
AcDbSymbolTableRecord
100
AcDbBlockTableRecord
  2
CDWK_PTTYP35
  0
BLOCK_RECORD
  5
50C
100
AcDbSymbolTableRecord
100
AcDbBlockTableRecord
  2
CDWK_PTTYP36
  0
BLOCK_RECORD
  5
50D
100
AcDbSymbolTableRecord
100
AcDbBlockTableRecord
  2
CDWK_PTTYP37
  0
BLOCK_RECORD
  5
50E
100
AcDbSymbolTableRecord
100
AcDbBlockTableRecord
  2
CDWK_PTTYP38
  0
BLOCK_RECORD
  5
50F
100
AcDbSymbolTableRecord
100
AcDbBlockTableRecord
  2
*X1
  0
BLOCK_RECORD
  5
510
100
AcDbSymbolTableRecord
100
AcDbBlockTableRecord
  2
*X2
  0
BLOCK_RECORD
  5
511
100
AcDbSymbolTableRecord
100
AcDbBlockTableRecord
  2
*X3
  0
BLOCK_RECORD
  5
512
100
AcDbSymbolTableRecord
100
AcDbBlockTableRecord
  2
*D63
  0
BLOCK_RECORD
  5
513
100
AcDbSymbolTableRecord
100
AcDbBlockTableRecord
  2
*D64
  0
ENDTAB
  0
ENDSEC
  0
SECTION
  2
BLOCKS
  0
BLOCK
  5
514
100
AcDbEntity
  8
0
100
AcDbBlockBegin
  2
*MODEL_SPACE
 70
     0
 10
0.0
 20
0.0
 30
0.0
  3
*MODEL_SPACE
  1

  0
ENDBLK
  5
515
100
AcDbEntity
100
AcDbBlockEnd
  0
BLOCK
  5
516
100
AcDbEntity
  8
0
100
AcDbBlockBegin
  2
*PAPER_SPACE
 70
     0
 10
0.0
 20
0.0
 30
0.0
  3
*PAPER_SPACE
  1

  0
ENDBLK
  5
517
100
AcDbEntity
100
AcDbBlockEnd
  0
BLOCK
  5
518
100
AcDbEntity
  8
0
100
AcDbBlockBegin
  2
CDWK_EXTR_0
 70
     0
 10
0.0
 20
0.0
 30
0.0
  3
CDWK_EXTR_0
  1

  4
Cadwork line-extremity
  0
LINE
  5
519
100
AcDbEntity
  8
0
 62
     0
370
    -2
100
AcDbLine
 10
0.0
 20
0.0
 30
0.0
 11
2.0
 21
0.5
 31
0.0
  0
LINE
  5
51A
100
AcDbEntity
  8
0
 62
     0
370
    -2
100
AcDbLine
 10
0.0
 20
0.0
 30
0.0
 11
2.0
 21
-0.5
 31
0.0
  0
LINE
  5
51B
100
AcDbEntity
  8
0
 62
     0
370
    -2
100
AcDbLine
 10
2.0
 20
0.5
 30
0.0
 11
2.0
 21
-0.5
 31
0.0
  0
ENDBLK
  5
51C
100
AcDbEntity
100
AcDbBlockEnd
  0
BLOCK
  5
51D
100
AcDbEntity
  8
0
100
AcDbBlockBegin
  2
CDWK_EXTR_1D
 70
     0
 10
0.0
 20
0.0
 30
0.0
  3
CDWK_EXTR_1D
  1

  4
Cadwork line-extremity
  0
LINE
  5
51E
100
AcDbEntity
  8
0
 62
     0
370
    -2
100
AcDbLine
 10
0.0
 20
0.0
 30
0.0
 11
0.0
 21
1.0
 31
0.0
  0
LINE
  5
51F
100
AcDbEntity
  8
0
 62
     0
370
    -2
100
AcDbLine
 10
0.0
 20
1.0
 30
0.0
 11
0.5
 21
1.5
 31
0.0
  0
LINE
  5
520
100
AcDbEntity
  8
0
 62
     0
370
    -2
100
AcDbLine
 10
0.5
 20
1.5
 30
0.0
 11
1.5
 21
1.5
 31
0.0
  0
ENDBLK
  5
521
100
AcDbEntity
100
AcDbBlockEnd
  0
BLOCK
  5
522
100
AcDbEntity
  8
0
100
AcDbBlockBegin
  2
CDWK_EXTR_1G
 70
     0
 10
0.0
 20
0.0
 30
0.0
  3
CDWK_EXTR_1G
  1

  4
Cadwork line-extremity
  0
LINE
  5
523
100
AcDbEntity
  8
0
 62
     0
370
    -2
100
AcDbLine
 10
0.0
 20
0.0
 30
0.0
 11
0.0
 21
-1.0
 31
0.0
  0
LINE
  5
524
100
AcDbEntity
  8
0
 62
     0
370
    -2
100
AcDbLine
 10
0.0
 20
-1.0
 30
0.0
 11
0.5
 21
-1.5
 31
0.0
  0
LINE
  5
525
100
AcDbEntity
  8
0
 62
     0
370
    -2
100
AcDbLine
 10
0.5
 20
-1.5
 30
0.0
 11
1.5
 21
-1.5
 31
0.0
  0
ENDBLK
  5
526
100
AcDbEntity
100
AcDbBlockEnd
  0
BLOCK
  5
527
100
AcDbEntity
  8
0
100
AcDbBlockBegin
  2
CDWK_EXTR_2
 70
     0
 10
0.0
 20
0.0
 30
0.0
  3
CDWK_EXTR_2
  1

  4
Cadwork line-extremity
  0
SOLID
  5
528
100
AcDbEntity
  8
0
 62
     0
100
AcDbTrace
 10
0.0
 20
0.0
 11
2.0
 21
0.5
 12
2.0
 22
-0.5
 13
2.0
 23
-0.5
  0
ENDBLK
  5
529
100
AcDbEntity
100
AcDbBlockEnd
  0
BLOCK
  5
52A
100
AcDbEntity
  8
0
100
AcDbBlockBegin
  2
CDWK_EXTR_3
 70
     0
 10
0.0
 20
0.0
 30
0.0
  3
CDWK_EXTR_3
  1

  4
Cadwork line-extremity
  0
SOLID
  5
52B
100
AcDbEntity
  8
0
 62
     0
100
AcDbTrace
 10
0.0
 20
0.0
 11
2.0
 21
0.5
 12
2.0
 22
-0.5
 13
2.0
 23
-0.5
  0
LINE
  5
52C
100
AcDbEntity
  8
0
 62
     0
370
    -2
100
AcDbLine
 10
0.0
 20
1.0
 30
0.0
 11
0.0
 21
-1.0
 31
0.0
  0
ENDBLK
  5
52D
100
AcDbEntity
100
AcDbBlockEnd
  0
BLOCK
  5
52E
100
AcDbEntity
  8
0
100
AcDbBlockBegin
  2
CDWK_EXTR_4
 70
     0
 10
0.0
 20
0.0
 30
0.0
  3
CDWK_EXTR_4
  1

  4
Cadwork line-extremity
  0
HATCH
  5
52F
100
AcDbEntity
  8
0
 62
     0
370
    -2
100
AcDbHatch
 10
0.0
 20
0.0
 30
0.0
210
0.0
220
0.0
230
1.0
  2
SOLID
 70
     1
 71
     0
 91
        1
 92
        1
 93
        1
 72
     2
 10
0.0
 20
0.0
 40
0.5
 50
0.0
 51
360.0
 73
     1
 97
        0
 75
     0
 76
     1
 98
        1
 10
0.0
 20
0.0
  0
ENDBLK
  5
530
100
AcDbEntity
100
AcDbBlockEnd
  0
BLOCK
  5
531
100
AcDbEntity
  8
0
100
AcDbBlockBegin
  2
CDWK_PTTYP0
 70
     0
 10
0.0
 20
0.0
 30
0.0
  3
CDWK_PTTYP0
  1

  4
Cadwork point
  0
POINT
  5
532
100
AcDbEntity
  8
0
 62
     0
100
AcDbPoint
 10
0.0
 20
0.0
 30
0.0
  0
ENDBLK
  5
533
100
AcDbEntity
100
AcDbBlockEnd
  0
BLOCK
  5
534
100
AcDbEntity
  8
0
100
AcDbBlockBegin
  2
CDWK_PTTYP1
 70
     0
 10
0.0
 20
0.0
 30
0.0
  3
CDWK_PTTYP1
  1

  4
Cadwork node
  0
LINE
  5
535
100
AcDbEntity
  8
0
 62
     0
370
    -2
100
AcDbLine
 10
-0.5
 20
0.5
 30
0.0
 11
0.5
 21
0.5
 31
0.0
  0
LINE
  5
536
100
AcDbEntity
  8
0
 62
     0
370
    -2
100
AcDbLine
 10
0.5
 20
0.5
 30
0.0
 11
0.5
 21
-0.5
 31
0.0
  0
LINE
  5
537
100
AcDbEntity
  8
0
 62
     0
370
    -2
100
AcDbLine
 10
0.5
 20
-0.5
 30
0.0
 11
-0.5
 21
-0.5
 31
0.0
  0
LINE
  5
538
100
AcDbEntity
  8
0
 62
     0
370
    -2
100
AcDbLine
 10
-0.5
 20
-0.5
 30
0.0
 11
-0.5
 21
0.5
 31
0.0
  0
ENDBLK
  5
539
100
AcDbEntity
100
AcDbBlockEnd
  0
BLOCK
  5
53A
100
AcDbEntity
  8
0
100
AcDbBlockBegin
  2
CDWK_PTTYP2
 70
     0
 10
0.0
 20
0.0
 30
0.0
  3
CDWK_PTTYP2
  1

  4
Cadwork node
  0
LINE
  5
53B
100
AcDbEntity
  8
0
 62
     0
370
    -2
100
AcDbLine
 10
0.0
 20
0.5
 30
0.0
 11
0.0
 21
-0.5
 31
0.0
  0
LINE
  5
53C
100
AcDbEntity
  8
0
 62
     0
370
    -2
100
AcDbLine
 10
-0.5
 20
0.0
 30
0.0
 11
0.5
 21
0.0
 31
0.0
  0
ENDBLK
  5
53D
100
AcDbEntity
100
AcDbBlockEnd
  0
BLOCK
  5
53E
100
AcDbEntity
  8
0
100
AcDbBlockBegin
  2
CDWK_PTTYP3
 70
     0
 10
0.0
 20
0.0
 30
0.0
  3
CDWK_PTTYP3
  1

  4
Cadwork node
  0
CIRCLE
  5
53F
100
AcDbEntity
  8
0
 62
     0
370
    -2
100
AcDbCircle
 10
0.0
 20
0.0
 30
0.0
 40
0.5
  0
ENDBLK
  5
540
100
AcDbEntity
100
AcDbBlockEnd
  0
BLOCK
  5
541
100
AcDbEntity
  8
0
100
AcDbBlockBegin
  2
CDWK_PTTYP4
 70
     0
 10
0.0
 20
0.0
 30
0.0
  3
CDWK_PTTYP4
  1

  4
Cadwork node
  0
HATCH
  5
542
100
AcDbEntity
  8
0
 62
     0
370
    -2
100
AcDbHatch
 10
0.0
 20
0.0
 30
0.0
210
0.0
220
0.0
230
1.0
  2
SOLID
 70
     1
 71
     0
 91
        1
 92
        1
 93
        1
 72
     2
 10
0.0
 20
0.0
 40
0.5
 50
0.0
 51
360.0
 73
     1
 97
        0
 75
     0
 76
     1
 98
        1
 10
0.0
 20
0.0
  0
ENDBLK
  5
543
100
AcDbEntity
100
AcDbBlockEnd
  0
BLOCK
  5
544
100
AcDbEntity
  8
0
100
AcDbBlockBegin
  2
CDWK_PTTYP5
 70
     0
 10
0.0
 20
0.0
 30
0.0
  3
CDWK_PTTYP5
  1

  4
Cadwork node
  0
LINE
  5
545
100
AcDbEntity
  8
0
 62
     0
370
    -2
100
AcDbLine
 10
-0.5
 20
0.5
 30
0.0
 11
0.5
 21
0.5
 31
0.0
  0
LINE
  5
546
100
AcDbEntity
  8
0
 62
     0
370
    -2
100
AcDbLine
 10
0.5
 20
0.5
 30
0.0
 11
0.5
 21
-0.5
 31
0.0
  0
LINE
  5
547
100
AcDbEntity
  8
0
 62
     0
370
    -2
100
AcDbLine
 10
0.5
 20
-0.5
 30
0.0
 11
-0.5
 21
-0.5
 31
0.0
  0
LINE
  5
548
100
AcDbEntity
  8
0
 62
     0
370
    -2
100
AcDbLine
 10
-0.5
 20
-0.5
 30
0.0
 11
-0.5
 21
0.5
 31
0.0
  0
SOLID
  5
549
100
AcDbEntity
  8
0
 62
     0
100
AcDbTrace
 10
-0.5
 20
-0.5
 11
-0.5
 21
0.0
 12
0.0
 22
-0.5
 13
0.0
 23
0.0
  0
SOLID
  5
54A
100
AcDbEntity
  8
0
 62
     0
100
AcDbTrace
 10
0.0
 20
0.0
 11
0.0
 21
0.5
 12
0.5
 22
0.0
 13
0.5
 23
0.5
  0
ENDBLK
  5
54B
100
AcDbEntity
100
AcDbBlockEnd
  0
BLOCK
  5
54C
100
AcDbEntity
  8
0
100
AcDbBlockBegin
  2
CDWK_PTTYP6
 70
     0
 10
0.0
 20
0.0
 30
0.0
  3
CDWK_PTTYP6
  1

  4
Cadwork node
  0
LINE
  5
54D
100
AcDbEntity
  8
0
 62
     0
370
    -2
100
AcDbLine
 10
-0.5
 20
0.5
 30
0.0
 11
0.5
 21
0.5
 31
0.0
  0
LINE
  5
54E
100
AcDbEntity
  8
0
 62
     0
370
    -2
100
AcDbLine
 10
0.5
 20
0.5
 30
0.0
 11
0.5
 21
-0.5
 31
0.0
  0
LINE
  5
54F
100
AcDbEntity
  8
0
 62
     0
370
    -2
100
AcDbLine
 10
0.5
 20
-0.5
 30
0.0
 11
-0.5
 21
-0.5
 31
0.0
  0
LINE
  5
550
100
AcDbEntity
  8
0
 62
     0
370
    -2
100
AcDbLine
 10
-0.5
 20
-0.5
 30
0.0
 11
-0.5
 21
0.5
 31
0.0
  0
SOLID
  5
551
100
AcDbEntity
  8
0
 62
     0
100
AcDbTrace
 10
-0.5
 20
-0.5
 11
-0.5
 21
0.5
 12
0.5
 22
0.5
 13
0.5
 23
0.5
  0
ENDBLK
  5
552
100
AcDbEntity
100
AcDbBlockEnd
  0
BLOCK
  5
553
100
AcDbEntity
  8
0
100
AcDbBlockBegin
  2
CDWK_PTTYP7
 70
     0
 10
0.0
 20
0.0
 30
0.0
  3
CDWK_PTTYP7
  1

  4
Cadwork node
  0
LINE
  5
554
100
AcDbEntity
  8
0
 62
     0
370
    -2
100
AcDbLine
 10
-0.5
 20
0.5
 30
0.0
 11
0.5
 21
0.5
 31
0.0
  0
LINE
  5
555
100
AcDbEntity
  8
0
 62
     0
370
    -2
100
AcDbLine
 10
0.5
 20
0.5
 30
0.0
 11
0.5
 21
-0.5
 31
0.0
  0
LINE
  5
556
100
AcDbEntity
  8
0
 62
     0
370
    -2
100
AcDbLine
 10
0.5
 20
-0.5
 30
0.0
 11
-0.5
 21
-0.5
 31
0.0
  0
LINE
  5
557
100
AcDbEntity
  8
0
 62
     0
370
    -2
100
AcDbLine
 10
-0.5
 20
-0.5
 30
0.0
 11
-0.5
 21
0.5
 31
0.0
  0
LINE
  5
558
100
AcDbEntity
  8
0
 62
     0
370
    -2
100
AcDbLine
 10
0.0
 20
0.5
 30
0.0
 11
0.0
 21
-0.5
 31
0.0
  0
LINE
  5
559
100
AcDbEntity
  8
0
 62
     0
370
    -2
100
AcDbLine
 10
-0.5
 20
0.0
 30
0.0
 11
0.5
 21
0.0
 31
0.0
  0
ENDBLK
  5
55A
100
AcDbEntity
100
AcDbBlockEnd
  0
BLOCK
  5
55B
100
AcDbEntity
  8
0
100
AcDbBlockBegin
  2
CDWK_PTTYP8
 70
     0
 10
0.0
 20
0.0
 30
0.0
  3
CDWK_PTTYP8
  1

  4
Cadwork node
  0
SOLID
  5
55C
100
AcDbEntity
  8
0
 62
     0
100
AcDbTrace
 10
-0.5
 20
0.5
 11
0.5
 21
0.5
 12
-0.5
 22
-0.5
 13
0.5
 23
-0.5
  0
ENDBLK
  5
55D
100
AcDbEntity
100
AcDbBlockEnd
  0
BLOCK
  5
55E
100
AcDbEntity
  8
0
100
AcDbBlockBegin
  2
CDWK_PTTYP9
 70
     0
 10
0.0
 20
0.0
 30
0.0
  3
CDWK_PTTYP9
  1

  4
Cadwork node
  0
CIRCLE
  5
55F
100
AcDbEntity
  8
0
 62
     0
370
    -2
100
AcDbCircle
 10
0.0
 20
0.0
 30
0.0
 40
0.5
  0
CIRCLE
  5
560
100
AcDbEntity
  8
0
 62
     0
370
    -2
100
AcDbCircle
 10
0.0
 20
0.0
 30
0.0
 40
0.16666667
  0
ENDBLK
  5
561
100
AcDbEntity
100
AcDbBlockEnd
  0
BLOCK
  5
562
100
AcDbEntity
  8
0
100
AcDbBlockBegin
  2
CDWK_PTTYP10
 70
     0
 10
0.0
 20
0.0
 30
0.0
  3
CDWK_PTTYP10
  1

  4
Cadwork node
  0
CIRCLE
  5
563
100
AcDbEntity
  8
0
 62
     0
370
    -2
100
AcDbCircle
 10
0.0
 20
0.0
 30
0.0
 40
0.5
  0
ENDBLK
  5
564
100
AcDbEntity
100
AcDbBlockEnd
  0
BLOCK
  5
565
100
AcDbEntity
  8
0
100
AcDbBlockBegin
  2
CDWK_PTTYP11
 70
     0
 10
0.0
 20
0.0
 30
0.0
  3
CDWK_PTTYP11
  1

  4
Cadwork node
  0
CIRCLE
  5
566
100
AcDbEntity
  8
0
 62
     0
370
    -2
100
AcDbCircle
 10
0.0
 20
0.0
 30
0.0
 40
0.5
  0
CIRCLE
  5
567
100
AcDbEntity
  8
0
 62
     0
370
    -2
100
AcDbCircle
 10
0.0
 20
0.0
 30
0.0
 40
0.25
  0
ENDBLK
  5
568
100
AcDbEntity
100
AcDbBlockEnd
  0
BLOCK
  5
569
100
AcDbEntity
  8
0
100
AcDbBlockBegin
  2
CDWK_PTTYP12
 70
     0
 10
0.0
 20
0.0
 30
0.0
  3
CDWK_PTTYP12
  1

  4
Cadwork node
  0
CIRCLE
  5
56A
100
AcDbEntity
  8
0
 62
     0
370
    -2
100
AcDbCircle
 10
0.0
 20
0.0
 30
0.0
 40
0.5
  0
CIRCLE
  5
56B
100
AcDbEntity
  8
0
 62
     0
370
    -2
100
AcDbCircle
 10
0.25
 20
0.0
 30
0.0
 40
0.25
  0
ENDBLK
  5
56C
100
AcDbEntity
100
AcDbBlockEnd
  0
BLOCK
  5
56D
100
AcDbEntity
  8
0
100
AcDbBlockBegin
  2
CDWK_PTTYP13
 70
     0
 10
0.0
 20
0.0
 30
0.0
  3
CDWK_PTTYP13
  1

  4
Cadwork node
  0
CIRCLE
  5
56E
100
AcDbEntity
  8
0
 62
     0
370
    -2
100
AcDbCircle
 10
0.0
 20
0.0
 30
0.0
 40
0.5
  0
CIRCLE
  5
56F
100
AcDbEntity
  8
0
 62
     0
370
    -2
100
AcDbCircle
 10
0.25
 20
0.0
 30
0.0
 40
0.25
  0
CIRCLE
  5
570
100
AcDbEntity
  8
0
 62
     0
370
    -2
100
AcDbCircle
 10
-0.25
 20
0.0
 30
0.0
 40
0.25
  0
ENDBLK
  5
571
100
AcDbEntity
100
AcDbBlockEnd
  0
BLOCK
  5
572
100
AcDbEntity
  8
0
100
AcDbBlockBegin
  2
CDWK_PTTYP14
 70
     0
 10
0.0
 20
0.0
 30
0.0
  3
CDWK_PTTYP14
  1

  4
Cadwork node
  0
POINT
  5
573
100
AcDbEntity
  8
0
 62
     0
100
AcDbPoint
 10
0.0
 20
0.0
 30
0.0
  0
ENDBLK
  5
574
100
AcDbEntity
100
AcDbBlockEnd
  0
BLOCK
  5
575
100
AcDbEntity
  8
0
100
AcDbBlockBegin
  2
CDWK_PTTYP15
 70
     0
 10
0.0
 20
0.0
 30
0.0
  3
CDWK_PTTYP15
  1

  4
Cadwork node
  0
POINT
  5
576
100
AcDbEntity
  8
0
 62
     0
100
AcDbPoint
 10
0.0
 20
0.0
 30
0.0
  0
ENDBLK
  5
577
100
AcDbEntity
100
AcDbBlockEnd
  0
BLOCK
  5
578
100
AcDbEntity
  8
0
100
AcDbBlockBegin
  2
CDWK_PTTYP16
 70
     0
 10
0.0
 20
0.0
 30
0.0
  3
CDWK_PTTYP16
  1

  4
Cadwork node
  0
LINE
  5
579
100
AcDbEntity
  8
0
 62
     0
370
    -2
100
AcDbLine
 10
-0.5
 20
-0.28867513
 30
0.0
 11
0.5
 21
-0.28867513
 31
0.0
  0
LINE
  5
57A
100
AcDbEntity
  8
0
 62
     0
370
    -2
100
AcDbLine
 10
0.5
 20
-0.28867513
 30
0.0
 11
0.0
 21
0.57735027
 31
0.0
  0
LINE
  5
57B
100
AcDbEntity
  8
0
 62
     0
370
    -2
100
AcDbLine
 10
0.0
 20
0.57735027
 30
0.0
 11
-0.5
 21
-0.28867513
 31
0.0
  0
CIRCLE
  5
57C
100
AcDbEntity
  8
0
 62
     0
370
    -2
100
AcDbCircle
 10
0.0
 20
0.0
 30
0.0
 40
0.28867513
  0
ENDBLK
  5
57D
100
AcDbEntity
100
AcDbBlockEnd
  0
BLOCK
  5
57E
100
AcDbEntity
  8
0
100
AcDbBlockBegin
  2
CDWK_PTTYP17
 70
     0
 10
0.0
 20
0.0
 30
0.0
  3
CDWK_PTTYP17
  1

  4
Cadwork node
  0
CIRCLE
  5
57F
100
AcDbEntity
  8
0
 62
     0
370
    -2
100
AcDbCircle
 10
0.0
 20
0.0
 30
0.0
 40
0.5
  0
HATCH
  5
580
100
AcDbEntity
  8
0
 62
     0
370
    -2
100
AcDbHatch
 10
0.0
 20
0.0
 30
0.0
210
0.0
220
0.0
230
1.0
  2
SOLID
 70
     1
 71
     0
 91
        1
 92
        1
 93
        1
 72
     2
 10
0.0
 20
0.0
 40
0.25
 50
0.0
 51
360.0
 73
     1
 97
        0
 75
     0
 76
     1
 98
        1
 10
0.0
 20
0.0
  0
ENDBLK
  5
581
100
AcDbEntity
100
AcDbBlockEnd
  0
BLOCK
  5
582
100
AcDbEntity
  8
0
100
AcDbBlockBegin
  2
CDWK_PTTYP18
 70
     0
 10
0.0
 20
0.0
 30
0.0
  3
CDWK_PTTYP18
  1

  4
Cadwork node
  0
CIRCLE
  5
583
100
AcDbEntity
  8
0
 62
     0
370
    -2
100
AcDbCircle
 10
0.0
 20
0.0
 30
0.0
 40
0.5
  0
CIRCLE
  5
584
100
AcDbEntity
  8
0
 62
     0
370
    -2
100
AcDbCircle
 10
0.0
 20
0.0
 30
0.0
 40
0.2
  0
ENDBLK
  5
585
100
AcDbEntity
100
AcDbBlockEnd
  0
BLOCK
  5
586
100
AcDbEntity
  8
0
100
AcDbBlockBegin
  2
CDWK_PTTYP19
 70
     0
 10
0.0
 20
0.0
 30
0.0
  3
CDWK_PTTYP19
  1

  4
Cadwork node
  0
CIRCLE
  5
587
100
AcDbEntity
  8
0
 62
     0
370
    -2
100
AcDbCircle
 10
0.0
 20
0.0
 30
0.0
 40
0.4
  0
CIRCLE
  5
588
100
AcDbEntity
  8
0
 62
     0
370
    -2
100
AcDbCircle
 10
0.0
 20
0.0
 30
0.0
 40
0.25
  0
LINE
  5
589
100
AcDbEntity
  8
0
 62
     0
370
    -2
100
AcDbLine
 10
-0.25
 20
0.0
 30
0.0
 11
0.25
 21
0.0
 31
0.0
  0
ENDBLK
  5
58A
100
AcDbEntity
100
AcDbBlockEnd
  0
BLOCK
  5
58B
100
AcDbEntity
  8
0
100
AcDbBlockBegin
  2
CDWK_PTTYP20
 70
     0
 10
0.0
 20
0.0
 30
0.0
  3
CDWK_PTTYP20
  1

  4
Cadwork node
  0
CIRCLE
  5
58C
100
AcDbEntity
  8
0
 62
     0
370
    -2
100
AcDbCircle
 10
0.0
 20
0.0
 30
0.0
 40
0.5
  0
CIRCLE
  5
58D
100
AcDbEntity
  8
0
 62
     0
370
    -2
100
AcDbCircle
 10
0.0
 20
0.0
 30
0.0
 40
0.3
  0
ENDBLK
  5
58E
100
AcDbEntity
100
AcDbBlockEnd
  0
BLOCK
  5
58F
100
AcDbEntity
  8
0
100
AcDbBlockBegin
  2
CDWK_PTTYP21
 70
     0
 10
0.0
 20
0.0
 30
0.0
  3
CDWK_PTTYP21
  1

  4
Cadwork node
  0
CIRCLE
  5
590
100
AcDbEntity
  8
0
 62
     0
370
    -2
100
AcDbCircle
 10
0.0
 20
0.0
 30
0.0
 40
0.5
  0
LINE
  5
591
100
AcDbEntity
  8
0
 62
     0
370
    -2
100
AcDbLine
 10
-0.5
 20
0.0
 30
0.0
 11
0.5
 21
0.0
 31
0.0
  0
ENDBLK
  5
592
100
AcDbEntity
100
AcDbBlockEnd
  0
BLOCK
  5
593
100
AcDbEntity
  8
0
100
AcDbBlockBegin
  2
CDWK_PTTYP22
 70
     0
 10
0.0
 20
0.0
 30
0.0
  3
CDWK_PTTYP22
  1

  4
Cadwork node
  0
POINT
  5
594
100
AcDbEntity
  8
0
 62
     0
100
AcDbPoint
 10
0.0
 20
0.0
 30
0.0
  0
ENDBLK
  5
595
100
AcDbEntity
100
AcDbBlockEnd
  0
BLOCK
  5
596
100
AcDbEntity
  8
0
100
AcDbBlockBegin
  2
CDWK_PTTYP23
 70
     0
 10
0.0
 20
0.0
 30
0.0
  3
CDWK_PTTYP23
  1

  4
Cadwork node
  0
POINT
  5
597
100
AcDbEntity
  8
0
 62
     0
100
AcDbPoint
 10
0.0
 20
0.0
 30
0.0
  0
ENDBLK
  5
598
100
AcDbEntity
100
AcDbBlockEnd
  0
BLOCK
  5
599
100
AcDbEntity
  8
0
100
AcDbBlockBegin
  2
CDWK_PTTYP24
 70
     0
 10
0.0
 20
0.0
 30
0.0
  3
CDWK_PTTYP24
  1

  4
Cadwork node
  0
POINT
  5
59A
100
AcDbEntity
  8
0
 62
     0
100
AcDbPoint
 10
0.0
 20
0.0
 30
0.0
  0
ENDBLK
  5
59B
100
AcDbEntity
100
AcDbBlockEnd
  0
BLOCK
  5
59C
100
AcDbEntity
  8
0
100
AcDbBlockBegin
  2
CDWK_PTTYP25
 70
     0
 10
0.0
 20
0.0
 30
0.0
  3
CDWK_PTTYP25
  1

  4
Cadwork node
  0
LINE
  5
59D
100
AcDbEntity
  8
0
 62
     0
370
    -2
100
AcDbLine
 10
-0.43290044
 20
-0.25
 30
0.0
 11
0.43290044
 21
-0.25
 31
0.0
  0
LINE
  5
59E
100
AcDbEntity
  8
0
 62
     0
370
    -2
100
AcDbLine
 10
-0.43290044
 20
-0.25
 30
0.0
 11
0.0
 21
0.5
 31
0.0
  0
LINE
  5
59F
100
AcDbEntity
  8
0
 62
     0
370
    -2
100
AcDbLine
 10
0.43290044
 20
-0.25
 30
0.0
 11
0.0
 21
0.5
 31
0.0
  0
CIRCLE
  5
5A0
100
AcDbEntity
  8
0
 62
     0
370
    -2
100
AcDbCircle
 10
0.0
 20
0.0
 30
0.0
 40
0.5
  0
ENDBLK
  5
5A1
100
AcDbEntity
100
AcDbBlockEnd
  0
BLOCK
  5
5A2
100
AcDbEntity
  8
0
100
AcDbBlockBegin
  2
CDWK_PTTYP26
 70
     0
 10
0.0
 20
0.0
 30
0.0
  3
CDWK_PTTYP26
  1

  4
Cadwork node
  0
LINE
  5
5A3
100
AcDbEntity
  8
0
 62
     0
370
    -2
100
AcDbLine
 10
-0.5
 20
-0.28850001
 30
0.0
 11
0.5
 21
-0.28850001
 31
0.0
  0
LINE
  5
5A4
100
AcDbEntity
  8
0
 62
     0
370
    -2
100
AcDbLine
 10
-0.5
 20
-0.28850001
 30
0.0
 11
0.0
 21
0.57736721
 31
0.0
  0
LINE
  5
5A5
100
AcDbEntity
  8
0
 62
     0
370
    -2
100
AcDbLine
 10
0.5
 20
-0.28850001
 30
0.0
 11
0.0
 21
0.57736721
 31
0.0
  0
CIRCLE
  5
5A6
100
AcDbEntity
  8
0
 62
     0
370
    -2
100
AcDbCircle
 10
0.0
 20
0.0
 30
0.0
 40
0.1312336
  0
ENDBLK
  5
5A7
100
AcDbEntity
100
AcDbBlockEnd
  0
BLOCK
  5
5A8
100
AcDbEntity
  8
0
100
AcDbBlockBegin
  2
CDWK_PTTYP27
 70
     0
 10
0.0
 20
0.0
 30
0.0
  3
CDWK_PTTYP27
  1

  4
Cadwork node
  0
LINE
  5
5A9
100
AcDbEntity
  8
0
 62
     0
370
    -2
100
AcDbLine
 10
-0.43290044
 20
-0.25
 30
0.0
 11
0.43290044
 21
-0.25
 31
0.0
  0
LINE
  5
5AA
100
AcDbEntity
  8
0
 62
     0
370
    -2
100
AcDbLine
 10
-0.43290044
 20
-0.25
 30
0.0
 11
0.0
 21
0.5
 31
0.0
  0
LINE
  5
5AB
100
AcDbEntity
  8
0
 62
     0
370
    -2
100
AcDbLine
 10
0.43290044
 20
-0.25
 30
0.0
 11
0.0
 21
0.5
 31
0.0
  0
CIRCLE
  5
5AC
100
AcDbEntity
  8
0
 62
     0
370
    -2
100
AcDbCircle
 10
0.0
 20
0.0
 30
0.0
 40
0.5
  0
CIRCLE
  5
5AD
100
AcDbEntity
  8
0
 62
     0
370
    -2
100
AcDbCircle
 10
0.0
 20
0.0
 30
0.0
 40
0.1312336
  0
ENDBLK
  5
5AE
100
AcDbEntity
100
AcDbBlockEnd
  0
BLOCK
  5
5AF
100
AcDbEntity
  8
0
100
AcDbBlockBegin
  2
CDWK_PTTYP28
 70
     0
 10
0.0
 20
0.0
 30
0.0
  3
CDWK_PTTYP28
  1

  4
Cadwork node
  0
POINT
  5
5B0
100
AcDbEntity
  8
0
 62
     0
100
AcDbPoint
 10
0.0
 20
0.0
 30
0.0
  0
ENDBLK
  5
5B1
100
AcDbEntity
100
AcDbBlockEnd
  0
BLOCK
  5
5B2
100
AcDbEntity
  8
0
100
AcDbBlockBegin
  2
CDWK_PTTYP29
 70
     0
 10
0.0
 20
0.0
 30
0.0
  3
CDWK_PTTYP29
  1

  4
Cadwork node
  0
CIRCLE
  5
5B3
100
AcDbEntity
  8
0
 62
     0
370
    -2
100
AcDbCircle
 10
0.0
 20
0.0
 30
0.0
 40
0.5
  0
CIRCLE
  5
5B4
100
AcDbEntity
  8
0
 62
     0
370
    -2
100
AcDbCircle
 10
0.0
 20
0.0
 30
0.0
 40
0.375
  0
CIRCLE
  5
5B5
100
AcDbEntity
  8
0
 62
     0
370
    -2
100
AcDbCircle
 10
0.0
 20
0.0
 30
0.0
 40
0.21875
  0
ENDBLK
  5
5B6
100
AcDbEntity
100
AcDbBlockEnd
  0
BLOCK
  5
5B7
100
AcDbEntity
  8
0
100
AcDbBlockBegin
  2
CDWK_PTTYP30
 70
     0
 10
0.0
 20
0.0
 30
0.0
  3
CDWK_PTTYP30
  1

  4
Cadwork node
  0
LINE
  5
5B8
100
AcDbEntity
  8
0
 62
     0
370
    -2
100
AcDbLine
 10
0.17680339
 20
0.17680339
 30
0.0
 11
0.5
 21
0.5
 31
0.0
  0
LINE
  5
5B9
100
AcDbEntity
  8
0
 62
     0
370
    -2
100
AcDbLine
 10
-0.17680339
 20
0.17680339
 30
0.0
 11
-0.5
 21
0.5
 31
0.0
  0
LINE
  5
5BA
100
AcDbEntity
  8
0
 62
     0
370
    -2
100
AcDbLine
 10
0.17680339
 20
-0.17680339
 30
0.0
 11
0.5
 21
-0.5
 31
0.0
  0
LINE
  5
5BB
100
AcDbEntity
  8
0
 62
     0
370
    -2
100
AcDbLine
 10
-0.17680339
 20
-0.17680339
 30
0.0
 11
-0.5
 21
-0.5
 31
0.0
  0
ENDBLK
  5
5BC
100
AcDbEntity
100
AcDbBlockEnd
  0
BLOCK
  5
5BD
100
AcDbEntity
  8
0
100
AcDbBlockBegin
  2
CDWK_PTTYP31
 70
     0
 10
0.0
 20
0.0
 30
0.0
  3
CDWK_PTTYP31
  1

  4
Cadwork node
  0
CIRCLE
  5
5BE
100
AcDbEntity
  8
0
 62
     0
370
    -2
100
AcDbCircle
 10
0.0
 20
0.0
 30
0.0
 40
0.075
  0
LINE
  5
5BF
100
AcDbEntity
  8
0
 62
     0
370
    -2
100
AcDbLine
 10
0.075
 20
0.0
 30
0.0
 11
0.5
 21
0.0
 31
0.0
  0
LINE
  5
5C0
100
AcDbEntity
  8
0
 62
     0
370
    -2
100
AcDbLine
 10
-0.075
 20
0.0
 30
0.0
 11
-0.5
 21
0.0
 31
0.0
  0
LINE
  5
5C1
100
AcDbEntity
  8
0
 62
     0
370
    -2
100
AcDbLine
 10
0.0
 20
0.075
 30
0.0
 11
0.0
 21
0.5
 31
0.0
  0
LINE
  5
5C2
100
AcDbEntity
  8
0
 62
     0
370
    -2
100
AcDbLine
 10
0.0
 20
-0.075
 30
0.0
 11
0.0
 21
-0.5
 31
0.0
  0
ENDBLK
  5
5C3
100
AcDbEntity
100
AcDbBlockEnd
  0
BLOCK
  5
5C4
100
AcDbEntity
  8
0
100
AcDbBlockBegin
  2
CDWK_PTTYP32
 70
     0
 10
0.0
 20
0.0
 30
0.0
  3
CDWK_PTTYP32
  1

  4
Cadwork node
  0
CIRCLE
  5
5C5
100
AcDbEntity
  8
0
 62
     0
370
    -2
100
AcDbCircle
 10
0.0
 20
0.0
 30
0.0
 40
0.5
  0
CIRCLE
  5
5C6
100
AcDbEntity
  8
0
 62
     0
370
    -2
100
AcDbCircle
 10
0.0
 20
0.0
 30
0.0
 40
0.16666667
  0
LINE
  5
5C7
100
AcDbEntity
  8
0
 62
     0
370
    -2
100
AcDbLine
 10
0.11786893
 20
0.11786893
 30
0.0
 11
0.35360678
 21
0.35360678
 31
0.0
  0
LINE
  5
5C8
100
AcDbEntity
  8
0
 62
     0
370
    -2
100
AcDbLine
 10
-0.11786893
 20
0.11786893
 30
0.0
 11
-0.35360678
 21
0.35360678
 31
0.0
  0
LINE
  5
5C9
100
AcDbEntity
  8
0
 62
     0
370
    -2
100
AcDbLine
 10
0.11786893
 20
-0.11786893
 30
0.0
 11
0.35360678
 21
-0.35360678
 31
0.0
  0
LINE
  5
5CA
100
AcDbEntity
  8
0
 62
     0
370
    -2
100
AcDbLine
 10
-0.11786893
 20
-0.11786893
 30
0.0
 11
-0.35360678
 21
-0.35360678
 31
0.0
  0
ENDBLK
  5
5CB
100
AcDbEntity
100
AcDbBlockEnd
  0
BLOCK
  5
5CC
100
AcDbEntity
  8
0
100
AcDbBlockBegin
  2
CDWK_PTTYP33
 70
     0
 10
0.0
 20
0.0
 30
0.0
  3
CDWK_PTTYP33
  1

  4
Cadwork node
  0
CIRCLE
  5
5CD
100
AcDbEntity
  8
0
 62
     0
370
    -2
100
AcDbCircle
 10
0.0
 20
0.0
 30
0.0
 40
0.5
  0
LINE
  5
5CE
100
AcDbEntity
  8
0
 62
     0
370
    -2
100
AcDbLine
 10
0.0
 20
0.5
 30
0.0
 11
0.0
 21
-0.5
 31
0.0
  0
LINE
  5
5CF
100
AcDbEntity
  8
0
 62
     0
370
    -2
100
AcDbLine
 10
-0.5
 20
0.0
 30
0.0
 11
0.5
 21
0.0
 31
0.0
  0
ENDBLK
  5
5D0
100
AcDbEntity
100
AcDbBlockEnd
  0
BLOCK
  5
5D1
100
AcDbEntity
  8
0
100
AcDbBlockBegin
  2
CDWK_PTTYP34
 70
     0
 10
0.0
 20
0.0
 30
0.0
  3
CDWK_PTTYP34
  1

  4
Cadwork node
  0
CIRCLE
  5
5D2
100
AcDbEntity
  8
0
 62
     0
370
    -2
100
AcDbCircle
 10
0.0
 20
0.0
 30
0.0
 40
0.5
  0
LINE
  5
5D3
100
AcDbEntity
  8
0
 62
     0
370
    -2
100
AcDbLine
 10
-0.30360678
 20
-0.40360678
 30
0.0
 11
0.40360678
 21
0.30360678
 31
0.0
  0
LINE
  5
5D4
100
AcDbEntity
  8
0
 62
     0
370
    -2
100
AcDbLine
 10
-0.40360678
 20
-0.30360678
 30
0.0
 11
0.30360678
 21
0.40360678
 31
0.0
  0
ENDBLK
  5
5D5
100
AcDbEntity
100
AcDbBlockEnd
  0
BLOCK
  5
5D6
100
AcDbEntity
  8
0
100
AcDbBlockBegin
  2
CDWK_PTTYP35
 70
     0
 10
0.0
 20
0.0
 30
0.0
  3
CDWK_PTTYP35
  1

  4
Cadwork node
  0
CIRCLE
  5
5D7
100
AcDbEntity
  8
0
 62
     0
370
    -2
100
AcDbCircle
 10
0.0
 20
0.0
 30
0.0
 40
0.21431634
  0
LINE
  5
5D8
100
AcDbEntity
  8
0
 62
     0
370
    -2
100
AcDbLine
 10
0.0
 20
0.21431634
 30
0.0
 11
0.0
 21
0.5
 31
0.0
  0
LINE
  5
5D9
100
AcDbEntity
  8
0
 62
     0
370
    -2
100
AcDbLine
 10
0.0
 20
-0.21431634
 30
0.0
 11
0.0
 21
-0.5
 31
0.0
  0
ENDBLK
  5
5DA
100
AcDbEntity
100
AcDbBlockEnd
  0
BLOCK
  5
5DB
100
AcDbEntity
  8
0
100
AcDbBlockBegin
  2
CDWK_PTTYP36
 70
     0
 10
0.0
 20
0.0
 30
0.0
  3
CDWK_PTTYP36
  1

  4
Cadwork node
  0
LINE
  5
5DC
100
AcDbEntity
  8
0
 62
     0
370
    -2
100
AcDbLine
 10
-0.5
 20
-0.16666667
 30
0.0
 11
0.5
 21
-0.16666667
 31
0.0
  0
LINE
  5
5DD
100
AcDbEntity
  8
0
 62
     0
370
    -2
100
AcDbLine
 10
0.5
 20
-0.16666667
 30
0.0
 11
0.5
 21
0.16666667
 31
0.0
  0
LINE
  5
5DE
100
AcDbEntity
  8
0
 62
     0
370
    -2
100
AcDbLine
 10
0.5
 20
0.16666667
 30
0.0
 11
-0.5
 21
0.16666667
 31
0.0
  0
LINE
  5
5DF
100
AcDbEntity
  8
0
 62
     0
370
    -2
100
AcDbLine
 10
-0.5
 20
0.16666667
 30
0.0
 11
-0.5
 21
-0.16666667
 31
0.0
  0
SOLID
  5
5E0
100
AcDbEntity
  8
0
 62
     0
100
AcDbTrace
 10
-0.5
 20
-0.16666667
 11
0.5
 21
0.16666667
 12
0.5
 22
-0.16666667
 13
0.5
 23
-0.16666667
  0
ENDBLK
  5
5E1
100
AcDbEntity
100
AcDbBlockEnd
  0
BLOCK
  5
5E2
100
AcDbEntity
  8
0
100
AcDbBlockBegin
  2
CDWK_PTTYP37
 70
     0
 10
0.0
 20
0.0
 30
0.0
  3
CDWK_PTTYP37
  1

  4
Cadwork node
  0
CIRCLE
  5
5E3
100
AcDbEntity
  8
0
 62
     0
370
    -2
100
AcDbCircle
 10
0.0
 20
0.0
 30
0.0
 40
0.5
  0
SOLID
  5
5E4
100
AcDbEntity
  8
0
 62
     0
100
AcDbTrace
 10
0.0
 20
0.0
 11
0.35350001
 21
0.35350001
 12
0.5
 22
0.0
 13
0.46200001
 23
0.19149999
  0
SOLID
  5
5E5
100
AcDbEntity
  8
0
 62
     0
100
AcDbTrace
 10
0.0
 20
0.0
 11
0.35350001
 21
-0.35350001
 12
0.5
 22
0.0
 13
0.46200001
 23
-0.19149999
  0
SOLID
  5
5E6
100
AcDbEntity
  8
0
 62
     0
100
AcDbTrace
 10
0.0
 20
0.0
 11
0.0
 21
-0.5
 12
0.35350001
 22
-0.35350001
 13
0.19149999
 23
-0.46200001
  0
SOLID
  5
5E7
100
AcDbEntity
  8
0
 62
     0
100
AcDbTrace
 10
0.0
 20
0.0
 11
0.0
 21
-0.5
 12
-0.35350001
 22
-0.35350001
 13
-0.19149999
 23
-0.46200001
  0
ENDBLK
  5
5E8
100
AcDbEntity
100
AcDbBlockEnd
  0
BLOCK
  5
5E9
100
AcDbEntity
  8
0
100
AcDbBlockBegin
  2
CDWK_PTTYP38
 70
     0
 10
0.0
 20
0.0
 30
0.0
  3
CDWK_PTTYP38
  1

  4
Cadwork node
  0
CIRCLE
  5
5EA
100
AcDbEntity
  8
0
 62
     0
370
    -2
100
AcDbCircle
 10
0.0
 20
0.0
 30
0.0
 40
0.5
  0
SOLID
  5
5EB
100
AcDbEntity
  8
0
 62
     0
100
AcDbTrace
 10
0.0
 20
0.0
 11
0.35350001
 21
0.35350001
 12
0.0
 22
0.5
 13
0.19149999
 23
0.46200001
  0
SOLID
  5
5EC
100
AcDbEntity
  8
0
 62
     0
100
AcDbTrace
 10
0.0
 20
0.0
 11
0.5
 21
0.0
 12
0.35350001
 22
0.35350001
 13
0.46200001
 23
0.19149999
  0
SOLID
  5
5ED
100
AcDbEntity
  8
0
 62
     0
100
AcDbTrace
 10
0.0
 20
0.0
 11
0.0
 21
-0.5
 12
-0.35350001
 22
-0.35350001
 13
-0.19149999
 23
-0.46200001
  0
SOLID
  5
5EE
100
AcDbEntity
  8
0
 62
     0
100
AcDbTrace
 10
0.0
 20
0.0
 11
-0.5
 21
0.0
 12
-0.35350001
 22
-0.35350001
 13
-0.46200001
 23
-0.19149999
  0
ENDBLK
  5
5EF
100
AcDbEntity
100
AcDbBlockEnd
  0
BLOCK
  5
5F0
100
AcDbEntity
  8
Ech.1_5
100
AcDbBlockBegin
  2
*X1
 70
     1
 10
0.0
 20
0.0
 30
0.0
  3
*X1
  1

  4
Cadwork hatch
  0
LINE
  5
5F1
100
AcDbEntity
  8
Ech.1_5
 62
   190
  6
CONTINUOUS
370
    -2
100
AcDbLine
 10
51201.3523725
 20
-11205.50007689
 30
0.0
 11
51021.34992642
 21
-11250.49830717
 31
0.0
  0
LINE
  5
5F2
100
AcDbEntity
  8
Ech.1_5
 62
   190
  6
CONTINUOUS
370
    -2
100
AcDbLine
 10
51021.34992642
 20
-11205.50007689
 30
0.0
 11
51201.3523725
 21
-11250.49830717
 31
0.0
  0
ENDBLK
  5
5F3
100
AcDbEntity
100
AcDbBlockEnd
  0
BLOCK
  5
5F4
100
AcDbEntity
  8
Ech.1_5
100
AcDbBlockBegin
  2
*X2
 70
     1
 10
0.0
 20
0.0
 30
0.0
  3
*X2
  1

  4
Cadwork hatch
  0
LINE
  5
5F5
100
AcDbEntity
  8
Ech.1_5
 62
     7
  6
CONTINUOUS
370
    -2
100
AcDbLine
 10
51095.84929842
 20
-10963.73073155
 30
0.0
 11
51077.44710105
 21
-10970.97445365
 31
0.0
  0
LINE
  5
5F6
100
AcDbEntity
  8
Ech.1_5
 62
     7
  6
CONTINUOUS
370
    -2
100
AcDbLine
 10
51077.44710105
 20
-10963.73073155
 30
0.0
 11
51095.84929842
 21
-10970.97445365
 31
0.0
  0
ENDBLK
  5
5F7
100
AcDbEntity
100
AcDbBlockEnd
  0
BLOCK
  5
5F8
100
AcDbEntity
  8
Ech.1_5
100
AcDbBlockBegin
  2
*X3
 70
     1
 10
0.0
 20
0.0
 30
0.0
  3
*X3
  1

  4
Cadwork hatch
  0
LINE
  5
5F9
100
AcDbEntity
  8
Ech.1_5
 62
     7
  6
CONTINUOUS
370
    -2
100
AcDbLine
 10
51095.84929842
 20
-11106.44777308
 30
0.0
 11
51077.44710105
 21
-11099.20405098
 31
0.0
  0
LINE
  5
5FA
100
AcDbEntity
  8
Ech.1_5
 62
     7
  6
CONTINUOUS
370
    -2
100
AcDbLine
 10
51077.44710105
 20
-11106.44777308
 30
0.0
 11
51095.84929842
 21
-11099.20405098
 31
0.0
  0
ENDBLK
  5
5FB
100
AcDbEntity
100
AcDbBlockEnd
  0
BLOCK
  5
5FC
100
AcDbEntity
  8
Ech.1_5
100
AcDbBlockBegin
  2
*D63
 70
     1
 10
0.0
 20
0.0
 30
0.0
  3
*D63
  1

  4
Cadwork dimension
  0
TEXT
  5
5FD
100
AcDbEntity
  8
Ech.1_5
 62
   190
370
    18
100
AcDbText
 10
51242.36609647
 20
-10778.9302794
 30
0.0
 40
12.5
  1
200mm min
  7
ARIAL
 50
89.9999975
 41
1.0
 51
0.0
100
AcDbText
  0
LINE
  5
5FE
100
AcDbEntity
  8
Ech.1_5
 62
   190
370
    -2
100
AcDbLine
 10
51252.36609647
 20
-10864.67514197
 30
0.0
 11
51235.84958477
 21
-10864.67514197
 31
0.0
  0
LINE
  5
5FF
100
AcDbEntity
  8
Ech.1_5
 62
   190
370
    -2
100
AcDbLine
 10
51252.36609647
 20
-10664.67514194
 30
0.0
 11
51234.09103069
 21
-10664.67514194
 31
0.0
  0
LINE
  5
600
100
AcDbEntity
  8
Ech.1_5
 62
   190
370
    -2
100
AcDbLine
 10
51247.36609647
 20
-10869.67514197
 30
0.0
 11
51247.36609647
 21
-10659.67514194
 31
0.0
  0
LINE
  5
601
100
AcDbEntity
  8
Ech.1_5
 62
   190
370
    -2
100
AcDbLine
 10
51249.86609647
 20
-10867.17514197
 30
0.0
 11
51244.86609647
 21
-10862.17514197
 31
0.0
  0
LINE
  5
602
100
AcDbEntity
  8
Ech.1_5
 62
   190
370
    -2
100
AcDbLine
 10
51249.86609647
 20
-10667.17514194
 30
0.0
 11
51244.86609647
 21
-10662.17514194
 31
0.0
  0
ENDBLK
  5
603
100
AcDbEntity
100
AcDbBlockEnd
  0
BLOCK
  5
604
100
AcDbEntity
  8
Ech.1_5
100
AcDbBlockBegin
  2
*D64
 70
     1
 10
0.0
 20
0.0
 30
0.0
  3
*D64
  1

  4
Cadwork dimension
  0
TEXT
  5
605
100
AcDbEntity
  8
Ech.1_5
 62
   190
370
    18
100
AcDbText
 10
51242.36609647
 20
-11381.37957728
 30
0.0
 40
12.5
  1
200mm min
  7
ARIAL
 50
89.9999975
 41
1.0
 51
0.0
100
AcDbText
  0
LINE
  5
606
100
AcDbEntity
  8
Ech.1_5
 62
   190
370
    -2
100
AcDbLine
 10
51252.36609647
 20
-11467.12443985
 30
0.0
 11
51235.84958477
 21
-11467.12443985
 31
0.0
  0
LINE
  5
607
100
AcDbEntity
  8
Ech.1_5
 62
   190
370
    -2
100
AcDbLine
 10
51252.36609647
 20
-11267.12443982
 30
0.0
 11
51234.09103069
 21
-11267.12443982
 31
0.0
  0
LINE
  5
608
100
AcDbEntity
  8
Ech.1_5
 62
   190
370
    -2
100
AcDbLine
 10
51247.36609647
 20
-11472.12443985
 30
0.0
 11
51247.36609647
 21
-11262.12443982
 31
0.0
  0
LINE
  5
609
100
AcDbEntity
  8
Ech.1_5
 62
   190
370
    -2
100
AcDbLine
 10
51249.86609647
 20
-11469.62443985
 30
0.0
 11
51244.86609647
 21
-11464.62443985
 31
0.0
  0
LINE
  5
60A
100
AcDbEntity
  8
Ech.1_5
 62
   190
370
    -2
100
AcDbLine
 10
51249.86609647
 20
-11269.62443982
 30
0.0
 11
51244.86609647
 21
-11264.62443982
 31
0.0
  0
ENDBLK
  5
60B
100
AcDbEntity
100
AcDbBlockEnd
  0
ENDSEC
  0
SECTION
  2
ENTITIES
  0
INSERT
  5
60C
100
AcDbEntity
  8
Ech.1_5
 62
     0
100
AcDbBlockReference
  2
*X1
 10
0.0
 20
0.0
 30
0.0
  0
INSERT
  5
60D
100
AcDbEntity
  8
Ech.1_5
 62
     0
100
AcDbBlockReference
  2
*X2
 10
0.0
 20
0.0
 30
0.0
  0
INSERT
  5
60E
100
AcDbEntity
  8
Ech.1_5
 62
     0
100
AcDbBlockReference
  2
*X3
 10
0.0
 20
0.0
 30
0.0
  0
LWPOLYLINE
  5
60F
100
AcDbEntity
  8
Ech.1_5
 62
   254
  6
CONTINUOUS
370
    -3
100
AcDbPolyline
 90
        4
 70
     1
 43
0.0
 10
51490.84958477
 20
-11267.12443982
 10
51440.84958477
 20
-11267.12443982
 10
51440.84958477
 20
-11484.30763567
 10
51490.84958477
 20
-11484.30763567
  0
LWPOLYLINE
  5
610
100
AcDbEntity
  8
Ech.1_5
 62
     9
  6
CONTINUOUS
370
    -3
100
AcDbPolyline
 90
       52
 70
     0
 43
0.0
 10
51449.1829181
 20
-11267.12443982
 42
1.14028181
 10
51451.33974833
 20
-11283.50715374
 10
51480.3594212
 20
-11275.74172591
 42
-1.30322619
 10
51480.3594212
 20
-11291.84048707
 10
51451.33974833
 20
-11284.07505924
 42
1.30322619
 10
51451.33974833
 20
-11300.17382041
 10
51480.3594212
 20
-11292.40839257
 42
-1.30322619
 10
51480.3594212
 20
-11308.50715374
 10
51451.33974833
 20
-11300.74172591
 42
1.30322619
 10
51451.33974833
 20
-11316.84048707
 10
51480.3594212
 20
-11309.07505924
 42
-1.30322619
 10
51480.3594212
 20
-11325.17382041
 10
51451.33974833
 20
-11317.40839257
 42
1.30322619
 10
51451.33974833
 20
-11333.50715374
 10
51480.3594212
 20
-11325.74172591
 42
-1.30322619
 10
51480.3594212
 20
-11341.84048707
 10
51451.33974833
 20
-11334.07505924
 42
1.30322619
 10
51451.33974833
 20
-11350.17382041
 10
51480.3594212
 20
-11342.40839257
 42
-1.30322619
 10
51480.3594212
 20
-11358.50715374
 10
51451.33974833
 20
-11350.74172591
 42
1.30322619
 10
51451.33974833
 20
-11366.84048707
 10
51480.3594212
 20
-11359.07505924
 42
-1.30322619
 10
51480.3594212
 20
-11375.17382041
 10
51451.33974833
 20
-11367.40839257
 42
1.30322619
 10
51451.33974833
 20
-11383.50715374
 10
51480.3594212
 20
-11375.74172591
 42
-1.30322619
 10
51480.3594212
 20
-11391.84048707
 10
51451.33974833
 20
-11384.07505924
 42
1.30322619
 10
51451.33974833
 20
-11400.17382041
 10
51480.3594212
 20
-11392.40839257
 42
-1.30322619
 10
51480.3594212
 20
-11408.50715374
 10
51451.33974833
 20
-11400.74172591
 42
1.30322619
 10
51451.33974833
 20
-11416.84048707
 10
51480.3594212
 20
-11409.07505924
 42
-1.30322619
 10
51480.3594212
 20
-11425.17382041
 10
51451.33974833
 20
-11417.40839257
 42
1.30322619
 10
51451.33974833
 20
-11433.50715374
 10
51480.3594212
 20
-11425.74172591
 42
-1.30322619
 10
51480.3594212
 20
-11441.84048707
 10
51451.33974833
 20
-11434.07505924
 42
1.30322619
 10
51451.33974833
 20
-11450.17382041
 10
51480.3594212
 20
-11442.40839257
 42
-1.30322619
 10
51480.3594212
 20
-11458.50715374
 10
51451.33974833
 20
-11450.74172591
 42
1.30322619
 10
51451.33974833
 20
-11466.84048707
 10
51480.3594212
 20
-11459.07505924
 42
-1.30322619
 10
51480.3594212
 20
-11475.17382041
 10
51451.33974833
 20
-11467.40839257
 42
1.30322619
 10
51451.33974833
 20
-11483.50715374
 10
51480.3594212
 20
-11475.74172591
 42
-0.51257243
 10
51490.83356122
 20
-11484.30763567
  0
LWPOLYLINE
  5
611
100
AcDbEntity
  8
Ech.1_5
 62
   254
  6
CONTINUOUS
370
    -3
100
AcDbPolyline
 90
        4
 70
     1
 43
0.0
 10
51440.84958477
 20
-10826.21118562
 10
51490.84958477
 20
-10826.21118562
 10
51490.84958477
 20
-10496.25855249
 10
51440.84958477
 20
-10496.25855249
  0
LWPOLYLINE
  5
612
100
AcDbEntity
  8
Ech.1_5
 62
     9
  6
CONTINUOUS
370
    -3
100
AcDbPolyline
 90
       78
 70
     0
 43
0.0
 10
51482.51625143
 20
-10826.21118562
 42
1.14028181
 10
51480.3594212
 20
-10809.8284717
 10
51451.33974833
 20
-10817.59389954
 42
-1.30322619
 10
51451.33974833
 20
-10801.49513837
 10
51480.3594212
 20
-10809.26056621
 42
1.30322619
 10
51480.3594212
 20
-10793.16180504
 10
51451.33974833
 20
-10800.92723287
 42
-1.30322619
 10
51451.33974833
 20
-10784.8284717
 10
51480.3594212
 20
-10792.59389954
 42
1.30322619
 10
51480.3594212
 20
-10776.49513837
 10
51451.33974833
 20
-10784.26056621
 42
-1.30322619
 10
51451.33974833
 20
-10768.16180504
 10
51480.3594212
 20
-10775.92723287
 42
1.30322619
 10
51480.3594212
 20
-10759.8284717
 10
51451.33974833
 20
-10767.59389954
 42
-1.30322619
 10
51451.33974833
 20
-10751.49513837
 10
51480.3594212
 20
-10759.26056621
 42
1.30322619
 10
51480.3594212
 20
-10743.16180504
 10
51451.33974833
 20
-10750.92723287
 42
-1.30322619
 10
51451.33974833
 20
-10734.8284717
 10
51480.3594212
 20
-10742.59389954
 42
1.30322619
 10
51480.3594212
 20
-10726.49513837
 10
51451.33974833
 20
-10734.26056621
 42
-1.30322619
 10
51451.33974833
 20
-10718.16180504
 10
51480.3594212
 20
-10725.92723287
 42
1.30322619
 10
51480.3594212
 20
-10709.8284717
 10
51451.33974833
 20
-10717.59389954
 42
-1.30322619
 10
51451.33974833
 20
-10701.49513837
 10
51480.3594212
 20
-10709.26056621
 42
1.30322619
 10
51480.3594212
 20
-10693.16180504
 10
51451.33974833
 20
-10700.92723287
 42
-1.30322619
 10
51451.33974833
 20
-10684.8284717
 10
51480.3594212
 20
-10692.59389954
 42
1.30322619
 10
51480.3594212
 20
-10676.49513837
 10
51451.33974833
 20
-10684.26056621
 42
-1.30322619
 10
51451.33974833
 20
-10668.16180504
 10
51480.3594212
 20
-10675.92723287
 42
1.30322619
 10
51480.3594212
 20
-10659.8284717
 10
51451.33974833
 20
-10667.59389954
 42
-1.30322619
 10
51451.33974833
 20
-10651.49513837
 10
51480.3594212
 20
-10659.26056621
 42
1.30322619
 10
51480.3594212
 20
-10643.16180504
 10
51451.33974833
 20
-10650.92723287
 42
-1.30322619
 10
51451.33974833
 20
-10634.8284717
 10
51480.3594212
 20
-10642.59389954
 42
1.30322619
 10
51480.3594212
 20
-10626.49513837
 10
51451.33974833
 20
-10634.26056621
 42
-1.30322619
 10
51451.33974833
 20
-10618.16180504
 10
51480.3594212
 20
-10625.92723287
 42
1.30322619
 10
51480.3594212
 20
-10609.8284717
 10
51451.33974833
 20
-10617.59389954
 42
-1.30322619
 10
51451.33974833
 20
-10601.49513837
 10
51480.3594212
 20
-10609.26056621
 42
1.30322619
 10
51480.3594212
 20
-10593.16180504
 10
51451.33974833
 20
-10600.92723287
 42
-1.30322619
 10
51451.33974833
 20
-10584.8284717
 10
51480.3594212
 20
-10592.59389954
 42
1.30322619
 10
51480.3594212
 20
-10576.49513837
 10
51451.33974833
 20
-10584.26056621
 42
-1.30322619
 10
51451.33974833
 20
-10568.16180504
 10
51480.3594212
 20
-10575.92723287
 42
1.30322619
 10
51480.3594212
 20
-10559.8284717
 10
51451.33974833
 20
-10567.59389954
 42
-1.30322619
 10
51451.33974833
 20
-10551.49513837
 10
51480.3594212
 20
-10559.26056621
 42
1.30322619
 10
51480.3594212
 20
-10543.16180504
 10
51451.33974833
 20
-10550.92723287
 42
-1.30322619
 10
51451.33974833
 20
-10534.8284717
 10
51480.3594212
 20
-10542.59389954
 42
1.30322619
 10
51480.3594212
 20
-10526.49513837
 10
51451.33974833
 20
-10534.26056621
 42
-1.30322619
 10
51451.33974833
 20
-10518.16180504
 10
51480.3594212
 20
-10525.92723287
 42
1.30322619
 10
51480.3594212
 20
-10509.8284717
 10
51451.33974833
 20
-10517.59389954
 42
-1.30322619
 10
51451.33974833
 20
-10501.49513837
 10
51480.3594212
 20
-10509.26056621
 42
0.70976975
 10
51489.21818172
 20
-10496.25855249
  0
LWPOLYLINE
  5
613
100
AcDbEntity
  8
Ech.1_5
 62
   190
  6
CONTINUOUS
370
    -3
100
AcDbPolyline
 90
      118
 70
     0
 43
0.0
 10
51217.50961623
 20
-11467.12443985
 42
1.14028181
 10
51216.64516682
 20
-11460.55830996
 10
51205.01419149
 20
-11463.67066412
 42
-1.30322619
 10
51205.01419149
 20
-11457.21834142
 10
51216.64516682
 20
-11460.33069558
 42
1.30322619
 10
51216.64516682
 20
-11453.87837288
 10
51205.01419149
 20
-11456.99072704
 42
-1.30322619
 10
51205.01419149
 20
-11450.53840434
 10
51216.64516682
 20
-11453.6507585
 42
1.30322619
 10
51216.64516682
 20
-11447.1984358
 10
51205.01419149
 20
-11450.31078996
 42
-1.30322619
 10
51205.01419149
 20
-11443.85846727
 10
51216.64516682
 20
-11446.97082143
 42
1.30322619
 10
51216.64516682
 20
-11440.51849873
 10
51205.01419149
 20
-11443.63085289
 42
-1.30322619
 10
51205.01419149
 20
-11437.17853019
 10
51216.64516682
 20
-11440.29088435
 42
1.30322619
 10
51216.64516682
 20
-11433.83856165
 10
51205.01419149
 20
-11436.95091581
 42
-1.30322619
 10
51205.01419149
 20
-11430.49859311
 10
51216.64516682
 20
-11433.61094727
 42
1.30322619
 10
51216.64516682
 20
-11427.15862457
 10
51205.01419149
 20
-11430.27097873
 42
-1.30322619
 10
51205.01419149
 20
-11423.81865603
 10
51216.64516682
 20
-11426.93101019
 42
1.30322619
 10
51216.64516682
 20
-11420.47868749
 10
51205.01419149
 20
-11423.59104165
 42
-1.30322619
 10
51205.01419149
 20
-11417.13871896
 10
51216.64516682
 20
-11420.25107312
 42
1.30322619
 10
51216.64516682
 20
-11413.79875042
 10
51205.01419149
 20
-11416.91110458
 42
-1.30322619
 10
51205.01419149
 20
-11410.45878188
 10
51216.64516682
 20
-11413.57113604
 42
1.30322619
 10
51216.64516682
 20
-11407.11881334
 10
51205.01419149
 20
-11410.2311675
 42
-1.30322619
 10
51205.01419149
 20
-11403.7788448
 10
51216.64516682
 20
-11406.89119896
 42
1.30322619
 10
51216.64516682
 20
-11400.43887626
 10
51205.01419149
 20
-11403.55123042
 42
-1.30322619
 10
51205.01419149
 20
-11397.09890772
 10
51216.64516682
 20
-11400.21126188
 42
1.30322619
 10
51216.64516682
 20
-11393.75893919
 10
51205.01419149
 20
-11396.87129334
 42
-1.30322619
 10
51205.01419149
 20
-11390.41897065
 10
51216.64516682
 20
-11393.53132481
 42
1.30322619
 10
51216.64516682
 20
-11387.07900211
 10
51205.01419149
 20
-11390.19135627
 42
-1.30322619
 10
51205.01419149
 20
-11383.73903357
 10
51216.64516682
 20
-11386.85138773
 42
1.30322619
 10
51216.64516682
 20
-11380.39906503
 10
51205.01419149
 20
-11383.51141919
 42
-1.30322619
 10
51205.01419149
 20
-11377.05909649
 10
51216.64516682
 20
-11380.17145065
 42
1.30322619
 10
51216.64516682
 20
-11373.71912795
 10
51205.01419149
 20
-11376.83148211
 42
-1.30322619
 10
51205.01419149
 20
-11370.37915941
 10
51216.64516682
 20
-11373.49151357
 42
1.30322619
 10
51216.64516682
 20
-11367.03919088
 10
51205.01419149
 20
-11370.15154503
 42
-1.30322619
 10
51205.01419149
 20
-11363.69922234
 10
51216.64516682
 20
-11366.8115765
 42
1.30322619
 10
51216.64516682
 20
-11360.3592538
 10
51205.01419149
 20
-11363.47160796
 42
-1.30322619
 10
51205.01419149
 20
-11357.01928526
 10
51216.64516682
 20
-11360.13163942
 42
1.30322619
 10
51216.64516682
 20
-11353.67931672
 10
51205.01419149
 20
-11356.79167088
 42
-1.30322619
 10
51205.01419149
 20
-11350.33934818
 10
51216.64516682
 20
-11353.45170234
 42
1.30322619
 10
51216.64516682
 20
-11346.99937964
 10
51205.01419149
 20
-11350.1117338
 42
-1.30322619
 10
51205.01419149
 20
-11343.6594111
 10
51216.64516682
 20
-11346.77176526
 42
1.30322619
 10
51216.64516682
 20
-11340.31944257
 10
51205.01419149
 20
-11343.43179672
 42
-1.30322619
 10
51205.01419149
 20
-11336.97947403
 10
51216.64516682
 20
-11340.09182819
 42
1.30322619
 10
51216.64516682
 20
-11333.63950549
 10
51205.01419149
 20
-11336.75185965
 42
-1.30322619
 10
51205.01419149
 20
-11330.29953695
 10
51216.64516682
 20
-11333.41189111
 42
1.30322619
 10
51216.64516682
 20
-11326.95956841
 10
51205.01419149
 20
-11330.07192257
 42
-1.30322619
 10
51205.01419149
 20
-11323.61959987
 10
51216.64516682
 20
-11326.73195403
 42
1.30322619
 10
51216.64516682
 20
-11320.27963133
 10
51205.01419149
 20
-11323.39198549
 42
-1.30322619
 10
51205.01419149
 20
-11316.93966279
 10
51216.64516682
 20
-11320.05201695
 42
1.30322619
 10
51216.64516682
 20
-11313.59969426
 10
51205.01419149
 20
-11316.71204842
 42
-1.30322619
 10
51205.01419149
 20
-11310.25972572
 10
51216.64516682
 20
-11313.37207988
 42
1.30322619
 10
51216.64516682
 20
-11306.91975718
 10
51205.01419149
 20
-11310.03211134
 42
-1.30322619
 10
51205.01419149
 20
-11303.57978864
 10
51216.64516682
 20
-11306.6921428
 42
1.30322619
 10
51216.64516682
 20
-11300.2398201
 10
51205.01419149
 20
-11303.35217426
 42
-1.30322619
 10
51205.01419149
 20
-11296.89985156
 10
51216.64516682
 20
-11300.01220572
 42
1.30322619
 10
51216.64516682
 20
-11293.55988302
 10
51205.01419149
 20
-11296.67223718
 42
-1.30322619
 10
51205.01419149
 20
-11290.21991448
 10
51216.64516682
 20
-11293.33226864
 42
1.30322619
 10
51216.64516682
 20
-11286.87994595
 10
51205.01419149
 20
-11289.99230011
 42
-1.30322619
 10
51205.01419149
 20
-11283.53997741
 10
51216.64516682
 20
-11286.65233157
 42
1.30322619
 10
51216.64516682
 20
-11280.20000887
 10
51205.01419149
 20
-11283.31236303
 42
-1.30322619
 10
51205.01419149
 20
-11276.86004033
 10
51216.64516682
 20
-11279.97239449
 42
1.30322619
 10
51216.64516682
 20
-11273.52007179
 10
51205.01419149
 20
-11276.63242595
 42
-1.30322619
 10
51205.01419149
 20
-11270.18010325
 10
51216.64516682
 20
-11273.29245741
 42
0.89049396
 10
51219.09103069
 20
-11267.12443982
  0
LWPOLYLINE
  5
614
100
AcDbEntity
  8
Ech.1_5
 62
   190
  6
CONTINUOUS
370
    -3
100
AcDbPolyline
 90
      118
 70
     0
 43
0.0
 10
51217.50961623
 20
-10864.67514197
 42
1.14028181
 10
51216.64516682
 20
-10858.10901208
 10
51205.01419149
 20
-10861.22136624
 42
-1.30322619
 10
51205.01419149
 20
-10854.76904354
 10
51216.64516682
 20
-10857.8813977
 42
1.30322619
 10
51216.64516682
 20
-10851.429075
 10
51205.01419149
 20
-10854.54142916
 42
-1.30322619
 10
51205.01419149
 20
-10848.08910646
 10
51216.64516682
 20
-10851.20146062
 42
1.30322619
 10
51216.64516682
 20
-10844.74913792
 10
51205.01419149
 20
-10847.86149208
 42
-1.30322619
 10
51205.01419149
 20
-10841.40916938
 10
51216.64516682
 20
-10844.52152354
 42
1.30322619
 10
51216.64516682
 20
-10838.06920085
 10
51205.01419149
 20
-10841.18155501
 42
-1.30322619
 10
51205.01419149
 20
-10834.72923231
 10
51216.64516682
 20
-10837.84158647
 42
1.30322619
 10
51216.64516682
 20
-10831.38926377
 10
51205.01419149
 20
-10834.50161793
 42
-1.30322619
 10
51205.01419149
 20
-10828.04929523
 10
51216.64516682
 20
-10831.16164939
 42
1.30322619
 10
51216.64516682
 20
-10824.70932669
 10
51205.01419149
 20
-10827.82168085
 42
-1.30322619
 10
51205.01419149
 20
-10821.36935815
 10
51216.64516682
 20
-10824.48171231
 42
1.30322619
 10
51216.64516682
 20
-10818.02938961
 10
51205.01419149
 20
-10821.14174377
 42
-1.30322619
 10
51205.01419149
 20
-10814.68942107
 10
51216.64516682
 20
-10817.80177523
 42
1.30322619
 10
51216.64516682
 20
-10811.34945254
 10
51205.01419149
 20
-10814.4618067
 42
-1.30322619
 10
51205.01419149
 20
-10808.009484
 10
51216.64516682
 20
-10811.12183816
 42
1.30322619
 10
51216.64516682
 20
-10804.66951546
 10
51205.01419149
 20
-10807.78186962
 42
-1.30322619
 10
51205.01419149
 20
-10801.32954692
 10
51216.64516682
 20
-10804.44190108
 42
1.30322619
 10
51216.64516682
 20
-10797.98957838
 10
51205.01419149
 20
-10801.10193254
 42
-1.30322619
 10
51205.01419149
 20
-10794.64960984
 10
51216.64516682
 20
-10797.761964
 42
1.30322619
 10
51216.64516682
 20
-10791.3096413
 10
51205.01419149
 20
-10794.42199546
 42
-1.30322619
 10
51205.01419149
 20
-10787.96967277
 10
51216.64516682
 20
-10791.08202692
 42
1.30322619
 10
51216.64516682
 20
-10784.62970423
 10
51205.01419149
 20
-10787.74205839
 42
-1.30322619
 10
51205.01419149
 20
-10781.28973569
 10
51216.64516682
 20
-10784.40208985
 42
1.30322619
 10
51216.64516682
 20
-10777.94976715
 10
51205.01419149
 20
-10781.06212131
 42
-1.30322619
 10
51205.01419149
 20
-10774.60979861
 10
51216.64516682
 20
-10777.72215277
 42
1.30322619
 10
51216.64516682
 20
-10771.26983007
 10
51205.01419149
 20
-10774.38218423
 42
-1.30322619
 10
51205.01419149
 20
-10767.92986153
 10
51216.64516682
 20
-10771.04221569
 42
1.30322619
 10
51216.64516682
 20
-10764.58989299
 10
51205.01419149
 20
-10767.70224715
 42
-1.30322619
 10
51205.01419149
 20
-10761.24992446
 10
51216.64516682
 20
-10764.36227861
 42
1.30322619
 10
51216.64516682
 20
-10757.90995592
 10
51205.01419149
 20
-10761.02231008
 42
-1.30322619
 10
51205.01419149
 20
-10754.56998738
 10
51216.64516682
 20
-10757.68234154
 42
1.30322619
 10
51216.64516682
 20
-10751.23001884
 10
51205.01419149
 20
-10754.342373
 42
-1.30322619
 10
51205.01419149
 20
-10747.8900503
 10
51216.64516682
 20
-10751.00240446
 42
1.30322619
 10
51216.64516682
 20
-10744.55008176
 10
51205.01419149
 20
-10747.66243592
 42
-1.30322619
 10
51205.01419149
 20
-10741.21011322
 10
51216.64516682
 20
-10744.32246738
 42
1.30322619
 10
51216.64516682
 20
-10737.87014468
 10
51205.01419149
 20
-10740.98249884
 42
-1.30322619
 10
51205.01419149
 20
-10734.53017615
 10
51216.64516682
 20
-10737.6425303
 42
1.30322619
 10
51216.64516682
 20
-10731.19020761
 10
51205.01419149
 20
-10734.30256177
 42
-1.30322619
 10
51205.01419149
 20
-10727.85023907
 10
51216.64516682
 20
-10730.96259323
 42
1.30322619
 10
51216.64516682
 20
-10724.51027053
 10
51205.01419149
 20
-10727.62262469
 42
-1.30322619
 10
51205.01419149
 20
-10721.17030199
 10
51216.64516682
 20
-10724.28265615
 42
1.30322619
 10
51216.64516682
 20
-10717.83033345
 10
51205.01419149
 20
-10720.94268761
 42
-1.30322619
 10
51205.01419149
 20
-10714.49036491
 10
51216.64516682
 20
-10717.60271907
 42
1.30322619
 10
51216.64516682
 20
-10711.15039637
 10
51205.01419149
 20
-10714.26275053
 42
-1.30322619
 10
51205.01419149
 20
-10707.81042784
 10
51216.64516682
 20
-10710.922782
 42
1.30322619
 10
51216.64516682
 20
-10704.4704593
 10
51205.01419149
 20
-10707.58281346
 42
-1.30322619
 10
51205.01419149
 20
-10701.13049076
 10
51216.64516682
 20
-10704.24284492
 42
1.30322619
 10
51216.64516682
 20
-10697.79052222
 10
51205.01419149
 20
-10700.90287638
 42
-1.30322619
 10
51205.01419149
 20
-10694.45055368
 10
51216.64516682
 20
-10697.56290784
 42
1.30322619
 10
51216.64516682
 20
-10691.11058514
 10
51205.01419149
 20
-10694.2229393
 42
-1.30322619
 10
51205.01419149
 20
-10687.7706166
 10
51216.64516682
 20
-10690.88297076
 42
1.30322619
 10
51216.64516682
 20
-10684.43064806
 10
51205.01419149
 20
-10687.54300222
 42
-1.30322619
 10
51205.01419149
 20
-10681.09067953
 10
51216.64516682
 20
-10684.20303369
 42
1.30322619
 10
51216.64516682
 20
-10677.75071099
 10
51205.01419149
 20
-10680.86306515
 42
-1.30322619
 10
51205.01419149
 20
-10674.41074245
 10
51216.64516682
 20
-10677.52309661
 42
1.30322619
 10
51216.64516682
 20
-10671.07077391
 10
51205.01419149
 20
-10674.18312807
 42
-1.30322619
 10
51205.01419149
 20
-10667.73080537
 10
51216.64516682
 20
-10670.84315953
 42
0.89049396
 10
51219.09103069
 20
-10664.67514194
  0
LWPOLYLINE
  5
615
100
AcDbEntity
  8
Ech.1_5
 62
   190
  6
CONTINUOUS
370
    -3
100
AcDbPolyline
 90
       10
 70
     1
 43
0.0
 10
51200.84958477
 20
-10819.67826239
 10
51200.84958477
 20
-10496.2578401
 10
51098.6271181
 20
-10496.2578401
 10
51082.14076402
 20
-10514.23619169
 10
51096.25070404
 20
-10478.28049168
 10
51079.76520088
 20
-10496.2578401
 10
51020.84958477
 20
-10496.2578401
 10
51020.84958477
 20
-10674.67826239
 10
51065.84958477
 20
-10674.67826239
 10
51065.84958477
 20
-10819.67826239
  0
LWPOLYLINE
  5
616
100
AcDbEntity
  8
Ech.1_5
 62
   190
  6
CONTINUOUS
370
    -3
100
AcDbPolyline
 90
       20
 70
     0
 43
0.0
 10
51050.84958482
 20
-10496.2578401
 42
1.14028181
 10
51058.61417365
 20
-10555.2356102
 10
51163.08499597
 20
-10527.28007001
 42
-1.30322619
 10
51163.08499596
 20
-10585.23561021
 10
51058.61417365
 20
-10557.28006999
 42
1.30322619
 10
51058.61417365
 20
-10615.23561019
 10
51163.08499596
 20
-10587.28007
 42
-1.30322619
 10
51163.08499596
 20
-10645.2356102
 10
51058.61417365
 20
-10617.28006998
 42
1.30322619
 10
51058.61417364
 20
-10675.23561018
 10
51163.08499596
 20
-10647.28006999
 42
-1.30322619
 10
51163.08499595
 20
-10705.23561019
 10
51058.61417364
 20
-10677.28006998
 42
1.30322619
 10
51058.61417363
 20
-10735.23561018
 10
51163.08499595
 20
-10707.28006998
 42
-1.30322619
 10
51163.08499594
 20
-10765.23561019
 10
51058.61417363
 20
-10737.28006997
 42
1.30322619
 10
51058.61417362
 20
-10795.23561017
 10
51163.08499594
 20
-10767.28006998
 42
-0.8121201
 10
51189.59748646
 20
-10819.67826241
  0
LWPOLYLINE
  5
617
100
AcDbEntity
  8
Ech.1_5
 62
   190
  6
CONTINUOUS
370
    -3
100
AcDbPolyline
 90
        5
 70
     0
 43
0.0
 10
51702.95438512
 20
-10403.63631346
 10
50717.95438512
 20
-10403.63631346
 10
50717.95438512
 20
-11758.63631346
 10
51702.95438512
 20
-11758.63631346
 10
51702.95438512
 20
-10403.63631346
  0
LWPOLYLINE
  5
618
100
AcDbEntity
  8
Ech.1_5
 62
   190
100
AcDbPolyline
 90
        5
 70
     0
 43
0.0
 10
51549.08804591
 20
-11396.99545749
 10
51683.51682489
 20
-11396.99545749
 10
51683.51682489
 20
-11453.7184163
 10
51549.08804591
 20
-11453.7184163
 10
51549.08804591
 20
-11396.99545749
  0
HATCH
  5
619
100
AcDbEntity
  8
Ech.1_5
 62
   190
100
AcDbHatch
 10
0.0
 20
0.0
 30
0.0
210
0.0
220
0.0
230
1.0
  2
SOLID
 70
     1
 71
     0
 91
        1
 92
        7
 72
     0
 73
     1
 93
        4
 10
51567.36809169
 20
-11430.65226862
 10
51617.36809169
 20
-11430.65226862
 10
51617.36809169
 20
-11423.23713108
 10
51567.36809169
 20
-11423.23713108
 97
        0
 75
     0
 76
     2
 47
0.775229
 98
        1
 10
0.0
 20
0.0
  0
LWPOLYLINE
  5
61A
100
AcDbEntity
  8
Ech.1_5
 62
   190
100
AcDbPolyline
 90
        5
 70
     0
 43
0.0
 10
51567.36809169
 20
-11430.65226862
 10
51617.36809169
 20
-11430.65226862
 10
51617.36809169
 20
-11423.23713108
 10
51567.36809169
 20
-11423.23713108
 10
51567.36809169
 20
-11430.65226862
  0
LWPOLYLINE
  5
61B
100
AcDbEntity
  8
Ech.1_5
 62
   190
100
AcDbPolyline
 90
        5
 70
     0
 43
0.0
 10
51617.36809169
 20
-11430.65226862
 10
51667.36809169
 20
-11430.65226862
 10
51667.36809169
 20
-11423.23713108
 10
51617.36809169
 20
-11423.23713108
 10
51617.36809169
 20
-11430.65226862
  0
LWPOLYLINE
  5
61C
102
{ACAD_REACTORS
330
61D
102
}
100
AcDbEntity
  8
Ech.1_5
 62
     9
  6
CONTINUOUS
370
    -3
100
AcDbPolyline
 90
        4
 70
     1
 43
0.0
 10
51490.84958477
 20
-11185.49924758
 10
51503.84958477
 20
-11185.49924758
 10
51503.84958477
 20
-11484.30763567
 10
51490.84958477
 20
-11484.30763567
  0
HATCH
  5
61D
100
AcDbEntity
  8
Ech.1_5
 62
     9
  6
CONTINUOUS
100
AcDbHatch
 10
0.0
 20
0.0
 30
0.0
210
0.0
220
0.0
230
1.0
  2
DOTS2
 70
     0
 71
     1
 91
        1
 92
        7
 72
     0
 73
     1
 93
        4
 10
51490.84958477
 20
-11185.49924758
 10
51503.84958477
 20
-11185.49924758
 10
51503.84958477
 20
-11484.30763567
 10
51490.84958477
 20
-11484.30763567
 97
        1
330
61C
 75
     0
 76
     2
 52
0.0
 41
4.72440952
 77
     0
 78
     1
 53
0.0
 43
0.0
 44
0.0
 45
3.75
 46
3.535
 79
     2
 49
0.0
 49
-3.535
 47
0.775229
 98
        1
 10
0.0
 20
0.0
  0
3DFACE
  5
61E
102
{ACAD_REACTORS
330
61F
102
}
100
AcDbEntity
  8
Ech.1_5
 62
     9
  6
CONTINUOUS
370
    -3
100
AcDbFace
 70
     0
 10
51220.84958477
 20
-10496.2578401
 30
2500.0
 11
51420.84958477
 21
-10496.2578401
 31
2500.0
 12
51420.84958477
 22
-10864.67826239
 32
2500.0
 13
51220.84958477
 23
-10864.67514197
 33
2500.0
  0
HATCH
  5
61F
100
AcDbEntity
  8
Ech.1_5
 62
     9
  6
CONTINUOUS
100
AcDbHatch
 10
0.0
 20
0.0
 30
0.0
210
0.0
220
0.0
230
1.0
  2
AR-CONC
 70
     0
 71
     1
 91
        1
 92
        7
 72
     0
 73
     1
 93
        4
 10
51220.84958477
 20
-10496.2578401
 10
51420.84958477
 20
-10496.2578401
 10
51420.84958477
 20
-10864.67826239
 10
51220.84958477
 20
-10864.67514197
 97
        1
330
61E
 75
     0
 76
     2
 52
0.0
 41
0.11811097
 77
     0
 78
    13
 53
50.0
 43
0.0
 44
0.0
 45
-18.84283637
 46
1.64853443
 79
     2
 49
1.97029307
 49
-21.67322338
 53
355.0
 43
0.0
 44
0.0
 45
-3.64507756
 46
19.76051824
 79
     2
 49
1.57623377
 49
-17.3385787
 53
100.45140076
 43
1.57023568
 44
-0.13737749
 45
-15.19777228
 46
-18.11197244
 79
     2
 49
1.67449124
 49
-18.41940522
 53
46.18420029
 43
0.0
 44
5.25411576
 45
-28.03703353
 46
4.34827878
 79
     2
 49
2.95543872
 49
-32.50983238
 53
96.63559723
 43
2.33641885
 44
4.89175692
 45
-24.55412615
 46
-25.59063404
 79
     2
 49
2.51173697
 49
-27.62910426
 53
351.1842041
 43
0.0
 44
5.25411576
 45
24.55410288
 46
25.59065715
 79
     2
 49
2.36435249
 49
-26.00786805
 53
21.0
 43
2.62705699
 44
3.94058615
 45
-15.68109068
 46
10.57702905
 79
     2
 49
1.97029307
 49
-21.67322338
 53
326.0
 43
2.62705699
 44
3.94058615
 45
6.39203268
 46
19.05010734
 79
     2
 49
1.57623377
 49
-17.3385787
 53
71.45140076
 43
3.93381357
 44
3.05916555
 45
-22.07312962
 46
-8.47306182
 79
     2
 49
1.67449124
 49
-18.41940522
 53
37.5
 43
0.0
 44
0.0
 45
0.31944534
 46
8.74531245
 79
     6
 49
0.01875
 49
-17.12841332
 49
0.01875
 49
-17.60128498
 49
0.01875
 49
-17.40425348
 53
7.5
 43
0.0
 44
0.0
 45
6.91098818
 46
10.3614222
 79
     6
 49
0.01875
 49
-10.03535807
 49
0.01875
 49
-16.7343539
 49
0.01875
 49
-6.6333206
 53
-32.5
 43
-5.85833833
 44
0.0
 45
14.02382061
 46
-0.59253003
 79
     6
 49
0.01875
 49
-6.56764314
 49
0.01875
 49
-20.49104869
 49
0.01875
 49
-27.19004452
 53
-42.5
 43
-8.48539531
 44
0.0
 45
15.32063571
 46
2.62981542
 79
     6
 49
0.01875
 49
-8.53793621
 49
0.01875
 49
-13.60815793
 49
0.01875
 49
-19.30887222
 47
0.775229
 98
        1
 10
0.0
 20
0.0
  0
LWPOLYLINE
  5
620
102
{ACAD_REACTORS
330
621
102
}
100
AcDbEntity
  8
Ech.1_5
 62
     9
  6
CONTINUOUS
370
    -3
100
AcDbPolyline
 90
        4
 70
     1
 43
0.0
 10
51490.84958477
 20
-10496.25855249
 10
51503.84958477
 20
-10496.25855249
 10
51503.84958477
 20
-10826.21118562
 10
51490.84958477
 20
-10826.21118562
  0
HATCH
  5
621
100
AcDbEntity
  8
Ech.1_5
 62
     9
  6
CONTINUOUS
100
AcDbHatch
 10
0.0
 20
0.0
 30
0.0
210
0.0
220
0.0
230
1.0
  2
DOTS2
 70
     0
 71
     1
 91
        1
 92
        7
 72
     0
 73
     1
 93
        4
 10
51490.84958477
 20
-10496.25855249
 10
51503.84958477
 20
-10496.25855249
 10
51503.84958477
 20
-10826.21118562
 10
51490.84958477
 20
-10826.21118562
 97
        1
330
620
 75
     0
 76
     2
 52
0.0
 41
4.72440952
 77
     0
 78
     1
 53
0.0
 43
0.0
 44
0.0
 45
3.75
 46
3.535
 79
     2
 49
0.0
 49
-3.535
 47
0.775229
 98
        1
 10
0.0
 20
0.0
  0
3DFACE
  5
622
102
{ACAD_REACTORS
330
623
102
}
100
AcDbEntity
  8
Ech.1_5
 62
     9
  6
CONTINUOUS
370
    -3
100
AcDbFace
 70
     0
 10
51420.84958477
 20
-11484.30721129
 30
2500.0
 11
51420.84958477
 21
-11267.12443982
 31
2500.0
 12
51220.84958477
 22
-11267.12443982
 32
2500.0
 13
51220.84958477
 23
-11484.30409086
 33
2500.0
  0
HATCH
  5
623
100
AcDbEntity
  8
Ech.1_5
 62
     9
  6
CONTINUOUS
100
AcDbHatch
 10
0.0
 20
0.0
 30
0.0
210
0.0
220
0.0
230
1.0
  2
AR-CONC
 70
     0
 71
     1
 91
        1
 92
        7
 72
     0
 73
     1
 93
        4
 10
51420.84958477
 20
-11484.30721129
 10
51420.84958477
 20
-11267.12443982
 10
51220.84958477
 20
-11267.12443982
 10
51220.84958477
 20
-11484.30409086
 97
        1
330
622
 75
     0
 76
     2
 52
0.0
 41
0.11811097
 77
     0
 78
    13
 53
50.0
 43
0.0
 44
0.0
 45
-18.84283637
 46
1.64853443
 79
     2
 49
1.97029307
 49
-21.67322338
 53
355.0
 43
0.0
 44
0.0
 45
-3.64507756
 46
19.76051824
 79
     2
 49
1.57623377
 49
-17.3385787
 53
100.45140076
 43
1.57023568
 44
-0.13737749
 45
-15.19777228
 46
-18.11197244
 79
     2
 49
1.67449124
 49
-18.41940522
 53
46.18420029
 43
0.0
 44
5.25411576
 45
-28.03703353
 46
4.34827878
 79
     2
 49
2.95543872
 49
-32.50983238
 53
96.63559723
 43
2.33641885
 44
4.89175692
 45
-24.55412615
 46
-25.59063404
 79
     2
 49
2.51173697
 49
-27.62910426
 53
351.1842041
 43
0.0
 44
5.25411576
 45
24.55410288
 46
25.59065715
 79
     2
 49
2.36435249
 49
-26.00786805
 53
21.0
 43
2.62705699
 44
3.94058615
 45
-15.68109068
 46
10.57702905
 79
     2
 49
1.97029307
 49
-21.67322338
 53
326.0
 43
2.62705699
 44
3.94058615
 45
6.39203268
 46
19.05010734
 79
     2
 49
1.57623377
 49
-17.3385787
 53
71.45140076
 43
3.93381357
 44
3.05916555
 45
-22.07312962
 46
-8.47306182
 79
     2
 49
1.67449124
 49
-18.41940522
 53
37.5
 43
0.0
 44
0.0
 45
0.31944534
 46
8.74531245
 79
     6
 49
0.01875
 49
-17.12841332
 49
0.01875
 49
-17.60128498
 49
0.01875
 49
-17.40425348
 53
7.5
 43
0.0
 44
0.0
 45
6.91098818
 46
10.3614222
 79
     6
 49
0.01875
 49
-10.03535807
 49
0.01875
 49
-16.7343539
 49
0.01875
 49
-6.6333206
 53
-32.5
 43
-5.85833833
 44
0.0
 45
14.02382061
 46
-0.59253003
 79
     6
 49
0.01875
 49
-6.56764314
 49
0.01875
 49
-20.49104869
 49
0.01875
 49
-27.19004452
 53
-42.5
 43
-8.48539531
 44
0.0
 45
15.32063571
 46
2.62981542
 79
     6
 49
0.01875
 49
-8.53793621
 49
0.01875
 49
-13.60815793
 49
0.01875
 49
-19.30887222
 47
0.775229
 98
        1
 10
0.0
 20
0.0
  0
LWPOLYLINE
  5
624
100
AcDbEntity
  8
Ech.1_5
 62
   254
  6
CONTINUOUS
370
    -3
100
AcDbPolyline
 90
        4
 70
     1
 43
0.0
 10
51477.67359891
 20
-11185.49924758
 10
51477.67359891
 20
-11267.12443982
 10
51490.84958477
 20
-11267.12443982
 10
51490.84958477
 20
-11185.49924758
  0
LWPOLYLINE
  5
625
102
{ACAD_REACTORS
330
626
102
}
100
AcDbEntity
  8
Ech.1_5
 62
     9
  6
CONTINUOUS
370
    -3
100
AcDbPolyline
 90
        6
 70
     1
 43
0.0
 38
2500.0
 39
-2500.0
 10
51205.0793818
 20
-11229.37870265
 10
51205.08030425
 20
-11267.12443982
 10
51477.67359891
 20
-11267.12443982
 10
51477.67359891
 20
-11185.49924758
 10
51447.67359891
 20
-11185.49924758
 10
51447.67359891
 20
-11205.49924758
  0
HATCH
  5
626
100
AcDbEntity
  8
Ech.1_5
 62
     9
  6
CONTINUOUS
100
AcDbHatch
 10
0.0
 20
0.0
 30
0.0
210
0.0
220
0.0
230
1.0
  2
AR-CONC
 70
     0
 71
     1
 91
        1
 92
        7
 72
     0
 73
     1
 93
        6
 10
51205.0793818
 20
-11229.37870265
 10
51205.08030425
 20
-11267.12443982
 10
51477.67359891
 20
-11267.12443982
 10
51477.67359891
 20
-11185.49924758
 10
51447.67359891
 20
-11185.49924758
 10
51447.67359891
 20
-11205.49924758
 97
        1
330
625
 75
     0
 76
     2
 52
0.0
 41
0.03937032
 77
     0
 78
    13
 53
50.0
 43
0.0
 44
0.0
 45
-6.28094546
 46
0.54951148
 79
     2
 49
0.65676436
 49
-7.22440779
 53
355.0
 43
0.0
 44
0.0
 45
-1.21502585
 46
6.58683941
 79
     2
 49
0.52541126
 49
-5.77952623
 53
100.45140076
 43
0.52341189
 44
-0.0457925
 45
-5.06592409
 46
-6.03732415
 79
     2
 49
0.55816375
 49
-6.13980174
 53
46.18420029
 43
0.0
 44
1.75137192
 45
-9.34567785
 46
1.44942626
 79
     2
 49
0.98514624
 49
-10.83661079
 53
96.63559723
 43
0.77880628
 44
1.63058564
 45
-8.18470872
 46
-8.53021135
 79
     2
 49
0.83724566
 49
-9.20970142
 53
351.1842041
 43
0.0
 44
1.75137192
 45
8.18470096
 46
8.53021905
 79
     2
 49
0.7881175
 49
-8.66928935
 53
21.0
 43
0.87568566
 44
1.31352872
 45
-5.22703023
 46
3.52567635
 79
     2
 49
0.65676436
 49
-7.22440779
 53
326.0
 43
0.87568566
 44
1.31352872
 45
2.13067756
 46
6.35003578
 79
     2
 49
0.52541126
 49
-5.77952623
 53
71.45140076
 43
1.31127119
 44
1.01972185
 45
-7.35770987
 46
-2.82435394
 79
     2
 49
0.55816375
 49
-6.13980174
 53
37.5
 43
0.0
 44
0.0
 45
0.10648178
 46
2.91510415
 79
     6
 49
0.00625
 49
-5.70947111
 49
0.00625
 49
-5.86709499
 49
0.00625
 49
-5.80141783
 53
7.5
 43
0.0
 44
0.0
 45
2.30366273
 46
3.4538074
 79
     6
 49
0.00625
 49
-3.34511936
 49
0.00625
 49
-5.57811797
 49
0.00625
 49
-2.21110687
 53
-32.5
 43
-1.95277944
 44
0.0
 45
4.67460687
 46
-0.19751001
 79
     6
 49
0.00625
 49
-2.18921438
 49
0.00625
 49
-6.83034956
 49
0.00625
 49
-9.06334817
 53
-42.5
 43
-2.8284651
 44
0.0
 45
5.10687857
 46
0.87660514
 79
     6
 49
0.00625
 49
-2.84597874
 49
0.00625
 49
-4.53605264
 49
0.00625
 49
-6.43629074
 47
0.775229
 98
        1
 10
0.0
 20
0.0
  0
LWPOLYLINE
  5
627
100
AcDbEntity
  8
Ech.1_5
 62
   190
  6
CONTINUOUS
370
    -3
100
AcDbPolyline
 90
        4
 70
     1
 43
0.0
 10
51011.84958477
 20
-10802.00078562
 10
51011.84958477
 20
-10496.2578401
 10
50987.34958477
 20
-10496.2578401
 10
50987.34958477
 20
-10802.00078562
  0
LWPOLYLINE
  5
628
100
AcDbEntity
  8
Ech.1_5
 62
   190
  6
CONTINUOUS
370
    -3
100
AcDbPolyline
 90
        8
 70
     1
 43
0.0
 10
51021.34958477
 20
-11250.49924758
 10
51021.34958477
 20
-11484.30662494
 10
51122.11941077
 20
-11484.30662494
 10
51138.60491393
 20
-11466.32927653
 10
51124.49497391
 20
-11502.28497654
 10
51140.98132799
 20
-11484.30662494
 10
51201.34958477
 20
-11484.30662494
 10
51201.34958477
 20
-11250.49924758
  0
LWPOLYLINE
  5
629
100
AcDbEntity
  8
Ech.1_5
 62
     7
  6
CONTINUOUS
370
    -3
100
AcDbPolyline
 90
       21
 70
     1
 43
0.0
 10
50987.34958477
 20
-10604.82187594
 10
50983.34958477
 20
-10600.82187594
 10
50987.34958477
 20
-10596.82187594
 10
50987.34958477
 20
-10560.82187594
 10
50981.34958477
 20
-10560.82187594
 10
50980.34958477
 20
-10560.82187594
 10
50980.34958477
 20
-10550.82187594
 10
50975.34958477
 20
-10550.82187594
 10
50975.34958477
 20
-10586.75080816
 10
50974.96898247
 20
-10588.66422526
 10
50968.81405087
 20
-10595.35740984
 10
50967.34958477
 20
-10598.89294375
 10
50967.34958477
 20
-10722.82187594
 10
50974.34958477
 20
-10722.82187594
 10
50974.34958477
 20
-10694.82187594
 10
50981.34958477
 20
-10694.82187594
 10
50981.34958477
 20
-10704.82187594
 10
50987.34958477
 20
-10704.82187594
 10
50987.34958477
 20
-10676.82187594
 10
50983.34958477
 20
-10672.82187594
 10
50987.34958477
 20
-10668.82187594
  0
LWPOLYLINE
  5
62A
100
AcDbEntity
  8
Ech.1_5
 62
     7
  6
CONTINUOUS
370
    -3
100
AcDbPolyline
 90
        4
 70
     1
 43
0.0
 10
51201.34958477
 20
-11205.49924758
 10
51021.34958477
 20
-11205.49924758
 10
51021.34958477
 20
-11250.49924758
 10
51201.34958477
 20
-11250.49924758
  0
3DFACE
  5
62B
100
AcDbEntity
  8
Ech.1_5
 62
    36
  6
CONTINUOUS
370
    -3
100
AcDbFace
 70
     0
 10
51201.34958477
 20
-11250.49924758
 30
12557.5
 11
51021.34958477
 21
-11250.49924758
 31
12557.5
 12
51021.34958477
 22
-11250.49924758
 32
9857.5
 13
51201.34958477
 23
-11250.49924758
 33
9857.5
  0
3DFACE
  5
62C
100
AcDbEntity
  8
Ech.1_5
 62
    36
  6
CONTINUOUS
370
    -3
100
AcDbFace
 70
     0
 10
51201.34958477
 20
-11250.49924758
 30
9857.5
 11
51201.34958477
 21
-11205.49924758
 31
9857.5
 12
51021.34958477
 22
-11205.49924758
 32
9857.5
 13
51021.34958477
 23
-11250.49924758
 33
9857.5
  0
3DFACE
  5
62D
100
AcDbEntity
  8
Ech.1_5
 62
    36
  6
CONTINUOUS
370
    -3
100
AcDbFace
 70
     0
 10
51201.34958477
 20
-11205.49924758
 30
9857.5
 11
51021.34958477
 21
-11205.49924758
 31
9857.5
 12
51021.34958477
 22
-11205.49924758
 32
12557.5
 13
51201.34958477
 23
-11205.49924758
 33
12557.5
  0
3DFACE
  5
62E
100
AcDbEntity
  8
Ech.1_5
 62
    36
  6
CONTINUOUS
370
    -3
100
AcDbFace
 70
     0
 10
51201.34958477
 20
-11205.49924758
 30
12557.5
 11
51021.34958477
 21
-11205.49924758
 31
12557.5
 12
51021.34958477
 22
-11250.49924758
 32
12557.5
 13
51201.34958477
 23
-11250.49924758
 33
12557.5
  0
3DFACE
  5
62F
100
AcDbEntity
  8
Ech.1_5
 62
    36
  6
CONTINUOUS
370
    -3
100
AcDbFace
 70
     0
 10
51201.34958477
 20
-11205.49924758
 30
9857.5
 11
51201.34958477
 21
-11205.49924758
 31
12557.5
 12
51201.34958477
 22
-11250.49924758
 32
12557.5
 13
51201.34958477
 23
-11250.49924758
 33
9857.5
  0
3DFACE
  5
630
100
AcDbEntity
  8
Ech.1_5
 62
    36
  6
CONTINUOUS
370
    -3
100
AcDbFace
 70
     0
 10
51021.34958477
 20
-11205.49924758
 30
12557.5
 11
51021.34958477
 21
-11205.49924758
 31
9857.5
 12
51021.34958477
 22
-11250.49924758
 32
9857.5
 13
51021.34958477
 23
-11250.49924758
 33
12557.5
  0
LWPOLYLINE
  5
631
100
AcDbEntity
  8
Ech.1_5
 62
   190
  6
CONTINUOUS
370
    -3
100
AcDbPolyline
 90
        4
 70
     1
 43
0.0
 10
51201.34958477
 20
-11205.49924758
 10
51021.34958477
 20
-11205.49924758
 10
51021.34958477
 20
-11250.49924758
 10
51201.34958477
 20
-11250.49924758
  0
LWPOLYLINE
  5
632
100
AcDbEntity
  8
Ech.1_5
 62
     5
  6
CONTINUOUS
370
    -3
100
AcDbPolyline
 90
        5
 70
     0
 43
0.0
 10
51021.34958477
 20
-11205.49924758
 10
51201.34958477
 20
-11205.49924758
 10
51201.34958477
 20
-11250.49924758
 10
51021.34958477
 20
-11250.49924758
 10
51021.34958477
 20
-11205.49924758
  0
LWPOLYLINE
  5
633
100
AcDbEntity
  8
Ech.1_5
 62
     7
  6
CONTINUOUS
370
    -3
100
AcDbPolyline
 90
       16
 70
     1
 43
0.0
 10
50983.34958477
 20
-10744.82187594
 10
50987.34958477
 20
-10740.82187594
 10
50987.34958477
 20
-10704.82187594
 10
50981.34958477
 20
-10704.82187594
 10
50980.34958477
 20
-10704.82187594
 10
50980.34958477
 20
-10694.82187594
 10
50975.34958477
 20
-10694.82187594
 10
50975.34958477
 20
-10730.75080816
 10
50974.96898247
 20
-10732.66422526
 10
50968.81405087
 20
-10739.35740984
 10
50967.34958477
 20
-10742.89294375
 10
50967.34958477
 20
-10830.89550925
 10
50987.34958477
 20
-10823.5309153
 10
50987.34958477
 20
-10823.5309153
 10
50987.34958477
 20
-10823.5309153
 10
50987.34958477
 20
-10748.82187594
  0
LWPOLYLINE
  5
634
100
AcDbEntity
  8
Ech.1_5
 62
   190
  6
CONTINUOUS
370
    -3
100
AcDbPolyline
 90
        4
 70
     1
 43
0.0
 10
50986.84958477
 20
-11290.45380087
 10
50986.84958477
 20
-11484.30662494
 10
51011.84958477
 20
-11484.30662494
 10
51011.84958477
 20
-11290.45380087
  0
LWPOLYLINE
  5
635
100
AcDbEntity
  8
Ech.1_5
 62
     3
370
    70
100
AcDbPolyline
 90
        4
 70
     0
 43
0.0
 10
51009.35159829
 20
-10757.71694287
 10
51009.35159829
 20
-10770.70607629
 10
51005.07645729
 20
-10773.50196485
 10
51005.07645729
 20
-10786.98039485
  0
LWPOLYLINE
  5
636
100
AcDbEntity
  8
Ech.1_5
 62
     7
  6
CONTINUOUS
370
    -3
100
AcDbPolyline
 90
        4
 70
     1
 43
0.0
 10
51020.84958479
 20
-10864.67826239
 10
51200.84958477
 20
-10864.67826239
 10
51200.84958477
 20
-10819.67826239
 10
51020.84958479
 20
-10819.67826239
  0
LWPOLYLINE
  5
637
100
AcDbEntity
  8
Ech.1_5
 62
     7
  6
CONTINUOUS
370
    -3
100
AcDbPolyline
 90
        4
 70
     1
 43
0.0
 10
51065.84958477
 20
-10819.67826239
 10
51065.84958477
 20
-10674.67826239
 10
51020.84958477
 20
-10674.67826239
 10
51020.84958477
 20
-10819.67826239
  0
LWPOLYLINE
  5
638
100
AcDbEntity
  8
Ech.1_5
 62
   190
  6
CONTINUOUS
370
    -3
100
AcDbPolyline
 90
        4
 70
     0
 43
0.0
 10
51020.84958479
 20
-10819.67826239
 10
51200.84958477
 20
-10864.67826239
 10
51200.84958477
 20
-10819.67826239
 10
51020.84958479
 20
-10864.67826239
  0
LWPOLYLINE
  5
639
100
AcDbEntity
  8
Ech.1_5
 62
   190
  6
CONTINUOUS
370
    -3
100
AcDbPolyline
 90
        4
 70
     0
 43
0.0
 10
51020.84958477
 20
-10819.67826239
 10
51065.84958477
 20
-10674.67826239
 10
51020.84958477
 20
-10674.67826239
 10
51065.84958477
 20
-10819.67826239
  0
LWPOLYLINE
  5
63A
100
AcDbEntity
  8
Ech.1_5
 62
     5
  6
CONTINUOUS
370
    -3
100
AcDbPolyline
 90
        5
 70
     0
 43
0.0
 10
51065.84958477
 20
-10819.67826239
 10
51065.84958477
 20
-10674.67826239
 10
51020.84958477
 20
-10674.67826239
 10
51020.84958477
 20
-10819.67826239
 10
51065.84958477
 20
-10819.67826239
  0
LWPOLYLINE
  5
63B
100
AcDbEntity
  8
Ech.1_5
 62
     5
  6
CONTINUOUS
370
    -3
100
AcDbPolyline
 90
        5
 70
     0
 43
0.0
 10
51020.84958479
 20
-10864.67826239
 10
51200.84958477
 20
-10864.67826239
 10
51200.84958477
 20
-10819.67826239
 10
51020.84958479
 20
-10819.67826239
 10
51020.84958479
 20
-10864.67826239
  0
LWPOLYLINE
  5
63C
100
AcDbEntity
  8
Ech.1_5
 62
     7
  6
CONTINUOUS
370
    -3
100
AcDbPolyline
 90
       19
 70
     1
 43
0.0
 10
50966.84958477
 20
-11395.55114351
 10
50967.80990717
 20
-11397.18101215
 10
50972.54602802
 20
-11400.15236208
 10
50972.95802939
 20
-11400.39333128
 10
50973.27184688
 20
-11400.39333128
 10
50973.72296765
 20
-11400.11126917
 10
50973.84958477
 20
-11399.77679538
 10
50973.84958477
 20
-11372.39333128
 10
50980.84958477
 20
-11372.39333128
 10
50980.84958477
 20
-11381.39333128
 10
50986.84958477
 20
-11381.39333128
 10
50986.84958477
 20
-11354.39333128
 10
50982.84958477
 20
-11350.39333128
 10
50986.84958477
 20
-11346.39333128
 10
50986.84958477
 20
-11282.39333128
 10
50982.84958477
 20
-11278.39333128
 10
50985.00723542
 20
-11276.23568063
 10
50966.94432306
 20
-11276.23568063
 10
50966.84958477
 20
-11276.46439909
  0
LWPOLYLINE
  5
63D
100
AcDbEntity
  8
Ech.1_5
 62
     7
  6
CONTINUOUS
370
    -3
100
AcDbPolyline
 90
       14
 70
     1
 43
0.0
 10
50982.84958477
 20
-11423.39333128
 10
50986.84958477
 20
-11419.39333128
 10
50986.84958477
 20
-11384.39333128
 10
50979.84958477
 20
-11384.39333128
 10
50979.84958477
 20
-11378.39333128
 10
50977.34958477
 20
-11373.39333128
 10
50974.84958477
 20
-11378.39333128
 10
50974.84958477
 20
-11409.32226347
 10
50974.46898243
 20
-11411.23568063
 10
50968.31405086
 20
-11417.92886519
 10
50966.84958477
 20
-11421.46439909
 10
50966.84958477
 20
-11484.30662494
 10
50986.84958477
 20
-11484.30662494
 10
50986.84958477
 20
-11427.39333128
  0
LWPOLYLINE
  5
63E
100
AcDbEntity
  8
Ech.1_5
 62
   254
  6
CONTINUOUS
370
    -3
100
AcDbPolyline
 90
        4
 70
     1
 43
0.0
 10
51440.84958477
 20
-10826.21118562
 10
51440.84958477
 20
-10864.67826239
 10
51456.64249957
 20
-10864.67826239
 10
51456.64249957
 20
-10826.21118562
  0
LWPOLYLINE
  5
63F
100
AcDbEntity
  8
Ech.1_5
 62
     7
  6
CONTINUOUS
370
    -3
100
AcDbPolyline
 90
       11
 70
     1
 43
0.0
 10
50974.34958477
 20
-10550.82187594
 10
50981.34958477
 20
-10550.82187594
 10
50981.34958477
 20
-10560.82187594
 10
50987.34958477
 20
-10560.82187594
 10
50987.34958477
 20
-10532.82187594
 10
50983.34958477
 20
-10528.82187594
 10
50987.34958477
 20
-10524.82187594
 10
50987.34958477
 20
-10496.2578401
 10
50967.34958477
 20
-10496.2578401
 10
50967.34958477
 20
-10578.82187594
 10
50974.34958477
 20
-10578.82187594
  0
LWPOLYLINE
  5
640
100
AcDbEntity
  8
Ech.1_5
 62
     9
  6
CONTINUOUS
370
    -3
100
AcDbPolyline
 90
       28
 70
     0
 43
0.0
 10
51454.0103471
 20
-10864.67826239
 42
1.14028181
 10
51453.32909438
 20
-10859.50364629
 10
51444.16298996
 20
-10861.95642109
 42
-1.30322619
 10
51444.16298996
 20
-10856.87149382
 10
51453.32909438
 20
-10859.32426862
 42
1.30322619
 10
51453.32909438
 20
-10854.23934135
 10
51444.16298996
 20
-10856.69211616
 42
-1.30322619
 10
51444.16298996
 20
-10851.60718888
 10
51453.32909438
 20
-10854.05996369
 42
1.30322619
 10
51453.32909438
 20
-10848.97503642
 10
51444.16298996
 20
-10851.42781122
 42
-1.30322619
 10
51444.16298996
 20
-10846.34288395
 10
51453.32909438
 20
-10848.79565875
 42
1.30322619
 10
51453.32909438
 20
-10843.71073148
 10
51444.16298996
 20
-10846.16350629
 42
-1.30322619
 10
51444.16298996
 20
-10841.07857902
 10
51453.32909438
 20
-10843.53135382
 42
1.30322619
 10
51453.32909438
 20
-10838.44642655
 10
51444.16298996
 20
-10840.89920135
 42
-1.30322619
 10
51444.16298996
 20
-10835.81427408
 10
51453.32909438
 20
-10838.26704889
 42
1.30322619
 10
51453.32909438
 20
-10833.18212162
 10
51444.16298996
 20
-10835.63489642
 42
-1.30322619
 10
51444.16298996
 20
-10830.54996915
 10
51453.32909438
 20
-10833.00274395
 42
1.30322619
 10
51453.32909438
 20
-10827.91781668
 10
51444.16298996
 20
-10830.37059149
 42
-0.71924408
 10
51441.40478648
 20
-10826.21118562
  0
LWPOLYLINE
  5
641
100
AcDbEntity
  8
Ech.1_5
 62
   190
  6
CONTINUOUS
370
    -3
100
AcDbPolyline
 90
       14
 70
     0
 43
0.0
 10
51051.34944757
 20
-11250.56340266
 42
1.14028181
 10
51058.98787679
 20
-11309.55750764
 10
51163.51800434
 20
-11281.82550639
 42
-1.30322619
 10
51163.39406628
 20
-11339.78078155
 10
51058.98350471
 20
-11311.60195808
 42
1.30322619
 10
51058.85956664
 20
-11369.55723324
 10
51163.3896942
 20
-11341.82523199
 42
-1.30322619
 10
51163.26575613
 20
-11399.78050716
 10
51058.85519456
 20
-11371.60168369
 42
1.30322619
 10
51058.7312565
 20
-11429.55695885
 10
51163.26138405
 20
-11401.8249576
 42
-1.30322619
 10
51163.13744598
 20
-11459.78023277
 10
51058.72688441
 20
-11431.60140929
 42
0.82085886
 10
51032.59691842
 20
-11484.33174676
  0
LWPOLYLINE
  5
642
100
AcDbEntity
  8
Ech.1_5
 62
     9
  6
CONTINUOUS
370
    -3
100
AcDbPolyline
 90
       74
 70
     0
 43
0.0
 10
51479.86959655
 20
-11185.49924758
 42
1.14028181
 10
51480.43796385
 20
-11189.81641572
 10
51488.08521983
 20
-11187.77007237
 42
-1.30322619
 10
51488.08521983
 20
-11192.01241336
 10
51480.43796385
 20
-11189.96607002
 42
1.30322619
 10
51480.43796385
 20
-11194.20841101
 10
51488.08521983
 20
-11192.16206766
 42
-1.30322619
 10
51488.08521983
 20
-11196.40440865
 10
51480.43796385
 20
-11194.3580653
 42
1.30322619
 10
51480.43796385
 20
-11198.60040629
 10
51488.08521983
 20
-11196.55406295
 42
-1.30322619
 10
51488.08521983
 20
-11200.79640393
 10
51480.43796385
 20
-11198.75006059
 42
1.30322619
 10
51480.43796385
 20
-11202.99240158
 10
51488.08521983
 20
-11200.94605823
 42
-1.30322619
 10
51488.08521983
 20
-11205.18839922
 10
51480.43796385
 20
-11203.14205587
 42
1.30322619
 10
51480.43796385
 20
-11207.38439686
 10
51488.08521983
 20
-11205.33805352
 42
-1.30322619
 10
51488.08521983
 20
-11209.58039451
 10
51480.43796385
 20
-11207.53405116
 42
1.30322619
 10
51480.43796385
 20
-11211.77639215
 10
51488.08521983
 20
-11209.7300488
 42
-1.30322619
 10
51488.08521983
 20
-11213.97238979
 10
51480.43796385
 20
-11211.92604644
 42
1.30322619
 10
51480.43796385
 20
-11216.16838743
 10
51488.08521983
 20
-11214.12204409
 42
-1.30322619
 10
51488.08521983
 20
-11218.36438508
 10
51480.43796385
 20
-11216.31804173
 42
1.30322619
 10
51480.43796385
 20
-11220.56038272
 10
51488.08521983
 20
-11218.51403937
 42
-1.30322619
 10
51488.08521983
 20
-11222.75638036
 10
51480.43796385
 20
-11220.71003702
 42
1.30322619
 10
51480.43796385
 20
-11224.95237801
 10
51488.08521983
 20
-11222.90603466
 42
-1.30322619
 10
51488.08521983
 20
-11227.14837565
 10
51480.43796385
 20
-11225.1020323
 42
1.30322619
 10
51480.43796385
 20
-11229.34437329
 10
51488.08521983
 20
-11227.29802994
 42
-1.30322619
 10
51488.08521983
 20
-11231.54037093
 10
51480.43796385
 20
-11229.49402759
 42
1.30322619
 10
51480.43796385
 20
-11233.73636858
 10
51488.08521983
 20
-11231.69002523
 42
-1.30322619
 10
51488.08521983
 20
-11235.93236622
 10
51480.43796385
 20
-11233.88602287
 42
1.30322619
 10
51480.43796385
 20
-11238.12836386
 10
51488.08521983
 20
-11236.08202052
 42
-1.30322619
 10
51488.08521983
 20
-11240.32436151
 10
51480.43796385
 20
-11238.27801816
 42
1.30322619
 10
51480.43796385
 20
-11242.52035915
 10
51488.08521983
 20
-11240.4740158
 42
-1.30322619
 10
51488.08521983
 20
-11244.71635679
 10
51480.43796385
 20
-11242.67001344
 42
1.30322619
 10
51480.43796385
 20
-11246.91235443
 10
51488.08521983
 20
-11244.86601109
 42
-1.30322619
 10
51488.08521983
 20
-11249.10835208
 10
51480.43796385
 20
-11247.06200873
 42
1.30322619
 10
51480.43796385
 20
-11251.30434972
 10
51488.08521983
 20
-11249.25800637
 42
-1.30322619
 10
51488.08521983
 20
-11253.50034736
 10
51480.43796385
 20
-11251.45400402
 42
1.30322619
 10
51480.43796385
 20
-11255.69634501
 10
51488.08521983
 20
-11253.65000166
 42
-1.30322619
 10
51488.08521983
 20
-11257.89234265
 10
51480.43796385
 20
-11255.8459993
 42
1.30322619
 10
51480.43796385
 20
-11260.08834029
 10
51488.08521983
 20
-11258.04199694
 42
-1.30322619
 10
51488.08521983
 20
-11262.28433793
 10
51480.43796385
 20
-11260.23799459
 42
1.30322619
 10
51480.43796385
 20
-11264.48033558
 10
51488.08521983
 20
-11262.43399223
 42
-1.30322619
 10
51488.08521983
 20
-11266.67633322
 10
51480.43796385
 20
-11264.62998987
 42
0.5474091
 10
51477.70555679
 20
-11267.12443982
  0
LWPOLYLINE
  5
643
100
AcDbEntity
  8
Ech.1_5
 62
   177
  6
CONTINUOUS
370
    70
100
AcDbPolyline
 90
        5
 70
     0
 43
0.0
 10
51008.48208742
 20
-10775.44278724
 10
51008.48208742
 20
-10825.44278724
 10
50956.84958477
 20
-10844.37716007
 10
50956.84472592
 20
-10872.86558868
 10
50960.29894189
 20
-10866.9480683
  0
LWPOLYLINE
  5
644
102
{ACAD_REACTORS
330
645
102
}
100
AcDbEntity
  8
Ech.1_5
 62
     9
  6
CONTINUOUS
370
     5
100
AcDbPolyline
 90
        4
 70
     1
 43
0.0
 10
51012.24275739
 20
-11217.70141152
 10
51012.24275739
 20
-11207.70141152
 10
51002.24275739
 20
-11207.70141152
 10
51002.24275739
 20
-11217.70141152
  0
HATCH
  5
645
100
AcDbEntity
  8
Ech.1_5
 62
     2
  6
CONTINUOUS
100
AcDbHatch
 10
0.0
 20
0.0
 30
0.0
210
0.0
220
0.0
230
1.0
  2
SOLID
 70
     1
 71
     1
 91
        1
 92
        7
 72
     0
 73
     1
 93
        4
 10
51012.24275739
 20
-11217.70141152
 10
51012.24275739
 20
-11207.70141152
 10
51002.24275739
 20
-11207.70141152
 10
51002.24275739
 20
-11217.70141152
 97
        1
330
644
 75
     0
 76
     2
 47
0.775229
 98
        1
 10
0.0
 20
0.0
  0
HATCH
  5
646
100
AcDbEntity
  8
Ech.1_5
 62
     9
  6
CONTINUOUS
100
AcDbHatch
 10
0.0
 20
0.0
 30
0.0
210
0.0
220
0.0
230
1.0
  2
ANSI31
 70
     0
 71
     1
 91
        1
 92
        7
 72
     0
 73
     1
 93
        4
 10
51012.24275739
 20
-11217.70141152
 10
51012.24275739
 20
-11207.70141152
 10
51002.24275739
 20
-11207.70141152
 10
51002.24275739
 20
-11217.70141152
 97
        1
330
645
 75
     0
 76
     2
 52
0.0
 41
0.94488785
 77
     0
 78
     1
 53
45.0
 43
0.0
 44
0.0
 45
2.12132043
 46
-2.12132043
 79
     0
 47
0.775229
 98
        1
 10
0.0
 20
0.0
  0
LWPOLYLINE
  5
647
100
AcDbEntity
  8
Ech.1_5
 62
   177
  6
CONTINUOUS
370
    70
100
AcDbPolyline
 90
        5
 70
     0
 43
0.0
 10
51008.48208742
 20
-10775.44278724
 10
51008.48208742
 20
-10825.44278724
 10
50956.84958477
 20
-10844.37716007
 10
50956.84472592
 20
-10872.86558868
 10
50960.29894189
 20
-10866.9480683
  0
LINE
  5
648
100
AcDbEntity
  8
Ech.1_5
 62
     7
  6
CONTINUOUS
370
    -3
100
AcDbLine
 10
51077.44958477
 20
-10959.72937358
 30
0.0
 11
51075.44958477
 21
-10959.72937358
 31
0.0
  0
LINE
  5
649
100
AcDbEntity
  8
Ech.1_5
 62
     7
  6
CONTINUOUS
370
    -3
100
AcDbLine
 10
51099.84958477
 20
-10959.72937358
 30
0.0
 11
51097.84958477
 21
-10959.72937358
 31
0.0
  0
LINE
  5
64A
100
AcDbEntity
  8
Ech.1_5
 62
     7
  6
CONTINUOUS
370
    -3
100
AcDbLine
 10
51057.74031097
 20
-10925.27557257
 30
0.0
 11
51058.02155117
 21
-10925.71703119
 31
0.0
  0
LINE
  5
64B
100
AcDbEntity
  8
Ech.1_5
 62
     7
  6
CONTINUOUS
370
    -3
100
AcDbLine
 10
51058.02155117
 20
-10925.71703119
 30
0.0
 11
51059.60198837
 21
-10928.45442868
 31
0.0
  0
LINE
  5
64C
100
AcDbEntity
  8
Ech.1_5
 62
     7
  6
CONTINUOUS
370
    -3
100
AcDbLine
 10
51059.60198837
 20
-10928.45442868
 30
0.0
 11
51059.69573507
 21
-10928.60158158
 31
0.0
  0
LINE
  5
64D
100
AcDbEntity
  8
Ech.1_5
 62
     7
  6
CONTINUOUS
370
    -3
100
AcDbLine
 10
51059.69573507
 20
-10928.60158158
 30
0.0
 11
51059.80195027
 21
-10928.74000389
 31
0.0
  0
LINE
  5
64E
100
AcDbEntity
  8
Ech.1_5
 62
     7
  6
CONTINUOUS
370
    -3
100
AcDbLine
 10
51059.80195027
 20
-10928.74000389
 30
0.0
 11
51059.91982557
 21
-10928.86864228
 31
0.0
  0
LINE
  5
64F
100
AcDbEntity
  8
Ech.1_5
 62
     7
  6
CONTINUOUS
370
    -3
100
AcDbLine
 10
51059.91982557
 20
-10928.86864228
 30
0.0
 11
51060.04846387
 21
-10928.98651758
 31
0.0
  0
LINE
  5
650
100
AcDbEntity
  8
Ech.1_5
 62
     7
  6
CONTINUOUS
370
    -3
100
AcDbLine
 10
51060.04846387
 20
-10928.98651758
 30
0.0
 11
51060.18688627
 21
-10929.09273279
 31
0.0
  0
LINE
  5
651
100
AcDbEntity
  8
Ech.1_5
 62
     7
  6
CONTINUOUS
370
    -3
100
AcDbLine
 10
51060.18688627
 20
-10929.09273279
 30
0.0
 11
51060.33403917
 21
-10929.18647948
 31
0.0
  0
LINE
  5
652
100
AcDbEntity
  8
Ech.1_5
 62
     7
  6
CONTINUOUS
370
    -3
100
AcDbLine
 10
51060.33403917
 20
-10929.18647948
 30
0.0
 11
51060.48880257
 21
-10929.26704428
 31
0.0
  0
LINE
  5
653
100
AcDbEntity
  8
Ech.1_5
 62
     7
  6
CONTINUOUS
370
    -3
100
AcDbLine
 10
51045.46135617
 20
-10944.67826239
 30
0.0
 11
51045.58911247
 21
-10944.70658517
 31
0.0
  0
LINE
  5
654
100
AcDbEntity
  8
Ech.1_5
 62
     7
  6
CONTINUOUS
370
    -3
100
AcDbLine
 10
51060.64999887
 20
-10929.333814
 30
0.0
 11
51060.81640107
 21
-10929.38628039
 31
0.0
  0
LINE
  5
655
100
AcDbEntity
  8
Ech.1_5
 62
     7
  6
CONTINUOUS
370
    -3
100
AcDbLine
 10
51060.81640107
 20
-10929.38628039
 30
0.0
 11
51060.98674277
 21
-10929.4240442
 31
0.0
  0
LINE
  5
656
100
AcDbEntity
  8
Ech.1_5
 62
     7
  6
CONTINUOUS
370
    -3
100
AcDbLine
 10
51060.98674277
 20
-10929.4240442
 30
0.0
 11
51062.58911247
 21
-10929.70658517
 31
0.0
  0
LINE
  5
657
100
AcDbEntity
  8
Ech.1_5
 62
     7
  6
CONTINUOUS
370
    -3
100
AcDbLine
 10
51062.58911247
 20
-10929.70658517
 30
0.0
 11
51062.71885107
 21
-10929.72366569
 31
0.0
  0
LINE
  5
658
100
AcDbEntity
  8
Ech.1_5
 62
     7
  6
CONTINUOUS
370
    -3
100
AcDbLine
 10
51031.84958477
 20
-10864.67826239
 30
0.0
 11
51089.84958477
 21
-10864.67826239
 31
0.0
  0
LINE
  5
659
100
AcDbEntity
  8
Ech.1_5
 62
     7
  6
CONTINUOUS
370
    -3
100
AcDbLine
 10
51031.84958477
 20
-10864.67826239
 30
0.0
 11
51031.84958477
 21
-10937.96169118
 31
0.0
  0
LINE
  5
65A
100
AcDbEntity
  8
Ech.1_5
 62
     7
  6
CONTINUOUS
370
    -3
100
AcDbLine
 10
51089.84958477
 20
-10864.67826239
 30
0.0
 11
51089.84958477
 21
-10907.72937358
 31
0.0
  0
LINE
  5
65B
100
AcDbEntity
  8
Ech.1_5
 62
     7
  6
CONTINUOUS
370
    -3
100
AcDbLine
 10
51047.88540327
 20
-10922.29750148
 30
0.0
 11
51047.78892457
 21
-10922.38590798
 31
0.0
  0
LINE
  5
65C
100
AcDbEntity
  8
Ech.1_5
 62
     7
  6
CONTINUOUS
370
    -3
100
AcDbLine
 10
51064.35719537
 20
-10919.55506209
 30
0.0
 11
51064.34958477
 21
-10919.72937358
 31
0.0
  0
LINE
  5
65D
100
AcDbEntity
  8
Ech.1_5
 62
     7
  6
CONTINUOUS
370
    -3
100
AcDbLine
 10
51047.98922007
 20
-10922.21784008
 30
0.0
 11
51047.88540327
 21
-10922.29750148
 31
0.0
  0
LINE
  5
65E
100
AcDbEntity
  8
Ech.1_5
 62
     7
  6
CONTINUOUS
370
    -3
100
AcDbLine
 10
51048.09958477
 20
-10922.14753008
 30
0.0
 11
51047.98922007
 21
-10922.21784008
 31
0.0
  0
LINE
  5
65F
100
AcDbEntity
  8
Ech.1_5
 62
     7
  6
CONTINUOUS
370
    -3
100
AcDbLine
 10
51048.21565737
 20
-10922.0871065
 30
0.0
 11
51048.09958477
 21
-10922.14753008
 31
0.0
  0
LINE
  5
660
100
AcDbEntity
  8
Ech.1_5
 62
     7
  6
CONTINUOUS
370
    -3
100
AcDbLine
 10
51048.33655447
 20
-10922.0370293
 30
0.0
 11
51048.21565737
 21
-10922.0871065
 31
0.0
  0
LINE
  5
661
100
AcDbEntity
  8
Ech.1_5
 62
     7
  6
CONTINUOUS
370
    -3
100
AcDbLine
 10
51048.46135617
 20
-10921.99767948
 30
0.0
 11
51048.33655447
 21
-10922.0370293
 31
0.0
  0
LINE
  5
662
100
AcDbEntity
  8
Ech.1_5
 62
     7
  6
CONTINUOUS
370
    -3
100
AcDbLine
 10
51048.58911247
 20
-10921.9693566
 30
0.0
 11
51048.46135617
 21
-10921.99767948
 31
0.0
  0
LINE
  5
663
100
AcDbEntity
  8
Ech.1_5
 62
     7
  6
CONTINUOUS
370
    -3
100
AcDbLine
 10
51048.71885107
 20
-10921.95227618
 30
0.0
 11
51048.58911247
 21
-10921.9693566
 31
0.0
  0
LINE
  5
664
100
AcDbEntity
  8
Ech.1_5
 62
     7
  6
CONTINUOUS
370
    -3
100
AcDbLine
 10
51048.84958477
 20
-10921.9465682
 30
0.0
 11
51048.71885107
 21
-10921.95227618
 31
0.0
  0
LINE
  5
665
100
AcDbEntity
  8
Ech.1_5
 62
     7
  6
CONTINUOUS
370
    -3
100
AcDbLine
 10
51047.34958477
 20
-10943.22937358
 30
0.0
 11
51047.34387677
 21
-10943.36010719
 31
0.0
  0
LINE
  5
666
100
AcDbEntity
  8
Ech.1_5
 62
     7
  6
CONTINUOUS
370
    -3
100
AcDbLine
 10
51048.98031837
 20
-10921.95227618
 30
0.0
 11
51049.11005697
 21
-10921.9693566
 31
0.0
  0
LINE
  5
667
100
AcDbEntity
  8
Ech.1_5
 62
     7
  6
CONTINUOUS
370
    -3
100
AcDbLine
 10
51049.11005697
 20
-10921.9693566
 30
0.0
 11
51053.86728777
 21
-10922.80818469
 31
0.0
  0
LINE
  5
668
100
AcDbEntity
  8
Ech.1_5
 62
     7
  6
CONTINUOUS
370
    -3
100
AcDbLine
 10
51053.86728777
 20
-10922.80818469
 30
0.0
 11
51054.37831297
 21
-10922.92147628
 31
0.0
  0
LINE
  5
669
100
AcDbEntity
  8
Ech.1_5
 62
     7
  6
CONTINUOUS
370
    -3
100
AcDbLine
 10
51054.37831297
 20
-10922.92147628
 30
0.0
 11
51054.87751957
 21
-10923.07887549
 31
0.0
  0
LINE
  5
66A
100
AcDbEntity
  8
Ech.1_5
 62
     7
  6
CONTINUOUS
370
    -3
100
AcDbLine
 10
51054.87751957
 20
-10923.07887549
 30
0.0
 11
51055.36110827
 21
-10923.2791845
 31
0.0
  0
LINE
  5
66B
100
AcDbEntity
  8
Ech.1_5
 62
     7
  6
CONTINUOUS
370
    -3
100
AcDbLine
 10
51055.36110827
 20
-10923.2791845
 30
0.0
 11
51055.82539877
 21
-10923.5208788
 31
0.0
  0
LINE
  5
66C
100
AcDbEntity
  8
Ech.1_5
 62
     7
  6
CONTINUOUS
370
    -3
100
AcDbLine
 10
51055.82539877
 20
-10923.5208788
 30
0.0
 11
51056.26685737
 21
-10923.80211899
 31
0.0
  0
LINE
  5
66D
100
AcDbEntity
  8
Ech.1_5
 62
     7
  6
CONTINUOUS
370
    -3
100
AcDbLine
 10
51056.26685737
 20
-10923.80211899
 30
0.0
 11
51056.68212437
 21
-10924.12076459
 31
0.0
  0
LINE
  5
66E
100
AcDbEntity
  8
Ech.1_5
 62
     7
  6
CONTINUOUS
370
    -3
100
AcDbLine
 10
51056.68212437
 20
-10924.12076459
 30
0.0
 11
51057.06803937
 21
-10924.4743906
 31
0.0
  0
LINE
  5
66F
100
AcDbEntity
  8
Ech.1_5
 62
     7
  6
CONTINUOUS
370
    -3
100
AcDbLine
 10
51057.06803937
 20
-10924.4743906
 30
0.0
 11
51057.42166537
 21
-10924.86030558
 31
0.0
  0
LINE
  5
670
100
AcDbEntity
  8
Ech.1_5
 62
     7
  6
CONTINUOUS
370
    -3
100
AcDbLine
 10
51047.78892457
 20
-10922.38590798
 30
0.0
 11
51047.70051807
 21
-10922.48238677
 31
0.0
  0
LINE
  5
671
100
AcDbEntity
  8
Ech.1_5
 62
     7
  6
CONTINUOUS
370
    -3
100
AcDbLine
 10
51032.38548307
 20
-10939.96169118
 30
0.0
 11
51032.57297657
 21
-10940.25599698
 31
0.0
  0
LINE
  5
672
100
AcDbEntity
  8
Ech.1_5
 62
     7
  6
CONTINUOUS
370
    -3
100
AcDbLine
 10
51046.91024487
 20
-10944.29003379
 30
0.0
 11
51046.81376617
 21
-10944.3784403
 31
0.0
  0
LINE
  5
673
100
AcDbEntity
  8
Ech.1_5
 62
     7
  6
CONTINUOUS
370
    -3
100
AcDbLine
 10
51046.99865137
 20
-10944.19355497
 30
0.0
 11
51046.91024487
 21
-10944.29003379
 31
0.0
  0
LINE
  5
674
100
AcDbEntity
  8
Ech.1_5
 62
     7
  6
CONTINUOUS
370
    -3
100
AcDbLine
 10
51047.07831277
 20
-10944.08973829
 30
0.0
 11
51046.99865137
 21
-10944.19355497
 31
0.0
  0
LINE
  5
675
100
AcDbEntity
  8
Ech.1_5
 62
     7
  6
CONTINUOUS
370
    -3
100
AcDbLine
 10
51047.14862287
 20
-10943.97937358
 30
0.0
 11
51047.07831277
 21
-10944.08973829
 31
0.0
  0
LINE
  5
676
100
AcDbEntity
  8
Ech.1_5
 62
     7
  6
CONTINUOUS
370
    -3
100
AcDbLine
 10
51047.20904637
 20
-10943.86330098
 30
0.0
 11
51047.14862287
 21
-10943.97937358
 31
0.0
  0
LINE
  5
677
100
AcDbEntity
  8
Ech.1_5
 62
     7
  6
CONTINUOUS
370
    -3
100
AcDbLine
 10
51047.25912367
 20
-10943.74240378
 30
0.0
 11
51047.20904637
 21
-10943.86330098
 31
0.0
  0
LINE
  5
678
100
AcDbEntity
  8
Ech.1_5
 62
     7
  6
CONTINUOUS
370
    -3
100
AcDbLine
 10
51047.29847347
 20
-10943.61760218
 30
0.0
 11
51047.25912367
 21
-10943.74240378
 31
0.0
  0
LINE
  5
679
100
AcDbEntity
  8
Ech.1_5
 62
     7
  6
CONTINUOUS
370
    -3
100
AcDbLine
 10
51047.32679637
 20
-10943.48984588
 30
0.0
 11
51047.29847347
 21
-10943.61760218
 31
0.0
  0
LINE
  5
67A
100
AcDbEntity
  8
Ech.1_5
 62
     7
  6
CONTINUOUS
370
    -3
100
AcDbLine
 10
51047.34387677
 20
-10943.36010719
 30
0.0
 11
51047.32679637
 21
-10943.48984588
 31
0.0
  0
LINE
  5
67B
100
AcDbEntity
  8
Ech.1_5
 62
     7
  6
CONTINUOUS
370
    -3
100
AcDbLine
 10
51048.84958477
 20
-10921.9465682
 30
0.0
 11
51048.98031837
 21
-10921.95227618
 31
0.0
  0
LINE
  5
67C
100
AcDbEntity
  8
Ech.1_5
 62
     7
  6
CONTINUOUS
370
    -3
100
AcDbLine
 10
51047.34958477
 20
-10923.4465682
 30
0.0
 11
51047.34958477
 21
-10943.22937358
 31
0.0
  0
LINE
  5
67D
100
AcDbEntity
  8
Ech.1_5
 62
     7
  6
CONTINUOUS
370
    -3
100
AcDbLine
 10
51047.35529267
 20
-10923.31583459
 30
0.0
 11
51047.34958477
 21
-10923.4465682
 31
0.0
  0
LINE
  5
67E
100
AcDbEntity
  8
Ech.1_5
 62
     7
  6
CONTINUOUS
370
    -3
100
AcDbLine
 10
51047.37237307
 20
-10923.1860959
 30
0.0
 11
51047.35529267
 21
-10923.31583459
 31
0.0
  0
LINE
  5
67F
100
AcDbEntity
  8
Ech.1_5
 62
     7
  6
CONTINUOUS
370
    -3
100
AcDbLine
 10
51047.40069597
 20
-10923.0583396
 30
0.0
 11
51047.37237307
 21
-10923.1860959
 31
0.0
  0
LINE
  5
680
100
AcDbEntity
  8
Ech.1_5
 62
     7
  6
CONTINUOUS
370
    -3
100
AcDbLine
 10
51047.44004577
 20
-10922.933538
 30
0.0
 11
51047.40069597
 21
-10923.0583396
 31
0.0
  0
LINE
  5
681
100
AcDbEntity
  8
Ech.1_5
 62
     7
  6
CONTINUOUS
370
    -3
100
AcDbLine
 10
51047.49012307
 20
-10922.81264079
 30
0.0
 11
51047.44004577
 21
-10922.933538
 31
0.0
  0
LINE
  5
682
100
AcDbEntity
  8
Ech.1_5
 62
     7
  6
CONTINUOUS
370
    -3
100
AcDbLine
 10
51047.55054667
 20
-10922.6965682
 30
0.0
 11
51047.49012307
 21
-10922.81264079
 31
0.0
  0
LINE
  5
683
100
AcDbEntity
  8
Ech.1_5
 62
     7
  6
CONTINUOUS
370
    -3
100
AcDbLine
 10
51047.62085667
 20
-10922.58620358
 30
0.0
 11
51047.55054667
 21
-10922.6965682
 31
0.0
  0
LINE
  5
684
100
AcDbEntity
  8
Ech.1_5
 62
     7
  6
CONTINUOUS
370
    -3
100
AcDbLine
 10
51046.81376617
 20
-10944.3784403
 30
0.0
 11
51046.70994937
 21
-10944.4581017
 31
0.0
  0
LINE
  5
685
100
AcDbEntity
  8
Ech.1_5
 62
     7
  6
CONTINUOUS
370
    -3
100
AcDbLine
 10
51088.53362497
 20
-10909.6087589
 30
0.0
 11
51088.36722287
 21
-10909.66122529
 31
0.0
  0
LINE
  5
686
100
AcDbEntity
  8
Ech.1_5
 62
     7
  6
CONTINUOUS
370
    -3
100
AcDbLine
 10
51047.70051807
 20
-10922.48238677
 30
0.0
 11
51047.62085667
 21
-10922.58620358
 31
0.0
  0
LINE
  5
687
100
AcDbEntity
  8
Ech.1_5
 62
     7
  6
CONTINUOUS
370
    -3
100
AcDbLine
 10
51032.57297657
 20
-10940.25599698
 30
0.0
 11
51032.78540697
 21
-10940.53284169
 31
0.0
  0
LINE
  5
688
100
AcDbEntity
  8
Ech.1_5
 62
     7
  6
CONTINUOUS
370
    -3
100
AcDbLine
 10
51032.78540697
 20
-10940.53284169
 30
0.0
 11
51033.02115757
 21
-10940.7901184
 31
0.0
  0
LINE
  5
689
100
AcDbEntity
  8
Ech.1_5
 62
     7
  6
CONTINUOUS
370
    -3
100
AcDbLine
 10
51033.02115757
 20
-10940.7901184
 30
0.0
 11
51033.27843427
 21
-10941.02586899
 31
0.0
  0
LINE
  5
68A
100
AcDbEntity
  8
Ech.1_5
 62
     7
  6
CONTINUOUS
370
    -3
100
AcDbLine
 10
51033.27843427
 20
-10941.02586899
 30
0.0
 11
51033.55527897
 21
-10941.23829938
 31
0.0
  0
LINE
  5
68B
100
AcDbEntity
  8
Ech.1_5
 62
     7
  6
CONTINUOUS
370
    -3
100
AcDbLine
 10
51033.55527897
 20
-10941.23829938
 30
0.0
 11
51033.84958477
 21
-10941.42579288
 31
0.0
  0
LINE
  5
68C
100
AcDbEntity
  8
Ech.1_5
 62
     7
  6
CONTINUOUS
370
    -3
100
AcDbLine
 10
51033.84958477
 20
-10941.42579288
 30
0.0
 11
51034.15911167
 21
-10941.58692238
 31
0.0
  0
LINE
  5
68D
100
AcDbEntity
  8
Ech.1_5
 62
     7
  6
CONTINUOUS
370
    -3
100
AcDbLine
 10
51034.15911167
 20
-10941.58692238
 30
0.0
 11
51034.48150417
 21
-10941.7204617
 31
0.0
  0
LINE
  5
68E
100
AcDbEntity
  8
Ech.1_5
 62
     7
  6
CONTINUOUS
370
    -3
100
AcDbLine
 10
51034.48150417
 20
-10941.7204617
 30
0.0
 11
51034.81430857
 21
-10941.82539449
 31
0.0
  0
LINE
  5
68F
100
AcDbEntity
  8
Ech.1_5
 62
     7
  6
CONTINUOUS
370
    -3
100
AcDbLine
 10
51034.81430857
 20
-10941.82539449
 30
0.0
 11
51045.46135617
 21
-10944.67826239
 31
0.0
  0
LINE
  5
690
100
AcDbEntity
  8
Ech.1_5
 62
     7
  6
CONTINUOUS
370
    -3
100
AcDbLine
 10
51060.48880257
 20
-10929.26704428
 30
0.0
 11
51060.64999887
 21
-10929.333814
 31
0.0
  0
LINE
  5
691
100
AcDbEntity
  8
Ech.1_5
 62
     7
  6
CONTINUOUS
370
    -3
100
AcDbLine
 10
51045.58911247
 20
-10944.70658517
 30
0.0
 11
51045.71885107
 21
-10944.72366569
 31
0.0
  0
LINE
  5
692
100
AcDbEntity
  8
Ech.1_5
 62
     7
  6
CONTINUOUS
370
    -3
100
AcDbLine
 10
51045.71885107
 20
-10944.72366569
 30
0.0
 11
51045.84958477
 21
-10944.72937358
 31
0.0
  0
LINE
  5
693
100
AcDbEntity
  8
Ech.1_5
 62
     7
  6
CONTINUOUS
370
    -3
100
AcDbLine
 10
51045.98031837
 20
-10944.72366569
 30
0.0
 11
51045.84958477
 21
-10944.72937358
 31
0.0
  0
LINE
  5
694
100
AcDbEntity
  8
Ech.1_5
 62
     7
  6
CONTINUOUS
370
    -3
100
AcDbLine
 10
51046.11005697
 20
-10944.70658517
 30
0.0
 11
51045.98031837
 21
-10944.72366569
 31
0.0
  0
LINE
  5
695
100
AcDbEntity
  8
Ech.1_5
 62
     7
  6
CONTINUOUS
370
    -3
100
AcDbLine
 10
51046.23781327
 20
-10944.67826239
 30
0.0
 11
51046.11005697
 21
-10944.70658517
 31
0.0
  0
LINE
  5
696
100
AcDbEntity
  8
Ech.1_5
 62
     7
  6
CONTINUOUS
370
    -3
100
AcDbLine
 10
51046.36261497
 20
-10944.63891247
 30
0.0
 11
51046.23781327
 21
-10944.67826239
 31
0.0
  0
LINE
  5
697
100
AcDbEntity
  8
Ech.1_5
 62
     7
  6
CONTINUOUS
370
    -3
100
AcDbLine
 10
51046.48351217
 20
-10944.58883527
 30
0.0
 11
51046.36261497
 21
-10944.63891247
 31
0.0
  0
LINE
  5
698
100
AcDbEntity
  8
Ech.1_5
 62
     7
  6
CONTINUOUS
370
    -3
100
AcDbLine
 10
51046.59958477
 20
-10944.52841169
 30
0.0
 11
51046.48351217
 21
-10944.58883527
 31
0.0
  0
LINE
  5
699
100
AcDbEntity
  8
Ech.1_5
 62
     7
  6
CONTINUOUS
370
    -3
100
AcDbLine
 10
51032.22435357
 20
-10939.65216429
 30
0.0
 11
51032.38548307
 21
-10939.96169118
 31
0.0
  0
LINE
  5
69A
100
AcDbEntity
  8
Ech.1_5
 62
     7
  6
CONTINUOUS
370
    -3
100
AcDbLine
 10
51046.70994937
 20
-10944.4581017
 30
0.0
 11
51046.59958477
 21
-10944.52841169
 31
0.0
  0
LINE
  5
69B
100
AcDbEntity
  8
Ech.1_5
 62
     7
  6
CONTINUOUS
370
    -3
100
AcDbLine
 10
51088.69482127
 20
-10909.54198918
 30
0.0
 11
51088.53362497
 21
-10909.6087589
 31
0.0
  0
LINE
  5
69C
100
AcDbEntity
  8
Ech.1_5
 62
     7
  6
CONTINUOUS
370
    -3
100
AcDbLine
 10
51088.84958477
 20
-10909.46142439
 30
0.0
 11
51088.69482127
 21
-10909.54198918
 31
0.0
  0
LINE
  5
69D
100
AcDbEntity
  8
Ech.1_5
 62
     7
  6
CONTINUOUS
370
    -3
100
AcDbLine
 10
51088.99673757
 20
-10909.36767769
 30
0.0
 11
51088.84958477
 21
-10909.46142439
 31
0.0
  0
LINE
  5
69E
100
AcDbEntity
  8
Ech.1_5
 62
     7
  6
CONTINUOUS
370
    -3
100
AcDbLine
 10
51089.13515997
 20
-10909.26146249
 30
0.0
 11
51088.99673757
 21
-10909.36767769
 31
0.0
  0
LINE
  5
69F
100
AcDbEntity
  8
Ech.1_5
 62
     7
  6
CONTINUOUS
370
    -3
100
AcDbLine
 10
51089.26379827
 20
-10909.14358718
 30
0.0
 11
51089.13515997
 21
-10909.26146249
 31
0.0
  0
LINE
  5
6A0
100
AcDbEntity
  8
Ech.1_5
 62
     7
  6
CONTINUOUS
370
    -3
100
AcDbLine
 10
51089.38167357
 20
-10909.01494879
 30
0.0
 11
51089.26379827
 21
-10909.14358718
 31
0.0
  0
LINE
  5
6A1
100
AcDbEntity
  8
Ech.1_5
 62
     7
  6
CONTINUOUS
370
    -3
100
AcDbLine
 10
51089.48788887
 20
-10908.87652648
 30
0.0
 11
51089.38167357
 21
-10909.01494879
 31
0.0
  0
LINE
  5
6A2
100
AcDbEntity
  8
Ech.1_5
 62
     7
  6
CONTINUOUS
370
    -3
100
AcDbLine
 10
51089.58163557
 20
-10908.72937358
 30
0.0
 11
51089.48788887
 21
-10908.87652648
 31
0.0
  0
LINE
  5
6A3
100
AcDbEntity
  8
Ech.1_5
 62
     7
  6
CONTINUOUS
370
    -3
100
AcDbLine
 10
51063.99865137
 20
-10929.19355497
 30
0.0
 11
51063.91024487
 21
-10929.29003379
 31
0.0
  0
LINE
  5
6A4
100
AcDbEntity
  8
Ech.1_5
 62
     7
  6
CONTINUOUS
370
    -3
100
AcDbLine
 10
51089.72896997
 20
-10908.41341389
 30
0.0
 11
51089.66220027
 21
-10908.57461009
 31
0.0
  0
LINE
  5
6A5
100
AcDbEntity
  8
Ech.1_5
 62
     7
  6
CONTINUOUS
370
    -3
100
AcDbLine
 10
51089.78143637
 20
-10908.2470117
 30
0.0
 11
51089.72896997
 21
-10908.41341389
 31
0.0
  0
LINE
  5
6A6
100
AcDbEntity
  8
Ech.1_5
 62
     7
  6
CONTINUOUS
370
    -3
100
AcDbLine
 10
51089.81920027
 20
-10908.07667
 30
0.0
 11
51089.78143637
 21
-10908.2470117
 31
0.0
  0
LINE
  5
6A7
100
AcDbEntity
  8
Ech.1_5
 62
     7
  6
CONTINUOUS
370
    -3
100
AcDbLine
 10
51089.84197417
 20
-10907.9036851
 30
0.0
 11
51089.81920027
 21
-10908.07667
 31
0.0
  0
LINE
  5
6A8
100
AcDbEntity
  8
Ech.1_5
 62
     7
  6
CONTINUOUS
370
    -3
100
AcDbLine
 10
51089.84958477
 20
-10907.72937358
 30
0.0
 11
51089.84197417
 21
-10907.9036851
 31
0.0
  0
LINE
  5
6A9
100
AcDbEntity
  8
Ech.1_5
 62
     7
  6
CONTINUOUS
370
    -3
100
AcDbLine
 10
51031.84958477
 20
-10937.96169118
 30
0.0
 11
51031.86480597
 21
-10938.31031418
 31
0.0
  0
LINE
  5
6AA
100
AcDbEntity
  8
Ech.1_5
 62
     7
  6
CONTINUOUS
370
    -3
100
AcDbLine
 10
51031.86480597
 20
-10938.31031418
 30
0.0
 11
51031.91035377
 21
-10938.65628389
 31
0.0
  0
LINE
  5
6AB
100
AcDbEntity
  8
Ech.1_5
 62
     7
  6
CONTINUOUS
370
    -3
100
AcDbLine
 10
51031.91035377
 20
-10938.65628389
 30
0.0
 11
51031.98588147
 21
-10938.99696738
 31
0.0
  0
LINE
  5
6AC
100
AcDbEntity
  8
Ech.1_5
 62
     7
  6
CONTINUOUS
370
    -3
100
AcDbLine
 10
51031.98588147
 20
-10938.99696738
 30
0.0
 11
51032.09081427
 21
-10939.32977179
 31
0.0
  0
LINE
  5
6AD
100
AcDbEntity
  8
Ech.1_5
 62
     7
  6
CONTINUOUS
370
    -3
100
AcDbLine
 10
51069.73781327
 20
-10917.67826239
 30
0.0
 11
51069.61005697
 21
-10917.70658517
 31
0.0
  0
LINE
  5
6AE
100
AcDbEntity
  8
Ech.1_5
 62
     7
  6
CONTINUOUS
370
    -3
100
AcDbLine
 10
51032.09081427
 20
-10939.32977179
 30
0.0
 11
51032.22435357
 21
-10939.65216429
 31
0.0
  0
LINE
  5
6AF
100
AcDbEntity
  8
Ech.1_5
 62
     7
  6
CONTINUOUS
370
    -3
100
AcDbLine
 10
51088.36722287
 20
-10909.66122529
 30
0.0
 11
51088.19688107
 21
-10909.6989891
 31
0.0
  0
LINE
  5
6B0
100
AcDbEntity
  8
Ech.1_5
 62
     7
  6
CONTINUOUS
370
    -3
100
AcDbLine
 10
51069.86261497
 20
-10917.63891247
 30
0.0
 11
51069.73781327
 21
-10917.67826239
 31
0.0
  0
LINE
  5
6B1
100
AcDbEntity
  8
Ech.1_5
 62
     7
  6
CONTINUOUS
370
    -3
100
AcDbLine
 10
51069.98351217
 20
-10917.58883527
 30
0.0
 11
51069.86261497
 21
-10917.63891247
 31
0.0
  0
LINE
  5
6B2
100
AcDbEntity
  8
Ech.1_5
 62
     7
  6
CONTINUOUS
370
    -3
100
AcDbLine
 10
51070.09958477
 20
-10917.52841169
 30
0.0
 11
51069.98351217
 21
-10917.58883527
 31
0.0
  0
LINE
  5
6B3
100
AcDbEntity
  8
Ech.1_5
 62
     7
  6
CONTINUOUS
370
    -3
100
AcDbLine
 10
51070.20994937
 20
-10917.4581017
 30
0.0
 11
51070.09958477
 21
-10917.52841169
 31
0.0
  0
LINE
  5
6B4
100
AcDbEntity
  8
Ech.1_5
 62
     7
  6
CONTINUOUS
370
    -3
100
AcDbLine
 10
51070.31376617
 20
-10917.3784403
 30
0.0
 11
51070.20994937
 21
-10917.4581017
 31
0.0
  0
LINE
  5
6B5
100
AcDbEntity
  8
Ech.1_5
 62
     7
  6
CONTINUOUS
370
    -3
100
AcDbLine
 10
51070.41024487
 20
-10917.29003379
 30
0.0
 11
51070.31376617
 21
-10917.3784403
 31
0.0
  0
LINE
  5
6B6
100
AcDbEntity
  8
Ech.1_5
 62
     7
  6
CONTINUOUS
370
    -3
100
AcDbLine
 10
51070.49865137
 20
-10917.19355497
 30
0.0
 11
51070.41024487
 21
-10917.29003379
 31
0.0
  0
LINE
  5
6B7
100
AcDbEntity
  8
Ech.1_5
 62
     7
  6
CONTINUOUS
370
    -3
100
AcDbLine
 10
51070.57831277
 20
-10917.08973829
 30
0.0
 11
51070.49865137
 21
-10917.19355497
 31
0.0
  0
LINE
  5
6B8
100
AcDbEntity
  8
Ech.1_5
 62
     7
  6
CONTINUOUS
370
    -3
100
AcDbLine
 10
51065.20243187
 20
-10918.0910695
 30
0.0
 11
51065.06400947
 21
-10918.19728467
 31
0.0
  0
LINE
  5
6B9
100
AcDbEntity
  8
Ech.1_5
 62
     7
  6
CONTINUOUS
370
    -3
100
AcDbLine
 10
51070.70904637
 20
-10916.86330098
 30
0.0
 11
51070.64862287
 21
-10916.97937358
 31
0.0
  0
LINE
  5
6BA
100
AcDbEntity
  8
Ech.1_5
 62
     7
  6
CONTINUOUS
370
    -3
100
AcDbLine
 10
51070.75912367
 20
-10916.74240378
 30
0.0
 11
51070.70904637
 21
-10916.86330098
 31
0.0
  0
LINE
  5
6BB
100
AcDbEntity
  8
Ech.1_5
 62
     7
  6
CONTINUOUS
370
    -3
100
AcDbLine
 10
51070.79847347
 20
-10916.61760218
 30
0.0
 11
51070.75912367
 21
-10916.74240378
 31
0.0
  0
LINE
  5
6BC
100
AcDbEntity
  8
Ech.1_5
 62
     7
  6
CONTINUOUS
370
    -3
100
AcDbLine
 10
51070.82679637
 20
-10916.48984588
 30
0.0
 11
51070.79847347
 21
-10916.61760218
 31
0.0
  0
LINE
  5
6BD
100
AcDbEntity
  8
Ech.1_5
 62
     7
  6
CONTINUOUS
370
    -3
100
AcDbLine
 10
51070.84387677
 20
-10916.36010719
 30
0.0
 11
51070.82679637
 21
-10916.48984588
 31
0.0
  0
LINE
  5
6BE
100
AcDbEntity
  8
Ech.1_5
 62
     7
  6
CONTINUOUS
370
    -3
100
AcDbLine
 10
51070.84958477
 20
-10916.22937358
 30
0.0
 11
51070.84387677
 21
-10916.36010719
 31
0.0
  0
LINE
  5
6BF
100
AcDbEntity
  8
Ech.1_5
 62
     7
  6
CONTINUOUS
370
    -3
100
AcDbLine
 10
51070.84958477
 20
-10909.72937358
 30
0.0
 11
51070.84958477
 21
-10916.22937358
 31
0.0
  0
LINE
  5
6C0
100
AcDbEntity
  8
Ech.1_5
 62
     7
  6
CONTINUOUS
370
    -3
100
AcDbLine
 10
51087.84958477
 20
-10909.72937358
 30
0.0
 11
51070.84958477
 21
-10909.72937358
 31
0.0
  0
LINE
  5
6C1
100
AcDbEntity
  8
Ech.1_5
 62
     7
  6
CONTINUOUS
370
    -3
100
AcDbLine
 10
51088.02389617
 20
-10909.72176299
 30
0.0
 11
51087.84958477
 21
-10909.72937358
 31
0.0
  0
LINE
  5
6C2
100
AcDbEntity
  8
Ech.1_5
 62
     7
  6
CONTINUOUS
370
    -3
100
AcDbLine
 10
51088.19688107
 20
-10909.6989891
 30
0.0
 11
51088.02389617
 21
-10909.72176299
 31
0.0
  0
LINE
  5
6C3
100
AcDbEntity
  8
Ech.1_5
 62
     7
  6
CONTINUOUS
370
    -3
100
AcDbLine
 10
51062.71885107
 20
-10929.72366569
 30
0.0
 11
51062.84958477
 21
-10929.72937358
 31
0.0
  0
LINE
  5
6C4
100
AcDbEntity
  8
Ech.1_5
 62
     7
  6
CONTINUOUS
370
    -3
100
AcDbLine
 10
51069.61005697
 20
-10917.70658517
 30
0.0
 11
51069.48031837
 21
-10917.72366569
 31
0.0
  0
LINE
  5
6C5
100
AcDbEntity
  8
Ech.1_5
 62
     7
  6
CONTINUOUS
370
    -3
100
AcDbLine
 10
51064.37996927
 20
-10919.38207728
 30
0.0
 11
51064.35719537
 21
-10919.55506209
 31
0.0
  0
LINE
  5
6C6
100
AcDbEntity
  8
Ech.1_5
 62
     7
  6
CONTINUOUS
370
    -3
100
AcDbLine
 10
51064.41773307
 20
-10919.21173549
 30
0.0
 11
51064.37996927
 21
-10919.38207728
 31
0.0
  0
LINE
  5
6C7
100
AcDbEntity
  8
Ech.1_5
 62
     7
  6
CONTINUOUS
370
    -3
100
AcDbLine
 10
51064.47019947
 20
-10919.0453333
 30
0.0
 11
51064.41773307
 21
-10919.21173549
 31
0.0
  0
LINE
  5
6C8
100
AcDbEntity
  8
Ech.1_5
 62
     7
  6
CONTINUOUS
370
    -3
100
AcDbLine
 10
51064.53696917
 20
-10918.8841371
 30
0.0
 11
51064.47019947
 21
-10919.0453333
 31
0.0
  0
LINE
  5
6C9
100
AcDbEntity
  8
Ech.1_5
 62
     7
  6
CONTINUOUS
370
    -3
100
AcDbLine
 10
51064.61753397
 20
-10918.72937358
 30
0.0
 11
51064.53696917
 21
-10918.8841371
 31
0.0
  0
LINE
  5
6CA
100
AcDbEntity
  8
Ech.1_5
 62
     7
  6
CONTINUOUS
370
    -3
100
AcDbLine
 10
51064.71128067
 20
-10918.58222068
 30
0.0
 11
51064.61753397
 21
-10918.72937358
 31
0.0
  0
LINE
  5
6CB
100
AcDbEntity
  8
Ech.1_5
 62
     7
  6
CONTINUOUS
370
    -3
100
AcDbLine
 10
51064.81749587
 20
-10918.4437984
 30
0.0
 11
51064.71128067
 21
-10918.58222068
 31
0.0
  0
LINE
  5
6CC
100
AcDbEntity
  8
Ech.1_5
 62
     7
  6
CONTINUOUS
370
    -3
100
AcDbLine
 10
51064.93537117
 20
-10918.31515998
 30
0.0
 11
51064.81749587
 21
-10918.4437984
 31
0.0
  0
LINE
  5
6CD
100
AcDbEntity
  8
Ech.1_5
 62
     7
  6
CONTINUOUS
370
    -3
100
AcDbLine
 10
51065.06400947
 20
-10918.19728467
 30
0.0
 11
51064.93537117
 21
-10918.31515998
 31
0.0
  0
LINE
  5
6CE
100
AcDbEntity
  8
Ech.1_5
 62
     7
  6
CONTINUOUS
370
    -3
100
AcDbLine
 10
51070.64862287
 20
-10916.97937358
 30
0.0
 11
51070.57831277
 21
-10917.08973829
 31
0.0
  0
LINE
  5
6CF
100
AcDbEntity
  8
Ech.1_5
 62
     7
  6
CONTINUOUS
370
    -3
100
AcDbLine
 10
51065.34958477
 20
-10917.99732277
 30
0.0
 11
51065.20243187
 21
-10918.0910695
 31
0.0
  0
LINE
  5
6D0
100
AcDbEntity
  8
Ech.1_5
 62
     7
  6
CONTINUOUS
370
    -3
100
AcDbLine
 10
51065.50434817
 20
-10917.91675798
 30
0.0
 11
51065.34958477
 21
-10917.99732277
 31
0.0
  0
LINE
  5
6D1
100
AcDbEntity
  8
Ech.1_5
 62
     7
  6
CONTINUOUS
370
    -3
100
AcDbLine
 10
51065.66554447
 20
-10917.84998838
 30
0.0
 11
51065.50434817
 21
-10917.91675798
 31
0.0
  0
LINE
  5
6D2
100
AcDbEntity
  8
Ech.1_5
 62
     7
  6
CONTINUOUS
370
    -3
100
AcDbLine
 10
51065.83194667
 20
-10917.79752198
 30
0.0
 11
51065.66554447
 21
-10917.84998838
 31
0.0
  0
LINE
  5
6D3
100
AcDbEntity
  8
Ech.1_5
 62
     7
  6
CONTINUOUS
370
    -3
100
AcDbLine
 10
51066.00228837
 20
-10917.75975809
 30
0.0
 11
51065.83194667
 21
-10917.79752198
 31
0.0
  0
LINE
  5
6D4
100
AcDbEntity
  8
Ech.1_5
 62
     7
  6
CONTINUOUS
370
    -3
100
AcDbLine
 10
51066.17527327
 20
-10917.7369842
 30
0.0
 11
51066.00228837
 21
-10917.75975809
 31
0.0
  0
LINE
  5
6D5
100
AcDbEntity
  8
Ech.1_5
 62
     7
  6
CONTINUOUS
370
    -3
100
AcDbLine
 10
51066.34958477
 20
-10917.72937358
 30
0.0
 11
51066.17527327
 21
-10917.7369842
 31
0.0
  0
LINE
  5
6D6
100
AcDbEntity
  8
Ech.1_5
 62
     7
  6
CONTINUOUS
370
    -3
100
AcDbLine
 10
51069.34958477
 20
-10917.72937358
 30
0.0
 11
51066.34958477
 21
-10917.72937358
 31
0.0
  0
LINE
  5
6D7
100
AcDbEntity
  8
Ech.1_5
 62
     7
  6
CONTINUOUS
370
    -3
100
AcDbLine
 10
51057.42166537
 20
-10924.86030558
 30
0.0
 11
51057.74031097
 21
-10925.27557257
 31
0.0
  0
LINE
  5
6D8
100
AcDbEntity
  8
Ech.1_5
 62
     7
  6
CONTINUOUS
370
    -3
100
AcDbLine
 10
51064.34958477
 20
-10919.72937358
 30
0.0
 11
51064.34958477
 21
-10928.22937358
 31
0.0
  0
LINE
  5
6D9
100
AcDbEntity
  8
Ech.1_5
 62
     7
  6
CONTINUOUS
370
    -3
100
AcDbLine
 10
51069.48031837
 20
-10917.72366569
 30
0.0
 11
51069.34958477
 21
-10917.72937358
 31
0.0
  0
LINE
  5
6DA
100
AcDbEntity
  8
Ech.1_5
 62
     7
  6
CONTINUOUS
370
    -3
100
AcDbLine
 10
51062.98031837
 20
-10929.72366569
 30
0.0
 11
51062.84958477
 21
-10929.72937358
 31
0.0
  0
LINE
  5
6DB
100
AcDbEntity
  8
Ech.1_5
 62
     7
  6
CONTINUOUS
370
    -3
100
AcDbLine
 10
51063.11005697
 20
-10929.70658517
 30
0.0
 11
51062.98031837
 21
-10929.72366569
 31
0.0
  0
LINE
  5
6DC
100
AcDbEntity
  8
Ech.1_5
 62
     7
  6
CONTINUOUS
370
    -3
100
AcDbLine
 10
51063.23781327
 20
-10929.67826239
 30
0.0
 11
51063.11005697
 21
-10929.70658517
 31
0.0
  0
LINE
  5
6DD
100
AcDbEntity
  8
Ech.1_5
 62
     7
  6
CONTINUOUS
370
    -3
100
AcDbLine
 10
51063.36261497
 20
-10929.63891247
 30
0.0
 11
51063.23781327
 21
-10929.67826239
 31
0.0
  0
LINE
  5
6DE
100
AcDbEntity
  8
Ech.1_5
 62
     7
  6
CONTINUOUS
370
    -3
100
AcDbLine
 10
51063.48351217
 20
-10929.58883527
 30
0.0
 11
51063.36261497
 21
-10929.63891247
 31
0.0
  0
LINE
  5
6DF
100
AcDbEntity
  8
Ech.1_5
 62
     7
  6
CONTINUOUS
370
    -3
100
AcDbLine
 10
51063.59958477
 20
-10929.52841169
 30
0.0
 11
51063.48351217
 21
-10929.58883527
 31
0.0
  0
LINE
  5
6E0
100
AcDbEntity
  8
Ech.1_5
 62
     7
  6
CONTINUOUS
370
    -3
100
AcDbLine
 10
51063.70994937
 20
-10929.4581017
 30
0.0
 11
51063.59958477
 21
-10929.52841169
 31
0.0
  0
LINE
  5
6E1
100
AcDbEntity
  8
Ech.1_5
 62
     7
  6
CONTINUOUS
370
    -3
100
AcDbLine
 10
51063.81376617
 20
-10929.3784403
 30
0.0
 11
51063.70994937
 21
-10929.4581017
 31
0.0
  0
LINE
  5
6E2
100
AcDbEntity
  8
Ech.1_5
 62
     7
  6
CONTINUOUS
370
    -3
100
AcDbLine
 10
51063.91024487
 20
-10929.29003379
 30
0.0
 11
51063.81376617
 21
-10929.3784403
 31
0.0
  0
LINE
  5
6E3
100
AcDbEntity
  8
Ech.1_5
 62
     7
  6
CONTINUOUS
370
    -3
100
AcDbLine
 10
51089.66220027
 20
-10908.57461009
 30
0.0
 11
51089.58163557
 21
-10908.72937358
 31
0.0
  0
LINE
  5
6E4
100
AcDbEntity
  8
Ech.1_5
 62
     7
  6
CONTINUOUS
370
    -3
100
AcDbLine
 10
51064.07831277
 20
-10929.08973829
 30
0.0
 11
51063.99865137
 21
-10929.19355497
 31
0.0
  0
LINE
  5
6E5
100
AcDbEntity
  8
Ech.1_5
 62
     7
  6
CONTINUOUS
370
    -3
100
AcDbLine
 10
51064.14862287
 20
-10928.97937358
 30
0.0
 11
51064.07831277
 21
-10929.08973829
 31
0.0
  0
LINE
  5
6E6
100
AcDbEntity
  8
Ech.1_5
 62
     7
  6
CONTINUOUS
370
    -3
100
AcDbLine
 10
51064.20904637
 20
-10928.86330098
 30
0.0
 11
51064.14862287
 21
-10928.97937358
 31
0.0
  0
LINE
  5
6E7
100
AcDbEntity
  8
Ech.1_5
 62
     7
  6
CONTINUOUS
370
    -3
100
AcDbLine
 10
51064.25912367
 20
-10928.74240378
 30
0.0
 11
51064.20904637
 21
-10928.86330098
 31
0.0
  0
LINE
  5
6E8
100
AcDbEntity
  8
Ech.1_5
 62
     7
  6
CONTINUOUS
370
    -3
100
AcDbLine
 10
51064.29847347
 20
-10928.61760218
 30
0.0
 11
51064.25912367
 21
-10928.74240378
 31
0.0
  0
LINE
  5
6E9
100
AcDbEntity
  8
Ech.1_5
 62
     7
  6
CONTINUOUS
370
    -3
100
AcDbLine
 10
51064.32679637
 20
-10928.48984588
 30
0.0
 11
51064.29847347
 21
-10928.61760218
 31
0.0
  0
LINE
  5
6EA
100
AcDbEntity
  8
Ech.1_5
 62
     7
  6
CONTINUOUS
370
    -3
100
AcDbLine
 10
51064.34387677
 20
-10928.36010719
 30
0.0
 11
51064.32679637
 21
-10928.48984588
 31
0.0
  0
LINE
  5
6EB
100
AcDbEntity
  8
Ech.1_5
 62
     7
  6
CONTINUOUS
370
    -3
100
AcDbLine
 10
51064.34958477
 20
-10928.22937358
 30
0.0
 11
51064.34387677
 21
-10928.36010719
 31
0.0
  0
LINE
  5
6EC
100
AcDbEntity
  8
Ech.1_5
 62
     7
  6
CONTINUOUS
370
    -3
100
AcDbLine
 10
51103.84958477
 20
-10904.265272
 30
0.0
 11
51104.14389047
 21
-10904.45276538
 31
0.0
  0
LINE
  5
6ED
100
AcDbEntity
  8
Ech.1_5
 62
     7
  6
CONTINUOUS
370
    -3
100
AcDbLine
 10
51105.14771807
 20
-10962.6577364
 30
0.0
 11
51104.97090507
 21
-10962.85069398
 31
0.0
  0
LINE
  5
6EE
100
AcDbEntity
  8
Ech.1_5
 62
     7
  6
CONTINUOUS
370
    -3
100
AcDbLine
 10
51104.97090507
 20
-10962.85069398
 30
0.0
 11
51104.77794757
 21
-10963.02750689
 31
0.0
  0
LINE
  5
6EF
100
AcDbEntity
  8
Ech.1_5
 62
     7
  6
CONTINUOUS
370
    -3
100
AcDbLine
 10
51104.77794757
 20
-10963.02750689
 30
0.0
 11
51104.57031407
 21
-10963.18682969
 31
0.0
  0
LINE
  5
6F0
100
AcDbEntity
  8
Ech.1_5
 62
     7
  6
CONTINUOUS
370
    -3
100
AcDbLine
 10
51104.57031407
 20
-10963.18682969
 30
0.0
 11
51104.34958477
 21
-10963.32744977
 31
0.0
  0
LWPOLYLINE
  5
6F1
102
{ACAD_REACTORS
330
6F2
102
}
100
AcDbEntity
  8
Ech.1_5
 62
     9
  6
CONTINUOUS
370
     5
100
AcDbPolyline
 90
        4
 70
     1
 43
0.0
 10
51011.24006202
 20
-10855.82930706
 10
51011.24006202
 20
-10845.82930706
 10
51002.24006202
 20
-10845.82930706
 10
51002.24006202
 20
-10855.82930706
  0
HATCH
  5
6F2
100
AcDbEntity
  8
Ech.1_5
 62
     2
  6
CONTINUOUS
100
AcDbHatch
 10
0.0
 20
0.0
 30
0.0
210
0.0
220
0.0
230
1.0
  2
SOLID
 70
     1
 71
     1
 91
        1
 92
        7
 72
     0
 73
     1
 93
        4
 10
51011.24006202
 20
-10855.82930706
 10
51011.24006202
 20
-10845.82930706
 10
51002.24006202
 20
-10845.82930706
 10
51002.24006202
 20
-10855.82930706
 97
        1
330
6F1
 75
     0
 76
     2
 47
0.775229
 98
        1
 10
0.0
 20
0.0
  0
HATCH
  5
6F3
100
AcDbEntity
  8
Ech.1_5
 62
     9
  6
CONTINUOUS
100
AcDbHatch
 10
0.0
 20
0.0
 30
0.0
210
0.0
220
0.0
230
1.0
  2
ANSI31
 70
     0
 71
     1
 91
        1
 92
        7
 72
     0
 73
     1
 93
        4
 10
51011.24006202
 20
-10855.82930706
 10
51011.24006202
 20
-10845.82930706
 10
51002.24006202
 20
-10845.82930706
 10
51002.24006202
 20
-10855.82930706
 97
        1
330
6F2
 75
     0
 76
     2
 52
0.0
 41
0.94488785
 77
     0
 78
     1
 53
45.0
 43
0.0
 44
0.0
 45
2.12132043
 46
-2.12132043
 79
     0
 47
0.775229
 98
        1
 10
0.0
 20
0.0
  0
LINE
  5
6F4
100
AcDbEntity
  8
Ech.1_5
 62
     7
  6
CONTINUOUS
370
    -3
100
AcDbLine
 10
51104.34958477
 20
-10963.32744977
 30
0.0
 11
51104.11743947
 21
-10963.448297
 31
0.0
  0
LINE
  5
6F5
100
AcDbEntity
  8
Ech.1_5
 62
     7
  6
CONTINUOUS
370
    -3
100
AcDbLine
 10
51104.11743947
 20
-10963.448297
 30
0.0
 11
51103.87564517
 21
-10963.54845149
 31
0.0
  0
LINE
  5
6F6
100
AcDbEntity
  8
Ech.1_5
 62
     7
  6
CONTINUOUS
370
    -3
100
AcDbLine
 10
51103.87564517
 20
-10963.54845149
 30
0.0
 11
51103.62604187
 21
-10963.62715108
 31
0.0
  0
LINE
  5
6F7
100
AcDbEntity
  8
Ech.1_5
 62
     7
  6
CONTINUOUS
370
    -3
100
AcDbLine
 10
51103.62604187
 20
-10963.62715108
 30
0.0
 11
51103.37052927
 21
-10963.68379689
 31
0.0
  0
LINE
  5
6F8
100
AcDbEntity
  8
Ech.1_5
 62
     7
  6
CONTINUOUS
370
    -3
100
AcDbLine
 10
51090.84387677
 20
-10920.36010719
 30
0.0
 11
51090.82679637
 21
-10920.48984588
 31
0.0
  0
LINE
  5
6F9
100
AcDbEntity
  8
Ech.1_5
 62
     7
  6
CONTINUOUS
370
    -3
100
AcDbLine
 10
51103.11105197
 20
-10963.71795768
 30
0.0
 11
51102.84958477
 21
-10963.72937358
 31
0.0
  0
LINE
  5
6FA
100
AcDbEntity
  8
Ech.1_5
 62
     7
  6
CONTINUOUS
370
    -3
100
AcDbLine
 10
51102.84958477
 20
-10963.72937358
 30
0.0
 11
51099.84958477
 21
-10963.72937358
 31
0.0
  0
LINE
  5
6FB
100
AcDbEntity
  8
Ech.1_5
 62
     7
  6
CONTINUOUS
370
    -3
100
AcDbLine
 10
51099.84958477
 20
-10959.72937358
 30
0.0
 11
51099.84958477
 21
-10963.72937358
 31
0.0
  0
LINE
  5
6FC
100
AcDbEntity
  8
Ech.1_5
 62
     7
  6
CONTINUOUS
370
    -3
100
AcDbLine
 10
51099.84958477
 20
-10959.72937358
 30
0.0
 11
51095.84958477
 21
-10959.72937358
 31
0.0
  0
LINE
  5
6FD
100
AcDbEntity
  8
Ech.1_5
 62
     7
  6
CONTINUOUS
370
    -3
100
AcDbLine
 10
51095.84958477
 20
-10959.72937358
 30
0.0
 11
51095.84958477
 21
-10963.72937358
 31
0.0
  0
LINE
  5
6FE
100
AcDbEntity
  8
Ech.1_5
 62
     7
  6
CONTINUOUS
370
    -3
100
AcDbLine
 10
51095.84958477
 20
-10963.72937358
 30
0.0
 11
51077.44958477
 21
-10963.72937358
 31
0.0
  0
LINE
  5
6FF
100
AcDbEntity
  8
Ech.1_5
 62
     7
  6
CONTINUOUS
370
    -3
100
AcDbLine
 10
51077.44958477
 20
-10959.72937358
 30
0.0
 11
51077.44958477
 21
-10963.72937358
 31
0.0
  0
LINE
  5
700
100
AcDbEntity
  8
Ech.1_5
 62
     7
  6
CONTINUOUS
370
    -3
100
AcDbLine
 10
51077.44958477
 20
-10959.72937358
 30
0.0
 11
51073.44958477
 21
-10959.72937358
 31
0.0
  0
LINE
  5
701
100
AcDbEntity
  8
Ech.1_5
 62
     7
  6
CONTINUOUS
370
    -3
100
AcDbLine
 10
51104.14389047
 20
-10904.45276538
 30
0.0
 11
51104.42073517
 21
-10904.6651958
 31
0.0
  0
LINE
  5
702
100
AcDbEntity
  8
Ech.1_5
 62
     7
  6
CONTINUOUS
370
    -3
100
AcDbLine
 10
51048.13885217
 20
-10969.43310318
 30
0.0
 11
51048.49825327
 21
-10971.00774229
 31
0.0
  0
LINE
  5
703
100
AcDbEntity
  8
Ech.1_5
 62
     7
  6
CONTINUOUS
370
    -3
100
AcDbLine
 10
51105.30704087
 20
-10962.4501029
 30
0.0
 11
51105.14771807
 21
-10962.6577364
 31
0.0
  0
LINE
  5
704
100
AcDbEntity
  8
Ech.1_5
 62
     7
  6
CONTINUOUS
370
    -3
100
AcDbLine
 10
51104.42073517
 20
-10904.6651958
 30
0.0
 11
51104.67801187
 21
-10904.90094647
 31
0.0
  0
LINE
  5
705
100
AcDbEntity
  8
Ech.1_5
 62
     7
  6
CONTINUOUS
370
    -3
100
AcDbLine
 10
51104.67801187
 20
-10904.90094647
 30
0.0
 11
51104.91376247
 21
-10905.15822319
 31
0.0
  0
LINE
  5
706
100
AcDbEntity
  8
Ech.1_5
 62
     7
  6
CONTINUOUS
370
    -3
100
AcDbLine
 10
51104.91376247
 20
-10905.15822319
 30
0.0
 11
51105.12619287
 21
-10905.4350679
 31
0.0
  0
LINE
  5
707
100
AcDbEntity
  8
Ech.1_5
 62
     7
  6
CONTINUOUS
370
    -3
100
AcDbLine
 10
51105.12619287
 20
-10905.4350679
 30
0.0
 11
51105.31368637
 21
-10905.72937358
 31
0.0
  0
LINE
  5
708
100
AcDbEntity
  8
Ech.1_5
 62
     7
  6
CONTINUOUS
370
    -3
100
AcDbLine
 10
51105.31368637
 20
-10905.72937358
 30
0.0
 11
51105.47481587
 21
-10906.03890059
 31
0.0
  0
LINE
  5
709
100
AcDbEntity
  8
Ech.1_5
 62
     7
  6
CONTINUOUS
370
    -3
100
AcDbLine
 10
51105.47481587
 20
-10906.03890059
 30
0.0
 11
51105.60835517
 21
-10906.36129299
 31
0.0
  0
LINE
  5
70A
100
AcDbEntity
  8
Ech.1_5
 62
     7
  6
CONTINUOUS
370
    -3
100
AcDbLine
 10
51105.60835517
 20
-10906.36129299
 30
0.0
 11
51105.71328807
 21
-10906.69409738
 31
0.0
  0
LINE
  5
70B
100
AcDbEntity
  8
Ech.1_5
 62
     7
  6
CONTINUOUS
370
    -3
100
AcDbLine
 10
51092.21885107
 20
-10903.73508159
 30
0.0
 11
51092.08911247
 21
-10903.75216199
 31
0.0
  0
LINE
  5
70C
100
AcDbEntity
  8
Ech.1_5
 62
     7
  6
CONTINUOUS
370
    -3
100
AcDbLine
 10
51105.78881577
 20
-10907.0347809
 30
0.0
 11
51105.83436357
 21
-10907.3807506
 31
0.0
  0
LINE
  5
70D
100
AcDbEntity
  8
Ech.1_5
 62
     7
  6
CONTINUOUS
370
    -3
100
AcDbLine
 10
51105.83436357
 20
-10907.3807506
 30
0.0
 11
51105.84958477
 21
-10907.72937358
 31
0.0
  0
LINE
  5
70E
100
AcDbEntity
  8
Ech.1_5
 62
     7
  6
CONTINUOUS
370
    -3
100
AcDbLine
 10
51105.84958477
 20
-10907.72937358
 30
0.0
 11
51105.84958477
 21
-10960.72937358
 31
0.0
  0
LINE
  5
70F
100
AcDbEntity
  8
Ech.1_5
 62
     7
  6
CONTINUOUS
370
    -3
100
AcDbLine
 10
51105.84958477
 20
-10960.72937358
 30
0.0
 11
51105.83816887
 21
-10960.9908408
 31
0.0
  0
LINE
  5
710
100
AcDbEntity
  8
Ech.1_5
 62
     7
  6
CONTINUOUS
370
    -3
100
AcDbLine
 10
51105.83816887
 20
-10960.9908408
 30
0.0
 11
51105.80400797
 21
-10961.25031809
 31
0.0
  0
LINE
  5
711
100
AcDbEntity
  8
Ech.1_5
 62
     7
  6
CONTINUOUS
370
    -3
100
AcDbLine
 10
51105.80400797
 20
-10961.25031809
 30
0.0
 11
51105.74736217
 21
-10961.50583068
 31
0.0
  0
LINE
  5
712
100
AcDbEntity
  8
Ech.1_5
 62
     7
  6
CONTINUOUS
370
    -3
100
AcDbLine
 10
51105.74736217
 20
-10961.50583068
 30
0.0
 11
51105.66866257
 21
-10961.75543398
 31
0.0
  0
LINE
  5
713
100
AcDbEntity
  8
Ech.1_5
 62
     7
  6
CONTINUOUS
370
    -3
100
AcDbLine
 10
51105.66866257
 20
-10961.75543398
 30
0.0
 11
51105.56850807
 21
-10961.99722839
 31
0.0
  0
LINE
  5
714
100
AcDbEntity
  8
Ech.1_5
 62
     7
  6
CONTINUOUS
370
    -3
100
AcDbLine
 10
51105.56850807
 20
-10961.99722839
 30
0.0
 11
51105.44766097
 21
-10962.22937358
 31
0.0
  0
LINE
  5
715
100
AcDbEntity
  8
Ech.1_5
 62
     7
  6
CONTINUOUS
370
    -3
100
AcDbLine
 10
51091.20051807
 20
-10904.26519219
 30
0.0
 11
51091.12085667
 21
-10904.36900899
 31
0.0
  0
LINE
  5
716
100
AcDbEntity
  8
Ech.1_5
 62
     7
  6
CONTINUOUS
370
    -3
100
AcDbLine
 10
51091.28892457
 20
-10904.1687134
 30
0.0
 11
51091.20051807
 21
-10904.26519219
 31
0.0
  0
LINE
  5
717
100
AcDbEntity
  8
Ech.1_5
 62
     7
  6
CONTINUOUS
370
    -3
100
AcDbLine
 10
51091.38540327
 20
-10904.08030689
 30
0.0
 11
51091.28892457
 21
-10904.1687134
 31
0.0
  0
LINE
  5
718
100
AcDbEntity
  8
Ech.1_5
 62
     7
  6
CONTINUOUS
370
    -3
100
AcDbLine
 10
51091.48922007
 20
-10904.00064549
 30
0.0
 11
51091.38540327
 21
-10904.08030689
 31
0.0
  0
LINE
  5
719
100
AcDbEntity
  8
Ech.1_5
 62
     7
  6
CONTINUOUS
370
    -3
100
AcDbLine
 10
51091.59958477
 20
-10903.9303355
 30
0.0
 11
51091.48922007
 21
-10904.00064549
 31
0.0
  0
LINE
  5
71A
100
AcDbEntity
  8
Ech.1_5
 62
     7
  6
CONTINUOUS
370
    -3
100
AcDbLine
 10
51091.71565737
 20
-10903.86991188
 30
0.0
 11
51091.59958477
 21
-10903.9303355
 31
0.0
  0
LINE
  5
71B
100
AcDbEntity
  8
Ech.1_5
 62
     7
  6
CONTINUOUS
370
    -3
100
AcDbLine
 10
51091.83655447
 20
-10903.81983468
 30
0.0
 11
51091.71565737
 21
-10903.86991188
 31
0.0
  0
LINE
  5
71C
100
AcDbEntity
  8
Ech.1_5
 62
     7
  6
CONTINUOUS
370
    -3
100
AcDbLine
 10
51091.96135617
 20
-10903.78048489
 30
0.0
 11
51091.83655447
 21
-10903.81983468
 31
0.0
  0
LINE
  5
71D
100
AcDbEntity
  8
Ech.1_5
 62
     7
  6
CONTINUOUS
370
    -3
100
AcDbLine
 10
51092.08911247
 20
-10903.75216199
 30
0.0
 11
51091.96135617
 21
-10903.78048489
 31
0.0
  0
LINE
  5
71E
100
AcDbEntity
  8
Ech.1_5
 62
     7
  6
CONTINUOUS
370
    -3
100
AcDbLine
 10
51105.71328807
 20
-10906.69409738
 30
0.0
 11
51105.78881577
 21
-10907.0347809
 31
0.0
  0
LINE
  5
71F
100
AcDbEntity
  8
Ech.1_5
 62
     7
  6
CONTINUOUS
370
    -3
100
AcDbLine
 10
51092.34958477
 20
-10903.72937358
 30
0.0
 11
51092.21885107
 21
-10903.73508159
 31
0.0
  0
LINE
  5
720
100
AcDbEntity
  8
Ech.1_5
 62
     7
  6
CONTINUOUS
370
    -3
100
AcDbLine
 10
51092.34958477
 20
-10903.72937358
 30
0.0
 11
51101.84958477
 21
-10903.72937358
 31
0.0
  0
LINE
  5
721
100
AcDbEntity
  8
Ech.1_5
 62
     7
  6
CONTINUOUS
370
    -3
100
AcDbLine
 10
51101.84958477
 20
-10903.72937358
 30
0.0
 11
51102.19820767
 21
-10903.74459479
 31
0.0
  0
LINE
  5
722
100
AcDbEntity
  8
Ech.1_5
 62
     7
  6
CONTINUOUS
370
    -3
100
AcDbLine
 10
51102.19820767
 20
-10903.74459479
 30
0.0
 11
51102.54417747
 21
-10903.7901426
 31
0.0
  0
LINE
  5
723
100
AcDbEntity
  8
Ech.1_5
 62
     7
  6
CONTINUOUS
370
    -3
100
AcDbLine
 10
51102.54417747
 20
-10903.7901426
 30
0.0
 11
51102.88486087
 21
-10903.8656703
 31
0.0
  0
LINE
  5
724
100
AcDbEntity
  8
Ech.1_5
 62
     7
  6
CONTINUOUS
370
    -3
100
AcDbLine
 10
51102.88486087
 20
-10903.8656703
 30
0.0
 11
51103.21766527
 21
-10903.97060308
 31
0.0
  0
LINE
  5
725
100
AcDbEntity
  8
Ech.1_5
 62
     7
  6
CONTINUOUS
370
    -3
100
AcDbLine
 10
51103.21766527
 20
-10903.97060308
 30
0.0
 11
51103.54005777
 21
-10904.10414249
 31
0.0
  0
LINE
  5
726
100
AcDbEntity
  8
Ech.1_5
 62
     7
  6
CONTINUOUS
370
    -3
100
AcDbLine
 10
51070.21128067
 20
-10922.58222068
 30
0.0
 11
51070.11753397
 21
-10922.72937358
 31
0.0
  0
LINE
  5
727
100
AcDbEntity
  8
Ech.1_5
 62
     7
  6
CONTINUOUS
370
    -3
100
AcDbLine
 10
51090.31376617
 20
-10921.3784403
 30
0.0
 11
51090.20994937
 21
-10921.4581017
 31
0.0
  0
LINE
  5
728
100
AcDbEntity
  8
Ech.1_5
 62
     7
  6
CONTINUOUS
370
    -3
100
AcDbLine
 10
51103.54005777
 20
-10904.10414249
 30
0.0
 11
51103.84958477
 21
-10904.265272
 31
0.0
  0
LINE
  5
729
100
AcDbEntity
  8
Ech.1_5
 62
     7
  6
CONTINUOUS
370
    -3
100
AcDbLine
 10
51090.41024487
 20
-10921.29003379
 30
0.0
 11
51090.31376617
 21
-10921.3784403
 31
0.0
  0
LINE
  5
72A
100
AcDbEntity
  8
Ech.1_5
 62
     7
  6
CONTINUOUS
370
    -3
100
AcDbLine
 10
51090.49865137
 20
-10921.19355497
 30
0.0
 11
51090.41024487
 21
-10921.29003379
 31
0.0
  0
LINE
  5
72B
100
AcDbEntity
  8
Ech.1_5
 62
     7
  6
CONTINUOUS
370
    -3
100
AcDbLine
 10
51090.57831277
 20
-10921.08973829
 30
0.0
 11
51090.49865137
 21
-10921.19355497
 31
0.0
  0
LINE
  5
72C
100
AcDbEntity
  8
Ech.1_5
 62
     7
  6
CONTINUOUS
370
    -3
100
AcDbLine
 10
51090.64862287
 20
-10920.97937358
 30
0.0
 11
51090.57831277
 21
-10921.08973829
 31
0.0
  0
LINE
  5
72D
100
AcDbEntity
  8
Ech.1_5
 62
     7
  6
CONTINUOUS
370
    -3
100
AcDbLine
 10
51090.70904637
 20
-10920.86330098
 30
0.0
 11
51090.64862287
 21
-10920.97937358
 31
0.0
  0
LINE
  5
72E
100
AcDbEntity
  8
Ech.1_5
 62
     7
  6
CONTINUOUS
370
    -3
100
AcDbLine
 10
51090.75912367
 20
-10920.74240378
 30
0.0
 11
51090.70904637
 21
-10920.86330098
 31
0.0
  0
LINE
  5
72F
100
AcDbEntity
  8
Ech.1_5
 62
     7
  6
CONTINUOUS
370
    -3
100
AcDbLine
 10
51090.79847347
 20
-10920.61760218
 30
0.0
 11
51090.75912367
 21
-10920.74240378
 31
0.0
  0
LINE
  5
730
100
AcDbEntity
  8
Ech.1_5
 62
     7
  6
CONTINUOUS
370
    -3
100
AcDbLine
 10
51090.82679637
 20
-10920.48984588
 30
0.0
 11
51090.79847347
 21
-10920.61760218
 31
0.0
  0
LINE
  5
731
100
AcDbEntity
  8
Ech.1_5
 62
     7
  6
CONTINUOUS
370
    -3
100
AcDbLine
 10
51103.37052927
 20
-10963.68379689
 30
0.0
 11
51103.11105197
 21
-10963.71795768
 31
0.0
  0
LINE
  5
732
100
AcDbEntity
  8
Ech.1_5
 62
     7
  6
CONTINUOUS
370
    -3
100
AcDbLine
 10
51090.84958477
 20
-10920.22937358
 30
0.0
 11
51090.84387677
 21
-10920.36010719
 31
0.0
  0
LINE
  5
733
100
AcDbEntity
  8
Ech.1_5
 62
     7
  6
CONTINUOUS
370
    -3
100
AcDbLine
 10
51090.84958477
 20
-10905.22937358
 30
0.0
 11
51090.84958477
 21
-10920.22937358
 31
0.0
  0
LINE
  5
734
100
AcDbEntity
  8
Ech.1_5
 62
     7
  6
CONTINUOUS
370
    -3
100
AcDbLine
 10
51090.85529267
 20
-10905.09864
 30
0.0
 11
51090.84958477
 21
-10905.22937358
 31
0.0
  0
LINE
  5
735
100
AcDbEntity
  8
Ech.1_5
 62
     7
  6
CONTINUOUS
370
    -3
100
AcDbLine
 10
51090.87237307
 20
-10904.96890128
 30
0.0
 11
51090.85529267
 21
-10905.09864
 31
0.0
  0
LINE
  5
736
100
AcDbEntity
  8
Ech.1_5
 62
     7
  6
CONTINUOUS
370
    -3
100
AcDbLine
 10
51090.90069597
 20
-10904.84114498
 30
0.0
 11
51090.87237307
 21
-10904.96890128
 31
0.0
  0
LINE
  5
737
100
AcDbEntity
  8
Ech.1_5
 62
     7
  6
CONTINUOUS
370
    -3
100
AcDbLine
 10
51090.94004577
 20
-10904.71634338
 30
0.0
 11
51090.90069597
 21
-10904.84114498
 31
0.0
  0
LINE
  5
738
100
AcDbEntity
  8
Ech.1_5
 62
     7
  6
CONTINUOUS
370
    -3
100
AcDbLine
 10
51090.99012307
 20
-10904.59544617
 30
0.0
 11
51090.94004577
 21
-10904.71634338
 31
0.0
  0
LINE
  5
739
100
AcDbEntity
  8
Ech.1_5
 62
     7
  6
CONTINUOUS
370
    -3
100
AcDbLine
 10
51091.05054667
 20
-10904.47937358
 30
0.0
 11
51090.99012307
 21
-10904.59544617
 31
0.0
  0
LINE
  5
73A
100
AcDbEntity
  8
Ech.1_5
 62
     7
  6
CONTINUOUS
370
    -3
100
AcDbLine
 10
51090.20994937
 20
-10921.4581017
 30
0.0
 11
51090.09958477
 21
-10921.52841169
 31
0.0
  0
LINE
  5
73B
100
AcDbEntity
  8
Ech.1_5
 62
     7
  6
CONTINUOUS
370
    -3
100
AcDbLine
 10
51090.09958477
 20
-10921.52841169
 30
0.0
 11
51089.98351217
 21
-10921.58883527
 31
0.0
  0
LINE
  5
73C
100
AcDbEntity
  8
Ech.1_5
 62
     7
  6
CONTINUOUS
370
    -3
100
AcDbLine
 10
51070.31749587
 20
-10922.4437984
 30
0.0
 11
51070.21128067
 21
-10922.58222068
 31
0.0
  0
LINE
  5
73D
100
AcDbEntity
  8
Ech.1_5
 62
     7
  6
CONTINUOUS
370
    -3
100
AcDbLine
 10
51070.43537117
 20
-10922.31515998
 30
0.0
 11
51070.31749587
 21
-10922.4437984
 31
0.0
  0
LINE
  5
73E
100
AcDbEntity
  8
Ech.1_5
 62
     7
  6
CONTINUOUS
370
    -3
100
AcDbLine
 10
51070.56400947
 20
-10922.19728467
 30
0.0
 11
51070.43537117
 21
-10922.31515998
 31
0.0
  0
LINE
  5
73F
100
AcDbEntity
  8
Ech.1_5
 62
     7
  6
CONTINUOUS
370
    -3
100
AcDbLine
 10
51070.70243187
 20
-10922.0910695
 30
0.0
 11
51070.56400947
 21
-10922.19728467
 31
0.0
  0
LINE
  5
740
100
AcDbEntity
  8
Ech.1_5
 62
     7
  6
CONTINUOUS
370
    -3
100
AcDbLine
 10
51070.84958477
 20
-10921.99732277
 30
0.0
 11
51070.70243187
 21
-10922.0910695
 31
0.0
  0
LINE
  5
741
100
AcDbEntity
  8
Ech.1_5
 62
     7
  6
CONTINUOUS
370
    -3
100
AcDbLine
 10
51071.00434817
 20
-10921.91675798
 30
0.0
 11
51070.84958477
 21
-10921.99732277
 31
0.0
  0
LINE
  5
742
100
AcDbEntity
  8
Ech.1_5
 62
     7
  6
CONTINUOUS
370
    -3
100
AcDbLine
 10
51071.16554447
 20
-10921.84998838
 30
0.0
 11
51071.00434817
 21
-10921.91675798
 31
0.0
  0
LINE
  5
743
100
AcDbEntity
  8
Ech.1_5
 62
     7
  6
CONTINUOUS
370
    -3
100
AcDbLine
 10
51071.33194667
 20
-10921.79752198
 30
0.0
 11
51071.16554447
 21
-10921.84998838
 31
0.0
  0
LINE
  5
744
100
AcDbEntity
  8
Ech.1_5
 62
     7
  6
CONTINUOUS
370
    -3
100
AcDbLine
 10
51057.31994877
 20
-10982.06979868
 30
0.0
 11
51058.77513417
 21
-10982.77057899
 31
0.0
  0
LINE
  5
745
100
AcDbEntity
  8
Ech.1_5
 62
     7
  6
CONTINUOUS
370
    -3
100
AcDbLine
 10
51071.67527327
 20
-10921.7369842
 30
0.0
 11
51071.50228837
 21
-10921.75975809
 31
0.0
  0
LINE
  5
746
100
AcDbEntity
  8
Ech.1_5
 62
     7
  6
CONTINUOUS
370
    -3
100
AcDbLine
 10
51071.84958477
 20
-10921.72937358
 30
0.0
 11
51071.67527327
 21
-10921.7369842
 31
0.0
  0
LINE
  5
747
100
AcDbEntity
  8
Ech.1_5
 62
     7
  6
CONTINUOUS
370
    -3
100
AcDbLine
 10
51071.84958477
 20
-10921.72937358
 30
0.0
 11
51089.34958477
 21
-10921.72937358
 31
0.0
  0
LINE
  5
748
100
AcDbEntity
  8
Ech.1_5
 62
     7
  6
CONTINUOUS
370
    -3
100
AcDbLine
 10
51089.48031837
 20
-10921.72366569
 30
0.0
 11
51089.34958477
 21
-10921.72937358
 31
0.0
  0
LINE
  5
749
100
AcDbEntity
  8
Ech.1_5
 62
     7
  6
CONTINUOUS
370
    -3
100
AcDbLine
 10
51089.61005697
 20
-10921.70658517
 30
0.0
 11
51089.48031837
 21
-10921.72366569
 31
0.0
  0
LINE
  5
74A
100
AcDbEntity
  8
Ech.1_5
 62
     7
  6
CONTINUOUS
370
    -3
100
AcDbLine
 10
51089.73781327
 20
-10921.67826239
 30
0.0
 11
51089.61005697
 21
-10921.70658517
 31
0.0
  0
LINE
  5
74B
100
AcDbEntity
  8
Ech.1_5
 62
     7
  6
CONTINUOUS
370
    -3
100
AcDbLine
 10
51089.86261497
 20
-10921.63891247
 30
0.0
 11
51089.73781327
 21
-10921.67826239
 31
0.0
  0
LINE
  5
74C
100
AcDbEntity
  8
Ech.1_5
 62
     7
  6
CONTINUOUS
370
    -3
100
AcDbLine
 10
51089.98351217
 20
-10921.58883527
 30
0.0
 11
51089.86261497
 21
-10921.63891247
 31
0.0
  0
LINE
  5
74D
100
AcDbEntity
  8
Ech.1_5
 62
     7
  6
CONTINUOUS
370
    -3
100
AcDbLine
 10
51070.11753397
 20
-10922.72937358
 30
0.0
 11
51070.03696917
 21
-10922.8841371
 31
0.0
  0
LINE
  5
74E
100
AcDbEntity
  8
Ech.1_5
 62
     7
  6
CONTINUOUS
370
    -3
100
AcDbLine
 10
51091.12085667
 20
-10904.36900899
 30
0.0
 11
51091.05054667
 21
-10904.47937358
 31
0.0
  0
LINE
  5
74F
100
AcDbEntity
  8
Ech.1_5
 62
     7
  6
CONTINUOUS
370
    -3
100
AcDbLine
 10
51050.58811747
 20
-10933.74078948
 30
0.0
 11
51050.32864017
 21
-10933.77495039
 31
0.0
  0
LINE
  5
750
100
AcDbEntity
  8
Ech.1_5
 62
     7
  6
CONTINUOUS
370
    -3
100
AcDbLine
 10
51050.84958477
 20
-10933.72937358
 30
0.0
 11
51050.58811747
 21
-10933.74078948
 31
0.0
  0
LINE
  5
751
100
AcDbEntity
  8
Ech.1_5
 62
     7
  6
CONTINUOUS
370
    -3
100
AcDbLine
 10
51050.84958477
 20
-10933.72937358
 30
0.0
 11
51053.04818357
 21
-10934.4705546
 31
0.0
  0
LINE
  5
752
100
AcDbEntity
  8
Ech.1_5
 62
     7
  6
CONTINUOUS
370
    -3
100
AcDbLine
 10
51053.04818357
 20
-10934.4705546
 30
0.0
 11
51054.95665767
 21
-10938.72937358
 31
0.0
  0
LINE
  5
753
100
AcDbEntity
  8
Ech.1_5
 62
     7
  6
CONTINUOUS
370
    -3
100
AcDbLine
 10
51058.70843757
 20
-10937.98819268
 30
0.0
 11
51054.95665767
 21
-10938.72937358
 31
0.0
  0
LINE
  5
754
100
AcDbEntity
  8
Ech.1_5
 62
     7
  6
CONTINUOUS
370
    -3
100
AcDbLine
 10
51060.61691177
 20
-10933.72937358
 30
0.0
 11
51058.70843757
 21
-10937.98819268
 31
0.0
  0
LINE
  5
755
100
AcDbEntity
  8
Ech.1_5
 62
     7
  6
CONTINUOUS
370
    -3
100
AcDbLine
 10
51060.61691177
 20
-10933.72937358
 30
0.0
 11
51065.54958477
 21
-10933.72937358
 31
0.0
  0
LINE
  5
756
100
AcDbEntity
  8
Ech.1_5
 62
     7
  6
CONTINUOUS
370
    -3
100
AcDbLine
 10
51048.25150857
 20
-10935.22937358
 30
0.0
 11
51048.13066137
 21
-10935.4615188
 31
0.0
  0
LINE
  5
757
100
AcDbEntity
  8
Ech.1_5
 62
     7
  6
CONTINUOUS
370
    -3
100
AcDbLine
 10
51065.54958477
 20
-10941.72937358
 30
0.0
 11
51069.54958477
 21
-10941.72937358
 31
0.0
  0
LINE
  5
758
100
AcDbEntity
  8
Ech.1_5
 62
     7
  6
CONTINUOUS
370
    -3
100
AcDbLine
 10
51069.54958477
 20
-10933.72937358
 30
0.0
 11
51069.54958477
 21
-10941.72937358
 31
0.0
  0
LINE
  5
759
100
AcDbEntity
  8
Ech.1_5
 62
     7
  6
CONTINUOUS
370
    -3
100
AcDbLine
 10
51069.54958477
 20
-10933.72937358
 30
0.0
 11
51069.84958477
 21
-10933.72937358
 31
0.0
  0
LINE
  5
75A
100
AcDbEntity
  8
Ech.1_5
 62
     7
  6
CONTINUOUS
370
    -3
100
AcDbLine
 10
51069.84958477
 20
-10923.72937358
 30
0.0
 11
51069.84958477
 21
-10933.72937358
 31
0.0
  0
LINE
  5
75B
100
AcDbEntity
  8
Ech.1_5
 62
     7
  6
CONTINUOUS
370
    -3
100
AcDbLine
 10
51069.85719537
 20
-10923.55506209
 30
0.0
 11
51069.84958477
 21
-10923.72937358
 31
0.0
  0
LINE
  5
75C
100
AcDbEntity
  8
Ech.1_5
 62
     7
  6
CONTINUOUS
370
    -3
100
AcDbLine
 10
51069.87996927
 20
-10923.38207728
 30
0.0
 11
51069.85719537
 21
-10923.55506209
 31
0.0
  0
LINE
  5
75D
100
AcDbEntity
  8
Ech.1_5
 62
     7
  6
CONTINUOUS
370
    -3
100
AcDbLine
 10
51069.91773307
 20
-10923.21173549
 30
0.0
 11
51069.87996927
 21
-10923.38207728
 31
0.0
  0
LINE
  5
75E
100
AcDbEntity
  8
Ech.1_5
 62
     7
  6
CONTINUOUS
370
    -3
100
AcDbLine
 10
51069.97019947
 20
-10923.0453333
 30
0.0
 11
51069.91773307
 21
-10923.21173549
 31
0.0
  0
LINE
  5
75F
100
AcDbEntity
  8
Ech.1_5
 62
     7
  6
CONTINUOUS
370
    -3
100
AcDbLine
 10
51070.03696917
 20
-10922.8841371
 30
0.0
 11
51069.97019947
 21
-10923.0453333
 31
0.0
  0
LINE
  5
760
100
AcDbEntity
  8
Ech.1_5
 62
     7
  6
CONTINUOUS
370
    -3
100
AcDbLine
 10
51050.07312757
 20
-10933.83159608
 30
0.0
 11
51049.82352427
 21
-10933.9102957
 31
0.0
  0
LINE
  5
761
100
AcDbEntity
  8
Ech.1_5
 62
     7
  6
CONTINUOUS
370
    -3
100
AcDbLine
 10
51105.44766097
 20
-10962.22937358
 30
0.0
 11
51105.30704087
 21
-10962.4501029
 31
0.0
  0
LINE
  5
762
100
AcDbEntity
  8
Ech.1_5
 62
     7
  6
CONTINUOUS
370
    -3
100
AcDbLine
 10
51047.92204747
 20
-10967.83258659
 30
0.0
 11
51048.13885217
 21
-10969.43310318
 31
0.0
  0
LINE
  5
763
100
AcDbEntity
  8
Ech.1_5
 62
     7
  6
CONTINUOUS
370
    -3
100
AcDbLine
 10
51047.84958477
 20
-10966.21907908
 30
0.0
 11
51047.92204747
 21
-10967.83258659
 31
0.0
  0
LINE
  5
764
100
AcDbEntity
  8
Ech.1_5
 62
     7
  6
CONTINUOUS
370
    -3
100
AcDbLine
 10
51047.84958477
 20
-10936.72937358
 30
0.0
 11
51047.84958477
 21
-10966.21907908
 31
0.0
  0
LINE
  5
765
100
AcDbEntity
  8
Ech.1_5
 62
     7
  6
CONTINUOUS
370
    -3
100
AcDbLine
 10
51047.86100067
 20
-10936.46790639
 30
0.0
 11
51047.84958477
 21
-10936.72937358
 31
0.0
  0
LINE
  5
766
100
AcDbEntity
  8
Ech.1_5
 62
     7
  6
CONTINUOUS
370
    -3
100
AcDbLine
 10
51047.89516147
 20
-10936.20842907
 30
0.0
 11
51047.86100067
 21
-10936.46790639
 31
0.0
  0
LINE
  5
767
100
AcDbEntity
  8
Ech.1_5
 62
     7
  6
CONTINUOUS
370
    -3
100
AcDbLine
 10
51047.95180727
 20
-10935.95291648
 30
0.0
 11
51047.89516147
 21
-10936.20842907
 31
0.0
  0
LINE
  5
768
100
AcDbEntity
  8
Ech.1_5
 62
     7
  6
CONTINUOUS
370
    -3
100
AcDbLine
 10
51048.03050687
 20
-10935.70331318
 30
0.0
 11
51047.95180727
 21
-10935.95291648
 31
0.0
  0
LINE
  5
769
100
AcDbEntity
  8
Ech.1_5
 62
     7
  6
CONTINUOUS
370
    -3
100
AcDbLine
 10
51048.13066137
 20
-10935.4615188
 30
0.0
 11
51048.03050687
 21
-10935.70331318
 31
0.0
  0
LINE
  5
76A
100
AcDbEntity
  8
Ech.1_5
 62
     7
  6
CONTINUOUS
370
    -3
100
AcDbLine
 10
51065.54958477
 20
-10933.72937358
 30
0.0
 11
51065.54958477
 21
-10941.72937358
 31
0.0
  0
LINE
  5
76B
100
AcDbEntity
  8
Ech.1_5
 62
     7
  6
CONTINUOUS
370
    -3
100
AcDbLine
 10
51048.39212857
 20
-10935.00864429
 30
0.0
 11
51048.25150857
 21
-10935.22937358
 31
0.0
  0
LINE
  5
76C
100
AcDbEntity
  8
Ech.1_5
 62
     7
  6
CONTINUOUS
370
    -3
100
AcDbLine
 10
51048.55145137
 20
-10934.80101079
 30
0.0
 11
51048.39212857
 21
-10935.00864429
 31
0.0
  0
LINE
  5
76D
100
AcDbEntity
  8
Ech.1_5
 62
     7
  6
CONTINUOUS
370
    -3
100
AcDbLine
 10
51048.72826437
 20
-10934.6080533
 30
0.0
 11
51048.55145137
 21
-10934.80101079
 31
0.0
  0
LINE
  5
76E
100
AcDbEntity
  8
Ech.1_5
 62
     7
  6
CONTINUOUS
370
    -3
100
AcDbLine
 10
51048.92122187
 20
-10934.4312403
 30
0.0
 11
51048.72826437
 21
-10934.6080533
 31
0.0
  0
LINE
  5
76F
100
AcDbEntity
  8
Ech.1_5
 62
     7
  6
CONTINUOUS
370
    -3
100
AcDbLine
 10
51049.12885547
 20
-10934.2719175
 30
0.0
 11
51048.92122187
 21
-10934.4312403
 31
0.0
  0
LINE
  5
770
100
AcDbEntity
  8
Ech.1_5
 62
     7
  6
CONTINUOUS
370
    -3
100
AcDbLine
 10
51049.34958477
 20
-10934.13129739
 30
0.0
 11
51049.12885547
 21
-10934.2719175
 31
0.0
  0
LINE
  5
771
100
AcDbEntity
  8
Ech.1_5
 62
     7
  6
CONTINUOUS
370
    -3
100
AcDbLine
 10
51049.58172997
 20
-10934.01045028
 30
0.0
 11
51049.34958477
 21
-10934.13129739
 31
0.0
  0
LINE
  5
772
100
AcDbEntity
  8
Ech.1_5
 62
     7
  6
CONTINUOUS
370
    -3
100
AcDbLine
 10
51048.49825327
 20
-10971.00774229
 30
0.0
 11
51048.99735707
 21
-10972.5438259
 31
0.0
  0
LINE
  5
773
100
AcDbEntity
  8
Ech.1_5
 62
     7
  6
CONTINUOUS
370
    -3
100
AcDbLine
 10
51050.32864017
 20
-10933.77495039
 30
0.0
 11
51050.07312757
 21
-10933.83159608
 31
0.0
  0
LINE
  5
774
100
AcDbEntity
  8
Ech.1_5
 62
     7
  6
CONTINUOUS
370
    -3
100
AcDbLine
 10
51049.82352427
 20
-10933.9102957
 30
0.0
 11
51049.58172997
 21
-10934.01045028
 31
0.0
  0
LINE
  5
775
100
AcDbEntity
  8
Ech.1_5
 62
     7
  6
CONTINUOUS
370
    -3
100
AcDbLine
 10
51073.44958477
 20
-10959.72937358
 30
0.0
 11
51073.44958477
 21
-10963.72937358
 31
0.0
  0
LINE
  5
776
100
AcDbEntity
  8
Ech.1_5
 62
     7
  6
CONTINUOUS
370
    -3
100
AcDbLine
 10
51073.44958477
 20
-10963.72937358
 30
0.0
 11
51064.14958477
 21
-10963.72937358
 31
0.0
  0
LINE
  5
777
100
AcDbEntity
  8
Ech.1_5
 62
     7
  6
CONTINUOUS
370
    -3
100
AcDbLine
 10
51064.14958477
 20
-10963.72937358
 30
0.0
 11
51064.14958477
 21
-10971.22937358
 31
0.0
  0
LINE
  5
778
100
AcDbEntity
  8
Ech.1_5
 62
     7
  6
CONTINUOUS
370
    -3
100
AcDbLine
 10
51064.14958477
 20
-10971.22937358
 30
0.0
 11
51062.94958477
 21
-10971.22937358
 31
0.0
  0
LINE
  5
779
100
AcDbEntity
  8
Ech.1_5
 62
     7
  6
CONTINUOUS
370
    -3
100
AcDbLine
 10
51062.94958477
 20
-10971.22937358
 30
0.0
 11
51062.94958477
 21
-10982.72937358
 31
0.0
  0
LINE
  5
77A
100
AcDbEntity
  8
Ech.1_5
 62
     7
  6
CONTINUOUS
370
    -3
100
AcDbLine
 10
51062.94958477
 20
-10982.72937358
 30
0.0
 11
51061.37100027
 21
-10983.69021878
 31
0.0
  0
LINE
  5
77B
100
AcDbEntity
  8
Ech.1_5
 62
     7
  6
CONTINUOUS
370
    -3
100
AcDbLine
 10
51060.28727887
 20
-10983.33809639
 30
0.0
 11
51061.37100027
 21
-10983.69021878
 31
0.0
  0
LINE
  5
77C
100
AcDbEntity
  8
Ech.1_5
 62
     7
  6
CONTINUOUS
370
    -3
100
AcDbLine
 10
51058.77513417
 20
-10982.77057899
 30
0.0
 11
51060.28727887
 21
-10983.33809639
 31
0.0
  0
LINE
  5
77D
100
AcDbEntity
  8
Ech.1_5
 62
     7
  6
CONTINUOUS
370
    -3
100
AcDbLine
 10
51071.50228837
 20
-10921.75975809
 30
0.0
 11
51071.33194667
 21
-10921.79752198
 31
0.0
  0
LINE
  5
77E
100
AcDbEntity
  8
Ech.1_5
 62
     7
  6
CONTINUOUS
370
    -3
100
AcDbLine
 10
51055.93343907
 20
-10981.24139768
 30
0.0
 11
51057.31994877
 21
-10982.06979868
 31
0.0
  0
LINE
  5
77F
100
AcDbEntity
  8
Ech.1_5
 62
     7
  6
CONTINUOUS
370
    -3
100
AcDbLine
 10
51054.62676827
 20
-10980.29204578
 30
0.0
 11
51055.93343907
 21
-10981.24139768
 31
0.0
  0
LINE
  5
780
100
AcDbEntity
  8
Ech.1_5
 62
     7
  6
CONTINUOUS
370
    -3
100
AcDbLine
 10
51053.41045707
 20
-10979.22938657
 30
0.0
 11
51054.62676827
 21
-10980.29204578
 31
0.0
  0
LINE
  5
781
100
AcDbEntity
  8
Ech.1_5
 62
     7
  6
CONTINUOUS
370
    -3
100
AcDbLine
 10
51052.29429837
 20
-10978.0619762
 30
0.0
 11
51053.41045707
 21
-10979.22938657
 31
0.0
  0
LINE
  5
782
100
AcDbEntity
  8
Ech.1_5
 62
     7
  6
CONTINUOUS
370
    -3
100
AcDbLine
 10
51051.28727887
 20
-10976.79921359
 30
0.0
 11
51052.29429837
 21
-10978.0619762
 31
0.0
  0
LINE
  5
783
100
AcDbEntity
  8
Ech.1_5
 62
     7
  6
CONTINUOUS
370
    -3
100
AcDbLine
 10
51050.39750647
 20
-10975.45126609
 30
0.0
 11
51051.28727887
 21
-10976.79921359
 31
0.0
  0
LINE
  5
784
100
AcDbEntity
  8
Ech.1_5
 62
     7
  6
CONTINUOUS
370
    -3
100
AcDbLine
 10
51049.63214507
 20
-10974.0289864
 30
0.0
 11
51050.39750647
 21
-10975.45126609
 31
0.0
  0
LINE
  5
785
100
AcDbEntity
  8
Ech.1_5
 62
     7
  6
CONTINUOUS
370
    -3
100
AcDbLine
 10
51048.99735707
 20
-10972.5438259
 30
0.0
 11
51049.63214507
 21
-10974.0289864
 31
0.0
  0
LINE
  5
786
100
AcDbEntity
  8
Ech.1_5
 62
     7
  6
CONTINUOUS
370
    -3
100
AcDbLine
 10
51089.84958477
 20
-10864.67826239
 30
0.0
 11
51089.84958477
 21
-10874.67826239
 31
0.0
  0
LWPOLYLINE
  5
787
102
{ACAD_REACTORS
330
788
102
}
100
AcDbEntity
  8
Ech.1_5
 62
     9
  6
CONTINUOUS
370
     5
100
AcDbPolyline
 90
        4
 70
     1
 43
0.0
 10
51011.24006202
 20
-10855.82930706
 10
51011.24006202
 20
-10845.82930706
 10
51002.24006202
 20
-10845.82930706
 10
51002.24006202
 20
-10855.82930706
  0
HATCH
  5
788
100
AcDbEntity
  8
Ech.1_5
 62
     2
  6
CONTINUOUS
100
AcDbHatch
 10
0.0
 20
0.0
 30
0.0
210
0.0
220
0.0
230
1.0
  2
SOLID
 70
     1
 71
     1
 91
        1
 92
        7
 72
     0
 73
     1
 93
        4
 10
51011.24006202
 20
-10855.82930706
 10
51011.24006202
 20
-10845.82930706
 10
51002.24006202
 20
-10845.82930706
 10
51002.24006202
 20
-10855.82930706
 97
        1
330
787
 75
     0
 76
     2
 47
0.775229
 98
        1
 10
0.0
 20
0.0
  0
HATCH
  5
789
100
AcDbEntity
  8
Ech.1_5
 62
     9
  6
CONTINUOUS
100
AcDbHatch
 10
0.0
 20
0.0
 30
0.0
210
0.0
220
0.0
230
1.0
  2
ANSI31
 70
     0
 71
     1
 91
        1
 92
        7
 72
     0
 73
     1
 93
        4
 10
51011.24006202
 20
-10855.82930706
 10
51011.24006202
 20
-10845.82930706
 10
51002.24006202
 20
-10845.82930706
 10
51002.24006202
 20
-10855.82930706
 97
        1
330
788
 75
     0
 76
     2
 52
0.0
 41
0.94488785
 77
     0
 78
     1
 53
45.0
 43
0.0
 44
0.0
 45
2.12132043
 46
-2.12132043
 79
     0
 47
0.775229
 98
        1
 10
0.0
 20
0.0
  0
3DFACE
  5
78A
100
AcDbEntity
  8
Ech.1_5
 62
     7
  6
CONTINUOUS
370
    -3
100
AcDbFace
 70
     0
 10
51095.84958477
 20
-11042.6981746
 30
2500.0
 11
51099.84958477
 21
-11042.6981746
 31
2500.0
 12
51099.84958477
 22
-10959.72937358
 32
2500.0
 13
51095.84958477
 23
-10959.72937358
 33
2500.0
  0
LWPOLYLINE
  5
78B
100
AcDbEntity
  8
Ech.1_5
 62
     7
  6
CONTINUOUS
370
    -3
100
AcDbPolyline
 90
        4
 70
     1
 43
0.0
 10
51095.84958477
 20
-10963.72937358
 10
51077.44958477
 20
-10963.72937358
 10
51077.44958477
 20
-10970.97360918
 10
51095.84958477
 20
-10970.97360918
  0
3DFACE
  5
78C
100
AcDbEntity
  8
Ech.1_5
 62
     7
  6
CONTINUOUS
370
    -3
100
AcDbFace
 70
     0
 10
51073.44958477
 20
-11042.6981746
 30
2500.0
 11
51077.44958477
 21
-11042.6981746
 31
2500.0
 12
51077.44958477
 22
-10959.72937358
 32
2500.0
 13
51073.44958477
 23
-10959.72937358
 33
2500.0
  0
LWPOLYLINE
  5
78D
100
AcDbEntity
  8
Ech.1_5
 62
     7
  6
CONTINUOUS
370
    -3
100
AcDbPolyline
 90
        8
 70
     0
 43
0.0
 10
51031.84958477
 20
-10877.31794025
 10
51002.24006202
 20
-10877.31794025
 10
51002.24006202
 20
-10844.45405287
 10
50995.24006202
 20
-10844.45405287
 10
50991.28370556
 20
-10847.45405287
 10
50991.28370556
 20
-10895.21150547
 10
51002.24006202
 20
-10903.96150547
 10
51031.84958477
 20
-10903.96150547
  0
LINE
  5
78E
100
AcDbEntity
  8
Ech.1_5
 62
     7
  6
CONTINUOUS
370
    -3
100
AcDbLine
 10
51075.44958477
 20
-11110.44813639
 30
0.0
 11
51077.44958477
 21
-11110.44813639
 31
0.0
  0
LINE
  5
78F
100
AcDbEntity
  8
Ech.1_5
 62
     7
  6
CONTINUOUS
370
    -3
100
AcDbLine
 10
51097.84958477
 20
-11110.44813639
 30
0.0
 11
51099.84958477
 21
-11110.44813639
 31
0.0
  0
LINE
  5
790
100
AcDbEntity
  8
Ech.1_5
 62
     7
  6
CONTINUOUS
370
    -3
100
AcDbLine
 10
51056.26685737
 20
-11146.37539098
 30
0.0
 11
51055.82539877
 21
-11146.65663117
 31
0.0
  0
LINE
  5
791
100
AcDbEntity
  8
Ech.1_5
 62
     7
  6
CONTINUOUS
370
    -3
100
AcDbLine
 10
51056.68212437
 20
-11146.05674538
 30
0.0
 11
51056.26685737
 21
-11146.37539098
 31
0.0
  0
LINE
  5
792
100
AcDbEntity
  8
Ech.1_5
 62
     7
  6
CONTINUOUS
370
    -3
100
AcDbLine
 10
51057.06803937
 20
-11145.70311937
 30
0.0
 11
51056.68212437
 21
-11146.05674538
 31
0.0
  0
LINE
  5
793
100
AcDbEntity
  8
Ech.1_5
 62
     7
  6
CONTINUOUS
370
    -3
100
AcDbLine
 10
51057.42166537
 20
-11145.31720439
 30
0.0
 11
51057.06803937
 21
-11145.70311937
 31
0.0
  0
LINE
  5
794
100
AcDbEntity
  8
Ech.1_5
 62
     7
  6
CONTINUOUS
370
    -3
100
AcDbLine
 10
51057.74031097
 20
-11144.90193737
 30
0.0
 11
51057.42166537
 21
-11145.31720439
 31
0.0
  0
LINE
  5
795
100
AcDbEntity
  8
Ech.1_5
 62
     7
  6
CONTINUOUS
370
    -3
100
AcDbLine
 10
51058.02155117
 20
-11144.46047878
 30
0.0
 11
51057.74031097
 21
-11144.90193737
 31
0.0
  0
LINE
  5
796
100
AcDbEntity
  8
Ech.1_5
 62
     7
  6
CONTINUOUS
370
    -3
100
AcDbLine
 10
51059.60198837
 20
-11141.72308129
 30
0.0
 11
51058.02155117
 21
-11144.46047878
 31
0.0
  0
LINE
  5
797
100
AcDbEntity
  8
Ech.1_5
 62
     7
  6
CONTINUOUS
370
    -3
100
AcDbLine
 10
51059.69573507
 20
-11141.57592839
 30
0.0
 11
51059.60198837
 21
-11141.72308129
 31
0.0
  0
LINE
  5
798
100
AcDbEntity
  8
Ech.1_5
 62
     7
  6
CONTINUOUS
370
    -3
100
AcDbLine
 10
51059.80195027
 20
-11141.43750608
 30
0.0
 11
51059.69573507
 21
-11141.57592839
 31
0.0
  0
LINE
  5
799
100
AcDbEntity
  8
Ech.1_5
 62
     7
  6
CONTINUOUS
370
    -3
100
AcDbLine
 10
51033.84958477
 20
-11128.75171709
 30
0.0
 11
51033.55527897
 21
-11128.9392106
 31
0.0
  0
LINE
  5
79A
100
AcDbEntity
  8
Ech.1_5
 62
     7
  6
CONTINUOUS
370
    -3
100
AcDbLine
 10
51060.04846387
 20
-11141.19099239
 30
0.0
 11
51059.91982557
 21
-11141.3088677
 31
0.0
  0
LINE
  5
79B
100
AcDbEntity
  8
Ech.1_5
 62
     7
  6
CONTINUOUS
370
    -3
100
AcDbLine
 10
51060.18688627
 20
-11141.08477718
 30
0.0
 11
51060.04846387
 21
-11141.19099239
 31
0.0
  0
LINE
  5
79C
100
AcDbEntity
  8
Ech.1_5
 62
     7
  6
CONTINUOUS
370
    -3
100
AcDbLine
 10
51060.33403917
 20
-11140.99103049
 30
0.0
 11
51060.18688627
 21
-11141.08477718
 31
0.0
  0
LINE
  5
79D
100
AcDbEntity
  8
Ech.1_5
 62
     7
  6
CONTINUOUS
370
    -3
100
AcDbLine
 10
51060.48880257
 20
-11140.91046569
 30
0.0
 11
51060.33403917
 21
-11140.99103049
 31
0.0
  0
LINE
  5
79E
100
AcDbEntity
  8
Ech.1_5
 62
     7
  6
CONTINUOUS
370
    -3
100
AcDbLine
 10
51060.64999887
 20
-11140.84369597
 30
0.0
 11
51060.48880257
 21
-11140.91046569
 31
0.0
  0
LINE
  5
79F
100
AcDbEntity
  8
Ech.1_5
 62
     7
  6
CONTINUOUS
370
    -3
100
AcDbLine
 10
51060.81640107
 20
-11140.79122958
 30
0.0
 11
51060.64999887
 21
-11140.84369597
 31
0.0
  0
LINE
  5
7A0
100
AcDbEntity
  8
Ech.1_5
 62
     7
  6
CONTINUOUS
370
    -3
100
AcDbLine
 10
51060.98674277
 20
-11140.75346577
 30
0.0
 11
51060.81640107
 21
-11140.79122958
 31
0.0
  0
LINE
  5
7A1
100
AcDbEntity
  8
Ech.1_5
 62
     7
  6
CONTINUOUS
370
    -3
100
AcDbLine
 10
51062.58911247
 20
-11140.4709248
 30
0.0
 11
51060.98674277
 21
-11140.75346577
 31
0.0
  0
LINE
  5
7A2
100
AcDbEntity
  8
Ech.1_5
 62
     7
  6
CONTINUOUS
370
    -3
100
AcDbLine
 10
51062.71885107
 20
-11140.45384428
 30
0.0
 11
51062.58911247
 21
-11140.4709248
 31
0.0
  0
LINE
  5
7A3
100
AcDbEntity
  8
Ech.1_5
 62
     7
  6
CONTINUOUS
370
    -3
100
AcDbLine
 10
51047.44004577
 20
-11147.24397198
 30
0.0
 11
51047.49012307
 21
-11147.36486918
 31
0.0
  0
LINE
  5
7A4
100
AcDbEntity
  8
Ech.1_5
 62
     7
  6
CONTINUOUS
370
    -3
100
AcDbLine
 10
51064.25912367
 20
-11141.43510619
 30
0.0
 11
51064.29847347
 21
-11141.5599078
 31
0.0
  0
LINE
  5
7A5
100
AcDbEntity
  8
Ech.1_5
 62
     7
  6
CONTINUOUS
370
    -3
100
AcDbLine
 10
51047.49012307
 20
-11147.36486918
 30
0.0
 11
51047.55054667
 21
-11147.48094177
 31
0.0
  0
LINE
  5
7A6
100
AcDbEntity
  8
Ech.1_5
 62
     7
  6
CONTINUOUS
370
    -3
100
AcDbLine
 10
51047.55054667
 20
-11147.48094177
 30
0.0
 11
51047.62085667
 21
-11147.59130639
 31
0.0
  0
LINE
  5
7A7
100
AcDbEntity
  8
Ech.1_5
 62
     7
  6
CONTINUOUS
370
    -3
100
AcDbLine
 10
51047.62085667
 20
-11147.59130639
 30
0.0
 11
51047.70051807
 21
-11147.69512317
 31
0.0
  0
LINE
  5
7A8
100
AcDbEntity
  8
Ech.1_5
 62
     7
  6
CONTINUOUS
370
    -3
100
AcDbLine
 10
51047.70051807
 20
-11147.69512317
 30
0.0
 11
51047.78892457
 21
-11147.79160199
 31
0.0
  0
LINE
  5
7A9
100
AcDbEntity
  8
Ech.1_5
 62
     7
  6
CONTINUOUS
370
    -3
100
AcDbLine
 10
51047.78892457
 20
-11147.79160199
 30
0.0
 11
51047.88540327
 21
-11147.88000849
 31
0.0
  0
LINE
  5
7AA
100
AcDbEntity
  8
Ech.1_5
 62
     7
  6
CONTINUOUS
370
    -3
100
AcDbLine
 10
51047.88540327
 20
-11147.88000849
 30
0.0
 11
51047.98922007
 21
-11147.95966989
 31
0.0
  0
LINE
  5
7AB
100
AcDbEntity
  8
Ech.1_5
 62
     7
  6
CONTINUOUS
370
    -3
100
AcDbLine
 10
51047.98922007
 20
-11147.95966989
 30
0.0
 11
51048.09958477
 21
-11148.02997989
 31
0.0
  0
LINE
  5
7AC
100
AcDbEntity
  8
Ech.1_5
 62
     7
  6
CONTINUOUS
370
    -3
100
AcDbLine
 10
51048.09958477
 20
-11148.02997989
 30
0.0
 11
51048.21565737
 21
-11148.09040347
 31
0.0
  0
LINE
  5
7AD
100
AcDbEntity
  8
Ech.1_5
 62
     7
  6
CONTINUOUS
370
    -3
100
AcDbLine
 10
51047.14862287
 20
-11126.19813639
 30
0.0
 11
51047.20904637
 21
-11126.31420899
 31
0.0
  0
LINE
  5
7AE
100
AcDbEntity
  8
Ech.1_5
 62
     7
  6
CONTINUOUS
370
    -3
100
AcDbLine
 10
51048.33655447
 20
-11148.14048067
 30
0.0
 11
51048.46135617
 21
-11148.17983049
 31
0.0
  0
LINE
  5
7AF
100
AcDbEntity
  8
Ech.1_5
 62
     7
  6
CONTINUOUS
370
    -3
100
AcDbLine
 10
51048.46135617
 20
-11148.17983049
 30
0.0
 11
51048.58911247
 21
-11148.20815337
 31
0.0
  0
LINE
  5
7B0
100
AcDbEntity
  8
Ech.1_5
 62
     7
  6
CONTINUOUS
370
    -3
100
AcDbLine
 10
51048.58911247
 20
-11148.20815337
 30
0.0
 11
51048.71885107
 21
-11148.2252338
 31
0.0
  0
LINE
  5
7B1
100
AcDbEntity
  8
Ech.1_5
 62
     7
  6
CONTINUOUS
370
    -3
100
AcDbLine
 10
51048.71885107
 20
-11148.2252338
 30
0.0
 11
51048.84958477
 21
-11148.23094177
 31
0.0
  0
LINE
  5
7B2
100
AcDbEntity
  8
Ech.1_5
 62
     7
  6
CONTINUOUS
370
    -3
100
AcDbLine
 10
51048.98031837
 20
-11148.2252338
 30
0.0
 11
51048.84958477
 21
-11148.23094177
 31
0.0
  0
LINE
  5
7B3
100
AcDbEntity
  8
Ech.1_5
 62
     7
  6
CONTINUOUS
370
    -3
100
AcDbLine
 10
51049.11005697
 20
-11148.20815337
 30
0.0
 11
51048.98031837
 21
-11148.2252338
 31
0.0
  0
LINE
  5
7B4
100
AcDbEntity
  8
Ech.1_5
 62
     7
  6
CONTINUOUS
370
    -3
100
AcDbLine
 10
51053.86728777
 20
-11147.36932528
 30
0.0
 11
51049.11005697
 21
-11148.20815337
 31
0.0
  0
LINE
  5
7B5
100
AcDbEntity
  8
Ech.1_5
 62
     7
  6
CONTINUOUS
370
    -3
100
AcDbLine
 10
51054.37831297
 20
-11147.25603369
 30
0.0
 11
51053.86728777
 21
-11147.36932528
 31
0.0
  0
LINE
  5
7B6
100
AcDbEntity
  8
Ech.1_5
 62
     7
  6
CONTINUOUS
370
    -3
100
AcDbLine
 10
51054.87751957
 20
-11147.09863448
 30
0.0
 11
51054.37831297
 21
-11147.25603369
 31
0.0
  0
LINE
  5
7B7
100
AcDbEntity
  8
Ech.1_5
 62
     7
  6
CONTINUOUS
370
    -3
100
AcDbLine
 10
51055.36110827
 20
-11146.89832548
 30
0.0
 11
51054.87751957
 21
-11147.09863448
 31
0.0
  0
LINE
  5
7B8
100
AcDbEntity
  8
Ech.1_5
 62
     7
  6
CONTINUOUS
370
    -3
100
AcDbLine
 10
51047.40069597
 20
-11147.11917037
 30
0.0
 11
51047.44004577
 21
-11147.24397198
 31
0.0
  0
LINE
  5
7B9
100
AcDbEntity
  8
Ech.1_5
 62
     7
  6
CONTINUOUS
370
    -3
100
AcDbLine
 10
51031.91035377
 20
-11131.52122608
 30
0.0
 11
51031.86480597
 21
-11131.86719579
 31
0.0
  0
LINE
  5
7BA
100
AcDbEntity
  8
Ech.1_5
 62
     7
  6
CONTINUOUS
370
    -3
100
AcDbLine
 10
51046.23781327
 20
-11125.49924758
 30
0.0
 11
51046.36261497
 21
-11125.5385975
 31
0.0
  0
LINE
  5
7BB
100
AcDbEntity
  8
Ech.1_5
 62
     7
  6
CONTINUOUS
370
    -3
100
AcDbLine
 10
51046.36261497
 20
-11125.5385975
 30
0.0
 11
51046.48351217
 21
-11125.5886747
 31
0.0
  0
LINE
  5
7BC
100
AcDbEntity
  8
Ech.1_5
 62
     7
  6
CONTINUOUS
370
    -3
100
AcDbLine
 10
51046.48351217
 20
-11125.5886747
 30
0.0
 11
51046.59958477
 21
-11125.64909828
 31
0.0
  0
LINE
  5
7BD
100
AcDbEntity
  8
Ech.1_5
 62
     7
  6
CONTINUOUS
370
    -3
100
AcDbLine
 10
51046.59958477
 20
-11125.64909828
 30
0.0
 11
51046.70994937
 21
-11125.71940828
 31
0.0
  0
LINE
  5
7BE
100
AcDbEntity
  8
Ech.1_5
 62
     7
  6
CONTINUOUS
370
    -3
100
AcDbLine
 10
51046.70994937
 20
-11125.71940828
 30
0.0
 11
51046.81376617
 21
-11125.79906968
 31
0.0
  0
LINE
  5
7BF
100
AcDbEntity
  8
Ech.1_5
 62
     7
  6
CONTINUOUS
370
    -3
100
AcDbLine
 10
51046.81376617
 20
-11125.79906968
 30
0.0
 11
51046.91024487
 21
-11125.88747618
 31
0.0
  0
LINE
  5
7C0
100
AcDbEntity
  8
Ech.1_5
 62
     7
  6
CONTINUOUS
370
    -3
100
AcDbLine
 10
51046.91024487
 20
-11125.88747618
 30
0.0
 11
51046.99865137
 21
-11125.98395497
 31
0.0
  0
LINE
  5
7C1
100
AcDbEntity
  8
Ech.1_5
 62
     7
  6
CONTINUOUS
370
    -3
100
AcDbLine
 10
51046.99865137
 20
-11125.98395497
 30
0.0
 11
51047.07831277
 21
-11126.08777169
 31
0.0
  0
LINE
  5
7C2
100
AcDbEntity
  8
Ech.1_5
 62
     7
  6
CONTINUOUS
370
    -3
100
AcDbLine
 10
51047.07831277
 20
-11126.08777169
 30
0.0
 11
51047.14862287
 21
-11126.19813639
 31
0.0
  0
LINE
  5
7C3
100
AcDbEntity
  8
Ech.1_5
 62
     7
  6
CONTINUOUS
370
    -3
100
AcDbLine
 10
51048.21565737
 20
-11148.09040347
 30
0.0
 11
51048.33655447
 21
-11148.14048067
 31
0.0
  0
LINE
  5
7C4
100
AcDbEntity
  8
Ech.1_5
 62
     7
  6
CONTINUOUS
370
    -3
100
AcDbLine
 10
51047.20904637
 20
-11126.31420899
 30
0.0
 11
51047.25912367
 21
-11126.43510619
 31
0.0
  0
LINE
  5
7C5
100
AcDbEntity
  8
Ech.1_5
 62
     7
  6
CONTINUOUS
370
    -3
100
AcDbLine
 10
51047.25912367
 20
-11126.43510619
 30
0.0
 11
51047.29847347
 21
-11126.5599078
 31
0.0
  0
LINE
  5
7C6
100
AcDbEntity
  8
Ech.1_5
 62
     7
  6
CONTINUOUS
370
    -3
100
AcDbLine
 10
51047.29847347
 20
-11126.5599078
 30
0.0
 11
51047.32679637
 21
-11126.68766409
 31
0.0
  0
LINE
  5
7C7
100
AcDbEntity
  8
Ech.1_5
 62
     7
  6
CONTINUOUS
370
    -3
100
AcDbLine
 10
51047.32679637
 20
-11126.68766409
 30
0.0
 11
51047.34387677
 21
-11126.81740278
 31
0.0
  0
LINE
  5
7C8
100
AcDbEntity
  8
Ech.1_5
 62
     7
  6
CONTINUOUS
370
    -3
100
AcDbLine
 10
51047.34387677
 20
-11126.81740278
 30
0.0
 11
51047.34958477
 21
-11126.94813639
 31
0.0
  0
LINE
  5
7C9
100
AcDbEntity
  8
Ech.1_5
 62
     7
  6
CONTINUOUS
370
    -3
100
AcDbLine
 10
51047.34958477
 20
-11126.94813639
 30
0.0
 11
51047.34958477
 21
-11146.73094177
 31
0.0
  0
LINE
  5
7CA
100
AcDbEntity
  8
Ech.1_5
 62
     7
  6
CONTINUOUS
370
    -3
100
AcDbLine
 10
51047.34958477
 20
-11146.73094177
 30
0.0
 11
51047.35529267
 21
-11146.86167538
 31
0.0
  0
LINE
  5
7CB
100
AcDbEntity
  8
Ech.1_5
 62
     7
  6
CONTINUOUS
370
    -3
100
AcDbLine
 10
51047.35529267
 20
-11146.86167538
 30
0.0
 11
51047.37237307
 21
-11146.99141407
 31
0.0
  0
LINE
  5
7CC
100
AcDbEntity
  8
Ech.1_5
 62
     7
  6
CONTINUOUS
370
    -3
100
AcDbLine
 10
51046.11005697
 20
-11125.4709248
 30
0.0
 11
51046.23781327
 21
-11125.49924758
 31
0.0
  0
LINE
  5
7CD
100
AcDbEntity
  8
Ech.1_5
 62
     7
  6
CONTINUOUS
370
    -3
100
AcDbLine
 10
51070.84958477
 20
-11153.94813639
 30
0.0
 11
51070.84958477
 21
-11160.44813639
 31
0.0
  0
LINE
  5
7CE
100
AcDbEntity
  8
Ech.1_5
 62
     7
  6
CONTINUOUS
370
    -3
100
AcDbLine
 10
51047.37237307
 20
-11146.99141407
 30
0.0
 11
51047.40069597
 21
-11147.11917037
 31
0.0
  0
LINE
  5
7CF
100
AcDbEntity
  8
Ech.1_5
 62
     7
  6
CONTINUOUS
370
    -3
100
AcDbLine
 10
51031.98588147
 20
-11131.18054259
 30
0.0
 11
51031.91035377
 21
-11131.52122608
 31
0.0
  0
LINE
  5
7D0
100
AcDbEntity
  8
Ech.1_5
 62
     7
  6
CONTINUOUS
370
    -3
100
AcDbLine
 10
51032.09081427
 20
-11130.84773818
 30
0.0
 11
51031.98588147
 21
-11131.18054259
 31
0.0
  0
LINE
  5
7D1
100
AcDbEntity
  8
Ech.1_5
 62
     7
  6
CONTINUOUS
370
    -3
100
AcDbLine
 10
51032.22435357
 20
-11130.52534569
 30
0.0
 11
51032.09081427
 21
-11130.84773818
 31
0.0
  0
LINE
  5
7D2
100
AcDbEntity
  8
Ech.1_5
 62
     7
  6
CONTINUOUS
370
    -3
100
AcDbLine
 10
51032.38548307
 20
-11130.21581879
 30
0.0
 11
51032.22435357
 21
-11130.52534569
 31
0.0
  0
LINE
  5
7D3
100
AcDbEntity
  8
Ech.1_5
 62
     7
  6
CONTINUOUS
370
    -3
100
AcDbLine
 10
51032.57297657
 20
-11129.92151299
 30
0.0
 11
51032.38548307
 21
-11130.21581879
 31
0.0
  0
LINE
  5
7D4
100
AcDbEntity
  8
Ech.1_5
 62
     7
  6
CONTINUOUS
370
    -3
100
AcDbLine
 10
51032.78540697
 20
-11129.64466828
 30
0.0
 11
51032.57297657
 21
-11129.92151299
 31
0.0
  0
LINE
  5
7D5
100
AcDbEntity
  8
Ech.1_5
 62
     7
  6
CONTINUOUS
370
    -3
100
AcDbLine
 10
51033.02115757
 20
-11129.38739157
 30
0.0
 11
51032.78540697
 21
-11129.64466828
 31
0.0
  0
LINE
  5
7D6
100
AcDbEntity
  8
Ech.1_5
 62
     7
  6
CONTINUOUS
370
    -3
100
AcDbLine
 10
51033.27843427
 20
-11129.15164098
 30
0.0
 11
51033.02115757
 21
-11129.38739157
 31
0.0
  0
LINE
  5
7D7
100
AcDbEntity
  8
Ech.1_5
 62
     7
  6
CONTINUOUS
370
    -3
100
AcDbLine
 10
51033.55527897
 20
-11128.9392106
 30
0.0
 11
51033.27843427
 21
-11129.15164098
 31
0.0
  0
LINE
  5
7D8
100
AcDbEntity
  8
Ech.1_5
 62
     7
  6
CONTINUOUS
370
    -3
100
AcDbLine
 10
51059.91982557
 20
-11141.3088677
 30
0.0
 11
51059.80195027
 21
-11141.43750608
 31
0.0
  0
LINE
  5
7D9
100
AcDbEntity
  8
Ech.1_5
 62
     7
  6
CONTINUOUS
370
    -3
100
AcDbLine
 10
51034.15911167
 20
-11128.59058759
 30
0.0
 11
51033.84958477
 21
-11128.75171709
 31
0.0
  0
LINE
  5
7DA
100
AcDbEntity
  8
Ech.1_5
 62
     7
  6
CONTINUOUS
370
    -3
100
AcDbLine
 10
51034.48150417
 20
-11128.45704827
 30
0.0
 11
51034.15911167
 21
-11128.59058759
 31
0.0
  0
LINE
  5
7DB
100
AcDbEntity
  8
Ech.1_5
 62
     7
  6
CONTINUOUS
370
    -3
100
AcDbLine
 10
51034.81430857
 20
-11128.35211548
 30
0.0
 11
51034.48150417
 21
-11128.45704827
 31
0.0
  0
LINE
  5
7DC
100
AcDbEntity
  8
Ech.1_5
 62
     7
  6
CONTINUOUS
370
    -3
100
AcDbLine
 10
51045.46135617
 20
-11125.49924758
 30
0.0
 11
51034.81430857
 21
-11128.35211548
 31
0.0
  0
LINE
  5
7DD
100
AcDbEntity
  8
Ech.1_5
 62
     7
  6
CONTINUOUS
370
    -3
100
AcDbLine
 10
51045.58911247
 20
-11125.4709248
 30
0.0
 11
51045.46135617
 21
-11125.49924758
 31
0.0
  0
LINE
  5
7DE
100
AcDbEntity
  8
Ech.1_5
 62
     7
  6
CONTINUOUS
370
    -3
100
AcDbLine
 10
51045.71885107
 20
-11125.45384428
 30
0.0
 11
51045.58911247
 21
-11125.4709248
 31
0.0
  0
LINE
  5
7DF
100
AcDbEntity
  8
Ech.1_5
 62
     7
  6
CONTINUOUS
370
    -3
100
AcDbLine
 10
51045.84958477
 20
-11125.44813639
 30
0.0
 11
51045.71885107
 21
-11125.45384428
 31
0.0
  0
LINE
  5
7E0
100
AcDbEntity
  8
Ech.1_5
 62
     7
  6
CONTINUOUS
370
    -3
100
AcDbLine
 10
51045.84958477
 20
-11125.44813639
 30
0.0
 11
51045.98031837
 21
-11125.45384428
 31
0.0
  0
LINE
  5
7E1
100
AcDbEntity
  8
Ech.1_5
 62
     7
  6
CONTINUOUS
370
    -3
100
AcDbLine
 10
51031.86480597
 20
-11131.86719579
 30
0.0
 11
51031.84958477
 21
-11132.21581879
 31
0.0
  0
LINE
  5
7E2
100
AcDbEntity
  8
Ech.1_5
 62
     7
  6
CONTINUOUS
370
    -3
100
AcDbLine
 10
51045.98031837
 20
-11125.45384428
 30
0.0
 11
51046.11005697
 21
-11125.4709248
 31
0.0
  0
LINE
  5
7E3
100
AcDbEntity
  8
Ech.1_5
 62
     7
  6
CONTINUOUS
370
    -3
100
AcDbLine
 10
51070.84958477
 20
-11160.44813639
 30
0.0
 11
51087.84958477
 21
-11160.44813639
 31
0.0
  0
LINE
  5
7E4
100
AcDbEntity
  8
Ech.1_5
 62
     7
  6
CONTINUOUS
370
    -3
100
AcDbLine
 10
51087.84958477
 20
-11160.44813639
 30
0.0
 11
51088.02389617
 21
-11160.45574698
 31
0.0
  0
LINE
  5
7E5
100
AcDbEntity
  8
Ech.1_5
 62
     7
  6
CONTINUOUS
370
    -3
100
AcDbLine
 10
51088.02389617
 20
-11160.45574698
 30
0.0
 11
51088.19688107
 21
-11160.47852087
 31
0.0
  0
LINE
  5
7E6
100
AcDbEntity
  8
Ech.1_5
 62
     7
  6
CONTINUOUS
370
    -3
100
AcDbLine
 10
51088.19688107
 20
-11160.47852087
 30
0.0
 11
51088.36722287
 21
-11160.51628468
 31
0.0
  0
LINE
  5
7E7
100
AcDbEntity
  8
Ech.1_5
 62
     7
  6
CONTINUOUS
370
    -3
100
AcDbLine
 10
51088.36722287
 20
-11160.51628468
 30
0.0
 11
51088.53362497
 21
-11160.56875107
 31
0.0
  0
LINE
  5
7E8
100
AcDbEntity
  8
Ech.1_5
 62
     7
  6
CONTINUOUS
370
    -3
100
AcDbLine
 10
51088.53362497
 20
-11160.56875107
 30
0.0
 11
51088.69482127
 21
-11160.63552079
 31
0.0
  0
LINE
  5
7E9
100
AcDbEntity
  8
Ech.1_5
 62
     7
  6
CONTINUOUS
370
    -3
100
AcDbLine
 10
51088.69482127
 20
-11160.63552079
 30
0.0
 11
51088.84958477
 21
-11160.71608559
 31
0.0
  0
LINE
  5
7EA
100
AcDbEntity
  8
Ech.1_5
 62
     7
  6
CONTINUOUS
370
    -3
100
AcDbLine
 10
51088.84958477
 20
-11160.71608559
 30
0.0
 11
51088.99673757
 21
-11160.80983228
 31
0.0
  0
LINE
  5
7EB
100
AcDbEntity
  8
Ech.1_5
 62
     7
  6
CONTINUOUS
370
    -3
100
AcDbLine
 10
51063.36261497
 20
-11140.5385975
 30
0.0
 11
51063.48351217
 21
-11140.5886747
 31
0.0
  0
LINE
  5
7EC
100
AcDbEntity
  8
Ech.1_5
 62
     7
  6
CONTINUOUS
370
    -3
100
AcDbLine
 10
51089.13515997
 20
-11160.91604749
 30
0.0
 11
51089.26379827
 21
-11161.03392279
 31
0.0
  0
LINE
  5
7ED
100
AcDbEntity
  8
Ech.1_5
 62
     7
  6
CONTINUOUS
370
    -3
100
AcDbLine
 10
51089.26379827
 20
-11161.03392279
 30
0.0
 11
51089.38167357
 21
-11161.16256118
 31
0.0
  0
LINE
  5
7EE
100
AcDbEntity
  8
Ech.1_5
 62
     7
  6
CONTINUOUS
370
    -3
100
AcDbLine
 10
51089.38167357
 20
-11161.16256118
 30
0.0
 11
51089.48788887
 21
-11161.30098349
 31
0.0
  0
LINE
  5
7EF
100
AcDbEntity
  8
Ech.1_5
 62
     7
  6
CONTINUOUS
370
    -3
100
AcDbLine
 10
51089.48788887
 20
-11161.30098349
 30
0.0
 11
51089.58163557
 21
-11161.44813639
 31
0.0
  0
LINE
  5
7F0
100
AcDbEntity
  8
Ech.1_5
 62
     7
  6
CONTINUOUS
370
    -3
100
AcDbLine
 10
51089.58163557
 20
-11161.44813639
 30
0.0
 11
51089.66220027
 21
-11161.60289988
 31
0.0
  0
LINE
  5
7F1
100
AcDbEntity
  8
Ech.1_5
 62
     7
  6
CONTINUOUS
370
    -3
100
AcDbLine
 10
51089.66220027
 20
-11161.60289988
 30
0.0
 11
51089.72896997
 21
-11161.76409608
 31
0.0
  0
LINE
  5
7F2
100
AcDbEntity
  8
Ech.1_5
 62
     7
  6
CONTINUOUS
370
    -3
100
AcDbLine
 10
51089.72896997
 20
-11161.76409608
 30
0.0
 11
51089.78143637
 21
-11161.93049827
 31
0.0
  0
LINE
  5
7F3
100
AcDbEntity
  8
Ech.1_5
 62
     7
  6
CONTINUOUS
370
    -3
100
AcDbLine
 10
51089.78143637
 20
-11161.93049827
 30
0.0
 11
51089.81920027
 21
-11162.10083997
 31
0.0
  0
LINE
  5
7F4
100
AcDbEntity
  8
Ech.1_5
 62
     7
  6
CONTINUOUS
370
    -3
100
AcDbLine
 10
51089.81920027
 20
-11162.10083997
 30
0.0
 11
51089.84197417
 21
-11162.27382487
 31
0.0
  0
LINE
  5
7F5
100
AcDbEntity
  8
Ech.1_5
 62
     7
  6
CONTINUOUS
370
    -3
100
AcDbLine
 10
51066.00228837
 20
-11152.41775188
 30
0.0
 11
51066.17527327
 21
-11152.44052577
 31
0.0
  0
LINE
  5
7F6
100
AcDbEntity
  8
Ech.1_5
 62
     7
  6
CONTINUOUS
370
    -3
100
AcDbLine
 10
51089.84197417
 20
-11162.27382487
 30
0.0
 11
51089.84958477
 21
-11162.44813639
 31
0.0
  0
LINE
  5
7F7
100
AcDbEntity
  8
Ech.1_5
 62
     7
  6
CONTINUOUS
370
    -3
100
AcDbLine
 10
51070.84387677
 20
-11153.81740278
 30
0.0
 11
51070.84958477
 21
-11153.94813639
 31
0.0
  0
LINE
  5
7F8
100
AcDbEntity
  8
Ech.1_5
 62
     7
  6
CONTINUOUS
370
    -3
100
AcDbLine
 10
51066.17527327
 20
-11152.44052577
 30
0.0
 11
51066.34958477
 21
-11152.44813639
 31
0.0
  0
LINE
  5
7F9
100
AcDbEntity
  8
Ech.1_5
 62
     7
  6
CONTINUOUS
370
    -3
100
AcDbLine
 10
51066.34958477
 20
-11152.44813639
 30
0.0
 11
51069.34958477
 21
-11152.44813639
 31
0.0
  0
LINE
  5
7FA
100
AcDbEntity
  8
Ech.1_5
 62
     7
  6
CONTINUOUS
370
    -3
100
AcDbLine
 10
51069.34958477
 20
-11152.44813639
 30
0.0
 11
51069.48031837
 21
-11152.45384428
 31
0.0
  0
LINE
  5
7FB
100
AcDbEntity
  8
Ech.1_5
 62
     7
  6
CONTINUOUS
370
    -3
100
AcDbLine
 10
51069.48031837
 20
-11152.45384428
 30
0.0
 11
51069.61005697
 21
-11152.4709248
 31
0.0
  0
LINE
  5
7FC
100
AcDbEntity
  8
Ech.1_5
 62
     7
  6
CONTINUOUS
370
    -3
100
AcDbLine
 10
51069.61005697
 20
-11152.4709248
 30
0.0
 11
51069.73781327
 21
-11152.49924758
 31
0.0
  0
LINE
  5
7FD
100
AcDbEntity
  8
Ech.1_5
 62
     7
  6
CONTINUOUS
370
    -3
100
AcDbLine
 10
51069.73781327
 20
-11152.49924758
 30
0.0
 11
51069.86261497
 21
-11152.5385975
 31
0.0
  0
LINE
  5
7FE
100
AcDbEntity
  8
Ech.1_5
 62
     7
  6
CONTINUOUS
370
    -3
100
AcDbLine
 10
51069.86261497
 20
-11152.5385975
 30
0.0
 11
51069.98351217
 21
-11152.5886747
 31
0.0
  0
LINE
  5
7FF
100
AcDbEntity
  8
Ech.1_5
 62
     7
  6
CONTINUOUS
370
    -3
100
AcDbLine
 10
51069.98351217
 20
-11152.5886747
 30
0.0
 11
51070.09958477
 21
-11152.64909828
 31
0.0
  0
LINE
  5
800
100
AcDbEntity
  8
Ech.1_5
 62
     7
  6
CONTINUOUS
370
    -3
100
AcDbLine
 10
51064.53696917
 20
-11151.29337287
 30
0.0
 11
51064.61753397
 21
-11151.44813639
 31
0.0
  0
LINE
  5
801
100
AcDbEntity
  8
Ech.1_5
 62
     7
  6
CONTINUOUS
370
    -3
100
AcDbLine
 10
51070.20994937
 20
-11152.71940828
 30
0.0
 11
51070.31376617
 21
-11152.79906968
 31
0.0
  0
LINE
  5
802
100
AcDbEntity
  8
Ech.1_5
 62
     7
  6
CONTINUOUS
370
    -3
100
AcDbLine
 10
51070.31376617
 20
-11152.79906968
 30
0.0
 11
51070.41024487
 21
-11152.88747618
 31
0.0
  0
LINE
  5
803
100
AcDbEntity
  8
Ech.1_5
 62
     7
  6
CONTINUOUS
370
    -3
100
AcDbLine
 10
51070.41024487
 20
-11152.88747618
 30
0.0
 11
51070.49865137
 21
-11152.98395497
 31
0.0
  0
LINE
  5
804
100
AcDbEntity
  8
Ech.1_5
 62
     7
  6
CONTINUOUS
370
    -3
100
AcDbLine
 10
51070.49865137
 20
-11152.98395497
 30
0.0
 11
51070.57831277
 21
-11153.08777169
 31
0.0
  0
LINE
  5
805
100
AcDbEntity
  8
Ech.1_5
 62
     7
  6
CONTINUOUS
370
    -3
100
AcDbLine
 10
51070.57831277
 20
-11153.08777169
 30
0.0
 11
51070.64862287
 21
-11153.19813639
 31
0.0
  0
LINE
  5
806
100
AcDbEntity
  8
Ech.1_5
 62
     7
  6
CONTINUOUS
370
    -3
100
AcDbLine
 10
51070.64862287
 20
-11153.19813639
 30
0.0
 11
51070.70904637
 21
-11153.31420899
 31
0.0
  0
LINE
  5
807
100
AcDbEntity
  8
Ech.1_5
 62
     7
  6
CONTINUOUS
370
    -3
100
AcDbLine
 10
51070.70904637
 20
-11153.31420899
 30
0.0
 11
51070.75912367
 21
-11153.43510619
 31
0.0
  0
LINE
  5
808
100
AcDbEntity
  8
Ech.1_5
 62
     7
  6
CONTINUOUS
370
    -3
100
AcDbLine
 10
51070.75912367
 20
-11153.43510619
 30
0.0
 11
51070.79847347
 21
-11153.5599078
 31
0.0
  0
LINE
  5
809
100
AcDbEntity
  8
Ech.1_5
 62
     7
  6
CONTINUOUS
370
    -3
100
AcDbLine
 10
51070.79847347
 20
-11153.5599078
 30
0.0
 11
51070.82679637
 21
-11153.68766409
 31
0.0
  0
LINE
  5
80A
100
AcDbEntity
  8
Ech.1_5
 62
     7
  6
CONTINUOUS
370
    -3
100
AcDbLine
 10
51070.82679637
 20
-11153.68766409
 30
0.0
 11
51070.84387677
 21
-11153.81740278
 31
0.0
  0
LINE
  5
80B
100
AcDbEntity
  8
Ech.1_5
 62
     7
  6
CONTINUOUS
370
    -3
100
AcDbLine
 10
51089.84958477
 20
-11205.49924758
 30
0.0
 11
51031.84958477
 21
-11205.49924758
 31
0.0
  0
LINE
  5
80C
100
AcDbEntity
  8
Ech.1_5
 62
     7
  6
CONTINUOUS
370
    -3
100
AcDbLine
 10
51065.83194667
 20
-11152.37998799
 30
0.0
 11
51066.00228837
 21
-11152.41775188
 31
0.0
  0
LINE
  5
80D
100
AcDbEntity
  8
Ech.1_5
 62
     7
  6
CONTINUOUS
370
    -3
100
AcDbLine
 10
51064.29847347
 20
-11141.5599078
 30
0.0
 11
51064.32679637
 21
-11141.68766409
 31
0.0
  0
LINE
  5
80E
100
AcDbEntity
  8
Ech.1_5
 62
     7
  6
CONTINUOUS
370
    -3
100
AcDbLine
 10
51064.32679637
 20
-11141.68766409
 30
0.0
 11
51064.34387677
 21
-11141.81740278
 31
0.0
  0
LINE
  5
80F
100
AcDbEntity
  8
Ech.1_5
 62
     7
  6
CONTINUOUS
370
    -3
100
AcDbLine
 10
51064.34387677
 20
-11141.81740278
 30
0.0
 11
51064.34958477
 21
-11141.94813639
 31
0.0
  0
LINE
  5
810
100
AcDbEntity
  8
Ech.1_5
 62
     7
  6
CONTINUOUS
370
    -3
100
AcDbLine
 10
51064.34958477
 20
-11141.94813639
 30
0.0
 11
51064.34958477
 21
-11150.44813639
 31
0.0
  0
LINE
  5
811
100
AcDbEntity
  8
Ech.1_5
 62
     7
  6
CONTINUOUS
370
    -3
100
AcDbLine
 10
51064.34958477
 20
-11150.44813639
 30
0.0
 11
51064.35719537
 21
-11150.62244788
 31
0.0
  0
LINE
  5
812
100
AcDbEntity
  8
Ech.1_5
 62
     7
  6
CONTINUOUS
370
    -3
100
AcDbLine
 10
51064.35719537
 20
-11150.62244788
 30
0.0
 11
51064.37996927
 21
-11150.79543269
 31
0.0
  0
LINE
  5
813
100
AcDbEntity
  8
Ech.1_5
 62
     7
  6
CONTINUOUS
370
    -3
100
AcDbLine
 10
51064.37996927
 20
-11150.79543269
 30
0.0
 11
51064.41773307
 21
-11150.96577448
 31
0.0
  0
LINE
  5
814
100
AcDbEntity
  8
Ech.1_5
 62
     7
  6
CONTINUOUS
370
    -3
100
AcDbLine
 10
51064.41773307
 20
-11150.96577448
 30
0.0
 11
51064.47019947
 21
-11151.13217667
 31
0.0
  0
LINE
  5
815
100
AcDbEntity
  8
Ech.1_5
 62
     7
  6
CONTINUOUS
370
    -3
100
AcDbLine
 10
51064.47019947
 20
-11151.13217667
 30
0.0
 11
51064.53696917
 21
-11151.29337287
 31
0.0
  0
LINE
  5
816
100
AcDbEntity
  8
Ech.1_5
 62
     7
  6
CONTINUOUS
370
    -3
100
AcDbLine
 10
51070.09958477
 20
-11152.64909828
 30
0.0
 11
51070.20994937
 21
-11152.71940828
 31
0.0
  0
LINE
  5
817
100
AcDbEntity
  8
Ech.1_5
 62
     7
  6
CONTINUOUS
370
    -3
100
AcDbLine
 10
51064.61753397
 20
-11151.44813639
 30
0.0
 11
51064.71128067
 21
-11151.59528929
 31
0.0
  0
LINE
  5
818
100
AcDbEntity
  8
Ech.1_5
 62
     7
  6
CONTINUOUS
370
    -3
100
AcDbLine
 10
51064.71128067
 20
-11151.59528929
 30
0.0
 11
51064.81749587
 21
-11151.73371157
 31
0.0
  0
LINE
  5
819
100
AcDbEntity
  8
Ech.1_5
 62
     7
  6
CONTINUOUS
370
    -3
100
AcDbLine
 10
51064.81749587
 20
-11151.73371157
 30
0.0
 11
51064.93537117
 21
-11151.86234999
 31
0.0
  0
LINE
  5
81A
100
AcDbEntity
  8
Ech.1_5
 62
     7
  6
CONTINUOUS
370
    -3
100
AcDbLine
 10
51064.93537117
 20
-11151.86234999
 30
0.0
 11
51065.06400947
 21
-11151.9802253
 31
0.0
  0
LINE
  5
81B
100
AcDbEntity
  8
Ech.1_5
 62
     7
  6
CONTINUOUS
370
    -3
100
AcDbLine
 10
51065.06400947
 20
-11151.9802253
 30
0.0
 11
51065.20243187
 21
-11152.08644048
 31
0.0
  0
LINE
  5
81C
100
AcDbEntity
  8
Ech.1_5
 62
     7
  6
CONTINUOUS
370
    -3
100
AcDbLine
 10
51065.20243187
 20
-11152.08644048
 30
0.0
 11
51065.34958477
 21
-11152.18018717
 31
0.0
  0
LINE
  5
81D
100
AcDbEntity
  8
Ech.1_5
 62
     7
  6
CONTINUOUS
370
    -3
100
AcDbLine
 10
51065.34958477
 20
-11152.18018717
 30
0.0
 11
51065.50434817
 21
-11152.26075199
 31
0.0
  0
LINE
  5
81E
100
AcDbEntity
  8
Ech.1_5
 62
     7
  6
CONTINUOUS
370
    -3
100
AcDbLine
 10
51055.82539877
 20
-11146.65663117
 30
0.0
 11
51055.36110827
 21
-11146.89832548
 31
0.0
  0
LINE
  5
81F
100
AcDbEntity
  8
Ech.1_5
 62
     7
  6
CONTINUOUS
370
    -3
100
AcDbLine
 10
51064.20904637
 20
-11141.31420899
 30
0.0
 11
51064.25912367
 21
-11141.43510619
 31
0.0
  0
LINE
  5
820
100
AcDbEntity
  8
Ech.1_5
 62
     7
  6
CONTINUOUS
370
    -3
100
AcDbLine
 10
51065.50434817
 20
-11152.26075199
 30
0.0
 11
51065.66554447
 21
-11152.32752159
 31
0.0
  0
LINE
  5
821
100
AcDbEntity
  8
Ech.1_5
 62
     7
  6
CONTINUOUS
370
    -3
100
AcDbLine
 10
51065.66554447
 20
-11152.32752159
 30
0.0
 11
51065.83194667
 21
-11152.37998799
 31
0.0
  0
LINE
  5
822
100
AcDbEntity
  8
Ech.1_5
 62
     7
  6
CONTINUOUS
370
    -3
100
AcDbLine
 10
51031.84958477
 20
-11132.21581879
 30
0.0
 11
51031.84958477
 21
-11205.49924758
 31
0.0
  0
LINE
  5
823
100
AcDbEntity
  8
Ech.1_5
 62
     7
  6
CONTINUOUS
370
    -3
100
AcDbLine
 10
51089.84958477
 20
-11162.44813639
 30
0.0
 11
51089.84958477
 21
-11205.49924758
 31
0.0
  0
LINE
  5
824
100
AcDbEntity
  8
Ech.1_5
 62
     7
  6
CONTINUOUS
370
    -3
100
AcDbLine
 10
51062.84958477
 20
-11140.44813639
 30
0.0
 11
51062.71885107
 21
-11140.45384428
 31
0.0
  0
LINE
  5
825
100
AcDbEntity
  8
Ech.1_5
 62
     7
  6
CONTINUOUS
370
    -3
100
AcDbLine
 10
51062.84958477
 20
-11140.44813639
 30
0.0
 11
51062.98031837
 21
-11140.45384428
 31
0.0
  0
LINE
  5
826
100
AcDbEntity
  8
Ech.1_5
 62
     7
  6
CONTINUOUS
370
    -3
100
AcDbLine
 10
51062.98031837
 20
-11140.45384428
 30
0.0
 11
51063.11005697
 21
-11140.4709248
 31
0.0
  0
LINE
  5
827
100
AcDbEntity
  8
Ech.1_5
 62
     7
  6
CONTINUOUS
370
    -3
100
AcDbLine
 10
51063.11005697
 20
-11140.4709248
 30
0.0
 11
51063.23781327
 21
-11140.49924758
 31
0.0
  0
LINE
  5
828
100
AcDbEntity
  8
Ech.1_5
 62
     7
  6
CONTINUOUS
370
    -3
100
AcDbLine
 10
51063.23781327
 20
-11140.49924758
 30
0.0
 11
51063.36261497
 21
-11140.5385975
 31
0.0
  0
LINE
  5
829
100
AcDbEntity
  8
Ech.1_5
 62
     7
  6
CONTINUOUS
370
    -3
100
AcDbLine
 10
51088.99673757
 20
-11160.80983228
 30
0.0
 11
51089.13515997
 21
-11160.91604749
 31
0.0
  0
LINE
  5
82A
100
AcDbEntity
  8
Ech.1_5
 62
     7
  6
CONTINUOUS
370
    -3
100
AcDbLine
 10
51063.48351217
 20
-11140.5886747
 30
0.0
 11
51063.59958477
 21
-11140.64909828
 31
0.0
  0
LINE
  5
82B
100
AcDbEntity
  8
Ech.1_5
 62
     7
  6
CONTINUOUS
370
    -3
100
AcDbLine
 10
51063.59958477
 20
-11140.64909828
 30
0.0
 11
51063.70994937
 21
-11140.71940828
 31
0.0
  0
LINE
  5
82C
100
AcDbEntity
  8
Ech.1_5
 62
     7
  6
CONTINUOUS
370
    -3
100
AcDbLine
 10
51063.70994937
 20
-11140.71940828
 30
0.0
 11
51063.81376617
 21
-11140.79906968
 31
0.0
  0
LINE
  5
82D
100
AcDbEntity
  8
Ech.1_5
 62
     7
  6
CONTINUOUS
370
    -3
100
AcDbLine
 10
51063.81376617
 20
-11140.79906968
 30
0.0
 11
51063.91024487
 21
-11140.88747618
 31
0.0
  0
LINE
  5
82E
100
AcDbEntity
  8
Ech.1_5
 62
     7
  6
CONTINUOUS
370
    -3
100
AcDbLine
 10
51063.91024487
 20
-11140.88747618
 30
0.0
 11
51063.99865137
 21
-11140.98395497
 31
0.0
  0
LINE
  5
82F
100
AcDbEntity
  8
Ech.1_5
 62
     7
  6
CONTINUOUS
370
    -3
100
AcDbLine
 10
51063.99865137
 20
-11140.98395497
 30
0.0
 11
51064.07831277
 21
-11141.08777169
 31
0.0
  0
LINE
  5
830
100
AcDbEntity
  8
Ech.1_5
 62
     7
  6
CONTINUOUS
370
    -3
100
AcDbLine
 10
51064.07831277
 20
-11141.08777169
 30
0.0
 11
51064.14862287
 21
-11141.19813639
 31
0.0
  0
LINE
  5
831
100
AcDbEntity
  8
Ech.1_5
 62
     7
  6
CONTINUOUS
370
    -3
100
AcDbLine
 10
51064.14862287
 20
-11141.19813639
 30
0.0
 11
51064.20904637
 21
-11141.31420899
 31
0.0
  0
LINE
  5
832
100
AcDbEntity
  8
Ech.1_5
 62
     7
  6
CONTINUOUS
370
    -3
100
AcDbLine
 10
51104.14389047
 20
-11165.72474459
 30
0.0
 11
51103.84958477
 21
-11165.91223797
 31
0.0
  0
LINE
  5
833
100
AcDbEntity
  8
Ech.1_5
 62
     7
  6
CONTINUOUS
370
    -3
100
AcDbLine
 10
51104.97090507
 20
-11107.32681599
 30
0.0
 11
51105.14771807
 21
-11107.51977357
 31
0.0
  0
LINE
  5
834
100
AcDbEntity
  8
Ech.1_5
 62
     7
  6
CONTINUOUS
370
    -3
100
AcDbLine
 10
51104.77794757
 20
-11107.15000308
 30
0.0
 11
51104.97090507
 21
-11107.32681599
 31
0.0
  0
LINE
  5
835
100
AcDbEntity
  8
Ech.1_5
 62
     7
  6
CONTINUOUS
370
    -3
100
AcDbLine
 10
51104.57031407
 20
-11106.99068028
 30
0.0
 11
51104.77794757
 21
-11107.15000308
 31
0.0
  0
LINE
  5
836
100
AcDbEntity
  8
Ech.1_5
 62
     7
  6
CONTINUOUS
370
    -3
100
AcDbLine
 10
51104.34958477
 20
-11106.8500602
 30
0.0
 11
51104.57031407
 21
-11106.99068028
 31
0.0
  0
LINE
  5
837
100
AcDbEntity
  8
Ech.1_5
 62
     7
  6
CONTINUOUS
370
    -3
100
AcDbLine
 10
51104.11743947
 20
-11106.72921297
 30
0.0
 11
51104.34958477
 21
-11106.8500602
 31
0.0
  0
LINE
  5
838
100
AcDbEntity
  8
Ech.1_5
 62
     7
  6
CONTINUOUS
370
    -3
100
AcDbLine
 10
51103.87564517
 20
-11106.62905848
 30
0.0
 11
51104.11743947
 21
-11106.72921297
 31
0.0
  0
LINE
  5
839
100
AcDbEntity
  8
Ech.1_5
 62
     7
  6
CONTINUOUS
370
    -3
100
AcDbLine
 10
51103.62604187
 20
-11106.55035889
 30
0.0
 11
51103.87564517
 21
-11106.62905848
 31
0.0
  0
LINE
  5
83A
100
AcDbEntity
  8
Ech.1_5
 62
     7
  6
CONTINUOUS
370
    -3
100
AcDbLine
 10
51103.37052927
 20
-11106.49371308
 30
0.0
 11
51103.62604187
 21
-11106.55035889
 31
0.0
  0
LINE
  5
83B
100
AcDbEntity
  8
Ech.1_5
 62
     7
  6
CONTINUOUS
370
    -3
100
AcDbLine
 10
51090.82679637
 20
-11149.68766409
 30
0.0
 11
51090.84387677
 21
-11149.81740278
 31
0.0
  0
LINE
  5
83C
100
AcDbEntity
  8
Ech.1_5
 62
     7
  6
CONTINUOUS
370
    -3
100
AcDbLine
 10
51102.84958477
 20
-11106.44813639
 30
0.0
 11
51103.11105197
 21
-11106.45955229
 31
0.0
  0
LINE
  5
83D
100
AcDbEntity
  8
Ech.1_5
 62
     7
  6
CONTINUOUS
370
    -3
100
AcDbLine
 10
51102.84958477
 20
-11106.44813639
 30
0.0
 11
51099.84958477
 21
-11106.44813639
 31
0.0
  0
LINE
  5
83E
100
AcDbEntity
  8
Ech.1_5
 62
     7
  6
CONTINUOUS
370
    -3
100
AcDbLine
 10
51099.84958477
 20
-11106.44813639
 30
0.0
 11
51099.84958477
 21
-11110.44813639
 31
0.0
  0
LINE
  5
83F
100
AcDbEntity
  8
Ech.1_5
 62
     7
  6
CONTINUOUS
370
    -3
100
AcDbLine
 10
51099.84958477
 20
-11110.44813639
 30
0.0
 11
51095.84958477
 21
-11110.44813639
 31
0.0
  0
LINE
  5
840
100
AcDbEntity
  8
Ech.1_5
 62
     7
  6
CONTINUOUS
370
    -3
100
AcDbLine
 10
51095.84958477
 20
-11106.44813639
 30
0.0
 11
51095.84958477
 21
-11110.44813639
 31
0.0
  0
LINE
  5
841
100
AcDbEntity
  8
Ech.1_5
 62
     7
  6
CONTINUOUS
370
    -3
100
AcDbLine
 10
51095.49963007
 20
-11106.44813639
 30
0.0
 11
51077.44958477
 21
-11106.44813639
 31
0.0
  0
LINE
  5
842
100
AcDbEntity
  8
Ech.1_5
 62
     7
  6
CONTINUOUS
370
    -3
100
AcDbLine
 10
51077.44958477
 20
-11106.44813639
 30
0.0
 11
51077.44958477
 21
-11110.44813639
 31
0.0
  0
LINE
  5
843
100
AcDbEntity
  8
Ech.1_5
 62
     7
  6
CONTINUOUS
370
    -3
100
AcDbLine
 10
51077.44958477
 20
-11110.44813639
 30
0.0
 11
51073.44958477
 21
-11110.44813639
 31
0.0
  0
LINE
  5
844
100
AcDbEntity
  8
Ech.1_5
 62
     7
  6
CONTINUOUS
370
    -3
100
AcDbLine
 10
51104.42073517
 20
-11165.51231417
 30
0.0
 11
51104.14389047
 21
-11165.72474459
 31
0.0
  0
LINE
  5
845
100
AcDbEntity
  8
Ech.1_5
 62
     7
  6
CONTINUOUS
370
    -3
100
AcDbLine
 10
51048.49825327
 20
-11099.16976768
 30
0.0
 11
51048.13885217
 21
-11100.74440679
 31
0.0
  0
LINE
  5
846
100
AcDbEntity
  8
Ech.1_5
 62
     7
  6
CONTINUOUS
370
    -3
100
AcDbLine
 10
51105.14771807
 20
-11107.51977357
 30
0.0
 11
51105.30704087
 21
-11107.72740707
 31
0.0
  0
LINE
  5
847
100
AcDbEntity
  8
Ech.1_5
 62
     7
  6
CONTINUOUS
370
    -3
100
AcDbLine
 10
51104.67801187
 20
-11165.27656347
 30
0.0
 11
51104.42073517
 21
-11165.51231417
 31
0.0
  0
LINE
  5
848
100
AcDbEntity
  8
Ech.1_5
 62
     7
  6
CONTINUOUS
370
    -3
100
AcDbLine
 10
51104.91376247
 20
-11165.01928678
 30
0.0
 11
51104.67801187
 21
-11165.27656347
 31
0.0
  0
LINE
  5
849
100
AcDbEntity
  8
Ech.1_5
 62
     7
  6
CONTINUOUS
370
    -3
100
AcDbLine
 10
51105.12619287
 20
-11164.74244207
 30
0.0
 11
51104.91376247
 21
-11165.01928678
 31
0.0
  0
LINE
  5
84A
100
AcDbEntity
  8
Ech.1_5
 62
     7
  6
CONTINUOUS
370
    -3
100
AcDbLine
 10
51105.31368637
 20
-11164.44813639
 30
0.0
 11
51105.12619287
 21
-11164.74244207
 31
0.0
  0
LINE
  5
84B
100
AcDbEntity
  8
Ech.1_5
 62
     7
  6
CONTINUOUS
370
    -3
100
AcDbLine
 10
51105.47481587
 20
-11164.13860938
 30
0.0
 11
51105.31368637
 21
-11164.44813639
 31
0.0
  0
LINE
  5
84C
100
AcDbEntity
  8
Ech.1_5
 62
     7
  6
CONTINUOUS
370
    -3
100
AcDbLine
 10
51105.60835517
 20
-11163.81621698
 30
0.0
 11
51105.47481587
 21
-11164.13860938
 31
0.0
  0
LINE
  5
84D
100
AcDbEntity
  8
Ech.1_5
 62
     7
  6
CONTINUOUS
370
    -3
100
AcDbLine
 10
51105.71328807
 20
-11163.4834126
 30
0.0
 11
51105.60835517
 21
-11163.81621698
 31
0.0
  0
LINE
  5
84E
100
AcDbEntity
  8
Ech.1_5
 62
     7
  6
CONTINUOUS
370
    -3
100
AcDbLine
 10
51092.08911247
 20
-11166.42534799
 30
0.0
 11
51092.21885107
 21
-11166.44242838
 31
0.0
  0
LINE
  5
84F
100
AcDbEntity
  8
Ech.1_5
 62
     7
  6
CONTINUOUS
370
    -3
100
AcDbLine
 10
51105.83436357
 20
-11162.79675937
 30
0.0
 11
51105.78881577
 21
-11163.14272908
 31
0.0
  0
LINE
  5
850
100
AcDbEntity
  8
Ech.1_5
 62
     7
  6
CONTINUOUS
370
    -3
100
AcDbLine
 10
51105.84958477
 20
-11162.44813639
 30
0.0
 11
51105.83436357
 21
-11162.79675937
 31
0.0
  0
LINE
  5
851
100
AcDbEntity
  8
Ech.1_5
 62
     7
  6
CONTINUOUS
370
    -3
100
AcDbLine
 10
51105.84958477
 20
-11109.44813639
 30
0.0
 11
51105.84958477
 21
-11162.44813639
 31
0.0
  0
LINE
  5
852
100
AcDbEntity
  8
Ech.1_5
 62
     7
  6
CONTINUOUS
370
    -3
100
AcDbLine
 10
51105.83816887
 20
-11109.18666917
 30
0.0
 11
51105.84958477
 21
-11109.44813639
 31
0.0
  0
LINE
  5
853
100
AcDbEntity
  8
Ech.1_5
 62
     7
  6
CONTINUOUS
370
    -3
100
AcDbLine
 10
51105.80400797
 20
-11108.92719189
 30
0.0
 11
51105.83816887
 21
-11109.18666917
 31
0.0
  0
LINE
  5
854
100
AcDbEntity
  8
Ech.1_5
 62
     7
  6
CONTINUOUS
370
    -3
100
AcDbLine
 10
51105.74736217
 20
-11108.67167929
 30
0.0
 11
51105.80400797
 21
-11108.92719189
 31
0.0
  0
LINE
  5
855
100
AcDbEntity
  8
Ech.1_5
 62
     7
  6
CONTINUOUS
370
    -3
100
AcDbLine
 10
51105.66866257
 20
-11108.42207599
 30
0.0
 11
51105.74736217
 21
-11108.67167929
 31
0.0
  0
LINE
  5
856
100
AcDbEntity
  8
Ech.1_5
 62
     7
  6
CONTINUOUS
370
    -3
100
AcDbLine
 10
51105.56850807
 20
-11108.18028158
 30
0.0
 11
51105.66866257
 21
-11108.42207599
 31
0.0
  0
LINE
  5
857
100
AcDbEntity
  8
Ech.1_5
 62
     7
  6
CONTINUOUS
370
    -3
100
AcDbLine
 10
51105.44766097
 20
-11107.94813639
 30
0.0
 11
51105.56850807
 21
-11108.18028158
 31
0.0
  0
LINE
  5
858
100
AcDbEntity
  8
Ech.1_5
 62
     7
  6
CONTINUOUS
370
    -3
100
AcDbLine
 10
51091.12085667
 20
-11165.80850098
 30
0.0
 11
51091.20051807
 21
-11165.91231778
 31
0.0
  0
LINE
  5
859
100
AcDbEntity
  8
Ech.1_5
 62
     7
  6
CONTINUOUS
370
    -3
100
AcDbLine
 10
51091.20051807
 20
-11165.91231778
 30
0.0
 11
51091.28892457
 21
-11166.00879657
 31
0.0
  0
LINE
  5
85A
100
AcDbEntity
  8
Ech.1_5
 62
     7
  6
CONTINUOUS
370
    -3
100
AcDbLine
 10
51091.28892457
 20
-11166.00879657
 30
0.0
 11
51091.38540327
 21
-11166.09720308
 31
0.0
  0
LINE
  5
85B
100
AcDbEntity
  8
Ech.1_5
 62
     7
  6
CONTINUOUS
370
    -3
100
AcDbLine
 10
51091.38540327
 20
-11166.09720308
 30
0.0
 11
51091.48922007
 21
-11166.17686448
 31
0.0
  0
LINE
  5
85C
100
AcDbEntity
  8
Ech.1_5
 62
     7
  6
CONTINUOUS
370
    -3
100
AcDbLine
 10
51091.48922007
 20
-11166.17686448
 30
0.0
 11
51091.59958477
 21
-11166.24717447
 31
0.0
  0
LINE
  5
85D
100
AcDbEntity
  8
Ech.1_5
 62
     7
  6
CONTINUOUS
370
    -3
100
AcDbLine
 10
51091.59958477
 20
-11166.24717447
 30
0.0
 11
51091.71565737
 21
-11166.30759809
 31
0.0
  0
LINE
  5
85E
100
AcDbEntity
  8
Ech.1_5
 62
     7
  6
CONTINUOUS
370
    -3
100
AcDbLine
 10
51091.71565737
 20
-11166.30759809
 30
0.0
 11
51091.83655447
 21
-11166.35767529
 31
0.0
  0
LINE
  5
85F
100
AcDbEntity
  8
Ech.1_5
 62
     7
  6
CONTINUOUS
370
    -3
100
AcDbLine
 10
51091.83655447
 20
-11166.35767529
 30
0.0
 11
51091.96135617
 21
-11166.39702508
 31
0.0
  0
LINE
  5
860
100
AcDbEntity
  8
Ech.1_5
 62
     7
  6
CONTINUOUS
370
    -3
100
AcDbLine
 10
51091.96135617
 20
-11166.39702508
 30
0.0
 11
51092.08911247
 21
-11166.42534799
 31
0.0
  0
LINE
  5
861
100
AcDbEntity
  8
Ech.1_5
 62
     7
  6
CONTINUOUS
370
    -3
100
AcDbLine
 10
51105.78881577
 20
-11163.14272908
 30
0.0
 11
51105.71328807
 21
-11163.4834126
 31
0.0
  0
LINE
  5
862
100
AcDbEntity
  8
Ech.1_5
 62
     7
  6
CONTINUOUS
370
    -3
100
AcDbLine
 10
51092.21885107
 20
-11166.44242838
 30
0.0
 11
51092.34958477
 21
-11166.44813639
 31
0.0
  0
LINE
  5
863
100
AcDbEntity
  8
Ech.1_5
 62
     7
  6
CONTINUOUS
370
    -3
100
AcDbLine
 10
51092.34958477
 20
-11166.44813639
 30
0.0
 11
51101.84958477
 21
-11166.44813639
 31
0.0
  0
LINE
  5
864
100
AcDbEntity
  8
Ech.1_5
 62
     7
  6
CONTINUOUS
370
    -3
100
AcDbLine
 10
51102.19820767
 20
-11166.43291518
 30
0.0
 11
51101.84958477
 21
-11166.44813639
 31
0.0
  0
LINE
  5
865
100
AcDbEntity
  8
Ech.1_5
 62
     7
  6
CONTINUOUS
370
    -3
100
AcDbLine
 10
51102.54417747
 20
-11166.38736737
 30
0.0
 11
51102.19820767
 21
-11166.43291518
 31
0.0
  0
LINE
  5
866
100
AcDbEntity
  8
Ech.1_5
 62
     7
  6
CONTINUOUS
370
    -3
100
AcDbLine
 10
51102.88486087
 20
-11166.31183967
 30
0.0
 11
51102.54417747
 21
-11166.38736737
 31
0.0
  0
LINE
  5
867
100
AcDbEntity
  8
Ech.1_5
 62
     7
  6
CONTINUOUS
370
    -3
100
AcDbLine
 10
51103.21766527
 20
-11166.20690689
 30
0.0
 11
51102.88486087
 21
-11166.31183967
 31
0.0
  0
LINE
  5
868
100
AcDbEntity
  8
Ech.1_5
 62
     7
  6
CONTINUOUS
370
    -3
100
AcDbLine
 10
51103.54005777
 20
-11166.07336748
 30
0.0
 11
51103.21766527
 21
-11166.20690689
 31
0.0
  0
LINE
  5
869
100
AcDbEntity
  8
Ech.1_5
 62
     7
  6
CONTINUOUS
370
    -3
100
AcDbLine
 10
51070.11753397
 20
-11147.44813639
 30
0.0
 11
51070.21128067
 21
-11147.59528929
 31
0.0
  0
LINE
  5
86A
100
AcDbEntity
  8
Ech.1_5
 62
     7
  6
CONTINUOUS
370
    -3
100
AcDbLine
 10
51090.20994937
 20
-11148.71940828
 30
0.0
 11
51090.31376617
 21
-11148.79906968
 31
0.0
  0
LINE
  5
86B
100
AcDbEntity
  8
Ech.1_5
 62
     7
  6
CONTINUOUS
370
    -3
100
AcDbLine
 10
51103.84958477
 20
-11165.91223797
 30
0.0
 11
51103.54005777
 21
-11166.07336748
 31
0.0
  0
LINE
  5
86C
100
AcDbEntity
  8
Ech.1_5
 62
     7
  6
CONTINUOUS
370
    -3
100
AcDbLine
 10
51090.31376617
 20
-11148.79906968
 30
0.0
 11
51090.41024487
 21
-11148.88747618
 31
0.0
  0
LINE
  5
86D
100
AcDbEntity
  8
Ech.1_5
 62
     7
  6
CONTINUOUS
370
    -3
100
AcDbLine
 10
51090.41024487
 20
-11148.88747618
 30
0.0
 11
51090.49865137
 21
-11148.98395497
 31
0.0
  0
LINE
  5
86E
100
AcDbEntity
  8
Ech.1_5
 62
     7
  6
CONTINUOUS
370
    -3
100
AcDbLine
 10
51090.49865137
 20
-11148.98395497
 30
0.0
 11
51090.57831277
 21
-11149.08777169
 31
0.0
  0
LINE
  5
86F
100
AcDbEntity
  8
Ech.1_5
 62
     7
  6
CONTINUOUS
370
    -3
100
AcDbLine
 10
51090.57831277
 20
-11149.08777169
 30
0.0
 11
51090.64862287
 21
-11149.19813639
 31
0.0
  0
LINE
  5
870
100
AcDbEntity
  8
Ech.1_5
 62
     7
  6
CONTINUOUS
370
    -3
100
AcDbLine
 10
51090.64862287
 20
-11149.19813639
 30
0.0
 11
51090.70904637
 21
-11149.31420899
 31
0.0
  0
LINE
  5
871
100
AcDbEntity
  8
Ech.1_5
 62
     7
  6
CONTINUOUS
370
    -3
100
AcDbLine
 10
51090.70904637
 20
-11149.31420899
 30
0.0
 11
51090.75912367
 21
-11149.43510619
 31
0.0
  0
LINE
  5
872
100
AcDbEntity
  8
Ech.1_5
 62
     7
  6
CONTINUOUS
370
    -3
100
AcDbLine
 10
51090.75912367
 20
-11149.43510619
 30
0.0
 11
51090.79847347
 21
-11149.5599078
 31
0.0
  0
LINE
  5
873
100
AcDbEntity
  8
Ech.1_5
 62
     7
  6
CONTINUOUS
370
    -3
100
AcDbLine
 10
51090.79847347
 20
-11149.5599078
 30
0.0
 11
51090.82679637
 21
-11149.68766409
 31
0.0
  0
LINE
  5
874
100
AcDbEntity
  8
Ech.1_5
 62
     7
  6
CONTINUOUS
370
    -3
100
AcDbLine
 10
51103.11105197
 20
-11106.45955229
 30
0.0
 11
51103.37052927
 21
-11106.49371308
 31
0.0
  0
LINE
  5
875
100
AcDbEntity
  8
Ech.1_5
 62
     7
  6
CONTINUOUS
370
    -3
100
AcDbLine
 10
51090.84387677
 20
-11149.81740278
 30
0.0
 11
51090.84958477
 21
-11149.94813639
 31
0.0
  0
LINE
  5
876
100
AcDbEntity
  8
Ech.1_5
 62
     7
  6
CONTINUOUS
370
    -3
100
AcDbLine
 10
51090.84958477
 20
-11149.94813639
 30
0.0
 11
51090.84958477
 21
-11164.94813639
 31
0.0
  0
LINE
  5
877
100
AcDbEntity
  8
Ech.1_5
 62
     7
  6
CONTINUOUS
370
    -3
100
AcDbLine
 10
51090.84958477
 20
-11164.94813639
 30
0.0
 11
51090.85529267
 21
-11165.07886997
 31
0.0
  0
LINE
  5
878
100
AcDbEntity
  8
Ech.1_5
 62
     7
  6
CONTINUOUS
370
    -3
100
AcDbLine
 10
51090.85529267
 20
-11165.07886997
 30
0.0
 11
51090.87237307
 21
-11165.20860869
 31
0.0
  0
LINE
  5
879
100
AcDbEntity
  8
Ech.1_5
 62
     7
  6
CONTINUOUS
370
    -3
100
AcDbLine
 10
51090.87237307
 20
-11165.20860869
 30
0.0
 11
51090.90069597
 21
-11165.33636499
 31
0.0
  0
LINE
  5
87A
100
AcDbEntity
  8
Ech.1_5
 62
     7
  6
CONTINUOUS
370
    -3
100
AcDbLine
 10
51090.90069597
 20
-11165.33636499
 30
0.0
 11
51090.94004577
 21
-11165.46116659
 31
0.0
  0
LINE
  5
87B
100
AcDbEntity
  8
Ech.1_5
 62
     7
  6
CONTINUOUS
370
    -3
100
AcDbLine
 10
51090.94004577
 20
-11165.46116659
 30
0.0
 11
51090.99012307
 21
-11165.5820638
 31
0.0
  0
LINE
  5
87C
100
AcDbEntity
  8
Ech.1_5
 62
     7
  6
CONTINUOUS
370
    -3
100
AcDbLine
 10
51090.99012307
 20
-11165.5820638
 30
0.0
 11
51091.05054667
 21
-11165.69813639
 31
0.0
  0
LINE
  5
87D
100
AcDbEntity
  8
Ech.1_5
 62
     7
  6
CONTINUOUS
370
    -3
100
AcDbLine
 10
51090.09958477
 20
-11148.64909828
 30
0.0
 11
51090.20994937
 21
-11148.71940828
 31
0.0
  0
LINE
  5
87E
100
AcDbEntity
  8
Ech.1_5
 62
     7
  6
CONTINUOUS
370
    -3
100
AcDbLine
 10
51089.98351217
 20
-11148.5886747
 30
0.0
 11
51090.09958477
 21
-11148.64909828
 31
0.0
  0
LINE
  5
87F
100
AcDbEntity
  8
Ech.1_5
 62
     7
  6
CONTINUOUS
370
    -3
100
AcDbLine
 10
51070.21128067
 20
-11147.59528929
 30
0.0
 11
51070.31749587
 21
-11147.73371157
 31
0.0
  0
LINE
  5
880
100
AcDbEntity
  8
Ech.1_5
 62
     7
  6
CONTINUOUS
370
    -3
100
AcDbLine
 10
51070.31749587
 20
-11147.73371157
 30
0.0
 11
51070.43537117
 21
-11147.86234999
 31
0.0
  0
LINE
  5
881
100
AcDbEntity
  8
Ech.1_5
 62
     7
  6
CONTINUOUS
370
    -3
100
AcDbLine
 10
51070.43537117
 20
-11147.86234999
 30
0.0
 11
51070.56400947
 21
-11147.9802253
 31
0.0
  0
LINE
  5
882
100
AcDbEntity
  8
Ech.1_5
 62
     7
  6
CONTINUOUS
370
    -3
100
AcDbLine
 10
51070.56400947
 20
-11147.9802253
 30
0.0
 11
51070.70243187
 21
-11148.08644048
 31
0.0
  0
LINE
  5
883
100
AcDbEntity
  8
Ech.1_5
 62
     7
  6
CONTINUOUS
370
    -3
100
AcDbLine
 10
51070.70243187
 20
-11148.08644048
 30
0.0
 11
51070.84958477
 21
-11148.18018717
 31
0.0
  0
LINE
  5
884
100
AcDbEntity
  8
Ech.1_5
 62
     7
  6
CONTINUOUS
370
    -3
100
AcDbLine
 10
51070.84958477
 20
-11148.18018717
 30
0.0
 11
51071.00434817
 21
-11148.26075199
 31
0.0
  0
LINE
  5
885
100
AcDbEntity
  8
Ech.1_5
 62
     7
  6
CONTINUOUS
370
    -3
100
AcDbLine
 10
51071.00434817
 20
-11148.26075199
 30
0.0
 11
51071.16554447
 21
-11148.32752159
 31
0.0
  0
LINE
  5
886
100
AcDbEntity
  8
Ech.1_5
 62
     7
  6
CONTINUOUS
370
    -3
100
AcDbLine
 10
51071.16554447
 20
-11148.32752159
 30
0.0
 11
51071.33194667
 21
-11148.37998799
 31
0.0
  0
LINE
  5
887
100
AcDbEntity
  8
Ech.1_5
 62
     7
  6
CONTINUOUS
370
    -3
100
AcDbLine
 10
51058.77513417
 20
-11087.40693099
 30
0.0
 11
51057.31994877
 21
-11088.10771129
 31
0.0
  0
LINE
  5
888
100
AcDbEntity
  8
Ech.1_5
 62
     7
  6
CONTINUOUS
370
    -3
100
AcDbLine
 10
51071.50228837
 20
-11148.41775188
 30
0.0
 11
51071.67527327
 21
-11148.44052577
 31
0.0
  0
LINE
  5
889
100
AcDbEntity
  8
Ech.1_5
 62
     7
  6
CONTINUOUS
370
    -3
100
AcDbLine
 10
51071.67527327
 20
-11148.44052577
 30
0.0
 11
51071.84958477
 21
-11148.44813639
 31
0.0
  0
LINE
  5
88A
100
AcDbEntity
  8
Ech.1_5
 62
     7
  6
CONTINUOUS
370
    -3
100
AcDbLine
 10
51071.84958477
 20
-11148.44813639
 30
0.0
 11
51089.34958477
 21
-11148.44813639
 31
0.0
  0
LINE
  5
88B
100
AcDbEntity
  8
Ech.1_5
 62
     7
  6
CONTINUOUS
370
    -3
100
AcDbLine
 10
51089.34958477
 20
-11148.44813639
 30
0.0
 11
51089.48031837
 21
-11148.45384428
 31
0.0
  0
LINE
  5
88C
100
AcDbEntity
  8
Ech.1_5
 62
     7
  6
CONTINUOUS
370
    -3
100
AcDbLine
 10
51089.48031837
 20
-11148.45384428
 30
0.0
 11
51089.61005697
 21
-11148.4709248
 31
0.0
  0
LINE
  5
88D
100
AcDbEntity
  8
Ech.1_5
 62
     7
  6
CONTINUOUS
370
    -3
100
AcDbLine
 10
51089.61005697
 20
-11148.4709248
 30
0.0
 11
51089.73781327
 21
-11148.49924758
 31
0.0
  0
LINE
  5
88E
100
AcDbEntity
  8
Ech.1_5
 62
     7
  6
CONTINUOUS
370
    -3
100
AcDbLine
 10
51089.73781327
 20
-11148.49924758
 30
0.0
 11
51089.86261497
 21
-11148.5385975
 31
0.0
  0
LINE
  5
88F
100
AcDbEntity
  8
Ech.1_5
 62
     7
  6
CONTINUOUS
370
    -3
100
AcDbLine
 10
51089.86261497
 20
-11148.5385975
 30
0.0
 11
51089.98351217
 21
-11148.5886747
 31
0.0
  0
LINE
  5
890
100
AcDbEntity
  8
Ech.1_5
 62
     7
  6
CONTINUOUS
370
    -3
100
AcDbLine
 10
51070.03696917
 20
-11147.29337287
 30
0.0
 11
51070.11753397
 21
-11147.44813639
 31
0.0
  0
LINE
  5
891
100
AcDbEntity
  8
Ech.1_5
 62
     7
  6
CONTINUOUS
370
    -3
100
AcDbLine
 10
51091.05054667
 20
-11165.69813639
 30
0.0
 11
51091.12085667
 21
-11165.80850098
 31
0.0
  0
LINE
  5
892
100
AcDbEntity
  8
Ech.1_5
 62
     7
  6
CONTINUOUS
370
    -3
100
AcDbLine
 10
51050.32864017
 20
-11136.40255958
 30
0.0
 11
51050.58811747
 21
-11136.43672049
 31
0.0
  0
LINE
  5
893
100
AcDbEntity
  8
Ech.1_5
 62
     7
  6
CONTINUOUS
370
    -3
100
AcDbLine
 10
51050.58811747
 20
-11136.43672049
 30
0.0
 11
51050.84958477
 21
-11136.44813639
 31
0.0
  0
LINE
  5
894
100
AcDbEntity
  8
Ech.1_5
 62
     7
  6
CONTINUOUS
370
    -3
100
AcDbLine
 10
51053.04818357
 20
-11135.70695538
 30
0.0
 11
51050.84958477
 21
-11136.44813639
 31
0.0
  0
LINE
  5
895
100
AcDbEntity
  8
Ech.1_5
 62
     7
  6
CONTINUOUS
370
    -3
100
AcDbLine
 10
51054.95665767
 20
-11131.44813639
 30
0.0
 11
51053.04818357
 21
-11135.70695538
 31
0.0
  0
LINE
  5
896
100
AcDbEntity
  8
Ech.1_5
 62
     7
  6
CONTINUOUS
370
    -3
100
AcDbLine
 10
51054.95665767
 20
-11131.44813639
 30
0.0
 11
51058.70843757
 21
-11132.18931729
 31
0.0
  0
LINE
  5
897
100
AcDbEntity
  8
Ech.1_5
 62
     7
  6
CONTINUOUS
370
    -3
100
AcDbLine
 10
51058.70843757
 20
-11132.18931729
 30
0.0
 11
51060.61691177
 21
-11136.44813639
 31
0.0
  0
LINE
  5
898
100
AcDbEntity
  8
Ech.1_5
 62
     7
  6
CONTINUOUS
370
    -3
100
AcDbLine
 10
51060.61691177
 20
-11136.44813639
 30
0.0
 11
51065.54958477
 21
-11136.44813639
 31
0.0
  0
LINE
  5
899
100
AcDbEntity
  8
Ech.1_5
 62
     7
  6
CONTINUOUS
370
    -3
100
AcDbLine
 10
51048.13066137
 20
-11134.71599117
 30
0.0
 11
51048.25150857
 21
-11134.94813639
 31
0.0
  0
LINE
  5
89A
100
AcDbEntity
  8
Ech.1_5
 62
     7
  6
CONTINUOUS
370
    -3
100
AcDbLine
 10
51065.54958477
 20
-11128.44813639
 30
0.0
 11
51069.54958477
 21
-11128.44813639
 31
0.0
  0
LINE
  5
89B
100
AcDbEntity
  8
Ech.1_5
 62
     7
  6
CONTINUOUS
370
    -3
100
AcDbLine
 10
51069.54958477
 20
-11128.44813639
 30
0.0
 11
51069.54958477
 21
-11136.44813639
 31
0.0
  0
LINE
  5
89C
100
AcDbEntity
  8
Ech.1_5
 62
     7
  6
CONTINUOUS
370
    -3
100
AcDbLine
 10
51069.54958477
 20
-11136.44813639
 30
0.0
 11
51069.84958477
 21
-11136.44813639
 31
0.0
  0
LINE
  5
89D
100
AcDbEntity
  8
Ech.1_5
 62
     7
  6
CONTINUOUS
370
    -3
100
AcDbLine
 10
51069.84958477
 20
-11136.44813639
 30
0.0
 11
51069.84958477
 21
-11146.44813639
 31
0.0
  0
LINE
  5
89E
100
AcDbEntity
  8
Ech.1_5
 62
     7
  6
CONTINUOUS
370
    -3
100
AcDbLine
 10
51069.84958477
 20
-11146.44813639
 30
0.0
 11
51069.85719537
 21
-11146.62244788
 31
0.0
  0
LINE
  5
89F
100
AcDbEntity
  8
Ech.1_5
 62
     7
  6
CONTINUOUS
370
    -3
100
AcDbLine
 10
51069.85719537
 20
-11146.62244788
 30
0.0
 11
51069.87996927
 21
-11146.79543269
 31
0.0
  0
LINE
  5
8A0
100
AcDbEntity
  8
Ech.1_5
 62
     7
  6
CONTINUOUS
370
    -3
100
AcDbLine
 10
51069.87996927
 20
-11146.79543269
 30
0.0
 11
51069.91773307
 21
-11146.96577448
 31
0.0
  0
LINE
  5
8A1
100
AcDbEntity
  8
Ech.1_5
 62
     7
  6
CONTINUOUS
370
    -3
100
AcDbLine
 10
51069.91773307
 20
-11146.96577448
 30
0.0
 11
51069.97019947
 21
-11147.13217667
 31
0.0
  0
LINE
  5
8A2
100
AcDbEntity
  8
Ech.1_5
 62
     7
  6
CONTINUOUS
370
    -3
100
AcDbLine
 10
51069.97019947
 20
-11147.13217667
 30
0.0
 11
51070.03696917
 21
-11147.29337287
 31
0.0
  0
LINE
  5
8A3
100
AcDbEntity
  8
Ech.1_5
 62
     7
  6
CONTINUOUS
370
    -3
100
AcDbLine
 10
51049.82352427
 20
-11136.26721427
 30
0.0
 11
51050.07312757
 21
-11136.34591389
 31
0.0
  0
LINE
  5
8A4
100
AcDbEntity
  8
Ech.1_5
 62
     7
  6
CONTINUOUS
370
    -3
100
AcDbLine
 10
51105.30704087
 20
-11107.72740707
 30
0.0
 11
51105.44766097
 21
-11107.94813639
 31
0.0
  0
LINE
  5
8A5
100
AcDbEntity
  8
Ech.1_5
 62
     7
  6
CONTINUOUS
370
    -3
100
AcDbLine
 10
51048.13885217
 20
-11100.74440679
 30
0.0
 11
51047.92204747
 21
-11102.34492338
 31
0.0
  0
LINE
  5
8A6
100
AcDbEntity
  8
Ech.1_5
 62
     7
  6
CONTINUOUS
370
    -3
100
AcDbLine
 10
51047.92204747
 20
-11102.34492338
 30
0.0
 11
51047.84958477
 21
-11103.95843089
 31
0.0
  0
LINE
  5
8A7
100
AcDbEntity
  8
Ech.1_5
 62
     7
  6
CONTINUOUS
370
    -3
100
AcDbLine
 10
51047.84958477
 20
-11103.95843089
 30
0.0
 11
51047.84958477
 21
-11133.44813639
 31
0.0
  0
LINE
  5
8A8
100
AcDbEntity
  8
Ech.1_5
 62
     7
  6
CONTINUOUS
370
    -3
100
AcDbLine
 10
51047.84958477
 20
-11133.44813639
 30
0.0
 11
51047.86100067
 21
-11133.70960358
 31
0.0
  0
LINE
  5
8A9
100
AcDbEntity
  8
Ech.1_5
 62
     7
  6
CONTINUOUS
370
    -3
100
AcDbLine
 10
51047.86100067
 20
-11133.70960358
 30
0.0
 11
51047.89516147
 21
-11133.96908087
 31
0.0
  0
LINE
  5
8AA
100
AcDbEntity
  8
Ech.1_5
 62
     7
  6
CONTINUOUS
370
    -3
100
AcDbLine
 10
51047.89516147
 20
-11133.96908087
 30
0.0
 11
51047.95180727
 21
-11134.22459349
 31
0.0
  0
LINE
  5
8AB
100
AcDbEntity
  8
Ech.1_5
 62
     7
  6
CONTINUOUS
370
    -3
100
AcDbLine
 10
51047.95180727
 20
-11134.22459349
 30
0.0
 11
51048.03050687
 21
-11134.47419679
 31
0.0
  0
LINE
  5
8AC
100
AcDbEntity
  8
Ech.1_5
 62
     7
  6
CONTINUOUS
370
    -3
100
AcDbLine
 10
51048.03050687
 20
-11134.47419679
 30
0.0
 11
51048.13066137
 21
-11134.71599117
 31
0.0
  0
LINE
  5
8AD
100
AcDbEntity
  8
Ech.1_5
 62
     7
  6
CONTINUOUS
370
    -3
100
AcDbLine
 10
51065.54958477
 20
-11128.44813639
 30
0.0
 11
51065.54958477
 21
-11136.44813639
 31
0.0
  0
LINE
  5
8AE
100
AcDbEntity
  8
Ech.1_5
 62
     7
  6
CONTINUOUS
370
    -3
100
AcDbLine
 10
51048.25150857
 20
-11134.94813639
 30
0.0
 11
51048.39212857
 21
-11135.16886568
 31
0.0
  0
LINE
  5
8AF
100
AcDbEntity
  8
Ech.1_5
 62
     7
  6
CONTINUOUS
370
    -3
100
AcDbLine
 10
51048.39212857
 20
-11135.16886568
 30
0.0
 11
51048.55145137
 21
-11135.37649918
 31
0.0
  0
LINE
  5
8B0
100
AcDbEntity
  8
Ech.1_5
 62
     7
  6
CONTINUOUS
370
    -3
100
AcDbLine
 10
51048.55145137
 20
-11135.37649918
 30
0.0
 11
51048.72826437
 21
-11135.56945667
 31
0.0
  0
LINE
  5
8B1
100
AcDbEntity
  8
Ech.1_5
 62
     7
  6
CONTINUOUS
370
    -3
100
AcDbLine
 10
51048.72826437
 20
-11135.56945667
 30
0.0
 11
51048.92122187
 21
-11135.74626968
 31
0.0
  0
LINE
  5
8B2
100
AcDbEntity
  8
Ech.1_5
 62
     7
  6
CONTINUOUS
370
    -3
100
AcDbLine
 10
51048.92122187
 20
-11135.74626968
 30
0.0
 11
51049.12885547
 21
-11135.90559247
 31
0.0
  0
LINE
  5
8B3
100
AcDbEntity
  8
Ech.1_5
 62
     7
  6
CONTINUOUS
370
    -3
100
AcDbLine
 10
51049.12885547
 20
-11135.90559247
 30
0.0
 11
51049.34958477
 21
-11136.04621259
 31
0.0
  0
LINE
  5
8B4
100
AcDbEntity
  8
Ech.1_5
 62
     7
  6
CONTINUOUS
370
    -3
100
AcDbLine
 10
51049.34958477
 20
-11136.04621259
 30
0.0
 11
51049.58172997
 21
-11136.16705969
 31
0.0
  0
LINE
  5
8B5
100
AcDbEntity
  8
Ech.1_5
 62
     7
  6
CONTINUOUS
370
    -3
100
AcDbLine
 10
51048.99735707
 20
-11097.63368407
 30
0.0
 11
51048.49825327
 21
-11099.16976768
 31
0.0
  0
LINE
  5
8B6
100
AcDbEntity
  8
Ech.1_5
 62
     7
  6
CONTINUOUS
370
    -3
100
AcDbLine
 10
51050.07312757
 20
-11136.34591389
 30
0.0
 11
51050.32864017
 21
-11136.40255958
 31
0.0
  0
LINE
  5
8B7
100
AcDbEntity
  8
Ech.1_5
 62
     7
  6
CONTINUOUS
370
    -3
100
AcDbLine
 10
51049.58172997
 20
-11136.16705969
 30
0.0
 11
51049.82352427
 21
-11136.26721427
 31
0.0
  0
LINE
  5
8B8
100
AcDbEntity
  8
Ech.1_5
 62
     7
  6
CONTINUOUS
370
    -3
100
AcDbLine
 10
51073.44958477
 20
-11106.44813639
 30
0.0
 11
51073.44958477
 21
-11110.44813639
 31
0.0
  0
LINE
  5
8B9
100
AcDbEntity
  8
Ech.1_5
 62
     7
  6
CONTINUOUS
370
    -3
100
AcDbLine
 10
51073.44958477
 20
-11106.44813639
 30
0.0
 11
51064.14958477
 21
-11106.44813639
 31
0.0
  0
LINE
  5
8BA
100
AcDbEntity
  8
Ech.1_5
 62
     7
  6
CONTINUOUS
370
    -3
100
AcDbLine
 10
51064.14958477
 20
-11098.94813639
 30
0.0
 11
51064.14958477
 21
-11106.44813639
 31
0.0
  0
LINE
  5
8BB
100
AcDbEntity
  8
Ech.1_5
 62
     7
  6
CONTINUOUS
370
    -3
100
AcDbLine
 10
51064.14958477
 20
-11098.94813639
 30
0.0
 11
51062.94958477
 21
-11098.94813639
 31
0.0
  0
LINE
  5
8BC
100
AcDbEntity
  8
Ech.1_5
 62
     7
  6
CONTINUOUS
370
    -3
100
AcDbLine
 10
51062.94958477
 20
-11087.44813639
 30
0.0
 11
51062.94958477
 21
-11098.94813639
 31
0.0
  0
LINE
  5
8BD
100
AcDbEntity
  8
Ech.1_5
 62
     7
  6
CONTINUOUS
370
    -3
100
AcDbLine
 10
51061.37100027
 20
-11086.48729119
 30
0.0
 11
51062.94958477
 21
-11087.44813639
 31
0.0
  0
LINE
  5
8BE
100
AcDbEntity
  8
Ech.1_5
 62
     7
  6
CONTINUOUS
370
    -3
100
AcDbLine
 10
51061.37100027
 20
-11086.48729119
 30
0.0
 11
51060.28727887
 21
-11086.83941359
 31
0.0
  0
LINE
  5
8BF
100
AcDbEntity
  8
Ech.1_5
 62
     7
  6
CONTINUOUS
370
    -3
100
AcDbLine
 10
51060.28727887
 20
-11086.83941359
 30
0.0
 11
51058.77513417
 21
-11087.40693099
 31
0.0
  0
LINE
  5
8C0
100
AcDbEntity
  8
Ech.1_5
 62
     7
  6
CONTINUOUS
370
    -3
100
AcDbLine
 10
51071.33194667
 20
-11148.37998799
 30
0.0
 11
51071.50228837
 21
-11148.41775188
 31
0.0
  0
LINE
  5
8C1
100
AcDbEntity
  8
Ech.1_5
 62
     7
  6
CONTINUOUS
370
    -3
100
AcDbLine
 10
51057.31994877
 20
-11088.10771129
 30
0.0
 11
51055.93343907
 21
-11088.93611229
 31
0.0
  0
LINE
  5
8C2
100
AcDbEntity
  8
Ech.1_5
 62
     7
  6
CONTINUOUS
370
    -3
100
AcDbLine
 10
51055.93343907
 20
-11088.93611229
 30
0.0
 11
51054.62676827
 21
-11089.88546419
 31
0.0
  0
LINE
  5
8C3
100
AcDbEntity
  8
Ech.1_5
 62
     7
  6
CONTINUOUS
370
    -3
100
AcDbLine
 10
51054.62676827
 20
-11089.88546419
 30
0.0
 11
51053.41045707
 21
-11090.94812337
 31
0.0
  0
LINE
  5
8C4
100
AcDbEntity
  8
Ech.1_5
 62
     7
  6
CONTINUOUS
370
    -3
100
AcDbLine
 10
51053.41045707
 20
-11090.94812337
 30
0.0
 11
51052.29429837
 21
-11092.11553377
 31
0.0
  0
LINE
  5
8C5
100
AcDbEntity
  8
Ech.1_5
 62
     7
  6
CONTINUOUS
370
    -3
100
AcDbLine
 10
51052.29429837
 20
-11092.11553377
 30
0.0
 11
51051.28727887
 21
-11093.37829638
 31
0.0
  0
LINE
  5
8C6
100
AcDbEntity
  8
Ech.1_5
 62
     7
  6
CONTINUOUS
370
    -3
100
AcDbLine
 10
51051.28727887
 20
-11093.37829638
 30
0.0
 11
51050.39750647
 21
-11094.72624389
 31
0.0
  0
LINE
  5
8C7
100
AcDbEntity
  8
Ech.1_5
 62
     7
  6
CONTINUOUS
370
    -3
100
AcDbLine
 10
51050.39750647
 20
-11094.72624389
 30
0.0
 11
51049.63214507
 21
-11096.14852357
 31
0.0
  0
LINE
  5
8C8
100
AcDbEntity
  8
Ech.1_5
 62
     7
  6
CONTINUOUS
370
    -3
100
AcDbLine
 10
51049.63214507
 20
-11096.14852357
 30
0.0
 11
51048.99735707
 21
-11097.63368407
 31
0.0
  0
LINE
  5
8C9
100
AcDbEntity
  8
Ech.1_5
 62
     7
  6
CONTINUOUS
370
    -3
100
AcDbLine
 10
51029.85216377
 20
-11120.33817476
 30
0.0
 11
51024.85216377
 21
-11120.33817476
 31
0.0
  0
LINE
  5
8CA
100
AcDbEntity
  8
Ech.1_5
 62
     7
  6
CONTINUOUS
370
    -3
100
AcDbLine
 10
51029.85216377
 20
-11120.33817476
 30
0.0
 11
51029.85216377
 21
-11125.33817476
 31
0.0
  0
LINE
  5
8CB
100
AcDbEntity
  8
Ech.1_5
 62
     7
  6
CONTINUOUS
370
    -3
100
AcDbLine
 10
51047.85216377
 20
-11125.33817476
 30
0.0
 11
51029.85216377
 21
-11125.33817476
 31
0.0
  0
LINE
  5
8CC
100
AcDbEntity
  8
Ech.1_5
 62
     7
  6
CONTINUOUS
370
    -3
100
AcDbLine
 10
51024.85216377
 20
-11120.33817476
 30
0.0
 11
51024.85216377
 21
-11125.33817476
 31
0.0
  0
LINE
  5
8CD
100
AcDbEntity
  8
Ech.1_5
 62
     7
  6
CONTINUOUS
370
    -3
100
AcDbLine
 10
51024.85216377
 20
-11125.33817476
 30
0.0
 11
51019.85216377
 21
-11125.33817476
 31
0.0
  0
LINE
  5
8CE
100
AcDbEntity
  8
Ech.1_5
 62
     7
  6
CONTINUOUS
370
    -3
100
AcDbLine
 10
51019.85216377
 20
-11115.23672497
 30
0.0
 11
51019.85216377
 21
-11125.33817476
 31
0.0
  0
LINE
  5
8CF
100
AcDbEntity
  8
Ech.1_5
 62
     7
  6
CONTINUOUS
370
    -3
100
AcDbLine
 10
51047.85216377
 20
-11107.73414758
 30
0.0
 11
51019.85216377
 21
-11115.23672497
 31
0.0
  0
LINE
  5
8D0
100
AcDbEntity
  8
Ech.1_5
 62
     7
  6
CONTINUOUS
370
    -3
100
AcDbLine
 10
51047.85216377
 20
-11107.73414758
 30
0.0
 11
51047.85216377
 21
-11125.33817476
 31
0.0
  0
3DFACE
  5
8D1
100
AcDbEntity
  8
Ech.1_5
 62
     7
  6
CONTINUOUS
370
    -3
100
AcDbFace
 70
     0
 10
51095.84958477
 20
-11110.44813639
 30
2500.0
 11
51099.84958477
 21
-11110.44813639
 31
2500.0
 12
51099.84958477
 22
-11044.6981746
 32
2500.0
 13
51095.84958477
 23
-11044.6981746
 33
2500.0
  0
LWPOLYLINE
  5
8D2
100
AcDbEntity
  8
Ech.1_5
 62
     7
  6
CONTINUOUS
370
    -3
100
AcDbPolyline
 90
        4
 70
     1
 43
0.0
 10
51095.84958477
 20
-11106.44813639
 10
51077.44958477
 20
-11106.44813639
 10
51077.44958477
 20
-11099.20390079
 10
51095.84958477
 20
-11099.20390079
  0
3DFACE
  5
8D3
100
AcDbEntity
  8
Ech.1_5
 62
     7
  6
CONTINUOUS
370
    -3
100
AcDbFace
 70
     0
 10
51073.44958477
 20
-11110.44813639
 30
2500.0
 11
51077.44958477
 21
-11110.44813639
 31
2500.0
 12
51077.44958477
 22
-11044.6981746
 32
2500.0
 13
51073.44958477
 23
-11044.6981746
 33
2500.0
  0
LWPOLYLINE
  5
8D4
100
AcDbEntity
  8
Ech.1_5
 62
     7
  6
CONTINUOUS
370
    -3
100
AcDbPolyline
 90
        8
 70
     1
 43
0.0
 38
2500.0
 39
-2500.0
 10
50956.84958477
 20
-11272.61436028
 10
50956.84958477
 20
-11192.7272207
 10
51031.85263699
 20
-11164.79722405
 10
51031.8528448
 20
-11163.27519803
 10
50955.34958477
 20
-11191.36972527
 10
50955.34958477
 20
-11276.23568063
 10
50960.01280002
 20
-11271.57246538
 10
50958.95213985
 20
-11270.5118052
  0
LWPOLYLINE
  5
8D5
100
AcDbEntity
  8
Ech.1_5
 62
     7
  6
CONTINUOUS
370
    -3
100
AcDbPolyline
 90
        8
 70
     0
 43
0.0
 10
51031.85228014
 20
-11205.49924758
 10
51002.24275739
 20
-11205.49924758
 10
51002.24275739
 20
-11238.36313497
 10
50995.24275739
 20
-11238.36313497
 10
50991.28640093
 20
-11235.36313497
 10
50991.28640093
 20
-11187.60568236
 10
51002.24275739
 20
-11178.85568236
 10
51031.85228014
 20
-11178.85568236
  0
LWPOLYLINE
  5
8D6
100
AcDbEntity
  8
Ech.1_5
 62
     3
370
    70
100
AcDbPolyline
 90
        4
 70
     0
 43
0.0
 10
51090.96077202
 20
-10881.39693928
 10
51090.96077202
 20
-10874.88973677
 10
51094.89550417
 20
-10869.20912382
 10
51101.05396508
 20
-10869.20912382
  0
LWPOLYLINE
  5
8D7
100
AcDbEntity
  8
Ech.1_5
 62
   150
  6
CADWORK_22
370
    35
100
AcDbPolyline
 90
        3
 70
     0
 43
0.0
 38
2500.0
 10
51011.84958477
 20
-10496.2578401
 10
51011.84958477
 20
-10864.67826239
 10
51110.84958477
 20
-10864.67826239
  0
LWPOLYLINE
  5
8D8
100
AcDbEntity
  8
Ech.1_5
 62
     1
  6
CADWORK_22
 48
-5.0
370
    35
100
AcDbPolyline
 90
        3
 70
     0
 43
0.0
 10
51200.84958477
 20
-10496.2578401
 10
51200.84958477
 20
-10864.67826239
 10
51071.56790134
 20
-10864.67826239
  0
LWPOLYLINE
  5
8D9
100
AcDbEntity
  8
Ech.1_5
 62
   106
  6
CADWORK_22
370
    35
100
AcDbPolyline
 90
        3
 70
     0
 43
0.0
 10
51203.35079259
 20
-10804.83720745
 10
51203.35079259
 20
-10867.51468421
 10
51072.85079259
 20
-10867.51468421
  0
LWPOLYLINE
  5
8DA
100
AcDbEntity
  8
Ech.1_5
 62
   150
  6
CADWORK_22
370
    35
100
AcDbPolyline
 90
        3
 70
     0
 43
0.0
 38
2500.0
 10
51011.84958477
 20
-11484.30662494
 10
51011.84958477
 20
-11205.49865207
 10
51111.34958477
 20
-11205.49865207
  0
LWPOLYLINE
  5
8DB
100
AcDbEntity
  8
Ech.1_5
 62
     1
  6
CADWORK_22
 48
-5.0
370
    35
100
AcDbPolyline
 90
        3
 70
     0
 43
0.0
 10
51201.34958477
 20
-11484.30721129
 10
51201.34958477
 20
-11205.49924758
 10
51072.06790134
 20
-11205.49924758
  0
LWPOLYLINE
  5
8DC
100
AcDbEntity
  8
Ech.1_5
 62
   106
  6
CADWORK_22
370
    35
100
AcDbPolyline
 90
        3
 70
     0
 43
0.0
 10
51204.64142148
 20
-11265.63720668
 10
51204.64142148
 20
-11202.95972991
 10
51074.06467633
 20
-11202.95972991
  0
LWPOLYLINE
  5
8DD
100
AcDbEntity
  8
Ech.1_5
 62
     3
370
    70
100
AcDbPolyline
 90
        4
 70
     0
 43
0.0
 10
51090.46708672
 20
-11189.03868792
 10
51090.46708672
 20
-11195.54589042
 10
51094.40181886
 20
-11201.22650338
 10
51100.56027977
 20
-11201.22650338
  0
LWPOLYLINE
  5
8DE
100
AcDbEntity
  8
Ech.1_5
 62
   190
  6
CONTINUOUS
370
    -3
100
AcDbPolyline
 90
        4
 70
     1
 43
0.0
 10
51264.42388785
 20
-11223.53720123
 10
51264.42388785
 20
-11205.49924758
 10
51214.42388785
 20
-11205.49924758
 10
51214.42388785
 20
-11228.45888801
  0
LWPOLYLINE
  5
8DF
100
AcDbEntity
  8
Ech.1_5
 62
   190
  6
CONTINUOUS
370
    -3
100
AcDbPolyline
 90
        4
 70
     0
 43
0.0
 10
51264.42388785
 20
-11223.53720123
 10
51214.42388785
 20
-11205.49924758
 10
51214.42388785
 20
-11228.45888801
 10
51264.42388785
 20
-11205.49924758
  0
LWPOLYLINE
  5
8E0
100
AcDbEntity
  8
Ech.1_5
 62
     5
  6
CONTINUOUS
370
    -3
100
AcDbPolyline
 90
        5
 70
     0
 43
0.0
 10
51214.42388785
 20
-11228.45888801
 10
51264.42388785
 20
-11223.53720123
 10
51264.42388785
 20
-11205.49924758
 10
51214.42388785
 20
-11205.49924758
 10
51214.42388785
 20
-11228.45888801
  0
LWPOLYLINE
  5
8E1
100
AcDbEntity
  8
Ech.1_5
 62
     7
  6
CONTINUOUS
100
AcDbPolyline
 90
       47
 70
     0
 43
0.0
 10
51494.58237031
 20
-11152.01235535
 42
0.33945426
 10
51493.61644448
 20
-11152.75353631
 10
51491.98014689
 20
-11158.86028206
 42
-0.29147239
 10
51490.39559904
 20
-11160.31225817
 10
51481.22746679
 20
-11161.92888301
 42
-0.41421467
 10
51476.59362816
 20
-11158.68424733
 10
51475.62486732
 20
-11153.19013155
 42
-0.04364748
 10
51475.59448282
 20
-11152.84294269
 10
51475.59352357
 20
-11134.99661765
 42
0.43999449
 10
51474.50636783
 20
-11134.0004767
 10
51459.41975206
 20
-11135.32038455
 42
0.38646911
 10
51457.59413375
 20
-11137.29601579
 42
-0.40037838
 10
51456.64577545
 20
-11138.29887157
 42
0.14311568
 10
51443.40547972
 20
-11142.92230509
 42
-0.10897752
 10
51433.49909222
 20
-11147.14759894
 10
51393.71812754
 20
-11154.19616449
 42
0.36373606
 10
51389.59046209
 20
-11159.11950082
 10
51389.59059479
 20
-11190.49925308
 42
0.41421195
 10
51390.59059479
 20
-11191.49924758
 10
51398.59059479
 20
-11191.49924758
 42
0.41421618
 10
51399.59059479
 20
-11190.49923863
 10
51399.59059301
 20
-11190.30045528
 42
-0.36397277
 10
51402.8960003
 20
-11186.36118846
 10
51419.10529536
 20
-11183.50305241
 10
51420.78010036
 20
-11186.09744341
 10
51423.56122836
 20
-11183.50305241
 10
51425.23566736
 20
-11186.09684841
 10
51428.01716136
 20
-11183.50305241
 10
51429.69209903
 20
-11186.0974118
 10
51432.47223936
 20
-11183.50305241
 10
51434.14753236
 20
-11186.09800841
 10
51436.92927036
 20
-11183.50305241
 10
51438.60285436
 20
-11186.09860341
 10
51441.38423036
 20
-11183.50305241
 10
51443.05915736
 20
-11186.09744341
 10
51445.84016336
 20
-11183.50305241
 10
51446.83346974
 20
-11185.04163396
 42
0.25468196
 10
51447.67359891
 20
-11185.49924758
 10
51504.09414918
 20
-11185.49924758
 42
-0.41421356
 10
51505.09414918
 20
-11186.49924758
 10
51505.09414918
 20
-11189.99924758
 42
0.41421356
 10
51506.59414918
 20
-11191.49924758
 10
51509.09418504
 20
-11191.49924758
 42
0.41421006
 10
51515.09418504
 20
-11185.4993193
 10
51515.09457335
 20
-11153.01237493
 42
0.4142193
 10
51514.09457335
 20
-11152.01235535
 10
51494.58237031
 20
-11152.01235535
  0
LINE
  5
8E2
100
AcDbEntity
  8
Ech.1_5
 62
     7
  6
CONTINUOUS
100
AcDbLine
 10
51512.84479005
 20
-11083.76235968
 30
0.0
 11
51496.84479005
 21
-11083.76235968
 31
0.0
  0
LINE
  5
8E3
100
AcDbEntity
  8
Ech.1_5
 62
     7
  6
CONTINUOUS
100
AcDbLine
 10
51516.84479005
 20
-11094.01235968
 30
0.0
 11
51492.84479005
 21
-11094.01235968
 31
0.0
  0
LINE
  5
8E4
100
AcDbEntity
  8
Ech.1_5
 62
     7
  6
CONTINUOUS
100
AcDbLine
 10
51510.84479005
 20
-11096.01235968
 30
0.0
 11
51510.84479005
 21
-11094.81235968
 31
0.0
  0
LINE
  5
8E5
100
AcDbEntity
  8
Ech.1_5
 62
     7
  6
CONTINUOUS
100
AcDbLine
 10
51498.84479005
 20
-11096.01235968
 30
0.0
 11
51498.84479005
 21
-11094.81235968
 31
0.0
  0
LINE
  5
8E6
100
AcDbEntity
  8
Ech.1_5
 62
     7
  6
CONTINUOUS
100
AcDbLine
 10
51492.84479005
 20
-11096.01235968
 30
0.0
 11
51516.84479438
 21
-11099.01235103
 31
0.0
  0
LINE
  5
8E7
100
AcDbEntity
  8
Ech.1_5
 62
     7
  6
CONTINUOUS
100
AcDbLine
 10
51516.84479005
 20
-11096.01235968
 30
0.0
 11
51492.84479005
 21
-11099.01235103
 31
0.0
  0
LINE
  5
8E8
100
AcDbEntity
  8
Ech.1_5
 62
     7
  6
CONTINUOUS
100
AcDbLine
 10
51492.84479005
 20
-11099.01235103
 30
0.0
 11
51516.84479005
 21
-11099.01235968
 31
0.0
  0
LINE
  5
8E9
100
AcDbEntity
  8
Ech.1_5
 62
     7
  6
CONTINUOUS
100
AcDbLine
 10
51516.84479005
 20
-11099.01235968
 30
0.0
 11
51516.84479005
 21
-11096.01235968
 31
0.0
  0
LINE
  5
8EA
100
AcDbEntity
  8
Ech.1_5
 62
     7
  6
CONTINUOUS
100
AcDbLine
 10
51516.84479005
 20
-11096.01235968
 30
0.0
 11
51492.84479005
 21
-11096.01235968
 31
0.0
  0
LINE
  5
8EB
100
AcDbEntity
  8
Ech.1_5
 62
     7
  6
CONTINUOUS
100
AcDbLine
 10
51492.84479005
 20
-11096.01235968
 30
0.0
 11
51492.84479005
 21
-11099.01235968
 31
0.0
  0
ARC
  5
8EC
100
AcDbEntity
  8
Ech.1_5
 62
     7
  6
CONTINUOUS
100
AcDbCircle
 10
51474.59352357
 20
-11134.9966714
 30
0.0
 40
1.0
100
AcDbArc
 50
0.0030797
 51
95.0
  0
LINE
  5
8ED
100
AcDbEntity
  8
Ech.1_5
 62
     7
  6
CONTINUOUS
100
AcDbLine
 10
51514.09457335
 20
-11152.01235535
 30
0.0
 11
51494.58237031
 21
-11152.01235535
 31
0.0
  0
LWPOLYLINE
  5
8EE
100
AcDbEntity
  8
Ech.1_5
 62
     7
  6
CONTINUOUS
100
AcDbPolyline
 90
        5
 70
     0
 43
0.0
 10
51517.49481396
 20
-11162.83223178
 42
0.73157417
 10
51516.04051651
 20
-11162.89579307
 42
-0.1352145
 10
51516.2740056
 20
-11164.20264208
 42
0.92591457
 10
51517.49481396
 20
-11164.20264208
 10
51517.49481396
 20
-11162.83223178
  0
LWPOLYLINE
  5
8EF
100
AcDbEntity
  8
Ech.1_5
 62
     7
  6
CONTINUOUS
100
AcDbPolyline
 90
       65
 70
     0
 43
0.0
 10
51516.04383155
 20
-11162.90276119
 10
51516.03405605
 20
-11162.86496934
 10
51516.02462926
 20
-11162.8274575
 10
51516.01589745
 20
-11162.79050376
 10
51516.00820691
 20
-11162.75438619
 10
51516.00190392
 20
-11162.71938288
 10
51515.99733478
 20
-11162.68577189
 10
51515.99484577
 20
-11162.65383132
 10
51515.99478317
 20
-11162.62383923
 10
51515.99749326
 20
-11162.5960737
 10
51516.00332235
 20
-11162.57081282
 10
51516.0126167
 20
-11162.54833466
 10
51516.0257226
 20
-11162.52891729
 10
51516.04298635
 20
-11162.51283881
 10
51516.06461856
 20
-11162.50026487
 10
51516.09020547
 20
-11162.49084382
 10
51516.11915381
 20
-11162.48407522
 10
51516.15087028
 20
-11162.47945866
 10
51516.18476159
 20
-11162.47649371
 10
51516.22023444
 20
-11162.47467994
 10
51516.25669554
 20
-11162.47351692
 10
51516.2935516
 20
-11162.47250422
 10
51516.33020932
 20
-11162.47114142
 10
51516.36607541
 20
-11162.46892809
 10
51516.40055658
 20
-11162.4653638
 10
51516.43305954
 20
-11162.45994813
 10
51516.46299098
 20
-11162.45218064
 10
51516.48975762
 20
-11162.4415609
 10
51516.51276616
 20
-11162.4275885
 10
51516.53142331
 20
-11162.409763
 10
51516.54513577
 20
-11162.38758398
 10
51516.55331013
 20
-11162.36059303
 10
51516.55534738
 20
-11162.33017036
 10
51516.55064089
 20
-11162.30021013
 10
51516.53887755
 20
-11162.27399477
 10
51516.52081785
 20
-11162.25191164
 10
51516.4974672
 20
-11162.23368763
 10
51516.46983103
 20
-11162.21904963
 10
51516.43891475
 20
-11162.2077245
 10
51516.40572377
 20
-11162.19943913
 10
51516.37126351
 20
-11162.19392041
 10
51516.33653398
 20
-11162.19089446
 10
51516.30218792
 20
-11162.19003869
 10
51516.26832635
 20
-11162.19095318
 10
51516.23500125
 20
-11162.19323109
 10
51516.2022646
 20
-11162.19646561
 10
51516.17016835
 20
-11162.20024991
 10
51516.13876449
 20
-11162.20417717
 10
51516.10810497
 20
-11162.20784057
 10
51516.07824178
 20
-11162.21083329
 10
51516.04922688
 20
-11162.2127485
 10
51516.02111225
 20
-11162.21317939
 10
51515.99394985
 20
-11162.21171913
 10
51515.96779166
 20
-11162.2079609
 10
51515.94268964
 20
-11162.20149787
 10
51515.91869577
 20
-11162.19192324
 10
51515.89583525
 20
-11162.17894972
 10
51515.87401726
 20
-11162.16280838
 10
51515.85311953
 20
-11162.14387075
 10
51515.83301979
 20
-11162.12250835
 10
51515.81359577
 20
-11162.09909272
 10
51515.79472519
 20
-11162.07399538
 10
51515.77628581
 20
-11162.04758785
 10
51515.75815533
 20
-11162.02024167
 10
51515.74021149
 20
-11161.99232836
  0
LWPOLYLINE
  5
8F0
100
AcDbEntity
  8
Ech.1_5
 62
     7
  6
CONTINUOUS
100
AcDbPolyline
 90
       40
 70
     0
 43
0.0
 10
51516.04383155
 20
-11162.90276119
 42
-0.20099848
 10
51516.13226063
 20
-11164.83220436
 42
0.55145662
 10
51516.23556607
 20
-11164.96613715
 42
-0.1294239
 10
51517.35397404
 20
-11165.15039429
 42
0.54354517
 10
51517.49481396
 20
-11165.05911395
 10
51517.49481396
 20
-11162.83223178
 10
51517.49481396
 20
-11162.83223178
 10
51516.99481396
 20
-11162.33223178
 10
51517.49481396
 20
-11161.83223178
 10
51517.49481396
 20
-11148.712359
 42
0.41421356
 10
51517.39481396
 20
-11148.612359
 10
51514.19481396
 20
-11148.612359
 42
-0.41421356
 10
51514.09481396
 20
-11148.512359
 10
51514.09481396
 20
-11148.112359
 42
-0.41421356
 10
51514.19481396
 20
-11148.012359
 10
51516.99481396
 20
-11148.012359
 42
0.41421356
 10
51517.09481396
 20
-11147.912359
 10
51517.09481396
 20
-11145.46300283
 42
0.74863712
 10
51516.91068216
 20
-11145.40894877
 10
51515.65365879
 20
-11147.36542801
 42
-0.41421356
 10
51515.51547294
 20
-11147.39550576
 10
51515.17894575
 20
-11147.17928954
 42
-0.41421356
 10
51515.14886801
 20
-11147.04110369
 10
51517.06529403
 20
-11144.05830495
 42
-0.25526652
 10
51517.14942582
 20
-11144.012359
 10
51517.99481396
 20
-11144.012359
 42
-0.41421356
 10
51518.09481396
 20
-11144.112359
 10
51518.09481396
 20
-11165.712359
 42
-0.41421356
 10
51517.99481396
 20
-11165.812359
 10
51517.5281955
 20
-11165.812359
 42
-0.16012283
 10
51517.46886969
 20
-11165.79286024
 42
0.24300643
 10
51515.90437529
 20
-11165.5430652
 42
0.06909489
 10
51515.87968426
 20
-11165.55518824
 42
-0.7595554
 10
51515.40214641
 20
-11165.14903483
 42
0.27525427
 10
51515.58934017
 20
-11163.1112923
 42
-0.2097
 10
51515.52115038
 20
-11158.90770334
 42
-0.9750995
 10
51515.98222632
 20
-11159.10111734
 42
0.15529906
 10
51515.72693172
 20
-11161.96031748
 42
0.06565639
 10
51515.73590356
 20
-11161.98488005
 42
0.02152095
 10
51515.74021149
 20
-11161.99232836
  0
LINE
  5
8F1
100
AcDbEntity
  8
Ech.1_5
 62
     7
  6
DASHEDX2
100
AcDbLine
 10
51509.26463328
 20
-11102.23999423
 30
0.0
 11
51476.09542319
 21
-11137.91634129
 31
0.0
  0
LINE
  5
8F2
100
AcDbEntity
  8
Ech.1_5
 62
     7
  6
DASHEDX2
100
AcDbLine
 10
51499.29199958
 20
-11101.21735012
 30
0.0
 11
51476.09923167
 21
-11126.16317293
 31
0.0
  0
LWPOLYLINE
  5
8F3
100
AcDbEntity
  8
Ech.1_5
 62
     7
  6
CONTINUOUS
100
AcDbPolyline
 90
       63
 70
     0
 43
0.0
 10
51533.59480845
 20
-11093.45091109
 10
51532.59481396
 20
-11092.4509166
 10
51530.59481396
 20
-11092.4509166
 10
51530.59481396
 20
-11091.9509166
 42
0.24172474
 10
51525.58768875
 20
-11082.19900899
 42
0.15679011
 10
51525.00494919
 20
-11082.01166795
 10
51523.06088121
 20
-11082.01166795
 42
0.28963385
 10
51521.8924452
 20
-11083.10955023
 42
-0.29368695
 10
51521.49562062
 20
-11083.47687025
 42
0.36369756
 10
51519.84481396
 20
-11085.44615032
 10
51519.84481396
 20
-11095.49342323
 42
-0.37995788
 10
51517.19905213
 20
-11098.47243571
 10
51512.06461219
 20
-11099.0829785
 42
0.22830633
 10
51511.34743376
 20
-11099.57190509
 10
51510.10194987
 20
-11101.7295645
 42
-0.22171667
 10
51509.4095307
 20
-11102.21444491
 10
51501.4386797
 20
-11103.619921
 42
-0.31532185
 10
51500.39896417
 20
-11103.13504059
 10
51498.34218551
 20
-11099.57190509
 42
0.22830633
 10
51497.62500707
 20
-11099.0829785
 10
51492.49057579
 20
-11098.47243674
 42
-0.37995788
 10
51489.84481396
 20
-11095.49342426
 10
51489.84481396
 20
-11085.44615032
 42
0.36369756
 10
51488.19400729
 20
-11083.47687025
 42
-0.29368695
 10
51487.79718271
 20
-11083.10955023
 42
0.28963385
 10
51486.6287467
 20
-11082.01166795
 10
51484.68467872
 20
-11082.01166795
 42
0.15679011
 10
51484.10193916
 20
-11082.19900899
 42
0.24172474
 10
51479.09481396
 20
-11091.9509166
 10
51479.09481396
 20
-11092.4509166
 10
51477.09481396
 20
-11092.4509166
 10
51476.09481396
 20
-11093.4509166
 10
51476.09585014
 20
-11098.05181364
 10
51481.40017891
 20
-11098.05181364
 10
51481.40017891
 20
-11110.52523501
 10
51476.59834432
 20
-11110.9453411
 10
51476.10020482
 20
-11111.4453151
 10
51476.09526402
 20
-11138.79750902
 10
51479.84507382
 20
-11140.96246272
 10
51479.84507382
 20
-11135.54632633
 10
51482.74507385
 20
-11135.54632633
 10
51482.74507385
 20
-11145.01235167
 42
0.41421356
 10
51483.74507384
 20
-11146.01235167
 10
51486.084198
 20
-11146.0123517
 10
51490.28421638
 20
-11140.01235138
 10
51494.48419805
 20
-11140.01235138
 10
51495.89481396
 20
-11148.0123517
 10
51497.89481179
 20
-11148.01235279
 10
51497.89481179
 20
-11145.81236765
 10
51499.89481179
 20
-11145.81236765
 10
51499.89481179
 20
-11136.51236765
 10
51512.09481179
 20
-11136.51236765
 10
51512.09481179
 20
-11145.81236765
 10
51514.09481179
 20
-11145.81236765
 10
51514.09481179
 20
-11148.01235868
 10
51515.09481396
 20
-11148.012359
 10
51515.09481396
 20
-11142.512359
 10
51518.09481396
 20
-11142.512359
 10
51518.09481396
 20
-11164.012359
 42
0.41421356
 10
51520.09481396
 20
-11166.012359
 10
51528.59481386
 20
-11166.012359
 42
0.41421359
 10
51533.59481386
 20
-11161.0123586
 10
51533.59480845
 20
-11093.45091109
  0
LINE
  5
8F4
100
AcDbEntity
  8
Ech.1_5
 62
     7
  6
CONTINUOUS
100
AcDbLine
 10
51475.59374243
 20
-11127.53447692
 30
0.0
 11
51475.59374243
 21
-11134.99661765
 31
0.0
  0
LWPOLYLINE
  5
8F5
100
AcDbEntity
  8
Ech.1_5
 62
     7
  6
CONTINUOUS
100
AcDbPolyline
 90
       99
 70
     0
 43
0.0
 10
51491.61798615
 20
-11084.78821205
 10
51492.84479005
 20
-11088.15882807
 10
51492.84479005
 20
-11093.11235968
 10
51492.54479005
 20
-11093.41235968
 10
51492.54479005
 20
-11094.11235968
 42
0.95548796
 10
51493.34313373
 20
-11094.14872331
 42
-0.38779458
 10
51493.49251261
 20
-11094.01235968
 10
51496.72767359
 20
-11094.01235968
 42
-0.34415073
 10
51496.87319497
 20
-11094.12597933
 10
51497.01638514
 20
-11094.69874002
 42
0.34415073
 10
51497.16190651
 20
-11094.81235968
 10
51512.52767359
 20
-11094.81235968
 42
0.34415073
 10
51512.67319497
 20
-11094.69874002
 10
51512.81638514
 20
-11094.12597933
 42
-0.34415073
 10
51512.96190651
 20
-11094.01235968
 10
51516.19706749
 20
-11094.01235968
 42
-0.38779458
 10
51516.34644637
 20
-11094.14872331
 42
0.95548796
 10
51517.14479005
 20
-11094.11235968
 10
51517.14479005
 20
-11093.41235968
 10
51516.84479005
 20
-11093.11235968
 10
51516.84479005
 20
-11088.15882807
 10
51518.06234418
 20
-11084.81362558
 42
1.10738051
 10
51517.81361683
 20
-11084.72309623
 10
51517.48508355
 20
-11086.02468586
 42
-0.93251509
 10
51516.84659019
 20
-11085.91167984
 10
51517.17343401
 20
-11083.49067754
 42
0.18531675
 10
51517.01875486
 20
-11082.8367916
 42
-0.15081813
 10
51516.84479005
 20
-11082.27317306
 10
51516.84479005
 20
-11081.98191135
 10
51516.84479005
 20
-11080.98191135
 42
-0.30843151
 10
51517.10201423
 20
-11080.62629857
 42
-0.26795044
 10
51522.36864572
 20
-11082.86785853
 42
-0.52171267
 10
51522.32663408
 20
-11083.11030073
 42
0.15565301
 10
51521.49557655
 20
-11084.21272427
 10
51519.83817615
 20
-11084.01235968
 42
0.31529879
 10
51519.65023763
 20
-11084.14395565
 10
51518.67648898
 20
-11086.81930806
 42
0.87140053
 10
51518.76406538
 20
-11086.86560338
 10
51519.28082573
 20
-11086.14709996
 42
-1.00812133
 10
51519.80105693
 20
-11086.45628982
 10
51518.32383294
 20
-11088.76108913
 42
0.14346618
 10
51518.24479005
 20
-11089.03089481
 10
51518.24479005
 20
-11090.61213041
 42
0.72472287
 10
51518.42541057
 20
-11090.671294
 10
51519.07731205
 20
-11089.78296673
 42
-0.94855512
 10
51519.78694823
 20
-11090.24863536
 10
51518.34297792
 20
-11092.19845468
 42
0.16072186
 10
51518.24479005
 20
-11092.49602317
 10
51518.24479005
 20
-11094.05386009
 42
-0.08748866
 10
51518.23272858
 20
-11094.12226412
 10
51517.58071281
 20
-11095.9136627
 42
-0.31529879
 10
51517.43975892
 20
-11096.01235968
 10
51516.06190651
 20
-11096.01235968
 42
-0.34415073
 10
51515.91638514
 20
-11095.89874002
 10
51515.77319497
 20
-11095.32597933
 42
0.34415073
 10
51515.62767359
 20
-11095.21235968
 10
51513.86190651
 20
-11095.21235968
 42
0.34415073
 10
51513.71638514
 20
-11095.32597933
 10
51513.57319497
 20
-11095.89874002
 42
-0.34415073
 10
51513.42767359
 20
-11096.01235968
 10
51496.26190651
 20
-11096.01235968
 42
-0.34415073
 10
51496.11638514
 20
-11095.89874002
 10
51495.97319497
 20
-11095.32597933
 42
0.34415073
 10
51495.82767359
 20
-11095.21235968
 10
51494.06190651
 20
-11095.21235968
 42
0.34415073
 10
51493.91638514
 20
-11095.32597933
 10
51493.77319497
 20
-11095.89874002
 42
-0.34415073
 10
51493.62767359
 20
-11096.01235968
 10
51492.24982118
 20
-11096.01235968
 42
-0.31529879
 10
51492.10886729
 20
-11095.9136627
 10
51491.45685153
 20
-11094.12226412
 42
-0.08748866
 10
51491.44479005
 20
-11094.05386009
 10
51491.44479005
 20
-11092.49602317
 42
0.16072186
 10
51491.34660219
 20
-11092.19845468
 10
51489.90263187
 20
-11090.24863536
 42
-0.94855512
 10
51490.61226805
 20
-11089.78296673
 10
51491.26416953
 20
-11090.671294
 42
0.72472287
 10
51491.44479005
 20
-11090.61213041
 10
51491.44479005
 20
-11089.03089481
 42
0.14346618
 10
51491.36574717
 20
-11088.76108913
 10
51489.88852317
 20
-11086.45628982
 42
-1.00812133
 10
51490.40875438
 20
-11086.14709996
 10
51490.92551472
 20
-11086.86560338
 42
0.87140053
 10
51491.01309112
 20
-11086.81930806
 10
51490.03934248
 20
-11084.14395565
 42
0.31529879
 10
51489.85140395
 20
-11084.01235968
 10
51488.19396323
 20
-11084.21272427
 42
0.15565608
 10
51487.36292676
 20
-11083.11031901
 42
-0.52171267
 10
51487.32091512
 20
-11082.86787681
 42
-0.26794928
 10
51492.58756587
 20
-11080.62629857
 42
-0.30843151
 10
51492.84479005
 20
-11080.98191135
 10
51492.84479005
 20
-11081.98191135
 10
51492.84479005
 20
-11082.27317306
 42
-0.15081813
 10
51492.67082525
 20
-11082.8367916
 42
0.18531675
 10
51492.51614609
 20
-11083.49067754
 10
51492.84298992
 20
-11085.91167984
 42
-0.93251509
 10
51492.20449656
 20
-11086.02468586
 10
51491.87596327
 20
-11084.72309623
 42
1.10738051
 10
51491.62723592
 20
-11084.81362558
  0
LINE
  5
8F6
100
AcDbEntity
  8
Ech.1_5
 62
     7
  6
DASHEDX2
100
AcDbLine
 10
51389.59051849
 20
-11172.455309
 30
0.0
 11
51476.39986195
 21
-11157.58534452
 31
0.0
  0
LINE
  5
8F7
100
AcDbEntity
  8
Ech.1_5
 62
     7
  6
DASHEDX2
100
AcDbLine
 10
51389.59055286
 20
-11180.58427532
 30
0.0
 11
51485.9118506
 21
-11163.97918267
 31
0.0
  0
LWPOLYLINE
  5
8F8
100
AcDbEntity
  8
Ech.1_5
 62
     7
  6
CONTINUOUS
100
AcDbPolyline
 90
       15
 70
     0
 43
0.0
 10
51476.09876628
 20
-11110.98892493
 10
51481.09876628
 20
-11110.55151595
 10
51481.09876628
 20
-11098.05181364
 10
51476.52372273
 20
-11098.05085815
 42
0.25018491
 10
51474.86186269
 20
-11098.93748066
 42
-0.22001772
 10
51463.34341504
 20
-11108.73248701
 42
0.32911577
 10
51445.09876628
 20
-11129.04756031
 10
51446.09876628
 20
-11130.04756031
 10
51458.18552528
 20
-11130.04756031
 10
51464.96132749
 20
-11124.38284005
 42
-0.46575727
 10
51466.4687539
 20
-11124.65004587
 10
51469.58501031
 20
-11130.04756031
 10
51472.59876628
 20
-11130.04756031
 10
51476.09876628
 20
-11127.1107116
 10
51476.09876628
 20
-11110.98892493
  0
LWPOLYLINE
  5
8F9
100
AcDbEntity
  8
Ech.1_5
 62
     7
  6
CONTINUOUS
100
AcDbPolyline
 90
        5
 70
     0
 43
0.0
 10
51517.49481396
 20
-11162.83223178
 42
0.73157417
 10
51516.04051651
 20
-11162.89579307
 42
-0.1352145
 10
51516.2740056
 20
-11164.20264208
 42
0.92591457
 10
51517.49481396
 20
-11164.20264208
 10
51517.49481396
 20
-11162.83223178
  0
LWPOLYLINE
  5
8FA
100
AcDbEntity
  8
Ech.1_5
 62
     7
  6
CONTINUOUS
100
AcDbPolyline
 90
       65
 70
     0
 43
0.0
 10
51516.04383155
 20
-11162.90276119
 10
51516.03405605
 20
-11162.86496934
 10
51516.02462926
 20
-11162.8274575
 10
51516.01589745
 20
-11162.79050376
 10
51516.00820691
 20
-11162.75438619
 10
51516.00190392
 20
-11162.71938288
 10
51515.99733478
 20
-11162.68577189
 10
51515.99484577
 20
-11162.65383132
 10
51515.99478317
 20
-11162.62383923
 10
51515.99749326
 20
-11162.5960737
 10
51516.00332235
 20
-11162.57081282
 10
51516.0126167
 20
-11162.54833466
 10
51516.0257226
 20
-11162.52891729
 10
51516.04298635
 20
-11162.51283881
 10
51516.06461856
 20
-11162.50026487
 10
51516.09020547
 20
-11162.49084382
 10
51516.11915381
 20
-11162.48407522
 10
51516.15087028
 20
-11162.47945866
 10
51516.18476159
 20
-11162.47649371
 10
51516.22023444
 20
-11162.47467994
 10
51516.25669554
 20
-11162.47351692
 10
51516.2935516
 20
-11162.47250422
 10
51516.33020932
 20
-11162.47114142
 10
51516.36607541
 20
-11162.46892809
 10
51516.40055658
 20
-11162.4653638
 10
51516.43305954
 20
-11162.45994813
 10
51516.46299098
 20
-11162.45218064
 10
51516.48975762
 20
-11162.4415609
 10
51516.51276616
 20
-11162.4275885
 10
51516.53142331
 20
-11162.409763
 10
51516.54513577
 20
-11162.38758398
 10
51516.55331013
 20
-11162.36059303
 10
51516.55534738
 20
-11162.33017036
 10
51516.55064089
 20
-11162.30021013
 10
51516.53887755
 20
-11162.27399477
 10
51516.52081785
 20
-11162.25191164
 10
51516.4974672
 20
-11162.23368763
 10
51516.46983103
 20
-11162.21904963
 10
51516.43891475
 20
-11162.2077245
 10
51516.40572377
 20
-11162.19943913
 10
51516.37126351
 20
-11162.19392041
 10
51516.33653398
 20
-11162.19089446
 10
51516.30218792
 20
-11162.19003869
 10
51516.26832635
 20
-11162.19095318
 10
51516.23500125
 20
-11162.19323109
 10
51516.2022646
 20
-11162.19646561
 10
51516.17016835
 20
-11162.20024991
 10
51516.13876449
 20
-11162.20417717
 10
51516.10810497
 20
-11162.20784057
 10
51516.07824178
 20
-11162.21083329
 10
51516.04922688
 20
-11162.2127485
 10
51516.02111225
 20
-11162.21317939
 10
51515.99394985
 20
-11162.21171913
 10
51515.96779166
 20
-11162.2079609
 10
51515.94268964
 20
-11162.20149787
 10
51515.91869577
 20
-11162.19192324
 10
51515.89583525
 20
-11162.17894972
 10
51515.87401726
 20
-11162.16280838
 10
51515.85311953
 20
-11162.14387075
 10
51515.83301979
 20
-11162.12250835
 10
51515.81359577
 20
-11162.09909272
 10
51515.79472519
 20
-11162.07399538
 10
51515.77628581
 20
-11162.04758785
 10
51515.75815533
 20
-11162.02024167
 10
51515.74021149
 20
-11161.99232836
  0
LWPOLYLINE
  5
8FB
100
AcDbEntity
  8
Ech.1_5
 62
     7
  6
CONTINUOUS
100
AcDbPolyline
 90
       40
 70
     0
 43
0.0
 10
51516.04383155
 20
-11162.90276119
 42
-0.20099848
 10
51516.13226063
 20
-11164.83220436
 42
0.55145662
 10
51516.23556607
 20
-11164.96613715
 42
-0.1294239
 10
51517.35397404
 20
-11165.15039429
 42
0.54354517
 10
51517.49481396
 20
-11165.05911395
 10
51517.49481396
 20
-11162.83223178
 10
51517.49481396
 20
-11162.83223178
 10
51516.99481396
 20
-11162.33223178
 10
51517.49481396
 20
-11161.83223178
 10
51517.49481396
 20
-11148.712359
 42
0.41421356
 10
51517.39481396
 20
-11148.612359
 10
51514.19481396
 20
-11148.612359
 42
-0.41421356
 10
51514.09481396
 20
-11148.512359
 10
51514.09481396
 20
-11148.112359
 42
-0.41421356
 10
51514.19481396
 20
-11148.012359
 10
51516.99481396
 20
-11148.012359
 42
0.41421356
 10
51517.09481396
 20
-11147.912359
 10
51517.09481396
 20
-11145.46300283
 42
0.74863712
 10
51516.91068216
 20
-11145.40894877
 10
51515.65365879
 20
-11147.36542801
 42
-0.41421356
 10
51515.51547294
 20
-11147.39550576
 10
51515.17894575
 20
-11147.17928954
 42
-0.41421356
 10
51515.14886801
 20
-11147.04110369
 10
51517.06529403
 20
-11144.05830495
 42
-0.25526652
 10
51517.14942582
 20
-11144.012359
 10
51517.99481396
 20
-11144.012359
 42
-0.41421356
 10
51518.09481396
 20
-11144.112359
 10
51518.09481396
 20
-11165.712359
 42
-0.41421356
 10
51517.99481396
 20
-11165.812359
 10
51517.5281955
 20
-11165.812359
 42
-0.16012283
 10
51517.46886969
 20
-11165.79286024
 42
0.24300643
 10
51515.90437529
 20
-11165.5430652
 42
0.06909489
 10
51515.87968426
 20
-11165.55518824
 42
-0.7595554
 10
51515.40214641
 20
-11165.14903483
 42
0.27525427
 10
51515.58934017
 20
-11163.1112923
 42
-0.2097
 10
51515.52115038
 20
-11158.90770334
 42
-0.9750995
 10
51515.98222632
 20
-11159.10111734
 42
0.15529906
 10
51515.72693172
 20
-11161.96031748
 42
0.06565639
 10
51515.73590356
 20
-11161.98488005
 42
0.02152095
 10
51515.74021149
 20
-11161.99232836
  0
LINE
  5
8FC
100
AcDbEntity
  8
Ech.1_5
 62
     7
  6
CENTER
370
    18
100
AcDbLine
 10
51538.58136552
 20
-11044.6981746
 30
0.0
 11
50927.87275232
 21
-11044.6981746
 31
0.0
  0
LINE
  5
8FD
100
AcDbEntity
  8
Ech.1_5
 62
     7
  6
CONTINUOUS
100
AcDbLine
 10
51492.84479005
 20
-11094.01235968
 30
0.0
 11
51492.84479005
 21
-11044.6981746
 31
0.0
  0
LINE
  5
8FE
100
AcDbEntity
  8
Ech.1_5
 62
     7
  6
CONTINUOUS
100
AcDbLine
 10
51496.84479005
 20
-11094.01235968
 30
0.0
 11
51496.84479005
 21
-11044.6981746
 31
0.0
  0
LINE
  5
8FF
100
AcDbEntity
  8
Ech.1_5
 62
     7
  6
CONTINUOUS
100
AcDbLine
 10
51512.84479005
 20
-11094.01235968
 30
0.0
 11
51512.84479005
 21
-11044.6981746
 31
0.0
  0
LINE
  5
900
100
AcDbEntity
  8
Ech.1_5
 62
     7
  6
CONTINUOUS
100
AcDbLine
 10
51516.84479005
 20
-11094.01235968
 30
0.0
 11
51516.84479005
 21
-11044.6981746
 31
0.0
  0
HATCH
  5
901
100
AcDbEntity
  8
Ech.1_5
 62
     7
100
AcDbHatch
 10
0.0
 20
0.0
 30
0.0
210
0.0
220
0.0
230
1.0
  2
_USER_1
 70
     0
 71
     0
 91
        1
 92
        7
 72
     0
 73
     1
 93
       19
 10
51481.96142919
 20
-10886.24485017
 10
51482.07527256
 20
-10886.23671016
 10
51482.18679899
 20
-10886.21245261
 10
51482.29373847
 20
-10886.17257127
 10
51482.39391435
 20
-10886.11787787
 10
51482.48528764
 20
-10886.04948565
 10
51482.56599853
 20
-10885.96878667
 10
51482.63440424
 20
-10885.87742348
 10
51482.68911242
 20
-10885.77725568
 10
51482.72900955
 20
-10885.67032209
 10
51482.75328356
 20
-10885.55879924
 10
51482.76144038
 20
-10885.44495706
 10
51482.76144317
 20
-10885.24614687
 10
51482.76144512
 20
-10885.10639915
 10
51482.76148985
 20
-10881.90528138
 10
51482.76149685
 20
-10881.40528138
 10
51482.76153829
 20
-10878.44770409
 10
51481.56153828
 20
-10878.44768728
 10
51481.56142909
 20
-10886.24484457
 97
        0
 75
     0
 76
     2
 52
0.0
 41
1.0
 77
     0
 78
     1
 53
135.00079346
 43
0.0
 44
0.0
 45
-1.76774247
 46
-1.76779143
 79
     2
 49
50.0
 49
0.0
 47
0.775229
 98
        1
 10
0.0
 20
0.0
  0
HATCH
  5
902
100
AcDbEntity
  8
Ech.1_5
 62
     7
100
AcDbHatch
 10
0.0
 20
0.0
 30
0.0
210
0.0
220
0.0
230
1.0
  2
ANSI31
 70
     0
 71
     0
 91
        1
 92
        7
 72
     1
 73
     1
 93
       25
 10
51515.11244175
 20
-10860.975728
 42
-0.22235481
 10
51515.41719847
 20
-10861.82999806
 42
-0.22946848
 10
51515.21668641
 20
-10862.31322487
 42
0.18586263
 10
51514.11114029
 20
-10864.81193642
 42
0.0
 10
51514.11114029
 20
-10866.79774677
 42
0.99930427
 10
51514.81114029
 20
-10866.79822883
 42
0.0
 10
51514.81114029
 20
-10864.74692126
 42
-0.05691082
 10
51514.8188634
 20
-10864.67928828
 42
-0.02418259
 10
51514.91011069
 20
-10864.29617708
 42
-0.02455226
 10
51515.02776238
 20
-10863.94944866
 42
-0.07971411
 10
51515.68158651
 20
-10862.83654877
 42
0.19863002
 10
51516.13781264
 20
-10861.85256752
 42
0.33183283
 10
51514.91769228
 20
-10860.05126006
 42
-0.79190458
 10
51515.11237745
 20
-10859.65847586
 42
0.0
 10
51516.99730761
 20
-10860.06917058
 42
-0.3398043
 10
51517.21199733
 20
-10860.36504082
 42
0.0
 10
51517.21076952
 20
-10860.40982236
 42
0.0
 10
51518.11107432
 20
-10860.43450663
 42
0.0
 10
51518.11114029
 20
-10860.43210461
 42
0.0
 10
51518.11114029
 20
-10859.63631508
 42
0.35710574
 10
51517.99076899
 20
-10859.4892704
 42
-0.12383971
 10
51514.46524543
 20
-10858.57040392
 42
0.54640022
 10
51514.11114029
 20
-10858.79769694
 42
0.0
 10
51514.11941464
 20
-10860.370195
 42
0.10888682
 10
51514.1436795
 20
-10860.47503456
 42
-0.05887459
 97
        0
 75
     0
 76
     2
 52
0.0
 41
0.25000001
 77
     0
 78
     1
 53
45.0
 43
0.0
 44
0.0
 45
0.56126252
 46
-0.56126252
 79
     0
 47
0.775229
 98
        1
 10
0.0
 20
0.0
  0
HATCH
  5
903
100
AcDbEntity
  8
Ech.1_5
 62
     7
100
AcDbHatch
 10
0.0
 20
0.0
 30
0.0
210
0.0
220
0.0
230
1.0
  2
HONEY
 70
     0
 71
     0
 91
        1
 92
        7
 72
     0
 73
     1
 93
      102
 10
51514.81394558
 20
-10864.70599078
 10
51514.81114029
 20
-10864.72168849
 10
51514.81114029
 20
-10866.79822883
 10
51514.80781731
 20
-10866.84586403
 10
51514.79804148
 20
-10866.8926036
 10
51514.78199473
 20
-10866.93757755
 10
51514.75997577
 20
-10866.97994877
 10
51514.73239445
 20
-10867.01892857
 10
51514.69976414
 20
-10867.05379141
 10
51514.66269221
 20
-10867.08388836
 10
51514.62186869
 20
-10867.10865922
 10
51514.57805347
 20
-10867.12764291
 10
51514.53206209
 20
-10867.14048609
 10
51514.4847506
 20
-10867.14694969
 10
51514.43699965
 20
-10867.14691341
 10
51514.38969805
 20
-10867.14037791
 10
51514.34372624
 20
-10867.12746486
 10
51514.29993991
 20
-10867.10841461
 10
51514.25915409
 20
-10867.08358174
 10
51514.22212794
 20
-10867.05342848
 10
51514.18955065
 20
-10867.0185161
 10
51514.16202859
 20
-10866.97949443
 10
51514.14007405
 20
-10866.9370898
 10
51514.12409567
 20
-10866.89209151
 10
51514.11439087
 20
-10866.84533714
 10
51514.11114029
 20
-10866.79769694
 10
51514.11439087
 20
-10866.84533714
 10
51514.12409567
 20
-10866.89209151
 10
51514.14007405
 20
-10866.9370898
 10
51514.16202859
 20
-10866.97949443
 10
51514.18955065
 20
-10867.0185161
 10
51514.22212794
 20
-10867.05342848
 10
51514.25915409
 20
-10867.08358174
 10
51514.29993991
 20
-10867.10841461
 10
51514.34372624
 20
-10867.12746486
 10
51514.38969805
 20
-10867.14037791
 10
51514.43699965
 20
-10867.14691341
 10
51514.4847506
 20
-10867.14694969
 10
51514.53206209
 20
-10867.14048609
 10
51514.57805347
 20
-10867.12764291
 10
51514.62186869
 20
-10867.10865922
 10
51514.66269221
 20
-10867.08388836
 10
51514.69976414
 20
-10867.05379141
 10
51514.73239445
 20
-10867.01892857
 10
51514.75997577
 20
-10866.97994877
 10
51514.78199473
 20
-10866.93757755
 10
51514.79804148
 20
-10866.8926036
 10
51514.80781731
 20
-10866.84586403
 10
51514.81114029
 20
-10866.79822883
 10
51514.81114029
 20
-10867.22787126
 10
51514.81655819
 20
-10867.31089512
 10
51514.83335955
 20
-10867.3923815
 10
51514.86122413
 20
-10867.47077717
 10
51514.8996208
 20
-10867.54458782
 10
51514.94781766
 20
-10867.61240653
 10
51515.00489603
 20
-10867.67294061
 10
51515.06976794
 20
-10867.72503621
 10
51515.14119685
 20
-10867.76770032
 10
51515.21782125
 20
-10867.80011972
 10
51515.29818058
 20
-10867.82167645
 10
51515.38074312
 20
-10867.83195963
 10
51515.46393511
 20
-10867.83077325
 10
51515.54617084
 20
-10867.81813991
 10
51515.62588278
 20
-10867.79430042
 10
51515.70155155
 20
-10867.7597092
 10
51515.77173481
 20
-10867.71502558
 10
51515.83509479
 20
-10867.66110129
 10
51515.89042377
 20
-10867.59896419
 10
51515.93666713
 20
-10867.52979868
 10
51515.9729434
 20
-10867.45492313
 10
51515.99856113
 20
-10867.37576476
 10
51516.01303201
 20
-10867.29383242
 10
51516.01608021
 20
-10867.21068782
 10
51516.00764763
 20
-10867.1279158
 10
51515.96363562
 20
-10866.71422371
 10
51515.93411734
 20
-10866.29924555
 10
51515.9191289
 20
-10865.88348895
 10
51515.91868862
 20
-10865.4674625
 10
51515.93279706
 20
-10865.05167511
 10
51516.03848602
 20
-10864.76507597
 10
51516.18644511
 20
-10864.49783576
 10
51516.37324683
 20
-10864.25614517
 10
51516.59456386
 20
-10864.04560302
 10
51516.84526935
 20
-10863.87108659
 10
51517.11955562
 20
-10863.73663859
 10
51517.14857082
 20
-10862.67837603
 10
51516.7856516
 20
-10862.71795966
 10
51516.43197015
 20
-10862.80843978
 10
51516.09462728
 20
-10862.94799984
 10
51515.78039577
 20
-10863.13383791
 10
51515.49558443
 20
-10863.36222293
 10
51515.24591135
 20
-10863.62856966
 10
51515.03638921
 20
-10863.92753069
 10
51514.98137161
 20
-10864.07430952
 10
51514.93204147
 20
-10864.22309627
 10
51514.88847182
 20
-10864.37367066
 10
51514.85072717
 20
-10864.52580975
 10
51514.8188634
 20
-10864.67928828
 10
51514.81768673
 20
-10864.68459141
 10
51514.81660628
 20
-10864.68991497
 10
51514.81562239
 20
-10864.69525722
 10
51514.81473539
 20
-10864.70061641
 97
        0
 75
     0
 76
     2
 52
0.0
 41
1.0
 77
     0
 78
     3
 53
0.0
 43
0.0
 44
0.0
 45
34.64099884
 46
20.0
 79
     2
 49
23.09400082
 49
-46.18800163
 53
120.0
 43
0.0
 44
0.0
 45
-34.6410075
 46
19.99998501
 79
     2
 49
23.09400082
 49
-46.18800163
 53
60.0
 43
0.0
 44
0.0
 45
-8.6555227518659E-06
 46
39.99998501
 79
     4
 49
0.0
 49
-46.18800163
 49
23.09400082
 49
0.0
 47
0.775229
 98
        1
 10
0.0
 20
0.0
  0
HATCH
  5
904
100
AcDbEntity
  8
Ech.1_5
 62
     7
100
AcDbHatch
 10
0.0
 20
0.0
 30
0.0
210
0.0
220
0.0
230
1.0
  2
ANSI31
 70
     0
 71
     0
 91
        1
 92
        7
 72
     0
 73
     1
 93
       34
 10
51515.96492597
 20
-10876.51331816
 10
51515.9043482
 20
-10876.32781177
 10
51515.85445338
 20
-10876.13915124
 10
51515.81540407
 20
-10875.94795125
 10
51515.78732751
 20
-10875.75483472
 10
51515.77031515
 20
-10875.56043084
 10
51515.76400017
 20
-10875.51505803
 10
51515.75146263
 20
-10875.47099693
 10
51515.73294415
 20
-10875.42909661
 10
51515.70880157
 20
-10875.39016453
 10
51515.67950015
 20
-10875.35495093
 10
51515.64560455
 20
-10875.32413439
 10
51515.60776794
 20
-10875.29830878
 10
51515.56671947
 20
-10875.27797177
 10
51515.52325017
 20
-10875.26351526
 10
51515.47819772
 20
-10875.25521784
 10
51515.4324303
 20
-10875.2532394
 10
51515.38682988
 20
-10875.25761808
 10
51515.34227521
 20
-10875.2682695
 10
51515.29962489
 20
-10875.28498838
 10
51515.25970082
 20
-10875.30745256
 10
51515.22327235
 20
-10875.33522913
 10
51515.19104149
 20
-10875.36778282
 10
51515.16362935
 20
-10875.40448629
 10
51515.14156416
 20
-10875.44463226
 10
51515.12527116
 20
-10875.48744708
 10
51515.1150643
 20
-10875.53210568
 10
51515.11114029
 20
-10875.57774748
 10
51515.11114029
 20
-10875.68685041
 10
51515.12545214
 20
-10875.96560182
 10
51515.16026898
 20
-10876.24254038
 10
51515.21540145
 20
-10876.51615981
 10
51515.29054968
 20
-10876.78497187
 10
51515.38530493
 20
-10877.04751448
 97
        0
 75
     0
 76
     2
 52
0.0
 41
0.25000001
 77
     0
 78
     1
 53
45.0
 43
0.0
 44
0.0
 45
0.56126252
 46
-0.56126252
 79
     0
 47
0.775229
 98
        1
 10
0.0
 20
0.0
  0
LWPOLYLINE
  5
905
100
AcDbEntity
  8
Ech.1_5
 62
     7
  6
CONTINUOUS
100
AcDbPolyline
 90
       26
 70
     0
 43
0.0
 10
51459.94257444
 20
-10825.91830386
 10
51503.14246306
 20
-10825.91910026
 42
0.41422032
 10
51504.14248615
 20
-10824.91910026
 10
51504.14248615
 20
-10821.41913519
 42
-0.41421356
 10
51505.64248615
 20
-10819.91913519
 10
51508.14251898
 20
-10819.91913519
 42
-0.41421036
 10
51514.14251898
 20
-10825.91906953
 10
51514.14294577
 20
-10864.92215448
 42
-0.4142193
 10
51513.14294577
 20
-10865.92217405
 10
51493.63074273
 20
-10865.92217405
 42
-0.33945426
 10
51492.6648169
 20
-10865.1809931
 10
51491.02851931
 20
-10859.07424734
 42
0.29147239
 10
51489.44397146
 20
-10857.62227124
 10
51480.27583921
 20
-10856.0056464
 42
0.41421467
 10
51475.64200058
 20
-10859.25028207
 10
51474.67323973
 20
-10864.74439786
 42
0.04364748
 10
51474.64285524
 20
-10865.09158671
 10
51474.64189599
 20
-10882.93791176
 42
-0.43999449
 10
51473.55474025
 20
-10883.93405271
 10
51458.46812447
 20
-10882.61414486
 42
-0.39093107
 10
51456.64248674
 20
-10880.60750359
 10
51456.64269556
 20
-10832.93866994
 42
-0.4202363
 10
51457.64253989
 20
-10831.91820606
 10
51458.94250012
 20
-10831.91827592
 10
51458.94255601
 20
-10826.91828989
 42
-0.41421487
 10
51459.94257444
 20
-10825.91830386
  0
LINE
  5
906
100
AcDbEntity
  8
Ech.1_5
 62
     7
  6
CONTINUOUS
100
AcDbLine
 10
51456.64248674
 20
-10880.60750359
 30
0.0
 11
51456.64269556
 21
-10832.93866994
 31
0.0
  0
LINE
  5
907
100
AcDbEntity
  8
Ech.1_5
 62
     7
  6
CONTINUOUS
100
AcDbLine
 10
51512.86097715
 20
-10930.29522074
 30
0.0
 11
51496.86097715
 21
-10930.29522074
 31
0.0
  0
LINE
  5
908
100
AcDbEntity
  8
Ech.1_5
 62
     7
  6
CONTINUOUS
100
AcDbLine
 10
51516.86097715
 20
-10920.04522074
 30
0.0
 11
51492.86097715
 21
-10920.04522074
 31
0.0
  0
LINE
  5
909
100
AcDbEntity
  8
Ech.1_5
 62
     7
  6
CONTINUOUS
100
AcDbLine
 10
51510.86097715
 20
-10918.04522074
 30
0.0
 11
51510.86097715
 21
-10919.24522074
 31
0.0
  0
LINE
  5
90A
100
AcDbEntity
  8
Ech.1_5
 62
     7
  6
CONTINUOUS
100
AcDbLine
 10
51498.86097715
 20
-10918.04522074
 30
0.0
 11
51498.86097715
 21
-10919.24522074
 31
0.0
  0
LINE
  5
90B
100
AcDbEntity
  8
Ech.1_5
 62
     7
  6
CONTINUOUS
100
AcDbLine
 10
51492.86097715
 20
-10918.04522074
 30
0.0
 11
51516.86097715
 21
-10915.04522074
 31
0.0
  0
LINE
  5
90C
100
AcDbEntity
  8
Ech.1_5
 62
     7
  6
CONTINUOUS
100
AcDbLine
 10
51516.86097715
 20
-10918.04522074
 30
0.0
 11
51492.86097715
 21
-10915.04522939
 31
0.0
  0
LINE
  5
90D
100
AcDbEntity
  8
Ech.1_5
 62
     7
  6
CONTINUOUS
100
AcDbLine
 10
51492.86097715
 20
-10915.04522939
 30
0.0
 11
51516.86097715
 21
-10915.04522074
 31
0.0
  0
LINE
  5
90E
100
AcDbEntity
  8
Ech.1_5
 62
     7
  6
CONTINUOUS
100
AcDbLine
 10
51516.86097715
 20
-10915.04522074
 30
0.0
 11
51516.86097715
 21
-10918.04522074
 31
0.0
  0
LINE
  5
90F
100
AcDbEntity
  8
Ech.1_5
 62
     7
  6
CONTINUOUS
100
AcDbLine
 10
51516.86097715
 20
-10918.04522074
 30
0.0
 11
51492.86097715
 21
-10918.04522074
 31
0.0
  0
LINE
  5
910
100
AcDbEntity
  8
Ech.1_5
 62
     7
  6
CONTINUOUS
100
AcDbLine
 10
51492.86097715
 20
-10918.04522074
 30
0.0
 11
51492.86097715
 21
-10915.04522074
 31
0.0
  0
LWPOLYLINE
  5
911
100
AcDbEntity
  8
Ech.1_5
 62
     7
  6
CONTINUOUS
100
AcDbPolyline
 90
       99
 70
     0
 43
0.0
 10
51491.63417325
 20
-10929.26936837
 10
51492.86097715
 20
-10925.89875235
 10
51492.86097715
 20
-10920.94522074
 10
51492.56097715
 20
-10920.64522074
 10
51492.56097715
 20
-10919.94522074
 42
-0.95548796
 10
51493.35932083
 20
-10919.90885711
 42
0.38779458
 10
51493.50869971
 20
-10920.04522074
 10
51496.74386069
 20
-10920.04522074
 42
0.34415073
 10
51496.88938207
 20
-10919.93160109
 10
51497.03257224
 20
-10919.3588404
 42
-0.34415073
 10
51497.17809362
 20
-10919.24522074
 10
51512.54386069
 20
-10919.24522074
 42
-0.34415073
 10
51512.68938207
 20
-10919.3588404
 10
51512.83257224
 20
-10919.93160109
 42
0.34415073
 10
51512.97809362
 20
-10920.04522074
 10
51516.2132546
 20
-10920.04522074
 42
0.38779458
 10
51516.36263348
 20
-10919.90885711
 42
-0.95548796
 10
51517.16097715
 20
-10919.94522074
 10
51517.16097715
 20
-10920.64522074
 10
51516.86097715
 20
-10920.94522074
 10
51516.86097715
 20
-10925.89875235
 10
51518.07853129
 20
-10929.24395484
 42
-1.10738051
 10
51517.82980394
 20
-10929.33448419
 10
51517.50127065
 20
-10928.03289456
 42
0.93251509
 10
51516.86277729
 20
-10928.14590058
 10
51517.18962111
 20
-10930.56690289
 42
-0.18531675
 10
51517.03494196
 20
-10931.22078882
 42
0.15081813
 10
51516.86097715
 20
-10931.78440736
 10
51516.86097715
 20
-10932.07566907
 10
51516.86097715
 20
-10933.07566907
 42
0.30843151
 10
51517.11820133
 20
-10933.43128185
 42
0.26795044
 10
51522.38483282
 20
-10931.18972189
 42
0.52171267
 10
51522.34282118
 20
-10930.94727969
 42
-0.15565301
 10
51521.51176366
 20
-10929.84485615
 10
51519.85436325
 20
-10930.04522074
 42
-0.31529879
 10
51519.66642473
 20
-10929.91362477
 10
51518.69267609
 20
-10927.23827236
 42
-0.87140053
 10
51518.78025249
 20
-10927.19197704
 10
51519.29701283
 20
-10927.91048046
 42
1.00812133
 10
51519.81724403
 20
-10927.6012906
 10
51518.34002004
 20
-10925.2964913
 42
-0.14346618
 10
51518.26097715
 20
-10925.02668561
 10
51518.26097715
 20
-10923.44545002
 42
-0.72472287
 10
51518.44159768
 20
-10923.38628642
 10
51519.09349916
 20
-10924.27461369
 42
0.94855512
 10
51519.80313534
 20
-10923.80894506
 10
51518.35916502
 20
-10921.85912574
 42
-0.16072186
 10
51518.26097715
 20
-10921.56155725
 10
51518.26097715
 20
-10920.00372033
 42
0.08748866
 10
51518.24891568
 20
-10919.9353163
 10
51517.59689992
 20
-10918.14391772
 42
0.31529879
 10
51517.45594602
 20
-10918.04522074
 10
51516.07809362
 20
-10918.04522074
 42
0.34415073
 10
51515.93257224
 20
-10918.1588404
 10
51515.78938207
 20
-10918.73160109
 42
-0.34415073
 10
51515.64386069
 20
-10918.84522074
 10
51513.87809362
 20
-10918.84522074
 42
-0.34415073
 10
51513.73257224
 20
-10918.73160109
 10
51513.58938207
 20
-10918.1588404
 42
0.34415073
 10
51513.44386069
 20
-10918.04522074
 10
51496.27809362
 20
-10918.04522074
 42
0.34415073
 10
51496.13257224
 20
-10918.1588404
 10
51495.98938207
 20
-10918.73160109
 42
-0.34415073
 10
51495.84386069
 20
-10918.84522074
 10
51494.07809362
 20
-10918.84522074
 42
-0.34415073
 10
51493.93257224
 20
-10918.73160109
 10
51493.78938207
 20
-10918.1588404
 42
0.34415073
 10
51493.64386069
 20
-10918.04522074
 10
51492.26600828
 20
-10918.04522074
 42
0.31529879
 10
51492.12505439
 20
-10918.14391772
 10
51491.47303863
 20
-10919.9353163
 42
0.08748866
 10
51491.46097715
 20
-10920.00372033
 10
51491.46097715
 20
-10921.56155725
 42
-0.16072186
 10
51491.36278929
 20
-10921.85912574
 10
51489.91881897
 20
-10923.80894506
 42
0.94855512
 10
51490.62845515
 20
-10924.27461369
 10
51491.28035663
 20
-10923.38628642
 42
-0.72472287
 10
51491.46097715
 20
-10923.44545002
 10
51491.46097715
 20
-10925.02668561
 42
-0.14346618
 10
51491.38193427
 20
-10925.2964913
 10
51489.90471027
 20
-10927.6012906
 42
1.00812133
 10
51490.42494148
 20
-10927.91048046
 10
51490.94170182
 20
-10927.19197704
 42
-0.87140053
 10
51491.02927822
 20
-10927.23827236
 10
51490.05552958
 20
-10929.91362477
 42
-0.31529879
 10
51489.86759106
 20
-10930.04522074
 10
51488.21015033
 20
-10929.84485615
 42
-0.15565608
 10
51487.37911386
 20
-10930.94726141
 42
0.52171267
 10
51487.33710222
 20
-10931.18970361
 42
0.26794928
 10
51492.60375298
 20
-10933.43128185
 42
0.30843151
 10
51492.86097715
 20
-10933.07566907
 10
51492.86097715
 20
-10932.07566907
 10
51492.86097715
 20
-10931.78440736
 42
0.15081813
 10
51492.68701235
 20
-10931.22078882
 42
-0.18531675
 10
51492.5323332
 20
-10930.56690289
 10
51492.85917702
 20
-10928.14590058
 42
0.93251509
 10
51492.22068366
 20
-10928.03289456
 10
51491.89215037
 20
-10929.33448419
 42
-1.10738051
 10
51491.64342302
 20
-10929.24395484
  0
ARC
  5
912
100
AcDbEntity
  8
Ech.1_5
 62
     7
  6
CONTINUOUS
100
AcDbCircle
 10
51513.1429817
 20
-10864.92217405
 30
0.0
 40
1.0
100
AcDbArc
 50
270.0
 51
0.00112178
  0
LINE
  5
913
100
AcDbEntity
  8
Ech.1_5
 62
     7
  6
CONTINUOUS
100
AcDbLine
 10
51513.1429817
 20
-10865.92217405
 30
0.0
 11
51493.63077866
 21
-10865.92217405
 31
0.0
  0
ARC
  5
914
100
AcDbEntity
  8
Ech.1_5
 62
     7
  6
CONTINUOUS
100
AcDbCircle
 10
51493.63077866
 20
-10864.92217405
 30
0.0
 40
1.0
100
AcDbArc
 50
195.0
 51
270.0
  0
LINE
  5
915
100
AcDbEntity
  8
Ech.1_5
 62
     7
  6
CONTINUOUS
100
AcDbLine
 10
51492.66485283
 20
-10865.1809931
 30
0.0
 11
51491.02855524
 21
-10859.07424734
 31
0.0
  0
ARC
  5
916
100
AcDbEntity
  8
Ech.1_5
 62
     7
  6
CONTINUOUS
100
AcDbCircle
 10
51489.09670359
 20
-10859.59188543
 30
0.0
 40
2.0
100
AcDbArc
 50
15.0
 51
79.99978325
  0
LINE
  5
917
100
AcDbEntity
  8
Ech.1_5
 62
     7
  6
CONTINUOUS
100
AcDbLine
 10
51489.44400739
 20
-10857.62227124
 30
0.0
 11
51480.27587514
 21
-10856.0056464
 31
0.0
  0
ARC
  5
918
100
AcDbEntity
  8
Ech.1_5
 62
     7
  6
CONTINUOUS
100
AcDbCircle
 10
51479.58126753
 20
-10859.94487478
 30
0.0
 40
4.0
100
AcDbArc
 50
79.99978325
 51
170.0
  0
LINE
  5
919
100
AcDbEntity
  8
Ech.1_5
 62
     7
  6
CONTINUOUS
100
AcDbLine
 10
51475.64203652
 20
-10859.25028207
 30
0.0
 11
51474.67327567
 21
-10864.74439786
 31
0.0
  0
ARC
  5
91A
100
AcDbEntity
  8
Ech.1_5
 62
     7
  6
CONTINUOUS
100
AcDbCircle
 10
51476.64289117
 20
-10865.09169422
 30
0.0
 40
2.0
100
AcDbArc
 50
170.00000001
 51
179.9969203
  0
LINE
  5
91B
100
AcDbEntity
  8
Ech.1_5
 62
     7
  6
CONTINUOUS
100
AcDbLine
 10
51474.64289118
 20
-10865.09158672
 30
0.0
 11
51474.64193192
 21
-10882.93791176
 31
0.0
  0
ARC
  5
91C
100
AcDbEntity
  8
Ech.1_5
 62
     7
  6
CONTINUOUS
100
AcDbCircle
 10
51473.64193192
 20
-10882.93785801
 30
0.0
 40
1.0
100
AcDbArc
 50
265.0
 51
359.99692031
  0
LINE
  5
91D
100
AcDbEntity
  8
Ech.1_5
 62
     7
  6
CONTINUOUS
100
AcDbLine
 10
51473.55474025
 20
-10883.93405271
 30
0.0
 11
51458.46812447
 21
-10882.61414486
 31
0.0
  0
ARC
  5
91E
100
AcDbEntity
  8
Ech.1_5
 62
     7
  6
CONTINUOUS
100
AcDbCircle
 10
51458.64243596
 20
-10880.62175546
 30
0.0
 40
2.0
100
AcDbArc
 50
179.59171041
 51
265.0
  0
LWPOLYLINE
  5
91F
100
AcDbEntity
  8
Ech.1_5
 62
     7
  6
CONTINUOUS
100
AcDbPolyline
 90
       42
 70
     0
 43
0.0
 10
51492.86128884
 20
-10915.04550553
 42
0.41421335
 10
51489.861291
 20
-10918.04550553
 10
51489.861291
 20
-10928.11390543
 42
-0.36369756
 10
51488.21048434
 20
-10930.08318551
 42
0.29368695
 10
51487.81365976
 20
-10930.45050553
 42
-0.28963385
 10
51486.64522375
 20
-10931.5483878
 10
51484.70115577
 20
-10931.5483878
 42
-0.15679011
 10
51484.11841621
 20
-10931.36104677
 42
-0.24172474
 10
51479.111291
 20
-10921.60913916
 10
51479.111291
 20
-10921.10913916
 10
51477.111291
 20
-10921.10913916
 10
51476.111291
 20
-10920.10913916
 10
51476.11155695
 20
-10883.76265304
 10
51479.86155087
 20
-10881.59759304
 10
51479.86155087
 20
-10887.01372943
 10
51482.7615509
 20
-10887.01372943
 10
51482.7615509
 20
-10877.54770409
 42
-0.41421356
 10
51483.76155089
 20
-10876.54770409
 10
51486.10067505
 20
-10876.54770405
 10
51490.30069343
 20
-10882.54770437
 10
51494.5006751
 20
-10882.54770437
 10
51495.911291
 20
-10874.54770405
 10
51515.111291
 20
-10874.54769675
 10
51515.111291
 20
-10880.04769675
 10
51518.111291
 20
-10880.04769675
 10
51518.111291
 20
-10861.54769675
 42
-0.41421356
 10
51520.111291
 20
-10859.54769675
 10
51528.61129091
 20
-10859.54769675
 42
-0.41421359
 10
51533.61129091
 20
-10864.54769724
 10
51533.6112855
 20
-10920.10914466
 10
51532.611291
 20
-10921.10913916
 10
51530.611291
 20
-10921.10913916
 10
51530.611291
 20
-10921.60913916
 42
-0.24172474
 10
51525.6041658
 20
-10931.36104677
 42
-0.15679011
 10
51525.02142624
 20
-10931.5483878
 10
51523.07735826
 20
-10931.5483878
 42
-0.28963385
 10
51521.90892225
 20
-10930.45050553
 42
0.29368695
 10
51521.51209767
 20
-10930.08318551
 42
-0.36369756
 10
51519.861291
 20
-10928.11390543
 10
51519.861291
 20
-10918.04548823
 42
0.41421377
 10
51516.86128884
 20
-10915.04548823
 10
51492.86128884
 20
-10915.04550553
  0
LWPOLYLINE
  5
920
100
AcDbEntity
  8
Ech.1_5
 62
     7
  6
CONTINUOUS
100
AcDbPolyline
 90
        6
 70
     0
 43
0.0
 10
51481.56150885
 20
-10880.54911679
 10
51479.767273
 20
-10880.54909167
 42
-0.41421356
 10
51479.4672772
 20
-10880.24908747
 10
51479.46729823
 20
-10878.74765795
 42
-0.41421356
 10
51479.76730243
 20
-10878.44766215
 10
51481.56153828
 20
-10878.44768728
  0
LINE
  5
921
100
AcDbEntity
  8
Ech.1_5
 62
     7
  6
CONTINUOUS
100
AcDbLine
 10
51481.56144164
 20
-10885.34845225
 30
0.0
 11
51480.37185194
 21
-10884.22411294
 31
0.0
  0
LINE
  5
922
100
AcDbEntity
  8
Ech.1_5
 62
     7
  6
CONTINUOUS
100
AcDbLine
 10
51481.56147083
 20
-10883.2643467
 30
0.0
 11
51480.35523247
 21
-10882.27495155
 31
0.0
  0
LINE
  5
923
100
AcDbEntity
  8
Ech.1_5
 62
     7
  6
CONTINUOUS
100
AcDbLine
 10
51481.56145214
 20
-10884.59887191
 30
0.0
 11
51479.93710955
 21
-10882.70203798
 31
0.0
  0
LWPOLYLINE
  5
924
100
AcDbEntity
  8
Ech.1_5
 62
     7
  6
CONTINUOUS
100
AcDbPolyline
 90
       19
 70
     0
 43
0.0
 10
51482.7615509
 20
-10877.54770409
 10
51476.45054801
 20
-10877.54761571
 42
0.34411134
 10
51475.77146476
 20
-10878.0777356
 10
51474.61855639
 20
-10882.68633561
 42
0.17632698
 10
51474.66312984
 20
-10882.92156384
 42
0.41421356
 10
51475.14283162
 20
-10883.04357286
 42
0.16609805
 10
51475.28952438
 20
-10882.8712642
 10
51475.71908719
 20
-10882.11659023
 42
-0.03740887
 10
51476.92091678
 20
-10880.50957994
 42
-0.52260001
 10
51477.66335956
 20
-10880.60854931
 42
-0.14054842
 10
51477.69270135
 20
-10880.94259011
 10
51477.04155519
 20
-10881.74381039
 42
0.16848628
 10
51476.93296653
 20
-10881.98845227
 10
51476.76690909
 20
-10882.96324435
 42
0.04674082
 10
51476.7616417
 20
-10883.11227224
 42
0.55814417
 10
51476.91147185
 20
-10883.1930704
 10
51479.76149497
 20
-10881.547662
 42
-0.1316525
 10
51480.26149685
 20
-10881.41369441
 10
51481.56149675
 20
-10881.41371261
  0
LWPOLYLINE
  5
925
100
AcDbEntity
  8
Ech.1_5
 62
     7
  6
CONTINUOUS
100
AcDbPolyline
 90
       23
 70
     0
 43
0.0
 10
51475.63647245
 20
-10881.12676647
 10
51476.31067342
 20
-10878.43173652
 42
0.18145137
 10
51476.2414381
 20
-10878.2737857
 42
-1.27267075
 10
51476.51994283
 20
-10878.14761668
 10
51478.41079726
 20
-10878.42471043
 42
-0.37221348
 10
51478.66729859
 20
-10878.72154432
 10
51478.66726391
 20
-10881.19790864
 42
-0.26794919
 10
51478.51726028
 20
-10881.45771416
 10
51477.52085933
 20
-10882.03296792
 42
0.26794919
 10
51477.4208569
 20
-10882.2061716
 42
-1.97124746
 10
51477.28408293
 20
-10882.04554869
 10
51478.05660723
 20
-10881.13170478
 42
0.16876399
 10
51478.03868663
 20
-10880.47017441
 42
0.38568556
 10
51477.91914223
 20
-10880.40897928
 42
-0.58420509
 10
51477.67497485
 20
-10880.16039469
 42
0.36875524
 10
51477.62137127
 20
-10880.04212997
 42
0.14609734
 10
51477.13688598
 20
-10879.96963492
 42
0.36968256
 10
51477.05100796
 20
-10880.06735567
 42
-0.5863835
 10
51476.74152588
 20
-10880.23535079
 42
0.36968256
 10
51476.61279409
 20
-10880.25412597
 42
0.0588644
 10
51475.75049736
 20
-10881.47044064
 42
-1.5024158
 10
51475.41009135
 20
-10881.32801117
 42
0.17735748
 10
51475.63647245
 20
-10881.12676647
  0
LINE
  5
926
100
AcDbEntity
  8
Ech.1_5
 62
     7
  6
CONTINUOUS
100
AcDbLine
 10
51482.7615509
 20
-10877.54770409
 30
0.0
 11
51482.76153829
 21
-10878.44770409
 31
0.0
  0
LINE
  5
927
100
AcDbEntity
  8
Ech.1_5
 62
     7
  6
CONTINUOUS
100
AcDbLine
 10
51481.56153828
 20
-10878.44768728
 30
0.0
 11
51481.56150885
 21
-10880.54911679
 31
0.0
  0
LINE
  5
928
100
AcDbEntity
  8
Ech.1_5
 62
     7
  6
CONTINUOUS
100
AcDbLine
 10
51482.76149685
 20
-10881.40528138
 30
0.0
 11
51482.76148985
 21
-10881.90528138
 31
0.0
  0
LINE
  5
929
100
AcDbEntity
  8
Ech.1_5
 62
     7
  6
CONTINUOUS
100
AcDbLine
 10
51481.56153828
 20
-10878.44768728
 30
0.0
 11
51482.76153829
 21
-10878.44770409
 31
0.0
  0
LINE
  5
92A
100
AcDbEntity
  8
Ech.1_5
 62
     7
  6
CONTINUOUS
100
AcDbLine
 10
51482.76153829
 20
-10878.44770409
 30
0.0
 11
51482.76149685
 21
-10881.40528138
 31
0.0
  0
LINE
  5
92B
100
AcDbEntity
  8
Ech.1_5
 62
     7
  6
CONTINUOUS
100
AcDbLine
 10
51481.56145254
 20
-10884.57047229
 30
0.0
 11
51481.56145214
 21
-10884.59887191
 31
0.0
  0
LINE
  5
92C
100
AcDbEntity
  8
Ech.1_5
 62
     7
  6
CONTINUOUS
100
AcDbLine
 10
51481.56144164
 20
-10885.34845225
 30
0.0
 11
51481.56142909
 21
-10886.24484457
 31
0.0
  0
LINE
  5
92D
100
AcDbEntity
  8
Ech.1_5
 62
     7
  6
CONTINUOUS
100
AcDbLine
 10
51481.56147083
 20
-10883.2643467
 30
0.0
 11
51481.56145254
 21
-10884.57047229
 31
0.0
  0
ARC
  5
92E
100
AcDbEntity
  8
Ech.1_5
 62
     7
  6
CONTINUOUS
100
AcDbCircle
 10
51481.52939283
 20
-10885.24484412
 30
0.0
 40
1.0
100
AcDbArc
 50
239.99915113
 51
269.99919763
  0
ARC
  5
92F
100
AcDbEntity
  8
Ech.1_5
 62
     7
  6
CONTINUOUS
100
AcDbCircle
 10
51481.96144039
 20
-10885.44485017
 30
0.0
 40
0.8
100
AcDbArc
 50
269.99919763
 51
359.99234457
  0
LINE
  5
930
100
AcDbEntity
  8
Ech.1_5
 62
     7
  6
CONTINUOUS
100
AcDbLine
 10
51481.52937882
 20
-10886.24484412
 30
0.0
 11
51481.96142919
 21
-10886.24485017
 31
0.0
  0
LINE
  5
931
100
AcDbEntity
  8
Ech.1_5
 62
     7
  6
CONTINUOUS
100
AcDbLine
 10
51482.76144038
 20
-10885.44495706
 30
0.0
 11
51482.76144317
 21
-10885.24614687
 31
0.0
  0
LINE
  5
932
100
AcDbEntity
  8
Ech.1_5
 62
     7
  6
CONTINUOUS
100
AcDbLine
 10
51482.76144317
 20
-10885.24614687
 30
0.0
 11
51482.76144512
 21
-10885.10639915
 31
0.0
  0
LINE
  5
933
100
AcDbEntity
  8
Ech.1_5
 62
     7
  6
CONTINUOUS
100
AcDbLine
 10
51481.56145214
 20
-10884.59887191
 30
0.0
 11
51481.56144174
 21
-10885.34125509
 31
0.0
  0
LINE
  5
934
100
AcDbEntity
  8
Ech.1_5
 62
     7
  6
CONTINUOUS
100
AcDbLine
 10
51481.56150885
 20
-10880.54911679
 30
0.0
 11
51481.56149675
 21
-10883.26431511
 31
0.0
  0
LINE
  5
935
100
AcDbEntity
  8
Ech.1_5
 62
     7
  6
CONTINUOUS
100
AcDbLine
 10
51482.76144512
 20
-10885.10639915
 30
0.0
 11
51482.76148985
 21
-10881.90528138
 31
0.0
  0
ARC
  5
936
100
AcDbEntity
  8
Ech.1_5
 62
     7
  6
CONTINUOUS
100
AcDbCircle
 10
51480.16578372
 20
-10884.44214021
 30
0.0
 40
0.3
100
AcDbArc
 50
46.6152535
 51
216.54985202
  0
ARC
  5
937
100
AcDbEntity
  8
Ech.1_5
 62
     7
  6
CONTINUOUS
100
AcDbCircle
 10
51480.16497644
 20
-10882.50690551
 30
0.0
 40
0.3
100
AcDbArc
 50
50.64030409
 51
220.57490262
  0
LINE
  5
938
100
AcDbEntity
  8
Ech.1_5
 62
     7
  6
CONTINUOUS
100
AcDbLine
 10
51481.02938
 20
-10886.11086212
 30
0.0
 11
51479.92478202
 21
-10884.62079681
 31
0.0
  0
LINE
  5
939
100
AcDbEntity
  8
Ech.1_5
 62
     7
  6
CONTINUOUS
370
    15
100
AcDbLine
 10
51517.21076952
 20
-10860.40982236
 30
0.0
 11
51518.11107432
 21
-10860.43450663
 31
0.0
  0
LWPOLYLINE
  5
93A
100
AcDbEntity
  8
Ech.1_5
 62
     7
  6
CONTINUOUS
100
AcDbPolyline
 90
       47
 70
     0
 43
0.0
 10
51518.11114029
 20
-10860.43210461
 10
51517.71114007
 20
-10874.99769692
 10
51517.96114058
 20
-10874.99769692
 42
-0.52681168
 10
51518.10106173
 20
-10875.20175296
 10
51517.71629681
 20
-10876.19769674
 10
51517.96114052
 20
-10876.19769674
 42
-0.52681163
 10
51518.10106174
 20
-10876.40175276
 10
51517.71629681
 20
-10877.39769703
 10
51517.96114034
 20
-10877.39769703
 42
-0.52681148
 10
51518.10106159
 20
-10877.60175298
 10
51517.77268001
 20
-10878.45175302
 42
-0.30991942
 10
51517.63275881
 20
-10878.54769694
 10
51516.99179846
 20
-10878.54769694
 42
-0.19738267
 10
51516.81606562
 20
-10878.47551137
 42
-0.0024604
 10
51515.38530504
 20
-10877.04751476
 42
-0.09974433
 10
51515.11114029
 20
-10875.57774748
 42
-0.95831856
 10
51515.77031515
 20
-10875.56043084
 42
0.07148022
 10
51515.96492583
 20
-10876.51331776
 42
-0.01635879
 10
51516.56326975
 20
-10877.13024511
 42
0.68567924
 10
51516.9111405
 20
-10876.99584022
 10
51516.91114028
 20
-10875.24769667
 42
0.41421353
 10
51516.21114028
 20
-10874.54769675
 10
51514.18666687
 20
-10874.54769675
 42
-1.00055426
 10
51514.18666687
 20
-10873.59769744
 10
51516.07082091
 20
-10873.59769744
 42
0.40620768
 10
51516.87052039
 20
-10872.81962346
 10
51517.21199733
 20
-10860.36504082
 42
0.3398043
 10
51516.99730761
 20
-10860.06917058
 10
51515.10603719
 20
-10859.65709442
 42
0.78024864
 10
51514.91769228
 20
-10860.05126006
 42
-0.33183283
 10
51516.13781264
 20
-10861.85256752
 42
-0.19863002
 10
51515.68158651
 20
-10862.83654877
 42
0.12687529
 10
51514.8188634
 20
-10864.67928828
 42
0.05691082
 10
51514.81114029
 20
-10864.74692126
 10
51514.81114029
 20
-10866.79726471
 42
-1.00076012
 10
51514.11114029
 20
-10866.79769694
 10
51514.11114029
 20
-10864.81193642
 42
-0.18586263
 10
51515.21668641
 20
-10862.31322487
 42
0.22946848
 10
51515.41719847
 20
-10861.82999806
 42
0.22235481
 10
51515.11244175
 20
-10860.975728
 42
0.05887459
 10
51514.1436795
 20
-10860.47503456
 42
-0.11154972
 10
51514.1194008
 20
-10860.36756412
 10
51514.11114029
 20
-10858.79769694
 42
-0.59245366
 10
51514.49575617
 20
-10858.58703474
 42
0.12265873
 10
51517.99076899
 20
-10859.4892704
 42
-0.35710574
 10
51518.11114029
 20
-10859.63631508
 10
51518.11114029
 20
-10860.43210461
  0
LINE
  5
93B
100
AcDbEntity
  8
Ech.1_5
 62
     7
  6
CONTINUOUS
370
    15
100
AcDbLine
 10
51515.38530491
 20
-10877.04751449
 30
0.0
 11
51515.96492594
 21
-10876.51331819
 31
0.0
  0
LWPOLYLINE
  5
93C
100
AcDbEntity
  8
Ech.1_5
 62
     7
  6
CONTINUOUS
370
    15
100
AcDbPolyline
 90
        7
 70
     0
 43
0.0
 10
51517.11955562
 20
-10863.73663859
 42
0.23258596
 10
51515.93279706
 20
-10865.05167511
 42
0.04374928
 10
51516.00764763
 20
-10867.1279158
 42
-1.08702271
 10
51514.81114029
 20
-10867.23259737
 10
51514.81114029
 20
-10864.74692126
 42
-0.0555506
 10
51515.02776238
 20
-10863.94944866
 42
-0.25732504
 10
51517.14857082
 20
-10862.67837603
  0
LINE
  5
93D
100
AcDbEntity
  8
Ech.1_5
 62
     7
  6
CONTINUOUS
100
AcDbLine
 10
51492.86097715
 20
-10920.04522074
 30
0.0
 11
51492.86097715
 21
-11042.6981746
 31
0.0
  0
LINE
  5
93E
100
AcDbEntity
  8
Ech.1_5
 62
     7
  6
CONTINUOUS
100
AcDbLine
 10
51496.86097715
 20
-10920.04522074
 30
0.0
 11
51496.86097715
 21
-11042.60789286
 31
0.0
  0
LINE
  5
93F
100
AcDbEntity
  8
Ech.1_5
 62
     7
  6
CONTINUOUS
100
AcDbLine
 10
51512.86097715
 20
-10920.04522074
 30
0.0
 11
51512.86097715
 21
-11042.6981746
 31
0.0
  0
LINE
  5
940
100
AcDbEntity
  8
Ech.1_5
 62
     7
  6
CONTINUOUS
100
AcDbLine
 10
51516.86097715
 20
-10920.04522074
 30
0.0
 11
51516.86097715
 21
-11042.6981746
 31
0.0
  0
LINE
  5
941
100
AcDbEntity
  8
Ech.1_5
 62
     7
  6
CENTER
370
    18
100
AcDbLine
 10
51538.58136552
 20
-11042.6981746
 30
0.0
 11
50927.87275232
 21
-11042.6981746
 31
0.0
  0
LWPOLYLINE
  5
942
102
{ACAD_REACTORS
330
943
102
}
100
AcDbEntity
  8
Ech.1_5
 62
     7
  6
CONTINUOUS
370
     5
100
AcDbPolyline
 90
        4
 70
     1
 43
0.0
 10
50801.91107869
 20
-10490.84117658
 10
50801.91107869
 20
-10480.84117658
 10
50748.91107869
 20
-10480.84117658
 10
50748.91107869
 20
-10490.84117658
  0
HATCH
  5
943
100
AcDbEntity
  8
Ech.1_5
 62
     2
  6
CONTINUOUS
100
AcDbHatch
 10
0.0
 20
0.0
 30
0.0
210
0.0
220
0.0
230
1.0
  2
SOLID
 70
     1
 71
     1
 91
        1
 92
        7
 72
     0
 73
     1
 93
        4
 10
50801.91107869
 20
-10490.84117658
 10
50801.91107869
 20
-10480.84117658
 10
50748.91107869
 20
-10480.84117658
 10
50748.91107869
 20
-10490.84117658
 97
        1
330
942
 75
     0
 76
     2
 47
0.775229
 98
        1
 10
0.0
 20
0.0
  0
LWPOLYLINE
  5
944
100
AcDbEntity
  8
Ech.1_5
 62
   190
  6
CONTINUOUS
370
    -3
100
AcDbPolyline
 90
        4
 70
     0
 43
0.0
 10
50801.91107869
 20
-10490.84206015
 10
50748.91107869
 20
-10480.840293
 10
50748.91107869
 20
-10490.84117658
 10
50801.91107869
 20
-10480.84117658
  0
LWPOLYLINE
  5
945
102
{ACAD_REACTORS
330
946
102
}
100
AcDbEntity
  8
Ech.1_5
 62
     9
  6
CONTINUOUS
370
     5
100
AcDbPolyline
 90
        4
 70
     1
 43
0.0
 10
50786.19137915
 20
-10456.85243551
 10
50779.40238796
 20
-10456.85243551
 10
50779.40238796
 20
-10466.28509558
 10
50786.19137915
 20
-10466.28509558
  0
HATCH
  5
946
100
AcDbEntity
  8
Ech.1_5
 62
     2
  6
CONTINUOUS
100
AcDbHatch
 10
0.0
 20
0.0
 30
0.0
210
0.0
220
0.0
230
1.0
  2
SOLID
 70
     1
 71
     1
 91
        1
 92
        7
 72
     0
 73
     1
 93
        4
 10
50786.19137915
 20
-10456.85243551
 10
50779.40238796
 20
-10456.85243551
 10
50779.40238796
 20
-10466.28509558
 10
50786.19137915
 20
-10466.28509558
 97
        1
330
945
 75
     0
 76
     2
 47
0.775229
 98
        1
 10
0.0
 20
0.0
  0
HATCH
  5
947
100
AcDbEntity
  8
Ech.1_5
 62
     9
  6
CONTINUOUS
100
AcDbHatch
 10
0.0
 20
0.0
 30
0.0
210
0.0
220
0.0
230
1.0
  2
ANSI31
 70
     0
 71
     1
 91
        1
 92
        7
 72
     0
 73
     1
 93
        4
 10
50786.19137915
 20
-10456.85243551
 10
50779.40238796
 20
-10456.85243551
 10
50779.40238796
 20
-10466.28509558
 10
50786.19137915
 20
-10466.28509558
 97
        1
330
946
 75
     0
 76
     2
 52
0.0
 41
0.94488785
 77
     0
 78
     1
 53
45.0
 43
0.0
 44
0.0
 45
2.12132043
 46
-2.12132043
 79
     0
 47
0.775229
 98
        1
 10
0.0
 20
0.0
  0
LINE
  5
948
100
AcDbEntity
  8
Ech.1_5
 62
   150
  6
CADWORK_22
370
    35
100
AcDbLine
 10
50802.65244512
 20
-10586.07455222
 30
2500.0
 11
50724.62772329
 21
-10586.07455222
 31
2500.0
  0
LINE
  5
949
100
AcDbEntity
  8
Ech.1_5
 62
     1
  6
CADWORK_22
 48
-5.0
370
    35
100
AcDbLine
 10
50801.91107869
 20
-10512.78323547
 30
0.0
 11
50724.62772329
 21
-10512.78323547
 31
0.0
  0
LWPOLYLINE
  5
94A
100
AcDbEntity
  8
Ech.1_5
 62
     3
370
    70
100
AcDbPolyline
 90
        4
 70
     0
 43
0.0
 10
50802.75878797
 20
-10616.70337241
 10
50789.76965455
 20
-10616.70337241
 10
50785.83492241
 20
-10611.02275943
 10
50772.35649241
 20
-10611.02275943
  0
LINE
  5
94B
100
AcDbEntity
  8
Ech.1_5
 62
   106
  6
CADWORK_22
370
    35
100
AcDbLine
 10
50803.41948349
 20
-10536.1781842
 30
0.0
 11
50724.62772329
 21
-10536.1781842
 31
0.0
  0
LWPOLYLINE
  5
94C
100
AcDbEntity
  8
Ech.1_5
 62
   190
  6
CONTINUOUS
370
    -3
100
AcDbPolyline
 90
        6
 70
     0
 43
0.0
 10
50947.11941077
 20
-11484.30662494
 10
51122.11941077
 20
-11484.30662494
 10
51138.60491393
 20
-11466.32927654
 10
51124.49497391
 20
-11502.28497655
 10
51140.98132799
 20
-11484.30662494
 10
51547.83525102
 20
-11484.30721129
  0
LWPOLYLINE
  5
94D
100
AcDbEntity
  8
Ech.1_5
 62
   190
  6
CONTINUOUS
370
    -3
100
AcDbPolyline
 90
        6
 70
     0
 43
0.0
 10
50946.76520088
 20
-10496.2578401
 10
51079.76520088
 20
-10496.2578401
 10
51096.25070404
 20
-10478.28049169
 10
51082.14076402
 20
-10514.2361917
 10
51098.6271181
 20
-10496.2578401
 10
51548.48104114
 20
-10496.2578401
  0
TEXT
  5
94E
100
AcDbEntity
  8
Ech.1_5
 62
   190
100
AcDbText
 10
51578.66238432
 20
-11413.651128
 30
0.0
 40
8.00000012
  1
Echelle en mm
  7
ARIAL
 50
0.0
 41
1.0
 51
0.0
100
AcDbText
  0
TEXT
  5
94F
100
AcDbEntity
  8
Ech.1_5
 62
   190
100
AcDbText
 10
51564.68179957
 20
-11441.86096353
 30
0.0
 40
8.00000012
  1
0
  7
ARIAL
 50
0.0
 41
1.0
 51
0.0
100
AcDbText
  0
TEXT
  5
950
100
AcDbEntity
  8
Ech.1_5
 62
   190
100
AcDbText
 10
51651.27885746
 20
-11441.86096353
 30
0.0
 40
8.00000012
  1
100
  7
ARIAL
 50
0.0
 41
1.0
 51
0.0
100
AcDbText
  0
TEXT
  5
951
100
AcDbEntity
  8
Ech.1_5
 62
   190
100
AcDbText
 10
51612.5384259
 20
-11441.86096353
 30
0.0
 40
8.00000012
  1
50
  7
ARIAL
 50
0.0
 41
1.0
 51
0.0
100
AcDbText
  0
INSERT
  5
952
100
AcDbEntity
  8
Ech.1_5
 62
     0
370
    -3
100
AcDbBlockReference
  2
*D63
 10
0.0
 20
0.0
 30
0.0
  0
INSERT
  5
953
100
AcDbEntity
  8
Ech.1_5
 62
     0
370
    -3
100
AcDbBlockReference
  2
*D64
 10
0.0
 20
0.0
 30
0.0
  0
ENDSEC
  0
SECTION
  2
OBJECTS
  0
DICTIONARY
  5
1
100
AcDbDictionary
  3
ACAD_GROUP
350
2
  3
ACAD_MLINESTYLE
350
3
  0
DICTIONARY
  5
2
102
{CDWK_REACTORS
330
1
102
}
100
AcDbDictionary
  0
DICTIONARY
  5
3
102
{CDWK_REACTORS
330
1
102
}
100
AcDbDictionary
  3
STANDARD
350
4
  0
MLINESTYLE
  5
4
102
{CDWK_REACTORS
330
3
102
}
100
AcDbMlineStyle
  2
STANDARD
 70
     0
  3

 62
     0
 51
90.0
 52
90.0
 71
     2
 49
0.5
 62
   256
  6
BYLAYER
 49
-0.5
 62
   256
  6
BYLAYER
  0
ENDSEC
  0
EOF
