  0
SECTION
  2
HEADER
  9
$ACADVER
  1
AC1014
  9
$DWGCODEPAGE
  3
ANSI_1252
  9
$INSBASE
 10
0.0
 20
0.0
 30
0.0
  9
$EXTMIN
 10
1033.98771282
 20
-21718.34332712
  9
$EXTMAX
 10
122326.07664696
 20
2240.3362527
  9
$LIMMIN
 10
1033.98771282
 20
-21718.34332712
  9
$LIMMAX
 10
122326.07664696
 20
2240.3362527
  9
$ORTHOMODE
 70
     0
  9
$REGENMODE
 70
     1
  9
$FILLMODE
 70
     1
  9
$QTEXTMODE
 70
     0
  9
$MIRRTEXT
 70
     1
  9
$DRAGMODE
 70
     2
  9
$LTSCALE
 40
5.0
  9
$OSMODE
 70
     0
  9
$ATTMODE
 70
     1
  9
$TEXTSIZE
 40
3.5
  9
$TRACEWID
 40
1.0
  9
$TEXTSTYLE
  7
STANDARD
  9
$CLAYER
  8
0
  9
$CELTYPE
  6
BYLAYER
  9
$CECOLOR
 62
   256
  9
$DIMSCALE
 40
1.0
  9
$DIMASZ
 40
2.0
  9
$DIMEXO
 40
5.0
  9
$DIMDLI
 40
10.0
  9
$DIMRND
 40
0.0
  9
$DIMDLE
 40
2.0
  9
$DIMEXE
 40
2.0
  9
$DIMTP
 40
0.0
  9
$DIMTM
 40
0.0
  9
$DIMTXT
 40
2.5
  9
$DIMCEN
 40
1.5
  9
$DIMTSZ
 40
0.0
  9
$DIMTOL
 70
     0
  9
$DIMLIM
 70
     0
  9
$DIMTIH
 70
     1
  9
$DIMTOH
 70
     0
  9
$DIMSE1
 70
     0
  9
$DIMSE2
 70
     0
  9
$DIMTAD
 70
     1
  9
$DIMZIN
 70
     8
  9
$DIMBLK
  1

  9
$DIMASO
 70
     1
  9
$DIMSHO
 70
     1
  9
$DIMPOST
  1

  9
$DIMAPOST
  1

  9
$DIMALT
 70
     0
  9
$DIMALTD
 70
     2
  9
$DIMALTF
 40
25.4
  9
$DIMLFAC
 40
1.0
  9
$DIMTOFL
 70
     0
  9
$DIMTVP
 40
0.0
  9
$DIMTIX
 70
     0
  9
$DIMSOXD
 70
     0
  9
$DIMSAH
 70
     0
  9
$DIMBLK1
  1

  9
$DIMBLK2
  1

  9
$DIMSTYLE
  2
*UNNAMED
  9
$DIMCLRD
 70
   190
  9
$DIMCLRE
 70
   190
  9
$DIMCLRT
 70
   190
  9
$DIMTFAC
 40
1.0
  9
$DIMGAP
 40
0.09
  9
$DIMUNIT
 70
     2
  9
$LUNITS
 70
     2
  9
$LUPREC
 70
     6
  9
$AXISMODE
 70
     0
  9
$AXISUNIT
 10
0.0
 20
0.0
  9
$SKETCHINC
 40
0.1
  9
$FILLETRAD
 40
0.0
  9
$AUNITS
 70
     0
  9
$AUPREC
 70
     0
  9
$MENU
  1
ACAD
  9
$ELEVATION
 40
0.0
  9
$PELEVATION
 40
0.0
  9
$THICKNESS
 40
0.0
  9
$LIMCHECK
 70
     0
  9
$BLIPMODE
 70
     1
  9
$CHAMFERA
 40
0.0
  9
$CHAMFERB
 40
0.0
  9
$SKPOLY
 70
     1
  9
$TDCREATE
 40
2457808.0000000000
  9
$TDUPDATE
 40
2457808.0000000000
  9
$TDINDWG
 40
0.0
  9
$TDUSRTIMER
 40
0.0
  9
$USRTIMER
 70
     1
  9
$ANGBASE
 50
0.0
  9
$ANGDIR
 70
     0
  9
$PDMODE
 70
     0
  9
$PDSIZE
 40
0.0
  9
$PLINEWID
 40
0.0
  9
$COORDS
 70
     2
  9
$SPLFRAME
 70
     0
  9
$SPLINETYPE
 70
     6
  9
$SPLINESEGS
 70
     8
  9
$ATTDIA
 70
     1
  9
$ATTREQ
 70
     1
  9
$HANDLING
 70
     1
  9
$HANDSEED
  5
     808
  9
$SURFTAB1
 70
     6
  9
$SURFTAB2
 70
     6
  9
$SURFTYPE
 70
     6
  9
$SURFU
 70
     6
  9
$SURFV
 70
     6
  9
$UCSNAME
  2

  9
$UCSORG
 10
0.0
 20
0.0
 30
0.0
  9
$UCSXDIR
 10
1.0
 20
0.0
 30
0.0
  9
$UCSYDIR
 10
0.0
 20
1.0
 30
0.0
  9
$PUCSNAME
  2

  9
$PUCSORG
 10
0.0
 20
0.0
 30
0.0
  9
$PUCSXDIR
 10
1.0
 20
0.0
 30
0.0
  9
$PUCSYDIR
 10
0.0
 20
1.0
 30
0.0
  9
$USERI1
 70
     0
  9
$USERI2
 70
     0
  9
$USERI3
 70
     0
  9
$USERI4
 70
     0
  9
$USERI5
 70
     0
  9
$USERR1
 40
0.0
  9
$USERR2
 40
0.0
  9
$USERR3
 40
0.0
  9
$USERR4
 40
0.0
  9
$USERR5
 40
0.0
  9
$WORLDVIEW
 70
     1
  9
$SHADEDGE
 70
     3
  9
$SHADEDIF
 70
    70
  9
$TILEMODE
 70
     1
  9
$MAXACTVP
 70
    16
  9
$PINSBASE
 10
0.0
 20
0.0
 30
0.0
  9
$PLIMCHECK
 70
     0
  9
$PEXTMIN
 10
1.0000000000000E+20
 20
1.0000000000000E+20
 30
1.0000000000000E+20
  9
$PEXTMAX
 10
-1.0000000000000E+20
 20
-1.0000000000000E+20
 30
-1.0000000000000E+20
  9
$PLIMMIN
 10
0.0
 20
0.0
  9
$UNITMODE
 70
     0
  9
$VISRETAIN
 70
     0
  9
$MEASUREMENT
 70
     1
  0
ENDSEC
  0
SECTION
  2
TABLES
  0
TABLE
  2
VPORT
  5
4A2
100
AcDbSymbolTable
 70
     1
  0
ENDTAB
  0
TABLE
  2
STYLE
  5
4A3
100
AcDbSymbolTable
 70
     3
  0
STYLE
  5
4A4
100
AcDbSymbolTableRecord
100
AcDbTextStyleTableRecord
  2
STANDARD
 70
     0
 40
0.0
 41
1.0
 50
0.0
 71
     0
 42
3.5
  3
MONOTXT
  4

  0
STYLE
  5
4A5
100
AcDbSymbolTableRecord
100
AcDbTextStyleTableRecord
  2
SYMAP
 70
     0
 40
0.0
 41
1.0
 50
0.0
 71
     0
 42
3.5
  3
SYMAP
  4

  0
STYLE
  5
4A6
100
AcDbSymbolTableRecord
100
AcDbTextStyleTableRecord
  2
CADWORK1
 70
     0
 40
0.0
 41
1.0
 50
0.0
 71
     0
 42
3.5
  3
MONOTXT
  4

  0
STYLE
  5
4A7
100
AcDbSymbolTableRecord
100
AcDbTextStyleTableRecord
  2
MONOTXT
 70
     0
 40
0.0
 41
1.0
 50
0.0
 71
     0
 42
3.5
  3
MONOTXT
  4

  0
STYLE
  5
4A8
100
AcDbSymbolTableRecord
100
AcDbTextStyleTableRecord
  2
ARIAL
 70
     0
 40
0.0
 41
1.0
 50
0.0
 71
     0
 42
3.5
  3

  4

1001
ACAD
1000
Arial
1071
        0
  0
ENDTAB
  0
TABLE
  2
LTYPE
  5
4A9
100
AcDbSymbolTable
 70
    15
  0
LTYPE
  5
4AA
100
AcDbSymbolTableRecord
100
AcDbLinetypeTableRecord
  2
BYBLOCK
 70
    64
  3

 72
    65
 73
     0
 40
0.0
  0
LTYPE
  5
4AB
100
AcDbSymbolTableRecord
100
AcDbLinetypeTableRecord
  2
BYLAYER
 70
    64
  3

 72
    65
 73
     0
 40
0.0
  0
LTYPE
  5
4AC
100
AcDbSymbolTableRecord
100
AcDbLinetypeTableRecord
  2
CONTINUOUS
 70
    64
  3
Solid line
 72
    65
 73
     0
 40
0.0
  0
LTYPE
  5
4AD
100
AcDbSymbolTableRecord
100
AcDbLinetypeTableRecord
  2
DOT2
 70
    64
  3
...............................................
 72
    65
 73
     2
 40
1.25
 49
0.0
 74
     0
 49
-1.25
 74
     0
  0
LTYPE
  5
4AE
100
AcDbSymbolTableRecord
100
AcDbLinetypeTableRecord
  2
CADWORK_13
 70
    64
  3
13 =======================================
 72
    65
 73
     2
 40
4.0
 49
2.0
 74
     0
 49
-2.0
 74
     0
  0
LTYPE
  5
4AF
100
AcDbSymbolTableRecord
100
AcDbLinetypeTableRecord
  2
DASHDOT
 70
    64
  3
 __ . __ . __ . __ . __ . __ . __ . __ . __ . __
 72
    65
 73
     4
 40
10.0
 49
5.0
 74
     0
 49
-2.5
 74
     0
 49
0.0
 74
     0
 49
-2.5
 74
     0
  0
LTYPE
  5
4B0
100
AcDbSymbolTableRecord
100
AcDbLinetypeTableRecord
  2
CENTER
 70
    64
  3
 ____ _ ____ _ ____ _ ____ _ ____ _ ____ _ ____
 72
    65
 73
     4
 40
20.0
 49
12.5
 74
     0
 49
-2.5
 74
     0
 49
2.5
 74
     0
 49
-2.5
 74
     0
  0
LTYPE
  5
4B1
100
AcDbSymbolTableRecord
100
AcDbLinetypeTableRecord
  2
DASHEDX2
 70
    64
  3
____  ____  ____  ____  ____  ____  ____  ____
 72
    65
 73
     2
 40
3.75
 49
2.5
 74
     0
 49
-1.25
 74
     0
  0
LTYPE
  5
4B2
100
AcDbSymbolTableRecord
100
AcDbLinetypeTableRecord
  2
CADWORK_22
 70
    64
  3
22 =======================================
 72
    65
 73
     0
 40
0.0
  0
LTYPE
  5
4B3
100
AcDbSymbolTableRecord
100
AcDbLinetypeTableRecord
  2
DAL
 70
    64
  3
Solid line (for MAPS)
 72
    65
 73
     0
 40
0.0
  0
LTYPE
  5
4B4
100
AcDbSymbolTableRecord
100
AcDbLinetypeTableRecord
  2
MUR
 70
    64
  3
Solid line (for MAPS)
 72
    65
 73
     0
 40
0.0
  0
LTYPE
  5
4B5
100
AcDbSymbolTableRecord
100
AcDbLinetypeTableRecord
  2
SOM
 70
    64
  3
Solid line (for MAPS)
 72
    65
 73
     0
 40
0.0
  0
LTYPE
  5
4B6
100
AcDbSymbolTableRecord
100
AcDbLinetypeTableRecord
  2
COL
 70
    64
  3
Solid line (for MAPS)
 72
    65
 73
     0
 40
0.0
  0
LTYPE
  5
4B7
100
AcDbSymbolTableRecord
100
AcDbLinetypeTableRecord
  2
LGN
 70
    64
  3
Solid line (for MAPS)
 72
    65
 73
     0
 40
0.0
  0
LTYPE
  5
4B8
100
AcDbSymbolTableRecord
100
AcDbLinetypeTableRecord
  2
PNT
 70
    64
  3
Solid line (for MAPS)
 72
    65
 73
     0
 40
0.0
  0
ENDTAB
  0
TABLE
  2
LAYER
  5
4B9
100
AcDbSymbolTable
 70
    32
  0
LAYER
  5
4BA
100
AcDbSymbolTableRecord
100
AcDbLayerTableRecord
  2
Standard
 70
     0
 62
     7
  6
CONTINUOUS
370
    -3
  0
LAYER
  5
4BB
100
AcDbSymbolTableRecord
100
AcDbLayerTableRecord
  2
Ech.1_1
 70
     0
 62
     7
  6
CONTINUOUS
370
    -3
  0
LAYER
  5
4BC
100
AcDbSymbolTableRecord
100
AcDbLayerTableRecord
  2
Ech.1_2
 70
     0
 62
     7
  6
CONTINUOUS
370
    -3
  0
LAYER
  5
4BD
100
AcDbSymbolTableRecord
100
AcDbLayerTableRecord
  2
Ech.1_5
 70
     0
 62
     7
  6
CONTINUOUS
370
    -3
  0
LAYER
  5
4BE
100
AcDbSymbolTableRecord
100
AcDbLayerTableRecord
  2
Ech.1_10
 70
     0
 62
     7
  6
CONTINUOUS
370
    -3
  0
LAYER
  5
4BF
100
AcDbSymbolTableRecord
100
AcDbLayerTableRecord
  2
Ech.1_20
 70
     0
 62
     7
  6
CONTINUOUS
370
    -3
  0
LAYER
  5
4C0
100
AcDbSymbolTableRecord
100
AcDbLayerTableRecord
  2
Ech.1_25
 70
     0
 62
     7
  6
CONTINUOUS
370
    -3
  0
LAYER
  5
4C1
100
AcDbSymbolTableRecord
100
AcDbLayerTableRecord
  2
Ech.1_33
 70
     0
 62
     7
  6
CONTINUOUS
370
    -3
  0
LAYER
  5
4C2
100
AcDbSymbolTableRecord
100
AcDbLayerTableRecord
  2
Ech.1_50
 70
     0
 62
     7
  6
CONTINUOUS
370
    -3
  0
LAYER
  5
4C3
100
AcDbSymbolTableRecord
100
AcDbLayerTableRecord
  2
Ech.1_75
 70
     0
 62
     7
  6
CONTINUOUS
370
    -3
  0
LAYER
  5
4C4
100
AcDbSymbolTableRecord
100
AcDbLayerTableRecord
  2
Ech.1_100
 70
     0
 62
     7
  6
CONTINUOUS
370
    -3
  0
LAYER
  5
4C5
100
AcDbSymbolTableRecord
100
AcDbLayerTableRecord
  2
Ech.1_200
 70
     0
 62
     7
  6
CONTINUOUS
370
    -3
  0
LAYER
  5
4C6
100
AcDbSymbolTableRecord
100
AcDbLayerTableRecord
  2
Ech.1_500
 70
     0
 62
     7
  6
CONTINUOUS
370
    -3
  0
LAYER
  5
4C7
100
AcDbSymbolTableRecord
100
AcDbLayerTableRecord
  2
Ech.1_1000
 70
     0
 62
     7
  6
CONTINUOUS
370
    -3
  0
LAYER
  5
4C8
100
AcDbSymbolTableRecord
100
AcDbLayerTableRecord
  2
Cadres traceur
 70
     0
 62
     7
  6
CONTINUOUS
370
    18
  0
LAYER
  5
4C9
100
AcDbSymbolTableRecord
100
AcDbLayerTableRecord
  2
Cadres laser
 70
     0
 62
     7
  6
CONTINUOUS
370
    18
  0
LAYER
  5
4CA
100
AcDbSymbolTableRecord
100
AcDbLayerTableRecord
  2
Légende d_aide
 70
     0
 62
     7
  6
CONTINUOUS
370
    18
  0
LAYER
  5
4CB
100
AcDbSymbolTableRecord
100
AcDbLayerTableRecord
  2
hachures ok
 70
     0
 62
     7
  6
CONTINUOUS
370
    18
  0
LAYER
  5
4CC
100
AcDbSymbolTableRecord
100
AcDbLayerTableRecord
  2
ossature bois
 70
     0
 62
     7
  6
CONTINUOUS
370
    18
  0
LAYER
  5
4CD
100
AcDbSymbolTableRecord
100
AcDbLayerTableRecord
  2
VR
 70
     0
 62
     7
  6
CONTINUOUS
370
    25
  0
LAYER
  5
4CE
100
AcDbSymbolTableRecord
100
AcDbLayerTableRecord
  2
Calque1
 70
     0
 62
     7
  6
CONTINUOUS
370
     9
  0
LAYER
  5
4CF
100
AcDbSymbolTableRecord
100
AcDbLayerTableRecord
  2
0
 70
     0
 62
     7
  6
CONTINUOUS
370
    -3
  0
LAYER
  5
4D0
100
AcDbSymbolTableRecord
100
AcDbLayerTableRecord
  2
menuiserie
 70
     0
 62
     7
  6
CONTINUOUS
370
    -3
  0
LAYER
  5
4D1
100
AcDbSymbolTableRecord
100
AcDbLayerTableRecord
  2
cotation
 70
     0
 62
   250
  6
CONTINUOUS
370
     9
  0
LAYER
  5
4D2
100
AcDbSymbolTableRecord
100
AcDbLayerTableRecord
  2
Defpoints
 70
     0
 62
    10
  6
CONTINUOUS
370
    -3
  0
LAYER
  5
4D3
100
AcDbSymbolTableRecord
100
AcDbLayerTableRecord
  2
HACHURE
 70
     0
 62
   254
  6
CONTINUOUS
370
    25
  0
LAYER
  5
4D4
100
AcDbSymbolTableRecord
100
AcDbLayerTableRecord
  2
mat1
 70
     0
 62
     7
  6
CONTINUOUS
370
    30
  0
LAYER
  5
4D5
100
AcDbSymbolTableRecord
100
AcDbLayerTableRecord
  2
mat2
 70
     0
 62
     7
  6
CONTINUOUS
370
     5
  0
LAYER
  5
4D6
100
AcDbSymbolTableRecord
100
AcDbLayerTableRecord
  2
hach
 70
     0
 62
     8
  6
CONTINUOUS
370
     5
  0
LAYER
  5
4D7
100
AcDbSymbolTableRecord
100
AcDbLayerTableRecord
  2
menuiseries
 70
     0
 62
     7
  6
CONTINUOUS
370
     9
  0
LAYER
  5
4D8
100
AcDbSymbolTableRecord
100
AcDbLayerTableRecord
  2
BétonMétal
 70
     0
 62
     7
  6
CONTINUOUS
370
    80
  0
LAYER
  5
4D9
100
AcDbSymbolTableRecord
100
AcDbLayerTableRecord
  2
bois
 70
     0
 62
     7
  6
CONTINUOUS
370
    60
  0
ENDTAB
  0
TABLE
  2
VIEW
  5
4DA
100
AcDbSymbolTable
 70
     0
  0
ENDTAB
  0
TABLE
  2
UCS
  5
4DB
100
AcDbSymbolTable
 70
     0
  0
ENDTAB
  0
TABLE
  2
APPID
  5
4DC
100
AcDbSymbolTable
 70
     1
  0
APPID
  5
4DD
100
AcDbSymbolTableRecord
100
AcDbRegAppTableRecord
  2
ACAD
 70
     0
  0
ENDTAB
  0
TABLE
  2
DIMSTYLE
  5
4DE
100
AcDbSymbolTable
 70
     0
  0
ENDTAB
  0
TABLE
  2
BLOCK_RECORD
  5
4DF
100
AcDbSymbolTable
 70
     0
  0
BLOCK_RECORD
  5
4E0
100
AcDbSymbolTableRecord
100
AcDbBlockTableRecord
  2
*MODEL_SPACE
  0
BLOCK_RECORD
  5
4E1
100
AcDbSymbolTableRecord
100
AcDbBlockTableRecord
  2
*PAPER_SPACE
  0
BLOCK_RECORD
  5
4E2
100
AcDbSymbolTableRecord
100
AcDbBlockTableRecord
  2
CDWK_EXTR_0
  0
BLOCK_RECORD
  5
4E3
100
AcDbSymbolTableRecord
100
AcDbBlockTableRecord
  2
CDWK_EXTR_1D
  0
BLOCK_RECORD
  5
4E4
100
AcDbSymbolTableRecord
100
AcDbBlockTableRecord
  2
CDWK_EXTR_1G
  0
BLOCK_RECORD
  5
4E5
100
AcDbSymbolTableRecord
100
AcDbBlockTableRecord
  2
CDWK_EXTR_2
  0
BLOCK_RECORD
  5
4E6
100
AcDbSymbolTableRecord
100
AcDbBlockTableRecord
  2
CDWK_EXTR_3
  0
BLOCK_RECORD
  5
4E7
100
AcDbSymbolTableRecord
100
AcDbBlockTableRecord
  2
CDWK_EXTR_4
  0
BLOCK_RECORD
  5
4E8
100
AcDbSymbolTableRecord
100
AcDbBlockTableRecord
  2
CDWK_PTTYP0
  0
BLOCK_RECORD
  5
4E9
100
AcDbSymbolTableRecord
100
AcDbBlockTableRecord
  2
CDWK_PTTYP1
  0
BLOCK_RECORD
  5
4EA
100
AcDbSymbolTableRecord
100
AcDbBlockTableRecord
  2
CDWK_PTTYP2
  0
BLOCK_RECORD
  5
4EB
100
AcDbSymbolTableRecord
100
AcDbBlockTableRecord
  2
CDWK_PTTYP3
  0
BLOCK_RECORD
  5
4EC
100
AcDbSymbolTableRecord
100
AcDbBlockTableRecord
  2
CDWK_PTTYP4
  0
BLOCK_RECORD
  5
4ED
100
AcDbSymbolTableRecord
100
AcDbBlockTableRecord
  2
CDWK_PTTYP5
  0
BLOCK_RECORD
  5
4EE
100
AcDbSymbolTableRecord
100
AcDbBlockTableRecord
  2
CDWK_PTTYP6
  0
BLOCK_RECORD
  5
4EF
100
AcDbSymbolTableRecord
100
AcDbBlockTableRecord
  2
CDWK_PTTYP7
  0
BLOCK_RECORD
  5
4F0
100
AcDbSymbolTableRecord
100
AcDbBlockTableRecord
  2
CDWK_PTTYP8
  0
BLOCK_RECORD
  5
4F1
100
AcDbSymbolTableRecord
100
AcDbBlockTableRecord
  2
CDWK_PTTYP9
  0
BLOCK_RECORD
  5
4F2
100
AcDbSymbolTableRecord
100
AcDbBlockTableRecord
  2
CDWK_PTTYP10
  0
BLOCK_RECORD
  5
4F3
100
AcDbSymbolTableRecord
100
AcDbBlockTableRecord
  2
CDWK_PTTYP11
  0
BLOCK_RECORD
  5
4F4
100
AcDbSymbolTableRecord
100
AcDbBlockTableRecord
  2
CDWK_PTTYP12
  0
BLOCK_RECORD
  5
4F5
100
AcDbSymbolTableRecord
100
AcDbBlockTableRecord
  2
CDWK_PTTYP13
  0
BLOCK_RECORD
  5
4F6
100
AcDbSymbolTableRecord
100
AcDbBlockTableRecord
  2
CDWK_PTTYP14
  0
BLOCK_RECORD
  5
4F7
100
AcDbSymbolTableRecord
100
AcDbBlockTableRecord
  2
CDWK_PTTYP15
  0
BLOCK_RECORD
  5
4F8
100
AcDbSymbolTableRecord
100
AcDbBlockTableRecord
  2
CDWK_PTTYP16
  0
BLOCK_RECORD
  5
4F9
100
AcDbSymbolTableRecord
100
AcDbBlockTableRecord
  2
CDWK_PTTYP17
  0
BLOCK_RECORD
  5
4FA
100
AcDbSymbolTableRecord
100
AcDbBlockTableRecord
  2
CDWK_PTTYP18
  0
BLOCK_RECORD
  5
4FB
100
AcDbSymbolTableRecord
100
AcDbBlockTableRecord
  2
CDWK_PTTYP19
  0
BLOCK_RECORD
  5
4FC
100
AcDbSymbolTableRecord
100
AcDbBlockTableRecord
  2
CDWK_PTTYP20
  0
BLOCK_RECORD
  5
4FD
100
AcDbSymbolTableRecord
100
AcDbBlockTableRecord
  2
CDWK_PTTYP21
  0
BLOCK_RECORD
  5
4FE
100
AcDbSymbolTableRecord
100
AcDbBlockTableRecord
  2
CDWK_PTTYP22
  0
BLOCK_RECORD
  5
4FF
100
AcDbSymbolTableRecord
100
AcDbBlockTableRecord
  2
CDWK_PTTYP23
  0
BLOCK_RECORD
  5
500
100
AcDbSymbolTableRecord
100
AcDbBlockTableRecord
  2
CDWK_PTTYP24
  0
BLOCK_RECORD
  5
501
100
AcDbSymbolTableRecord
100
AcDbBlockTableRecord
  2
CDWK_PTTYP25
  0
BLOCK_RECORD
  5
502
100
AcDbSymbolTableRecord
100
AcDbBlockTableRecord
  2
CDWK_PTTYP26
  0
BLOCK_RECORD
  5
503
100
AcDbSymbolTableRecord
100
AcDbBlockTableRecord
  2
CDWK_PTTYP27
  0
BLOCK_RECORD
  5
504
100
AcDbSymbolTableRecord
100
AcDbBlockTableRecord
  2
CDWK_PTTYP28
  0
BLOCK_RECORD
  5
505
100
AcDbSymbolTableRecord
100
AcDbBlockTableRecord
  2
CDWK_PTTYP29
  0
BLOCK_RECORD
  5
506
100
AcDbSymbolTableRecord
100
AcDbBlockTableRecord
  2
CDWK_PTTYP30
  0
BLOCK_RECORD
  5
507
100
AcDbSymbolTableRecord
100
AcDbBlockTableRecord
  2
CDWK_PTTYP31
  0
BLOCK_RECORD
  5
508
100
AcDbSymbolTableRecord
100
AcDbBlockTableRecord
  2
CDWK_PTTYP32
  0
BLOCK_RECORD
  5
509
100
AcDbSymbolTableRecord
100
AcDbBlockTableRecord
  2
CDWK_PTTYP33
  0
BLOCK_RECORD
  5
50A
100
AcDbSymbolTableRecord
100
AcDbBlockTableRecord
  2
CDWK_PTTYP34
  0
BLOCK_RECORD
  5
50B
100
AcDbSymbolTableRecord
100
AcDbBlockTableRecord
  2
CDWK_PTTYP35
  0
BLOCK_RECORD
  5
50C
100
AcDbSymbolTableRecord
100
AcDbBlockTableRecord
  2
CDWK_PTTYP36
  0
BLOCK_RECORD
  5
50D
100
AcDbSymbolTableRecord
100
AcDbBlockTableRecord
  2
CDWK_PTTYP37
  0
BLOCK_RECORD
  5
50E
100
AcDbSymbolTableRecord
100
AcDbBlockTableRecord
  2
CDWK_PTTYP38
  0
BLOCK_RECORD
  5
50F
100
AcDbSymbolTableRecord
100
AcDbBlockTableRecord
  2
*X1
  0
BLOCK_RECORD
  5
510
100
AcDbSymbolTableRecord
100
AcDbBlockTableRecord
  2
*X2
  0
BLOCK_RECORD
  5
511
100
AcDbSymbolTableRecord
100
AcDbBlockTableRecord
  2
*X3
  0
BLOCK_RECORD
  5
512
100
AcDbSymbolTableRecord
100
AcDbBlockTableRecord
  2
*X4
  0
BLOCK_RECORD
  5
513
100
AcDbSymbolTableRecord
100
AcDbBlockTableRecord
  2
*X5
  0
BLOCK_RECORD
  5
514
100
AcDbSymbolTableRecord
100
AcDbBlockTableRecord
  2
*X6
  0
BLOCK_RECORD
  5
515
100
AcDbSymbolTableRecord
100
AcDbBlockTableRecord
  2
*D39
  0
BLOCK_RECORD
  5
516
100
AcDbSymbolTableRecord
100
AcDbBlockTableRecord
  2
*D40
  0
BLOCK_RECORD
  5
517
100
AcDbSymbolTableRecord
100
AcDbBlockTableRecord
  2
*D41
  0
BLOCK_RECORD
  5
518
100
AcDbSymbolTableRecord
100
AcDbBlockTableRecord
  2
*D42
  0
ENDTAB
  0
ENDSEC
  0
SECTION
  2
BLOCKS
  0
BLOCK
  5
519
100
AcDbEntity
  8
0
100
AcDbBlockBegin
  2
*MODEL_SPACE
 70
     0
 10
0.0
 20
0.0
 30
0.0
  3
*MODEL_SPACE
  1

  0
ENDBLK
  5
51A
100
AcDbEntity
100
AcDbBlockEnd
  0
BLOCK
  5
51B
100
AcDbEntity
  8
0
100
AcDbBlockBegin
  2
*PAPER_SPACE
 70
     0
 10
0.0
 20
0.0
 30
0.0
  3
*PAPER_SPACE
  1

  0
ENDBLK
  5
51C
100
AcDbEntity
100
AcDbBlockEnd
  0
BLOCK
  5
51D
100
AcDbEntity
  8
0
100
AcDbBlockBegin
  2
CDWK_EXTR_0
 70
     0
 10
0.0
 20
0.0
 30
0.0
  3
CDWK_EXTR_0
  1

  4
Cadwork line-extremity
  0
LINE
  5
51E
100
AcDbEntity
  8
0
 62
     0
370
    -2
100
AcDbLine
 10
0.0
 20
0.0
 30
0.0
 11
2.0
 21
0.5
 31
0.0
  0
LINE
  5
51F
100
AcDbEntity
  8
0
 62
     0
370
    -2
100
AcDbLine
 10
0.0
 20
0.0
 30
0.0
 11
2.0
 21
-0.5
 31
0.0
  0
LINE
  5
520
100
AcDbEntity
  8
0
 62
     0
370
    -2
100
AcDbLine
 10
2.0
 20
0.5
 30
0.0
 11
2.0
 21
-0.5
 31
0.0
  0
ENDBLK
  5
521
100
AcDbEntity
100
AcDbBlockEnd
  0
BLOCK
  5
522
100
AcDbEntity
  8
0
100
AcDbBlockBegin
  2
CDWK_EXTR_1D
 70
     0
 10
0.0
 20
0.0
 30
0.0
  3
CDWK_EXTR_1D
  1

  4
Cadwork line-extremity
  0
LINE
  5
523
100
AcDbEntity
  8
0
 62
     0
370
    -2
100
AcDbLine
 10
0.0
 20
0.0
 30
0.0
 11
0.0
 21
1.0
 31
0.0
  0
LINE
  5
524
100
AcDbEntity
  8
0
 62
     0
370
    -2
100
AcDbLine
 10
0.0
 20
1.0
 30
0.0
 11
0.5
 21
1.5
 31
0.0
  0
LINE
  5
525
100
AcDbEntity
  8
0
 62
     0
370
    -2
100
AcDbLine
 10
0.5
 20
1.5
 30
0.0
 11
1.5
 21
1.5
 31
0.0
  0
ENDBLK
  5
526
100
AcDbEntity
100
AcDbBlockEnd
  0
BLOCK
  5
527
100
AcDbEntity
  8
0
100
AcDbBlockBegin
  2
CDWK_EXTR_1G
 70
     0
 10
0.0
 20
0.0
 30
0.0
  3
CDWK_EXTR_1G
  1

  4
Cadwork line-extremity
  0
LINE
  5
528
100
AcDbEntity
  8
0
 62
     0
370
    -2
100
AcDbLine
 10
0.0
 20
0.0
 30
0.0
 11
0.0
 21
-1.0
 31
0.0
  0
LINE
  5
529
100
AcDbEntity
  8
0
 62
     0
370
    -2
100
AcDbLine
 10
0.0
 20
-1.0
 30
0.0
 11
0.5
 21
-1.5
 31
0.0
  0
LINE
  5
52A
100
AcDbEntity
  8
0
 62
     0
370
    -2
100
AcDbLine
 10
0.5
 20
-1.5
 30
0.0
 11
1.5
 21
-1.5
 31
0.0
  0
ENDBLK
  5
52B
100
AcDbEntity
100
AcDbBlockEnd
  0
BLOCK
  5
52C
100
AcDbEntity
  8
0
100
AcDbBlockBegin
  2
CDWK_EXTR_2
 70
     0
 10
0.0
 20
0.0
 30
0.0
  3
CDWK_EXTR_2
  1

  4
Cadwork line-extremity
  0
SOLID
  5
52D
100
AcDbEntity
  8
0
 62
     0
100
AcDbTrace
 10
0.0
 20
0.0
 11
2.0
 21
0.5
 12
2.0
 22
-0.5
 13
2.0
 23
-0.5
  0
ENDBLK
  5
52E
100
AcDbEntity
100
AcDbBlockEnd
  0
BLOCK
  5
52F
100
AcDbEntity
  8
0
100
AcDbBlockBegin
  2
CDWK_EXTR_3
 70
     0
 10
0.0
 20
0.0
 30
0.0
  3
CDWK_EXTR_3
  1

  4
Cadwork line-extremity
  0
SOLID
  5
530
100
AcDbEntity
  8
0
 62
     0
100
AcDbTrace
 10
0.0
 20
0.0
 11
2.0
 21
0.5
 12
2.0
 22
-0.5
 13
2.0
 23
-0.5
  0
LINE
  5
531
100
AcDbEntity
  8
0
 62
     0
370
    -2
100
AcDbLine
 10
0.0
 20
1.0
 30
0.0
 11
0.0
 21
-1.0
 31
0.0
  0
ENDBLK
  5
532
100
AcDbEntity
100
AcDbBlockEnd
  0
BLOCK
  5
533
100
AcDbEntity
  8
0
100
AcDbBlockBegin
  2
CDWK_EXTR_4
 70
     0
 10
0.0
 20
0.0
 30
0.0
  3
CDWK_EXTR_4
  1

  4
Cadwork line-extremity
  0
HATCH
  5
534
100
AcDbEntity
  8
0
 62
     0
370
    -2
100
AcDbHatch
 10
0.0
 20
0.0
 30
0.0
210
0.0
220
0.0
230
1.0
  2
SOLID
 70
     1
 71
     0
 91
        1
 92
        1
 93
        1
 72
     2
 10
0.0
 20
0.0
 40
0.5
 50
0.0
 51
360.0
 73
     1
 97
        0
 75
     0
 76
     1
 98
        1
 10
0.0
 20
0.0
  0
ENDBLK
  5
535
100
AcDbEntity
100
AcDbBlockEnd
  0
BLOCK
  5
536
100
AcDbEntity
  8
0
100
AcDbBlockBegin
  2
CDWK_PTTYP0
 70
     0
 10
0.0
 20
0.0
 30
0.0
  3
CDWK_PTTYP0
  1

  4
Cadwork point
  0
POINT
  5
537
100
AcDbEntity
  8
0
 62
     0
100
AcDbPoint
 10
0.0
 20
0.0
 30
0.0
  0
ENDBLK
  5
538
100
AcDbEntity
100
AcDbBlockEnd
  0
BLOCK
  5
539
100
AcDbEntity
  8
0
100
AcDbBlockBegin
  2
CDWK_PTTYP1
 70
     0
 10
0.0
 20
0.0
 30
0.0
  3
CDWK_PTTYP1
  1

  4
Cadwork node
  0
LINE
  5
53A
100
AcDbEntity
  8
0
 62
     0
370
    -2
100
AcDbLine
 10
-0.5
 20
0.5
 30
0.0
 11
0.5
 21
0.5
 31
0.0
  0
LINE
  5
53B
100
AcDbEntity
  8
0
 62
     0
370
    -2
100
AcDbLine
 10
0.5
 20
0.5
 30
0.0
 11
0.5
 21
-0.5
 31
0.0
  0
LINE
  5
53C
100
AcDbEntity
  8
0
 62
     0
370
    -2
100
AcDbLine
 10
0.5
 20
-0.5
 30
0.0
 11
-0.5
 21
-0.5
 31
0.0
  0
LINE
  5
53D
100
AcDbEntity
  8
0
 62
     0
370
    -2
100
AcDbLine
 10
-0.5
 20
-0.5
 30
0.0
 11
-0.5
 21
0.5
 31
0.0
  0
ENDBLK
  5
53E
100
AcDbEntity
100
AcDbBlockEnd
  0
BLOCK
  5
53F
100
AcDbEntity
  8
0
100
AcDbBlockBegin
  2
CDWK_PTTYP2
 70
     0
 10
0.0
 20
0.0
 30
0.0
  3
CDWK_PTTYP2
  1

  4
Cadwork node
  0
LINE
  5
540
100
AcDbEntity
  8
0
 62
     0
370
    -2
100
AcDbLine
 10
0.0
 20
0.5
 30
0.0
 11
0.0
 21
-0.5
 31
0.0
  0
LINE
  5
541
100
AcDbEntity
  8
0
 62
     0
370
    -2
100
AcDbLine
 10
-0.5
 20
0.0
 30
0.0
 11
0.5
 21
0.0
 31
0.0
  0
ENDBLK
  5
542
100
AcDbEntity
100
AcDbBlockEnd
  0
BLOCK
  5
543
100
AcDbEntity
  8
0
100
AcDbBlockBegin
  2
CDWK_PTTYP3
 70
     0
 10
0.0
 20
0.0
 30
0.0
  3
CDWK_PTTYP3
  1

  4
Cadwork node
  0
CIRCLE
  5
544
100
AcDbEntity
  8
0
 62
     0
370
    -2
100
AcDbCircle
 10
0.0
 20
0.0
 30
0.0
 40
0.5
  0
ENDBLK
  5
545
100
AcDbEntity
100
AcDbBlockEnd
  0
BLOCK
  5
546
100
AcDbEntity
  8
0
100
AcDbBlockBegin
  2
CDWK_PTTYP4
 70
     0
 10
0.0
 20
0.0
 30
0.0
  3
CDWK_PTTYP4
  1

  4
Cadwork node
  0
HATCH
  5
547
100
AcDbEntity
  8
0
 62
     0
370
    -2
100
AcDbHatch
 10
0.0
 20
0.0
 30
0.0
210
0.0
220
0.0
230
1.0
  2
SOLID
 70
     1
 71
     0
 91
        1
 92
        1
 93
        1
 72
     2
 10
0.0
 20
0.0
 40
0.5
 50
0.0
 51
360.0
 73
     1
 97
        0
 75
     0
 76
     1
 98
        1
 10
0.0
 20
0.0
  0
ENDBLK
  5
548
100
AcDbEntity
100
AcDbBlockEnd
  0
BLOCK
  5
549
100
AcDbEntity
  8
0
100
AcDbBlockBegin
  2
CDWK_PTTYP5
 70
     0
 10
0.0
 20
0.0
 30
0.0
  3
CDWK_PTTYP5
  1

  4
Cadwork node
  0
LINE
  5
54A
100
AcDbEntity
  8
0
 62
     0
370
    -2
100
AcDbLine
 10
-0.5
 20
0.5
 30
0.0
 11
0.5
 21
0.5
 31
0.0
  0
LINE
  5
54B
100
AcDbEntity
  8
0
 62
     0
370
    -2
100
AcDbLine
 10
0.5
 20
0.5
 30
0.0
 11
0.5
 21
-0.5
 31
0.0
  0
LINE
  5
54C
100
AcDbEntity
  8
0
 62
     0
370
    -2
100
AcDbLine
 10
0.5
 20
-0.5
 30
0.0
 11
-0.5
 21
-0.5
 31
0.0
  0
LINE
  5
54D
100
AcDbEntity
  8
0
 62
     0
370
    -2
100
AcDbLine
 10
-0.5
 20
-0.5
 30
0.0
 11
-0.5
 21
0.5
 31
0.0
  0
SOLID
  5
54E
100
AcDbEntity
  8
0
 62
     0
100
AcDbTrace
 10
-0.5
 20
-0.5
 11
-0.5
 21
0.0
 12
0.0
 22
-0.5
 13
0.0
 23
0.0
  0
SOLID
  5
54F
100
AcDbEntity
  8
0
 62
     0
100
AcDbTrace
 10
0.0
 20
0.0
 11
0.0
 21
0.5
 12
0.5
 22
0.0
 13
0.5
 23
0.5
  0
ENDBLK
  5
550
100
AcDbEntity
100
AcDbBlockEnd
  0
BLOCK
  5
551
100
AcDbEntity
  8
0
100
AcDbBlockBegin
  2
CDWK_PTTYP6
 70
     0
 10
0.0
 20
0.0
 30
0.0
  3
CDWK_PTTYP6
  1

  4
Cadwork node
  0
LINE
  5
552
100
AcDbEntity
  8
0
 62
     0
370
    -2
100
AcDbLine
 10
-0.5
 20
0.5
 30
0.0
 11
0.5
 21
0.5
 31
0.0
  0
LINE
  5
553
100
AcDbEntity
  8
0
 62
     0
370
    -2
100
AcDbLine
 10
0.5
 20
0.5
 30
0.0
 11
0.5
 21
-0.5
 31
0.0
  0
LINE
  5
554
100
AcDbEntity
  8
0
 62
     0
370
    -2
100
AcDbLine
 10
0.5
 20
-0.5
 30
0.0
 11
-0.5
 21
-0.5
 31
0.0
  0
LINE
  5
555
100
AcDbEntity
  8
0
 62
     0
370
    -2
100
AcDbLine
 10
-0.5
 20
-0.5
 30
0.0
 11
-0.5
 21
0.5
 31
0.0
  0
SOLID
  5
556
100
AcDbEntity
  8
0
 62
     0
100
AcDbTrace
 10
-0.5
 20
-0.5
 11
-0.5
 21
0.5
 12
0.5
 22
0.5
 13
0.5
 23
0.5
  0
ENDBLK
  5
557
100
AcDbEntity
100
AcDbBlockEnd
  0
BLOCK
  5
558
100
AcDbEntity
  8
0
100
AcDbBlockBegin
  2
CDWK_PTTYP7
 70
     0
 10
0.0
 20
0.0
 30
0.0
  3
CDWK_PTTYP7
  1

  4
Cadwork node
  0
LINE
  5
559
100
AcDbEntity
  8
0
 62
     0
370
    -2
100
AcDbLine
 10
-0.5
 20
0.5
 30
0.0
 11
0.5
 21
0.5
 31
0.0
  0
LINE
  5
55A
100
AcDbEntity
  8
0
 62
     0
370
    -2
100
AcDbLine
 10
0.5
 20
0.5
 30
0.0
 11
0.5
 21
-0.5
 31
0.0
  0
LINE
  5
55B
100
AcDbEntity
  8
0
 62
     0
370
    -2
100
AcDbLine
 10
0.5
 20
-0.5
 30
0.0
 11
-0.5
 21
-0.5
 31
0.0
  0
LINE
  5
55C
100
AcDbEntity
  8
0
 62
     0
370
    -2
100
AcDbLine
 10
-0.5
 20
-0.5
 30
0.0
 11
-0.5
 21
0.5
 31
0.0
  0
LINE
  5
55D
100
AcDbEntity
  8
0
 62
     0
370
    -2
100
AcDbLine
 10
0.0
 20
0.5
 30
0.0
 11
0.0
 21
-0.5
 31
0.0
  0
LINE
  5
55E
100
AcDbEntity
  8
0
 62
     0
370
    -2
100
AcDbLine
 10
-0.5
 20
0.0
 30
0.0
 11
0.5
 21
0.0
 31
0.0
  0
ENDBLK
  5
55F
100
AcDbEntity
100
AcDbBlockEnd
  0
BLOCK
  5
560
100
AcDbEntity
  8
0
100
AcDbBlockBegin
  2
CDWK_PTTYP8
 70
     0
 10
0.0
 20
0.0
 30
0.0
  3
CDWK_PTTYP8
  1

  4
Cadwork node
  0
SOLID
  5
561
100
AcDbEntity
  8
0
 62
     0
100
AcDbTrace
 10
-0.5
 20
0.5
 11
0.5
 21
0.5
 12
-0.5
 22
-0.5
 13
0.5
 23
-0.5
  0
ENDBLK
  5
562
100
AcDbEntity
100
AcDbBlockEnd
  0
BLOCK
  5
563
100
AcDbEntity
  8
0
100
AcDbBlockBegin
  2
CDWK_PTTYP9
 70
     0
 10
0.0
 20
0.0
 30
0.0
  3
CDWK_PTTYP9
  1

  4
Cadwork node
  0
CIRCLE
  5
564
100
AcDbEntity
  8
0
 62
     0
370
    -2
100
AcDbCircle
 10
0.0
 20
0.0
 30
0.0
 40
0.5
  0
CIRCLE
  5
565
100
AcDbEntity
  8
0
 62
     0
370
    -2
100
AcDbCircle
 10
0.0
 20
0.0
 30
0.0
 40
0.16666667
  0
ENDBLK
  5
566
100
AcDbEntity
100
AcDbBlockEnd
  0
BLOCK
  5
567
100
AcDbEntity
  8
0
100
AcDbBlockBegin
  2
CDWK_PTTYP10
 70
     0
 10
0.0
 20
0.0
 30
0.0
  3
CDWK_PTTYP10
  1

  4
Cadwork node
  0
CIRCLE
  5
568
100
AcDbEntity
  8
0
 62
     0
370
    -2
100
AcDbCircle
 10
0.0
 20
0.0
 30
0.0
 40
0.5
  0
ENDBLK
  5
569
100
AcDbEntity
100
AcDbBlockEnd
  0
BLOCK
  5
56A
100
AcDbEntity
  8
0
100
AcDbBlockBegin
  2
CDWK_PTTYP11
 70
     0
 10
0.0
 20
0.0
 30
0.0
  3
CDWK_PTTYP11
  1

  4
Cadwork node
  0
CIRCLE
  5
56B
100
AcDbEntity
  8
0
 62
     0
370
    -2
100
AcDbCircle
 10
0.0
 20
0.0
 30
0.0
 40
0.5
  0
CIRCLE
  5
56C
100
AcDbEntity
  8
0
 62
     0
370
    -2
100
AcDbCircle
 10
0.0
 20
0.0
 30
0.0
 40
0.25
  0
ENDBLK
  5
56D
100
AcDbEntity
100
AcDbBlockEnd
  0
BLOCK
  5
56E
100
AcDbEntity
  8
0
100
AcDbBlockBegin
  2
CDWK_PTTYP12
 70
     0
 10
0.0
 20
0.0
 30
0.0
  3
CDWK_PTTYP12
  1

  4
Cadwork node
  0
CIRCLE
  5
56F
100
AcDbEntity
  8
0
 62
     0
370
    -2
100
AcDbCircle
 10
0.0
 20
0.0
 30
0.0
 40
0.5
  0
CIRCLE
  5
570
100
AcDbEntity
  8
0
 62
     0
370
    -2
100
AcDbCircle
 10
0.25
 20
0.0
 30
0.0
 40
0.25
  0
ENDBLK
  5
571
100
AcDbEntity
100
AcDbBlockEnd
  0
BLOCK
  5
572
100
AcDbEntity
  8
0
100
AcDbBlockBegin
  2
CDWK_PTTYP13
 70
     0
 10
0.0
 20
0.0
 30
0.0
  3
CDWK_PTTYP13
  1

  4
Cadwork node
  0
CIRCLE
  5
573
100
AcDbEntity
  8
0
 62
     0
370
    -2
100
AcDbCircle
 10
0.0
 20
0.0
 30
0.0
 40
0.5
  0
CIRCLE
  5
574
100
AcDbEntity
  8
0
 62
     0
370
    -2
100
AcDbCircle
 10
0.25
 20
0.0
 30
0.0
 40
0.25
  0
CIRCLE
  5
575
100
AcDbEntity
  8
0
 62
     0
370
    -2
100
AcDbCircle
 10
-0.25
 20
0.0
 30
0.0
 40
0.25
  0
ENDBLK
  5
576
100
AcDbEntity
100
AcDbBlockEnd
  0
BLOCK
  5
577
100
AcDbEntity
  8
0
100
AcDbBlockBegin
  2
CDWK_PTTYP14
 70
     0
 10
0.0
 20
0.0
 30
0.0
  3
CDWK_PTTYP14
  1

  4
Cadwork node
  0
POINT
  5
578
100
AcDbEntity
  8
0
 62
     0
100
AcDbPoint
 10
0.0
 20
0.0
 30
0.0
  0
ENDBLK
  5
579
100
AcDbEntity
100
AcDbBlockEnd
  0
BLOCK
  5
57A
100
AcDbEntity
  8
0
100
AcDbBlockBegin
  2
CDWK_PTTYP15
 70
     0
 10
0.0
 20
0.0
 30
0.0
  3
CDWK_PTTYP15
  1

  4
Cadwork node
  0
POINT
  5
57B
100
AcDbEntity
  8
0
 62
     0
100
AcDbPoint
 10
0.0
 20
0.0
 30
0.0
  0
ENDBLK
  5
57C
100
AcDbEntity
100
AcDbBlockEnd
  0
BLOCK
  5
57D
100
AcDbEntity
  8
0
100
AcDbBlockBegin
  2
CDWK_PTTYP16
 70
     0
 10
0.0
 20
0.0
 30
0.0
  3
CDWK_PTTYP16
  1

  4
Cadwork node
  0
LINE
  5
57E
100
AcDbEntity
  8
0
 62
     0
370
    -2
100
AcDbLine
 10
-0.5
 20
-0.28867513
 30
0.0
 11
0.5
 21
-0.28867513
 31
0.0
  0
LINE
  5
57F
100
AcDbEntity
  8
0
 62
     0
370
    -2
100
AcDbLine
 10
0.5
 20
-0.28867513
 30
0.0
 11
0.0
 21
0.57735027
 31
0.0
  0
LINE
  5
580
100
AcDbEntity
  8
0
 62
     0
370
    -2
100
AcDbLine
 10
0.0
 20
0.57735027
 30
0.0
 11
-0.5
 21
-0.28867513
 31
0.0
  0
CIRCLE
  5
581
100
AcDbEntity
  8
0
 62
     0
370
    -2
100
AcDbCircle
 10
0.0
 20
0.0
 30
0.0
 40
0.28867513
  0
ENDBLK
  5
582
100
AcDbEntity
100
AcDbBlockEnd
  0
BLOCK
  5
583
100
AcDbEntity
  8
0
100
AcDbBlockBegin
  2
CDWK_PTTYP17
 70
     0
 10
0.0
 20
0.0
 30
0.0
  3
CDWK_PTTYP17
  1

  4
Cadwork node
  0
CIRCLE
  5
584
100
AcDbEntity
  8
0
 62
     0
370
    -2
100
AcDbCircle
 10
0.0
 20
0.0
 30
0.0
 40
0.5
  0
HATCH
  5
585
100
AcDbEntity
  8
0
 62
     0
370
    -2
100
AcDbHatch
 10
0.0
 20
0.0
 30
0.0
210
0.0
220
0.0
230
1.0
  2
SOLID
 70
     1
 71
     0
 91
        1
 92
        1
 93
        1
 72
     2
 10
0.0
 20
0.0
 40
0.25
 50
0.0
 51
360.0
 73
     1
 97
        0
 75
     0
 76
     1
 98
        1
 10
0.0
 20
0.0
  0
ENDBLK
  5
586
100
AcDbEntity
100
AcDbBlockEnd
  0
BLOCK
  5
587
100
AcDbEntity
  8
0
100
AcDbBlockBegin
  2
CDWK_PTTYP18
 70
     0
 10
0.0
 20
0.0
 30
0.0
  3
CDWK_PTTYP18
  1

  4
Cadwork node
  0
CIRCLE
  5
588
100
AcDbEntity
  8
0
 62
     0
370
    -2
100
AcDbCircle
 10
0.0
 20
0.0
 30
0.0
 40
0.5
  0
CIRCLE
  5
589
100
AcDbEntity
  8
0
 62
     0
370
    -2
100
AcDbCircle
 10
0.0
 20
0.0
 30
0.0
 40
0.2
  0
ENDBLK
  5
58A
100
AcDbEntity
100
AcDbBlockEnd
  0
BLOCK
  5
58B
100
AcDbEntity
  8
0
100
AcDbBlockBegin
  2
CDWK_PTTYP19
 70
     0
 10
0.0
 20
0.0
 30
0.0
  3
CDWK_PTTYP19
  1

  4
Cadwork node
  0
CIRCLE
  5
58C
100
AcDbEntity
  8
0
 62
     0
370
    -2
100
AcDbCircle
 10
0.0
 20
0.0
 30
0.0
 40
0.4
  0
CIRCLE
  5
58D
100
AcDbEntity
  8
0
 62
     0
370
    -2
100
AcDbCircle
 10
0.0
 20
0.0
 30
0.0
 40
0.25
  0
LINE
  5
58E
100
AcDbEntity
  8
0
 62
     0
370
    -2
100
AcDbLine
 10
-0.25
 20
0.0
 30
0.0
 11
0.25
 21
0.0
 31
0.0
  0
ENDBLK
  5
58F
100
AcDbEntity
100
AcDbBlockEnd
  0
BLOCK
  5
590
100
AcDbEntity
  8
0
100
AcDbBlockBegin
  2
CDWK_PTTYP20
 70
     0
 10
0.0
 20
0.0
 30
0.0
  3
CDWK_PTTYP20
  1

  4
Cadwork node
  0
CIRCLE
  5
591
100
AcDbEntity
  8
0
 62
     0
370
    -2
100
AcDbCircle
 10
0.0
 20
0.0
 30
0.0
 40
0.5
  0
CIRCLE
  5
592
100
AcDbEntity
  8
0
 62
     0
370
    -2
100
AcDbCircle
 10
0.0
 20
0.0
 30
0.0
 40
0.3
  0
ENDBLK
  5
593
100
AcDbEntity
100
AcDbBlockEnd
  0
BLOCK
  5
594
100
AcDbEntity
  8
0
100
AcDbBlockBegin
  2
CDWK_PTTYP21
 70
     0
 10
0.0
 20
0.0
 30
0.0
  3
CDWK_PTTYP21
  1

  4
Cadwork node
  0
CIRCLE
  5
595
100
AcDbEntity
  8
0
 62
     0
370
    -2
100
AcDbCircle
 10
0.0
 20
0.0
 30
0.0
 40
0.5
  0
LINE
  5
596
100
AcDbEntity
  8
0
 62
     0
370
    -2
100
AcDbLine
 10
-0.5
 20
0.0
 30
0.0
 11
0.5
 21
0.0
 31
0.0
  0
ENDBLK
  5
597
100
AcDbEntity
100
AcDbBlockEnd
  0
BLOCK
  5
598
100
AcDbEntity
  8
0
100
AcDbBlockBegin
  2
CDWK_PTTYP22
 70
     0
 10
0.0
 20
0.0
 30
0.0
  3
CDWK_PTTYP22
  1

  4
Cadwork node
  0
POINT
  5
599
100
AcDbEntity
  8
0
 62
     0
100
AcDbPoint
 10
0.0
 20
0.0
 30
0.0
  0
ENDBLK
  5
59A
100
AcDbEntity
100
AcDbBlockEnd
  0
BLOCK
  5
59B
100
AcDbEntity
  8
0
100
AcDbBlockBegin
  2
CDWK_PTTYP23
 70
     0
 10
0.0
 20
0.0
 30
0.0
  3
CDWK_PTTYP23
  1

  4
Cadwork node
  0
POINT
  5
59C
100
AcDbEntity
  8
0
 62
     0
100
AcDbPoint
 10
0.0
 20
0.0
 30
0.0
  0
ENDBLK
  5
59D
100
AcDbEntity
100
AcDbBlockEnd
  0
BLOCK
  5
59E
100
AcDbEntity
  8
0
100
AcDbBlockBegin
  2
CDWK_PTTYP24
 70
     0
 10
0.0
 20
0.0
 30
0.0
  3
CDWK_PTTYP24
  1

  4
Cadwork node
  0
POINT
  5
59F
100
AcDbEntity
  8
0
 62
     0
100
AcDbPoint
 10
0.0
 20
0.0
 30
0.0
  0
ENDBLK
  5
5A0
100
AcDbEntity
100
AcDbBlockEnd
  0
BLOCK
  5
5A1
100
AcDbEntity
  8
0
100
AcDbBlockBegin
  2
CDWK_PTTYP25
 70
     0
 10
0.0
 20
0.0
 30
0.0
  3
CDWK_PTTYP25
  1

  4
Cadwork node
  0
LINE
  5
5A2
100
AcDbEntity
  8
0
 62
     0
370
    -2
100
AcDbLine
 10
-0.43290044
 20
-0.25
 30
0.0
 11
0.43290044
 21
-0.25
 31
0.0
  0
LINE
  5
5A3
100
AcDbEntity
  8
0
 62
     0
370
    -2
100
AcDbLine
 10
-0.43290044
 20
-0.25
 30
0.0
 11
0.0
 21
0.5
 31
0.0
  0
LINE
  5
5A4
100
AcDbEntity
  8
0
 62
     0
370
    -2
100
AcDbLine
 10
0.43290044
 20
-0.25
 30
0.0
 11
0.0
 21
0.5
 31
0.0
  0
CIRCLE
  5
5A5
100
AcDbEntity
  8
0
 62
     0
370
    -2
100
AcDbCircle
 10
0.0
 20
0.0
 30
0.0
 40
0.5
  0
ENDBLK
  5
5A6
100
AcDbEntity
100
AcDbBlockEnd
  0
BLOCK
  5
5A7
100
AcDbEntity
  8
0
100
AcDbBlockBegin
  2
CDWK_PTTYP26
 70
     0
 10
0.0
 20
0.0
 30
0.0
  3
CDWK_PTTYP26
  1

  4
Cadwork node
  0
LINE
  5
5A8
100
AcDbEntity
  8
0
 62
     0
370
    -2
100
AcDbLine
 10
-0.5
 20
-0.28850001
 30
0.0
 11
0.5
 21
-0.28850001
 31
0.0
  0
LINE
  5
5A9
100
AcDbEntity
  8
0
 62
     0
370
    -2
100
AcDbLine
 10
-0.5
 20
-0.28850001
 30
0.0
 11
0.0
 21
0.57736721
 31
0.0
  0
LINE
  5
5AA
100
AcDbEntity
  8
0
 62
     0
370
    -2
100
AcDbLine
 10
0.5
 20
-0.28850001
 30
0.0
 11
0.0
 21
0.57736721
 31
0.0
  0
CIRCLE
  5
5AB
100
AcDbEntity
  8
0
 62
     0
370
    -2
100
AcDbCircle
 10
0.0
 20
0.0
 30
0.0
 40
0.1312336
  0
ENDBLK
  5
5AC
100
AcDbEntity
100
AcDbBlockEnd
  0
BLOCK
  5
5AD
100
AcDbEntity
  8
0
100
AcDbBlockBegin
  2
CDWK_PTTYP27
 70
     0
 10
0.0
 20
0.0
 30
0.0
  3
CDWK_PTTYP27
  1

  4
Cadwork node
  0
LINE
  5
5AE
100
AcDbEntity
  8
0
 62
     0
370
    -2
100
AcDbLine
 10
-0.43290044
 20
-0.25
 30
0.0
 11
0.43290044
 21
-0.25
 31
0.0
  0
LINE
  5
5AF
100
AcDbEntity
  8
0
 62
     0
370
    -2
100
AcDbLine
 10
-0.43290044
 20
-0.25
 30
0.0
 11
0.0
 21
0.5
 31
0.0
  0
LINE
  5
5B0
100
AcDbEntity
  8
0
 62
     0
370
    -2
100
AcDbLine
 10
0.43290044
 20
-0.25
 30
0.0
 11
0.0
 21
0.5
 31
0.0
  0
CIRCLE
  5
5B1
100
AcDbEntity
  8
0
 62
     0
370
    -2
100
AcDbCircle
 10
0.0
 20
0.0
 30
0.0
 40
0.5
  0
CIRCLE
  5
5B2
100
AcDbEntity
  8
0
 62
     0
370
    -2
100
AcDbCircle
 10
0.0
 20
0.0
 30
0.0
 40
0.1312336
  0
ENDBLK
  5
5B3
100
AcDbEntity
100
AcDbBlockEnd
  0
BLOCK
  5
5B4
100
AcDbEntity
  8
0
100
AcDbBlockBegin
  2
CDWK_PTTYP28
 70
     0
 10
0.0
 20
0.0
 30
0.0
  3
CDWK_PTTYP28
  1

  4
Cadwork node
  0
POINT
  5
5B5
100
AcDbEntity
  8
0
 62
     0
100
AcDbPoint
 10
0.0
 20
0.0
 30
0.0
  0
ENDBLK
  5
5B6
100
AcDbEntity
100
AcDbBlockEnd
  0
BLOCK
  5
5B7
100
AcDbEntity
  8
0
100
AcDbBlockBegin
  2
CDWK_PTTYP29
 70
     0
 10
0.0
 20
0.0
 30
0.0
  3
CDWK_PTTYP29
  1

  4
Cadwork node
  0
CIRCLE
  5
5B8
100
AcDbEntity
  8
0
 62
     0
370
    -2
100
AcDbCircle
 10
0.0
 20
0.0
 30
0.0
 40
0.5
  0
CIRCLE
  5
5B9
100
AcDbEntity
  8
0
 62
     0
370
    -2
100
AcDbCircle
 10
0.0
 20
0.0
 30
0.0
 40
0.375
  0
CIRCLE
  5
5BA
100
AcDbEntity
  8
0
 62
     0
370
    -2
100
AcDbCircle
 10
0.0
 20
0.0
 30
0.0
 40
0.21875
  0
ENDBLK
  5
5BB
100
AcDbEntity
100
AcDbBlockEnd
  0
BLOCK
  5
5BC
100
AcDbEntity
  8
0
100
AcDbBlockBegin
  2
CDWK_PTTYP30
 70
     0
 10
0.0
 20
0.0
 30
0.0
  3
CDWK_PTTYP30
  1

  4
Cadwork node
  0
LINE
  5
5BD
100
AcDbEntity
  8
0
 62
     0
370
    -2
100
AcDbLine
 10
0.17680339
 20
0.17680339
 30
0.0
 11
0.5
 21
0.5
 31
0.0
  0
LINE
  5
5BE
100
AcDbEntity
  8
0
 62
     0
370
    -2
100
AcDbLine
 10
-0.17680339
 20
0.17680339
 30
0.0
 11
-0.5
 21
0.5
 31
0.0
  0
LINE
  5
5BF
100
AcDbEntity
  8
0
 62
     0
370
    -2
100
AcDbLine
 10
0.17680339
 20
-0.17680339
 30
0.0
 11
0.5
 21
-0.5
 31
0.0
  0
LINE
  5
5C0
100
AcDbEntity
  8
0
 62
     0
370
    -2
100
AcDbLine
 10
-0.17680339
 20
-0.17680339
 30
0.0
 11
-0.5
 21
-0.5
 31
0.0
  0
ENDBLK
  5
5C1
100
AcDbEntity
100
AcDbBlockEnd
  0
BLOCK
  5
5C2
100
AcDbEntity
  8
0
100
AcDbBlockBegin
  2
CDWK_PTTYP31
 70
     0
 10
0.0
 20
0.0
 30
0.0
  3
CDWK_PTTYP31
  1

  4
Cadwork node
  0
CIRCLE
  5
5C3
100
AcDbEntity
  8
0
 62
     0
370
    -2
100
AcDbCircle
 10
0.0
 20
0.0
 30
0.0
 40
0.075
  0
LINE
  5
5C4
100
AcDbEntity
  8
0
 62
     0
370
    -2
100
AcDbLine
 10
0.075
 20
0.0
 30
0.0
 11
0.5
 21
0.0
 31
0.0
  0
LINE
  5
5C5
100
AcDbEntity
  8
0
 62
     0
370
    -2
100
AcDbLine
 10
-0.075
 20
0.0
 30
0.0
 11
-0.5
 21
0.0
 31
0.0
  0
LINE
  5
5C6
100
AcDbEntity
  8
0
 62
     0
370
    -2
100
AcDbLine
 10
0.0
 20
0.075
 30
0.0
 11
0.0
 21
0.5
 31
0.0
  0
LINE
  5
5C7
100
AcDbEntity
  8
0
 62
     0
370
    -2
100
AcDbLine
 10
0.0
 20
-0.075
 30
0.0
 11
0.0
 21
-0.5
 31
0.0
  0
ENDBLK
  5
5C8
100
AcDbEntity
100
AcDbBlockEnd
  0
BLOCK
  5
5C9
100
AcDbEntity
  8
0
100
AcDbBlockBegin
  2
CDWK_PTTYP32
 70
     0
 10
0.0
 20
0.0
 30
0.0
  3
CDWK_PTTYP32
  1

  4
Cadwork node
  0
CIRCLE
  5
5CA
100
AcDbEntity
  8
0
 62
     0
370
    -2
100
AcDbCircle
 10
0.0
 20
0.0
 30
0.0
 40
0.5
  0
CIRCLE
  5
5CB
100
AcDbEntity
  8
0
 62
     0
370
    -2
100
AcDbCircle
 10
0.0
 20
0.0
 30
0.0
 40
0.16666667
  0
LINE
  5
5CC
100
AcDbEntity
  8
0
 62
     0
370
    -2
100
AcDbLine
 10
0.11786893
 20
0.11786893
 30
0.0
 11
0.35360678
 21
0.35360678
 31
0.0
  0
LINE
  5
5CD
100
AcDbEntity
  8
0
 62
     0
370
    -2
100
AcDbLine
 10
-0.11786893
 20
0.11786893
 30
0.0
 11
-0.35360678
 21
0.35360678
 31
0.0
  0
LINE
  5
5CE
100
AcDbEntity
  8
0
 62
     0
370
    -2
100
AcDbLine
 10
0.11786893
 20
-0.11786893
 30
0.0
 11
0.35360678
 21
-0.35360678
 31
0.0
  0
LINE
  5
5CF
100
AcDbEntity
  8
0
 62
     0
370
    -2
100
AcDbLine
 10
-0.11786893
 20
-0.11786893
 30
0.0
 11
-0.35360678
 21
-0.35360678
 31
0.0
  0
ENDBLK
  5
5D0
100
AcDbEntity
100
AcDbBlockEnd
  0
BLOCK
  5
5D1
100
AcDbEntity
  8
0
100
AcDbBlockBegin
  2
CDWK_PTTYP33
 70
     0
 10
0.0
 20
0.0
 30
0.0
  3
CDWK_PTTYP33
  1

  4
Cadwork node
  0
CIRCLE
  5
5D2
100
AcDbEntity
  8
0
 62
     0
370
    -2
100
AcDbCircle
 10
0.0
 20
0.0
 30
0.0
 40
0.5
  0
LINE
  5
5D3
100
AcDbEntity
  8
0
 62
     0
370
    -2
100
AcDbLine
 10
0.0
 20
0.5
 30
0.0
 11
0.0
 21
-0.5
 31
0.0
  0
LINE
  5
5D4
100
AcDbEntity
  8
0
 62
     0
370
    -2
100
AcDbLine
 10
-0.5
 20
0.0
 30
0.0
 11
0.5
 21
0.0
 31
0.0
  0
ENDBLK
  5
5D5
100
AcDbEntity
100
AcDbBlockEnd
  0
BLOCK
  5
5D6
100
AcDbEntity
  8
0
100
AcDbBlockBegin
  2
CDWK_PTTYP34
 70
     0
 10
0.0
 20
0.0
 30
0.0
  3
CDWK_PTTYP34
  1

  4
Cadwork node
  0
CIRCLE
  5
5D7
100
AcDbEntity
  8
0
 62
     0
370
    -2
100
AcDbCircle
 10
0.0
 20
0.0
 30
0.0
 40
0.5
  0
LINE
  5
5D8
100
AcDbEntity
  8
0
 62
     0
370
    -2
100
AcDbLine
 10
-0.30360678
 20
-0.40360678
 30
0.0
 11
0.40360678
 21
0.30360678
 31
0.0
  0
LINE
  5
5D9
100
AcDbEntity
  8
0
 62
     0
370
    -2
100
AcDbLine
 10
-0.40360678
 20
-0.30360678
 30
0.0
 11
0.30360678
 21
0.40360678
 31
0.0
  0
ENDBLK
  5
5DA
100
AcDbEntity
100
AcDbBlockEnd
  0
BLOCK
  5
5DB
100
AcDbEntity
  8
0
100
AcDbBlockBegin
  2
CDWK_PTTYP35
 70
     0
 10
0.0
 20
0.0
 30
0.0
  3
CDWK_PTTYP35
  1

  4
Cadwork node
  0
CIRCLE
  5
5DC
100
AcDbEntity
  8
0
 62
     0
370
    -2
100
AcDbCircle
 10
0.0
 20
0.0
 30
0.0
 40
0.21431634
  0
LINE
  5
5DD
100
AcDbEntity
  8
0
 62
     0
370
    -2
100
AcDbLine
 10
0.0
 20
0.21431634
 30
0.0
 11
0.0
 21
0.5
 31
0.0
  0
LINE
  5
5DE
100
AcDbEntity
  8
0
 62
     0
370
    -2
100
AcDbLine
 10
0.0
 20
-0.21431634
 30
0.0
 11
0.0
 21
-0.5
 31
0.0
  0
ENDBLK
  5
5DF
100
AcDbEntity
100
AcDbBlockEnd
  0
BLOCK
  5
5E0
100
AcDbEntity
  8
0
100
AcDbBlockBegin
  2
CDWK_PTTYP36
 70
     0
 10
0.0
 20
0.0
 30
0.0
  3
CDWK_PTTYP36
  1

  4
Cadwork node
  0
LINE
  5
5E1
100
AcDbEntity
  8
0
 62
     0
370
    -2
100
AcDbLine
 10
-0.5
 20
-0.16666667
 30
0.0
 11
0.5
 21
-0.16666667
 31
0.0
  0
LINE
  5
5E2
100
AcDbEntity
  8
0
 62
     0
370
    -2
100
AcDbLine
 10
0.5
 20
-0.16666667
 30
0.0
 11
0.5
 21
0.16666667
 31
0.0
  0
LINE
  5
5E3
100
AcDbEntity
  8
0
 62
     0
370
    -2
100
AcDbLine
 10
0.5
 20
0.16666667
 30
0.0
 11
-0.5
 21
0.16666667
 31
0.0
  0
LINE
  5
5E4
100
AcDbEntity
  8
0
 62
     0
370
    -2
100
AcDbLine
 10
-0.5
 20
0.16666667
 30
0.0
 11
-0.5
 21
-0.16666667
 31
0.0
  0
SOLID
  5
5E5
100
AcDbEntity
  8
0
 62
     0
100
AcDbTrace
 10
-0.5
 20
-0.16666667
 11
0.5
 21
0.16666667
 12
0.5
 22
-0.16666667
 13
0.5
 23
-0.16666667
  0
ENDBLK
  5
5E6
100
AcDbEntity
100
AcDbBlockEnd
  0
BLOCK
  5
5E7
100
AcDbEntity
  8
0
100
AcDbBlockBegin
  2
CDWK_PTTYP37
 70
     0
 10
0.0
 20
0.0
 30
0.0
  3
CDWK_PTTYP37
  1

  4
Cadwork node
  0
CIRCLE
  5
5E8
100
AcDbEntity
  8
0
 62
     0
370
    -2
100
AcDbCircle
 10
0.0
 20
0.0
 30
0.0
 40
0.5
  0
SOLID
  5
5E9
100
AcDbEntity
  8
0
 62
     0
100
AcDbTrace
 10
0.0
 20
0.0
 11
0.35350001
 21
0.35350001
 12
0.5
 22
0.0
 13
0.46200001
 23
0.19149999
  0
SOLID
  5
5EA
100
AcDbEntity
  8
0
 62
     0
100
AcDbTrace
 10
0.0
 20
0.0
 11
0.35350001
 21
-0.35350001
 12
0.5
 22
0.0
 13
0.46200001
 23
-0.19149999
  0
SOLID
  5
5EB
100
AcDbEntity
  8
0
 62
     0
100
AcDbTrace
 10
0.0
 20
0.0
 11
0.0
 21
-0.5
 12
0.35350001
 22
-0.35350001
 13
0.19149999
 23
-0.46200001
  0
SOLID
  5
5EC
100
AcDbEntity
  8
0
 62
     0
100
AcDbTrace
 10
0.0
 20
0.0
 11
0.0
 21
-0.5
 12
-0.35350001
 22
-0.35350001
 13
-0.19149999
 23
-0.46200001
  0
ENDBLK
  5
5ED
100
AcDbEntity
100
AcDbBlockEnd
  0
BLOCK
  5
5EE
100
AcDbEntity
  8
0
100
AcDbBlockBegin
  2
CDWK_PTTYP38
 70
     0
 10
0.0
 20
0.0
 30
0.0
  3
CDWK_PTTYP38
  1

  4
Cadwork node
  0
CIRCLE
  5
5EF
100
AcDbEntity
  8
0
 62
     0
370
    -2
100
AcDbCircle
 10
0.0
 20
0.0
 30
0.0
 40
0.5
  0
SOLID
  5
5F0
100
AcDbEntity
  8
0
 62
     0
100
AcDbTrace
 10
0.0
 20
0.0
 11
0.35350001
 21
0.35350001
 12
0.0
 22
0.5
 13
0.19149999
 23
0.46200001
  0
SOLID
  5
5F1
100
AcDbEntity
  8
0
 62
     0
100
AcDbTrace
 10
0.0
 20
0.0
 11
0.5
 21
0.0
 12
0.35350001
 22
0.35350001
 13
0.46200001
 23
0.19149999
  0
SOLID
  5
5F2
100
AcDbEntity
  8
0
 62
     0
100
AcDbTrace
 10
0.0
 20
0.0
 11
0.0
 21
-0.5
 12
-0.35350001
 22
-0.35350001
 13
-0.19149999
 23
-0.46200001
  0
SOLID
  5
5F3
100
AcDbEntity
  8
0
 62
     0
100
AcDbTrace
 10
0.0
 20
0.0
 11
-0.5
 21
0.0
 12
-0.35350001
 22
-0.35350001
 13
-0.46200001
 23
-0.19149999
  0
ENDBLK
  5
5F4
100
AcDbEntity
100
AcDbBlockEnd
  0
BLOCK
  5
5F5
100
AcDbEntity
  8
Ech.1_5
100
AcDbBlockBegin
  2
*X1
 70
     1
 10
0.0
 20
0.0
 30
0.0
  3
*X1
  1

  4
Cadwork hatch
  0
LINE
  5
5F6
100
AcDbEntity
  8
Ech.1_5
 62
   190
  6
CONTINUOUS
370
    -2
100
AcDbLine
 10
54989.45232018
 20
-8629.55677491
 30
0.0
 11
54944.44694618
 21
-8809.55683975
 31
0.0
  0
LINE
  5
5F7
100
AcDbEntity
  8
Ech.1_5
 62
   190
  6
CONTINUOUS
370
    -2
100
AcDbLine
 10
54944.44694618
 20
-8629.55677491
 30
0.0
 11
54989.45232018
 21
-8809.55683975
 31
0.0
  0
ENDBLK
  5
5F8
100
AcDbEntity
100
AcDbBlockEnd
  0
BLOCK
  5
5F9
100
AcDbEntity
  8
Ech.1_5
100
AcDbBlockBegin
  2
*X2
 70
     1
 10
0.0
 20
0.0
 30
0.0
  3
*X2
  1

  4
Cadwork hatch
  0
LINE
  5
5FA
100
AcDbEntity
  8
Ech.1_5
 62
   190
  6
CONTINUOUS
370
    -2
100
AcDbLine
 10
55034.45293169
 20
-8629.55677491
 30
0.0
 11
54989.45232018
 21
-8809.55683975
 31
0.0
  0
LINE
  5
5FB
100
AcDbEntity
  8
Ech.1_5
 62
   190
  6
CONTINUOUS
370
    -2
100
AcDbLine
 10
54989.45232018
 20
-8629.55677491
 30
0.0
 11
55034.45293169
 21
-8809.55683975
 31
0.0
  0
ENDBLK
  5
5FC
100
AcDbEntity
100
AcDbBlockEnd
  0
BLOCK
  5
5FD
100
AcDbEntity
  8
Ech.1_5
100
AcDbBlockBegin
  2
*X3
 70
     1
 10
0.0
 20
0.0
 30
0.0
  3
*X3
  1

  4
Cadwork hatch
  0
LINE
  5
5FE
100
AcDbEntity
  8
Ech.1_5
 62
   190
  6
CONTINUOUS
370
    -2
100
AcDbLine
 10
55034.45293169
 20
-8818.55553331
 30
0.0
 11
54984.44696059
 21
-8843.55613763
 31
0.0
  0
LINE
  5
5FF
100
AcDbEntity
  8
Ech.1_5
 62
   190
  6
CONTINUOUS
370
    -2
100
AcDbLine
 10
54984.44696059
 20
-8818.55553331
 30
0.0
 11
55034.45293169
 21
-8843.55613763
 31
0.0
  0
ENDBLK
  5
600
100
AcDbEntity
100
AcDbBlockEnd
  0
BLOCK
  5
601
100
AcDbEntity
  8
Ech.1_5
100
AcDbBlockBegin
  2
*X4
 70
     1
 10
0.0
 20
0.0
 30
0.0
  3
*X4
  1

  4
Cadwork hatch
  0
LINE
  5
602
100
AcDbEntity
  8
Ech.1_5
 62
   190
  6
CONTINUOUS
370
    -2
100
AcDbLine
 10
55407.8403742
 20
-8629.55677491
 30
0.0
 11
55452.84098572
 21
-8809.55683975
 31
0.0
  0
LINE
  5
603
100
AcDbEntity
  8
Ech.1_5
 62
   190
  6
CONTINUOUS
370
    -2
100
AcDbLine
 10
55452.84098572
 20
-8629.55677491
 30
0.0
 11
55407.8403742
 21
-8809.55683975
 31
0.0
  0
ENDBLK
  5
604
100
AcDbEntity
100
AcDbBlockEnd
  0
BLOCK
  5
605
100
AcDbEntity
  8
Ech.1_5
100
AcDbBlockBegin
  2
*X5
 70
     1
 10
0.0
 20
0.0
 30
0.0
  3
*X5
  1

  4
Cadwork hatch
  0
LINE
  5
606
100
AcDbEntity
  8
Ech.1_5
 62
   190
  6
CONTINUOUS
370
    -2
100
AcDbLine
 10
55362.84452516
 20
-8629.55677491
 30
0.0
 11
55407.8403742
 21
-8809.55683975
 31
0.0
  0
LINE
  5
607
100
AcDbEntity
  8
Ech.1_5
 62
   190
  6
CONTINUOUS
370
    -2
100
AcDbLine
 10
55407.8403742
 20
-8629.55677491
 30
0.0
 11
55362.84452516
 21
-8809.55683975
 31
0.0
  0
ENDBLK
  5
608
100
AcDbEntity
100
AcDbBlockEnd
  0
BLOCK
  5
609
100
AcDbEntity
  8
Ech.1_5
100
AcDbBlockBegin
  2
*X6
 70
     1
 10
0.0
 20
0.0
 30
0.0
  3
*X6
  1

  4
Cadwork hatch
  0
LINE
  5
60A
100
AcDbEntity
  8
Ech.1_5
 62
   190
  6
CONTINUOUS
370
    -2
100
AcDbLine
 10
55362.83976269
 20
-8818.55553331
 30
0.0
 11
55412.84097132
 21
-8843.55613763
 31
0.0
  0
LINE
  5
60B
100
AcDbEntity
  8
Ech.1_5
 62
   190
  6
CONTINUOUS
370
    -2
100
AcDbLine
 10
55412.84097132
 20
-8818.55553331
 30
0.0
 11
55362.83976269
 21
-8843.55613763
 31
0.0
  0
ENDBLK
  5
60C
100
AcDbEntity
100
AcDbBlockEnd
  0
BLOCK
  5
60D
100
AcDbEntity
  8
Ech.1_5
100
AcDbBlockBegin
  2
*D39
 70
     1
 10
0.0
 20
0.0
 30
0.0
  3
*D39
  1

  4
Cadwork dimension
  0
TEXT
  5
60E
100
AcDbEntity
  8
Ech.1_5
 62
   190
370
    18
100
AcDbText
 10
54920.19359102
 20
-8590.05560033
 30
0.0
 40
12.5
  1
200mm min
  7
ARIAL
 50
0.0
 41
1.0
 51
0.0
100
AcDbText
  0
LINE
  5
60F
100
AcDbEntity
  8
Ech.1_5
 62
   190
370
    -2
100
AcDbLine
 10
54834.44645481
 20
-8590.05560033
 30
0.0
 11
54834.44645481
 21
-8612.62704555
 31
0.0
  0
LINE
  5
610
100
AcDbEntity
  8
Ech.1_5
 62
   190
370
    -2
100
AcDbLine
 10
55034.45100212
 20
-8590.05560033
 30
0.0
 11
55034.45100212
 21
-8614.5555846
 31
0.0
  0
LINE
  5
611
100
AcDbEntity
  8
Ech.1_5
 62
   190
370
    -2
100
AcDbLine
 10
54829.44645481
 20
-8595.05560033
 30
0.0
 11
55039.45100212
 21
-8595.05560033
 31
0.0
  0
LINE
  5
612
100
AcDbEntity
  8
Ech.1_5
 62
   190
370
    -2
100
AcDbLine
 10
54831.94645481
 20
-8597.55560033
 30
0.0
 11
54836.94645481
 21
-8592.55560033
 31
0.0
  0
LINE
  5
613
100
AcDbEntity
  8
Ech.1_5
 62
   190
370
    -2
100
AcDbLine
 10
55031.95100212
 20
-8597.55560033
 30
0.0
 11
55036.95100212
 21
-8592.55560033
 31
0.0
  0
ENDBLK
  5
614
100
AcDbEntity
100
AcDbBlockEnd
  0
BLOCK
  5
615
100
AcDbEntity
  8
Ech.1_5
100
AcDbBlockBegin
  2
*D40
 70
     1
 10
0.0
 20
0.0
 30
0.0
  3
*D40
  1

  4
Cadwork dimension
  0
TEXT
  5
616
100
AcDbEntity
  8
Ech.1_5
 62
   190
370
    18
100
AcDbText
 10
55416.22520568
 20
-8590.05560033
 30
0.0
 40
12.5
  1
200mm min
  7
ARIAL
 50
0.0
 41
1.0
 51
0.0
100
AcDbText
  0
LINE
  5
617
100
AcDbEntity
  8
Ech.1_5
 62
   190
370
    -2
100
AcDbLine
 10
55562.84563291
 20
-8590.05560033
 30
0.0
 11
55562.84563291
 21
-8612.62704555
 31
0.0
  0
LINE
  5
618
100
AcDbEntity
  8
Ech.1_5
 62
   190
370
    -2
100
AcDbLine
 10
55362.8410856
 20
-8590.05560033
 30
0.0
 11
55362.8410856
 21
-8614.5555846
 31
0.0
  0
LINE
  5
619
100
AcDbEntity
  8
Ech.1_5
 62
   190
370
    -2
100
AcDbLine
 10
55567.84563291
 20
-8595.05560033
 30
0.0
 11
55357.8410856
 21
-8595.05560033
 31
0.0
  0
LINE
  5
61A
100
AcDbEntity
  8
Ech.1_5
 62
   190
370
    -2
100
AcDbLine
 10
55565.34563291
 20
-8592.55560033
 30
0.0
 11
55560.34563291
 21
-8597.55560033
 31
0.0
  0
LINE
  5
61B
100
AcDbEntity
  8
Ech.1_5
 62
   190
370
    -2
100
AcDbLine
 10
55365.3410856
 20
-8592.55560033
 30
0.0
 11
55360.3410856
 21
-8597.55560033
 31
0.0
  0
ENDBLK
  5
61C
100
AcDbEntity
100
AcDbBlockEnd
  0
BLOCK
  5
61D
100
AcDbEntity
  8
Ech.1_5
100
AcDbBlockBegin
  2
*D41
 70
     1
 10
0.0
 20
0.0
 30
0.0
  3
*D41
  1

  4
Cadwork dimension
  0
TEXT
  5
61E
100
AcDbEntity
  8
Ech.1_5
 62
   190
370
    18
100
AcDbText
 10
55093.25082078
 20
-8650.69670109
 30
0.0
 40
12.5
  1
25mm max
  7
ARIAL
 50
89.9999975
 41
1.0
 51
0.0
100
AcDbText
  0
LINE
  5
61F
100
AcDbEntity
  8
Ech.1_5
 62
   190
370
    -2
100
AcDbLine
 10
55103.25082078
 20
-8629.85577204
 30
0.0
 11
55084.17860791
 21
-8629.85577204
 31
0.0
  0
LINE
  5
620
100
AcDbEntity
  8
Ech.1_5
 62
   190
370
    -2
100
AcDbLine
 10
55103.25082078
 20
-8614.5555846
 30
0.0
 11
55084.17860791
 21
-8614.5555846
 31
0.0
  0
LINE
  5
621
100
AcDbEntity
  8
Ech.1_5
 62
   190
370
    -2
100
AcDbLine
 10
55098.25082078
 20
-8634.85577204
 30
0.0
 11
55098.25082078
 21
-8609.5555846
 31
0.0
  0
LINE
  5
622
100
AcDbEntity
  8
Ech.1_5
 62
   190
370
    -2
100
AcDbLine
 10
55100.75082078
 20
-8632.35577204
 30
0.0
 11
55095.75082078
 21
-8627.35577204
 31
0.0
  0
LINE
  5
623
100
AcDbEntity
  8
Ech.1_5
 62
   190
370
    -2
100
AcDbLine
 10
55100.75082078
 20
-8617.0555846
 30
0.0
 11
55095.75082078
 21
-8612.0555846
 31
0.0
  0
ENDBLK
  5
624
100
AcDbEntity
100
AcDbBlockEnd
  0
BLOCK
  5
625
100
AcDbEntity
  8
Ech.1_5
100
AcDbBlockBegin
  2
*D42
 70
     1
 10
0.0
 20
0.0
 30
0.0
  3
*D42
  1

  4
Cadwork dimension
  0
TEXT
  5
626
100
AcDbEntity
  8
Ech.1_5
 62
   190
370
    18
100
AcDbText
 10
55294.04126694
 20
-8650.69670109
 30
0.0
 40
12.5
  1
25mm max
  7
ARIAL
 50
89.9999975
 41
1.0
 51
0.0
100
AcDbText
  0
LINE
  5
627
100
AcDbEntity
  8
Ech.1_5
 62
   190
370
    -2
100
AcDbLine
 10
55294.04126694
 20
-8629.85577204
 30
0.0
 11
55313.11347981
 21
-8629.85577204
 31
0.0
  0
LINE
  5
628
100
AcDbEntity
  8
Ech.1_5
 62
   190
370
    -2
100
AcDbLine
 10
55294.04126694
 20
-8614.5555846
 30
0.0
 11
55313.11347981
 21
-8614.5555846
 31
0.0
  0
LINE
  5
629
100
AcDbEntity
  8
Ech.1_5
 62
   190
370
    -2
100
AcDbLine
 10
55299.04126694
 20
-8634.85577204
 30
0.0
 11
55299.04126694
 21
-8609.5555846
 31
0.0
  0
LINE
  5
62A
100
AcDbEntity
  8
Ech.1_5
 62
   190
370
    -2
100
AcDbLine
 10
55301.54126694
 20
-8632.35577204
 30
0.0
 11
55296.54126694
 21
-8627.35577204
 31
0.0
  0
LINE
  5
62B
100
AcDbEntity
  8
Ech.1_5
 62
   190
370
    -2
100
AcDbLine
 10
55301.54126694
 20
-8617.0555846
 30
0.0
 11
55296.54126694
 21
-8612.0555846
 31
0.0
  0
ENDBLK
  5
62C
100
AcDbEntity
100
AcDbBlockEnd
  0
ENDSEC
  0
SECTION
  2
ENTITIES
  0
INSERT
  5
62D
100
AcDbEntity
  8
Ech.1_5
 62
     0
100
AcDbBlockReference
  2
*X1
 10
0.0
 20
0.0
 30
0.0
  0
INSERT
  5
62E
100
AcDbEntity
  8
Ech.1_5
 62
     0
100
AcDbBlockReference
  2
*X2
 10
0.0
 20
0.0
 30
0.0
  0
INSERT
  5
62F
100
AcDbEntity
  8
Ech.1_5
 62
     0
100
AcDbBlockReference
  2
*X3
 10
0.0
 20
0.0
 30
0.0
  0
INSERT
  5
630
100
AcDbEntity
  8
Ech.1_5
 62
     0
100
AcDbBlockReference
  2
*X4
 10
0.0
 20
0.0
 30
0.0
  0
INSERT
  5
631
100
AcDbEntity
  8
Ech.1_5
 62
     0
100
AcDbBlockReference
  2
*X5
 10
0.0
 20
0.0
 30
0.0
  0
INSERT
  5
632
100
AcDbEntity
  8
Ech.1_5
 62
     0
100
AcDbBlockReference
  2
*X6
 10
0.0
 20
0.0
 30
0.0
  0
LWPOLYLINE
  5
633
100
AcDbEntity
  8
Ech.1_5
 62
   190
  6
CONTINUOUS
370
    -3
100
AcDbPolyline
 90
        5
 70
     0
 43
0.0
 10
55690.40878237
 20
-8157.40601397
 10
54705.40878237
 20
-8157.40601397
 10
54705.40878237
 20
-9512.40601397
 10
55690.40878237
 20
-9512.40601397
 10
55690.40878237
 20
-8157.40601397
  0
LINE
  5
634
100
AcDbEntity
  8
Ech.1_5
 62
   177
  6
DASHEDX2
 48
0.89999998
370
    70
100
AcDbLine
 10
55197.94513239
 20
-8658.5600248
 30
0.0
 11
55044.17782974
 21
-8658.5555846
 31
0.0
  0
LWPOLYLINE
  5
635
100
AcDbEntity
  8
Ech.1_5
 62
   177
  6
CONTINUOUS
370
    70
100
AcDbPolyline
 90
        6
 70
     0
 43
0.0
 10
55197.94526926
 20
-8878.55558466
 10
55189.04353287
 20
-8878.55558466
 10
55044.17665556
 20
-8878.55558466
 10
55044.17665556
 20
-8868.55822209
 10
55044.17665556
 20
-8868.55848675
 10
55044.18000552
 20
-8658.55740956
  0
LWPOLYLINE
  5
636
100
AcDbEntity
  8
Ech.1_5
 62
   190
100
AcDbPolyline
 90
        5
 70
     0
 43
0.0
 10
54833.7597328
 20
-9122.40035153
 10
54968.18851178
 20
-9122.40035153
 10
54968.18851178
 20
-9179.12331034
 10
54833.7597328
 20
-9179.12331034
 10
54833.7597328
 20
-9122.40035153
  0
HATCH
  5
637
100
AcDbEntity
  8
Ech.1_5
 62
   190
100
AcDbHatch
 10
0.0
 20
0.0
 30
0.0
210
0.0
220
0.0
230
1.0
  2
SOLID
 70
     1
 71
     0
 91
        1
 92
        7
 72
     0
 73
     1
 93
        4
 10
54852.03977858
 20
-9156.05716266
 10
54902.03977858
 20
-9156.05716266
 10
54902.03977858
 20
-9148.64202512
 10
54852.03977858
 20
-9148.64202512
 97
        0
 75
     0
 76
     2
 47
0.775229
 98
        1
 10
0.0
 20
0.0
  0
LWPOLYLINE
  5
638
100
AcDbEntity
  8
Ech.1_5
 62
   190
100
AcDbPolyline
 90
        5
 70
     0
 43
0.0
 10
54852.03977858
 20
-9156.05716266
 10
54902.03977858
 20
-9156.05716266
 10
54902.03977858
 20
-9148.64202512
 10
54852.03977858
 20
-9148.64202512
 10
54852.03977858
 20
-9156.05716266
  0
LWPOLYLINE
  5
639
100
AcDbEntity
  8
Ech.1_5
 62
   190
100
AcDbPolyline
 90
        5
 70
     0
 43
0.0
 10
54902.03977858
 20
-9156.05716266
 10
54952.03977858
 20
-9156.05716266
 10
54952.03977858
 20
-9148.64202512
 10
54902.03977858
 20
-9148.64202512
 10
54902.03977858
 20
-9156.05716266
  0
LINE
  5
63A
100
AcDbEntity
  8
Ech.1_5
 62
     7
  6
CENTER
370
    18
100
AcDbLine
 10
55197.65238421
 20
-8290.95591438
 30
0.0
 11
55197.65238421
 21
-8919.11712721
 31
0.0
  0
LINE
  5
63B
100
AcDbEntity
  8
Ech.1_5
 62
     7
  6
CENTER
370
    18
100
AcDbLine
 10
55199.63970351
 20
-8290.95591438
 30
0.0
 11
55199.63970351
 21
-8919.11712721
 31
0.0
  0
LINE
  5
63C
100
AcDbEntity
  8
Ech.1_5
 62
     7
  6
CONTINUOUS
100
AcDbLine
 10
55296.0472173
 20
-8337.80478805
 30
0.0
 11
55199.63970351
 21
-8337.80478805
 31
0.0
  0
LINE
  5
63D
100
AcDbEntity
  8
Ech.1_5
 62
     7
  6
CONTINUOUS
100
AcDbLine
 10
55296.0472173
 20
-8333.80478805
 30
0.0
 11
55199.63970351
 21
-8333.80479453
 31
0.0
  0
LINE
  5
63E
100
AcDbEntity
  8
Ech.1_5
 62
     7
  6
CONTINUOUS
100
AcDbLine
 10
55296.0472173
 20
-8317.80478805
 30
0.0
 11
55199.63970351
 21
-8317.80479453
 31
0.0
  0
LINE
  5
63F
100
AcDbEntity
  8
Ech.1_5
 62
     7
  6
CONTINUOUS
100
AcDbLine
 10
55296.0472173
 20
-8313.80478805
 30
0.0
 11
55199.63970351
 21
-8313.80479453
 31
0.0
  0
LINE
  5
640
100
AcDbEntity
  8
Ech.1_5
 62
     7
  6
CONTINUOUS
100
AcDbLine
 10
55286.5472173
 20
-8317.80478805
 30
0.0
 11
55286.5472173
 21
-8333.80478805
 31
0.0
  0
LINE
  5
641
100
AcDbEntity
  8
Ech.1_5
 62
     7
  6
CONTINUOUS
100
AcDbLine
 10
55296.0472173
 20
-8313.80478805
 30
0.0
 11
55296.0472173
 21
-8337.80478805
 31
0.0
  0
LINE
  5
642
100
AcDbEntity
  8
Ech.1_5
 62
     7
  6
CONTINUOUS
100
AcDbLine
 10
55298.0472173
 20
-8319.80478805
 30
0.0
 11
55296.8472173
 21
-8319.80478805
 31
0.0
  0
LINE
  5
643
100
AcDbEntity
  8
Ech.1_5
 62
     7
  6
CONTINUOUS
100
AcDbLine
 10
55298.0472173
 20
-8331.80478805
 30
0.0
 11
55296.8472173
 21
-8331.80478805
 31
0.0
  0
LINE
  5
644
100
AcDbEntity
  8
Ech.1_5
 62
     7
  6
CONTINUOUS
100
AcDbLine
 10
55298.0472173
 20
-8337.80478805
 30
0.0
 11
55301.04720866
 21
-8313.80478372
 31
0.0
  0
LINE
  5
645
100
AcDbEntity
  8
Ech.1_5
 62
     7
  6
CONTINUOUS
100
AcDbLine
 10
55298.0472173
 20
-8313.80478805
 30
0.0
 11
55301.04720866
 21
-8337.80478805
 31
0.0
  0
LINE
  5
646
100
AcDbEntity
  8
Ech.1_5
 62
     7
  6
CONTINUOUS
100
AcDbLine
 10
55301.04720866
 20
-8337.80478805
 30
0.0
 11
55301.0472173
 21
-8313.80478805
 31
0.0
  0
LINE
  5
647
100
AcDbEntity
  8
Ech.1_5
 62
     7
  6
CONTINUOUS
100
AcDbLine
 10
55301.0472173
 20
-8313.80478805
 30
0.0
 11
55298.0472173
 21
-8313.80478805
 31
0.0
  0
LINE
  5
648
100
AcDbEntity
  8
Ech.1_5
 62
     7
  6
CONTINUOUS
100
AcDbLine
 10
55298.0472173
 20
-8313.80478805
 30
0.0
 11
55298.0472173
 21
-8337.80478805
 31
0.0
  0
LINE
  5
649
100
AcDbEntity
  8
Ech.1_5
 62
     7
  6
CONTINUOUS
100
AcDbLine
 10
55298.0472173
 20
-8337.80478805
 30
0.0
 11
55301.0472173
 21
-8337.80478805
 31
0.0
  0
LINE
  5
64A
100
AcDbEntity
  8
Ech.1_5
 62
     7
  6
CONTINUOUS
100
AcDbLine
 10
55355.41047628
 20
-8302.10769174
 30
0.0
 11
55321.4570721
 21
-8303.88711425
 31
0.0
  0
LINE
  5
64B
100
AcDbEntity
  8
Ech.1_5
 62
     7
  6
CENTER
100
AcDbLine
 10
55368.17638426
 20
-8301.67039302
 30
0.0
 11
55368.17638426
 21
-8326.60779736
 31
0.0
  0
ARC
  5
64C
100
AcDbEntity
  8
Ech.1_5
 62
     7
  6
CONTINUOUS
100
AcDbCircle
 10
55366.98710727
 20
-8305.00578943
 30
0.0
 40
6.59090909
100
AcDbArc
 50
282.52728338
 51
83.47271662
  0
LINE
  5
64D
100
AcDbEntity
  8
Ech.1_5
 62
     7
  6
CONTINUOUS
100
AcDbLine
 10
55356.9062974
 20
-8311.54233636
 30
0.0
 11
55356.27826592
 21
-8299.55878194
 31
0.0
  0
LINE
  5
64E
100
AcDbEntity
  8
Ech.1_5
 62
     7
  6
CONTINUOUS
100
AcDbLine
 10
55355.88149989
 20
-8311.09535755
 30
0.0
 11
55355.30580437
 21
-8300.11043267
 31
0.0
  0
LINE
  5
64F
100
AcDbEntity
  8
Ech.1_5
 62
     7
  6
CONTINUOUS
100
AcDbLine
 10
55376.17638426
 20
-8312.55531529
 30
0.0
 11
55376.17638426
 21
-8300.23070582
 31
0.0
  0
LINE
  5
650
100
AcDbEntity
  8
Ech.1_5
 62
     7
  6
CONTINUOUS
100
AcDbLine
 10
55361.17965669
 20
-8298.80122477
 30
0.0
 11
55362.02626228
 21
-8297.74296777
 31
0.0
  0
LINE
  5
651
100
AcDbEntity
  8
Ech.1_5
 62
     7
  6
CONTINUOUS
100
AcDbLine
 10
55356.75141271
 20
-8299.0332992
 30
0.0
 11
55367.7363376
 21
-8298.45760368
 31
0.0
  0
ARC
  5
652
100
AcDbEntity
  8
Ech.1_5
 62
     7
  6
CONTINUOUS
100
AcDbCircle
 10
55356.77758069
 20
-8299.53261397
 30
0.0
 40
0.5
100
AcDbArc
 50
93.0
 51
183.0
  0
LINE
  5
653
100
AcDbEntity
  8
Ech.1_5
 62
     7
  6
CONTINUOUS
100
AcDbLine
 10
55355.30580437
 20
-8300.11043267
 30
0.0
 11
55356.3044339
 21
-8300.05809671
 31
0.0
  0
LINE
  5
654
100
AcDbEntity
  8
Ech.1_5
 62
     7
  6
CONTINUOUS
100
AcDbLine
 10
55363.17638426
 20
-8298.69658071
 30
0.0
 11
55363.17638426
 21
-8297.55531529
 31
0.0
  0
LINE
  5
655
100
AcDbEntity
  8
Ech.1_5
 62
     7
  6
CONTINUOUS
100
AcDbLine
 10
55373.93607184
 20
-8297.55531529
 30
0.0
 11
55362.41669669
 21
-8297.55531529
 31
0.0
  0
ARC
  5
656
100
AcDbEntity
  8
Ech.1_5
 62
     7
  6
CONTINUOUS
100
AcDbCircle
 10
55362.41669669
 20
-8298.05531529
 30
0.0
 40
0.5
100
AcDbArc
 50
89.99999999
 51
141.34019175
  0
ARC
  5
657
100
AcDbEntity
  8
Ech.1_5
 62
     7
  6
CONTINUOUS
100
AcDbCircle
 10
55375.67638426
 20
-8300.23070582
 30
0.0
 40
0.5
100
AcDbArc
 50
360.0
 51
38.65980825
  0
ARC
  5
658
100
AcDbEntity
  8
Ech.1_5
 62
     7
  6
CONTINUOUS
100
AcDbCircle
 10
55375.67638426
 20
-8300.23070582
 30
0.0
 40
0.5
100
AcDbArc
 50
360.0
 51
38.65980825
  0
ARC
  5
659
100
AcDbEntity
  8
Ech.1_5
 62
     7
  6
CONTINUOUS
100
AcDbCircle
 10
55373.93607184
 20
-8298.05531529
 30
0.0
 40
0.5
100
AcDbArc
 50
38.65980825
 51
90.00000001
  0
LINE
  5
65A
100
AcDbEntity
  8
Ech.1_5
 62
     7
  6
CONTINUOUS
100
AcDbLine
 10
55373.17638426
 20
-8302.68232799
 30
0.0
 11
55373.17638426
 21
-8297.55531529
 31
0.0
  0
LINE
  5
65B
100
AcDbEntity
  8
Ech.1_5
 62
     7
  6
CONTINUOUS
100
AcDbLine
 10
55376.06681867
 20
-8299.9183583
 30
0.0
 11
55374.32650625
 21
-8297.74296777
 31
0.0
  0
LINE
  5
65C
100
AcDbEntity
  8
Ech.1_5
 62
     7
  6
CENTER
100
AcDbLine
 10
55372.64673561
 20
-8304.70918087
 30
0.0
 11
55318.64435934
 21
-8307.53932549
 31
0.0
  0
LINE
  5
65D
100
AcDbEntity
  8
Ech.1_5
 62
     7
  6
CONTINUOUS
100
AcDbLine
 10
55355.77682797
 20
-8309.09809848
 30
0.0
 11
55321.82342379
 21
-8310.87752099
 31
0.0
  0
ARC
  5
65E
100
AcDbEntity
  8
Ech.1_5
 62
     7
  6
CONTINUOUS
100
AcDbCircle
 10
55327.2802884
 20
-8307.08673563
 30
0.0
 40
6.64435287
100
AcDbArc
 50
151.21298885
 51
214.78701115
  0
LINE
  5
65F
100
AcDbEntity
  8
Ech.1_5
 62
     7
  6
CONTINUOUS
100
AcDbLine
 10
55321.82342379
 20
-8310.87752099
 30
0.0
 11
55321.4570721
 21
-8303.88711425
 31
0.0
  0
LINE
  5
660
100
AcDbEntity
  8
Ech.1_5
 62
     7
  6
CONTINUOUS
100
AcDbLine
 10
55357.43178014
 20
-8312.01548315
 30
0.0
 11
55368.41670503
 21
-8311.43978763
 31
0.0
  0
LINE
  5
661
100
AcDbEntity
  8
Ech.1_5
 62
     7
  6
CONTINUOUS
100
AcDbLine
 10
55358.67638426
 20
-8315.55531529
 30
0.0
 11
55377.67638426
 21
-8315.55531529
 31
0.0
  0
LINE
  5
662
100
AcDbEntity
  8
Ech.1_5
 62
     7
  6
CONTINUOUS
100
AcDbLine
 10
55359.17638426
 20
-8312.55531529
 30
0.0
 11
55377.17638426
 21
-8312.55531529
 31
0.0
  0
LINE
  5
663
100
AcDbEntity
  8
Ech.1_5
 62
     7
  6
CONTINUOUS
100
AcDbLine
 10
55360.17638426
 20
-8312.55531529
 30
0.0
 11
55360.17638426
 21
-8311.87164454
 31
0.0
  0
ARC
  5
664
100
AcDbEntity
  8
Ech.1_5
 62
     7
  6
CONTINUOUS
100
AcDbCircle
 10
55357.40561217
 20
-8311.51616838
 30
0.0
 40
0.5
100
AcDbArc
 50
183.0
 51
273.0
  0
LINE
  5
665
100
AcDbEntity
  8
Ech.1_5
 62
     7
  6
CONTINUOUS
100
AcDbLine
 10
55355.88149989
 20
-8311.09535755
 30
0.0
 11
55356.88012942
 21
-8311.04302159
 31
0.0
  0
ARC
  5
666
100
AcDbEntity
  8
Ech.1_5
 62
     7
  6
CONTINUOUS
100
AcDbCircle
 10
55359.17638426
 20
-8313.05531529
 30
0.0
 40
0.5
100
AcDbArc
 50
90.0
 51
180.0
  0
LINE
  5
667
100
AcDbEntity
  8
Ech.1_5
 62
     7
  6
CONTINUOUS
100
AcDbLine
 10
55360.17638426
 20
-8315.55531529
 30
0.0
 11
55360.17638426
 21
-8312.55531529
 31
0.0
  0
LINE
  5
668
100
AcDbEntity
  8
Ech.1_5
 62
     7
  6
CONTINUOUS
100
AcDbLine
 10
55358.67638426
 20
-8313.05531529
 30
0.0
 11
55358.67638426
 21
-8315.55531529
 31
0.0
  0
LINE
  5
669
100
AcDbEntity
  8
Ech.1_5
 62
     7
  6
CONTINUOUS
100
AcDbLine
 10
55371.17638426
 20
-8320.55531529
 30
0.0
 11
55371.17638426
 21
-8315.55531529
 31
0.0
  0
LINE
  5
66A
100
AcDbEntity
  8
Ech.1_5
 62
     7
  6
CONTINUOUS
100
AcDbLine
 10
55365.17638426
 20
-8320.55531529
 30
0.0
 11
55365.17638426
 21
-8315.55531529
 31
0.0
  0
ARC
  5
66B
100
AcDbEntity
  8
Ech.1_5
 62
     7
  6
CONTINUOUS
100
AcDbCircle
 10
55368.17638426
 20
-8316.53278533
 30
0.0
 40
5.01804218
100
AcDbArc
 50
233.2844502
 51
306.7155498
  0
LINE
  5
66C
100
AcDbEntity
  8
Ech.1_5
 62
     7
  6
CONTINUOUS
100
AcDbLine
 10
55365.17638426
 20
-8320.55531529
 30
0.0
 11
55371.17638426
 21
-8320.55531529
 31
0.0
  0
LINE
  5
66D
100
AcDbEntity
  8
Ech.1_5
 62
     7
  6
CONTINUOUS
100
AcDbLine
 10
55363.17638426
 20
-8312.55531529
 30
0.0
 11
55363.17638426
 21
-8311.71442121
 31
0.0
  0
LINE
  5
66E
100
AcDbEntity
  8
Ech.1_5
 62
     7
  6
CONTINUOUS
100
AcDbLine
 10
55365.17638426
 20
-8314.55531529
 30
0.0
 11
55371.17638426
 21
-8314.55531529
 31
0.0
  0
LINE
  5
66F
100
AcDbEntity
  8
Ech.1_5
 62
     7
  6
CONTINUOUS
100
AcDbLine
 10
55365.17638426
 20
-8315.55531529
 30
0.0
 11
55365.17638426
 21
-8314.55531529
 31
0.0
  0
LINE
  5
670
100
AcDbEntity
  8
Ech.1_5
 62
     7
  6
CONTINUOUS
100
AcDbLine
 10
55371.17638426
 20
-8315.55531529
 30
0.0
 11
55371.17638426
 21
-8314.55531529
 31
0.0
  0
LINE
  5
671
100
AcDbEntity
  8
Ech.1_5
 62
     7
  6
CONTINUOUS
100
AcDbLine
 10
55364.17638426
 20
-8312.85531529
 30
0.0
 11
55372.17638426
 21
-8312.85531529
 31
0.0
  0
LINE
  5
672
100
AcDbEntity
  8
Ech.1_5
 62
     7
  6
CONTINUOUS
100
AcDbLine
 10
55364.17638426
 20
-8312.85531529
 30
0.0
 11
55364.17638426
 21
-8312.55531529
 31
0.0
  0
ARC
  5
673
100
AcDbEntity
  8
Ech.1_5
 62
     7
  6
CONTINUOUS
100
AcDbCircle
 10
55377.17638426
 20
-8313.05531529
 30
0.0
 40
0.5
100
AcDbArc
 50
2.7097308107388E-09
 51
90.0
  0
LINE
  5
674
100
AcDbEntity
  8
Ech.1_5
 62
     7
  6
CONTINUOUS
100
AcDbLine
 10
55372.17638426
 20
-8312.85531529
 30
0.0
 11
55372.17638426
 21
-8312.55531529
 31
0.0
  0
LINE
  5
675
100
AcDbEntity
  8
Ech.1_5
 62
     7
  6
CONTINUOUS
100
AcDbLine
 10
55373.17638426
 20
-8312.55531529
 30
0.0
 11
55373.17638426
 21
-8307.20459613
 31
0.0
  0
LINE
  5
676
100
AcDbEntity
  8
Ech.1_5
 62
     7
  6
CONTINUOUS
100
AcDbLine
 10
55376.17638426
 20
-8315.55531529
 30
0.0
 11
55376.17638426
 21
-8312.55531529
 31
0.0
  0
LINE
  5
677
100
AcDbEntity
  8
Ech.1_5
 62
     7
  6
CONTINUOUS
100
AcDbLine
 10
55377.67638426
 20
-8313.05531529
 30
0.0
 11
55377.67638426
 21
-8315.55531529
 31
0.0
  0
ARC
  5
678
100
AcDbEntity
  8
Ech.1_5
 62
     7
  6
CONTINUOUS
100
AcDbCircle
 10
55298.04720433
 20
-8337.80479021
 30
0.0
 40
3.0
100
AcDbArc
 50
270.0
 51
359.9999587
  0
LINE
  5
679
100
AcDbEntity
  8
Ech.1_5
 62
     7
  6
CONTINUOUS
100
AcDbLine
 10
55298.04720433
 20
-8340.80479021
 30
0.0
 11
55287.97880442
 21
-8340.80479021
 31
0.0
  0
ARC
  5
67A
100
AcDbEntity
  8
Ech.1_5
 62
     7
  6
CONTINUOUS
100
AcDbCircle
 10
55287.97880442
 20
-8342.80479021
 30
0.0
 40
2.0
100
AcDbArc
 50
90.0
 51
180.01408321
  0
ARC
  5
67B
100
AcDbEntity
  8
Ech.1_5
 62
     7
  6
CONTINUOUS
100
AcDbCircle
 10
55286.01720433
 20
-8344.30479021
 30
0.0
 40
1.5
100
AcDbArc
 50
91.46692634
 51
169.08873544
  0
LINE
  5
67C
100
AcDbEntity
  8
Ech.1_5
 62
     7
  6
CONTINUOUS
100
AcDbLine
 10
55284.54432206
 20
-8344.02085746
 30
0.0
 11
55284.54432206
 21
-8345.96492544
 31
0.0
  0
ARC
  5
67D
100
AcDbEntity
  8
Ech.1_5
 62
     7
  6
CONTINUOUS
100
AcDbCircle
 10
55285.54432206
 20
-8345.96492544
 30
0.0
 40
1.0
100
AcDbArc
 50
180.0
 51
215.64346075
  0
ARC
  5
67E
100
AcDbEntity
  8
Ech.1_5
 62
     7
  6
CONTINUOUS
100
AcDbCircle
 10
55294.4835707
 20
-8339.55479021
 30
0.0
 40
12.0
100
AcDbArc
 50
215.64346075
 51
270.0
  0
LINE
  5
67F
100
AcDbEntity
  8
Ech.1_5
 62
     7
  6
CONTINUOUS
100
AcDbLine
 10
55294.4835707
 20
-8351.55479021
 30
0.0
 11
55294.9835707
 21
-8351.55479021
 31
0.0
  0
LINE
  5
680
100
AcDbEntity
  8
Ech.1_5
 62
     7
  6
CONTINUOUS
100
AcDbLine
 10
55294.9835707
 20
-8351.55479021
 30
0.0
 11
55294.9835707
 21
-8353.55479021
 31
0.0
  0
LINE
  5
681
100
AcDbEntity
  8
Ech.1_5
 62
     7
  6
CONTINUOUS
100
AcDbLine
 10
55294.9835707
 20
-8353.55479021
 30
0.0
 11
55295.9835707
 21
-8354.55479021
 31
0.0
  0
LINE
  5
682
100
AcDbEntity
  8
Ech.1_5
 62
     7
  6
CONTINUOUS
100
AcDbLine
 10
55295.9835707
 20
-8354.55479021
 30
0.0
 11
55329.33005884
 21
-8354.55452076
 31
0.0
  0
LINE
  5
683
100
AcDbEntity
  8
Ech.1_5
 62
     7
  6
CONTINUOUS
100
AcDbLine
 10
55329.33005884
 20
-8354.55452076
 30
0.0
 11
55331.49511682
 21
-8350.80453034
 31
0.0
  0
LINE
  5
684
100
AcDbEntity
  8
Ech.1_5
 62
     7
  6
CONTINUOUS
100
AcDbLine
 10
55331.49511682
 20
-8350.80453034
 30
0.0
 11
55326.07898043
 21
-8350.80453034
 31
0.0
  0
LINE
  5
685
100
AcDbEntity
  8
Ech.1_5
 62
     7
  6
CONTINUOUS
100
AcDbLine
 10
55326.07898043
 20
-8350.80453034
 30
0.0
 11
55326.07898043
 21
-8347.90453031
 31
0.0
  0
LINE
  5
686
100
AcDbEntity
  8
Ech.1_5
 62
     7
  6
CONTINUOUS
100
AcDbLine
 10
55326.07898043
 20
-8347.90453031
 30
0.0
 11
55335.54500577
 21
-8347.90453031
 31
0.0
  0
ARC
  5
687
100
AcDbEntity
  8
Ech.1_5
 62
     7
  6
CONTINUOUS
100
AcDbCircle
 10
55335.54500577
 20
-8346.90453031
 30
0.0
 40
1.0
100
AcDbArc
 50
270.0
 51
359.99999918
  0
LINE
  5
688
100
AcDbEntity
  8
Ech.1_5
 62
     7
  6
CONTINUOUS
100
AcDbLine
 10
55336.54500577
 20
-8346.90453033
 30
0.0
 11
55336.54500581
 21
-8344.56540617
 31
0.0
  0
LINE
  5
689
100
AcDbEntity
  8
Ech.1_5
 62
     7
  6
CONTINUOUS
100
AcDbLine
 10
55336.54500581
 20
-8344.56540617
 30
0.0
 11
55330.54500549
 21
-8340.36538778
 31
0.0
  0
LINE
  5
68A
100
AcDbEntity
  8
Ech.1_5
 62
     7
  6
CONTINUOUS
100
AcDbLine
 10
55330.54500549
 20
-8340.36538778
 30
0.0
 11
55330.54500549
 21
-8336.16540611
 31
0.0
  0
LINE
  5
68B
100
AcDbEntity
  8
Ech.1_5
 62
     7
  6
CONTINUOUS
100
AcDbLine
 10
55330.54500549
 20
-8336.16540611
 30
0.0
 11
55338.54500614
 21
-8334.75479015
 31
0.0
  0
LINE
  5
68C
100
AcDbEntity
  8
Ech.1_5
 62
     7
  6
CONTINUOUS
100
AcDbLine
 10
55338.54500614
 20
-8334.75479015
 30
0.0
 11
55338.5450069
 21
-8332.75479237
 31
0.0
  0
LINE
  5
68D
100
AcDbEntity
  8
Ech.1_5
 62
     7
  6
CONTINUOUS
100
AcDbLine
 10
55338.5450069
 20
-8332.75479237
 30
0.0
 11
55336.34500581
 21
-8332.75479237
 31
0.0
  0
LINE
  5
68E
100
AcDbEntity
  8
Ech.1_5
 62
     7
  6
CONTINUOUS
100
AcDbLine
 10
55336.34500581
 20
-8332.75479237
 30
0.0
 11
55336.34500581
 21
-8330.75479237
 31
0.0
  0
LINE
  5
68F
100
AcDbEntity
  8
Ech.1_5
 62
     7
  6
CONTINUOUS
100
AcDbLine
 10
55336.34500581
 20
-8330.75479237
 30
0.0
 11
55327.04500581
 21
-8330.75479237
 31
0.0
  0
LINE
  5
690
100
AcDbEntity
  8
Ech.1_5
 62
     7
  6
CONTINUOUS
100
AcDbLine
 10
55327.04500581
 20
-8330.75479237
 30
0.0
 11
55327.04500581
 21
-8318.55479237
 31
0.0
  0
LINE
  5
691
100
AcDbEntity
  8
Ech.1_5
 62
     7
  6
CONTINUOUS
100
AcDbLine
 10
55327.04500581
 20
-8318.55479237
 30
0.0
 11
55336.34500581
 21
-8318.55479237
 31
0.0
  0
LINE
  5
692
100
AcDbEntity
  8
Ech.1_5
 62
     7
  6
CONTINUOUS
100
AcDbLine
 10
55336.34500581
 20
-8318.55479237
 30
0.0
 11
55336.34500581
 21
-8316.55479237
 31
0.0
  0
LINE
  5
693
100
AcDbEntity
  8
Ech.1_5
 62
     7
  6
CONTINUOUS
100
AcDbLine
 10
55336.34500581
 20
-8316.55479237
 30
0.0
 11
55338.54501278
 21
-8316.55479237
 31
0.0
  0
LINE
  5
694
100
AcDbEntity
  8
Ech.1_5
 62
     7
  6
CONTINUOUS
100
AcDbLine
 10
55338.54501278
 20
-8316.55479237
 30
0.0
 11
55338.54501311
 21
-8315.55479021
 31
0.0
  0
LINE
  5
695
100
AcDbEntity
  8
Ech.1_5
 62
     7
  6
CONTINUOUS
100
AcDbLine
 10
55338.54501311
 20
-8315.55479021
 30
0.0
 11
55333.04501311
 21
-8315.55479021
 31
0.0
  0
LINE
  5
696
100
AcDbEntity
  8
Ech.1_5
 62
     7
  6
CONTINUOUS
100
AcDbLine
 10
55333.04501311
 20
-8315.55479021
 30
0.0
 11
55333.04501311
 21
-8312.55479021
 31
0.0
  0
LINE
  5
697
100
AcDbEntity
  8
Ech.1_5
 62
     7
  6
CONTINUOUS
100
AcDbLine
 10
55333.04501311
 20
-8312.55479021
 30
0.0
 11
55354.54501311
 21
-8312.55479021
 31
0.0
  0
ARC
  5
698
100
AcDbEntity
  8
Ech.1_5
 62
     7
  6
CONTINUOUS
100
AcDbCircle
 10
55354.54501311
 20
-8310.55479021
 30
0.0
 40
2.0
100
AcDbArc
 50
270.0
 51
6.7743270271921E-10
  0
LINE
  5
699
100
AcDbEntity
  8
Ech.1_5
 62
     7
  6
CONTINUOUS
100
AcDbLine
 10
55356.54501311
 20
-8310.55479021
 30
0.0
 11
55356.54501311
 21
-8302.0547903
 31
0.0
  0
ARC
  5
69A
100
AcDbEntity
  8
Ech.1_5
 62
     7
  6
CONTINUOUS
100
AcDbCircle
 10
55351.54501311
 20
-8302.0547903
 30
0.0
 40
5.0
100
AcDbArc
 50
360.0
 51
90.00000459
  0
LINE
  5
69B
100
AcDbEntity
  8
Ech.1_5
 62
     7
  6
CONTINUOUS
100
AcDbLine
 10
55351.5450127
 20
-8297.0547903
 30
0.0
 11
55295.9835652
 21
-8297.05479571
 31
0.0
  0
LINE
  5
69C
100
AcDbEntity
  8
Ech.1_5
 62
     7
  6
CONTINUOUS
100
AcDbLine
 10
55295.9835652
 20
-8297.05479571
 30
0.0
 11
55294.9835707
 21
-8298.05479021
 31
0.0
  0
LINE
  5
69D
100
AcDbEntity
  8
Ech.1_5
 62
     7
  6
CONTINUOUS
100
AcDbLine
 10
55294.9835707
 20
-8298.05479021
 30
0.0
 11
55294.9835707
 21
-8300.05479021
 31
0.0
  0
LINE
  5
69E
100
AcDbEntity
  8
Ech.1_5
 62
     7
  6
CONTINUOUS
100
AcDbLine
 10
55294.9835707
 20
-8300.05479021
 30
0.0
 11
55294.4835707
 21
-8300.05479021
 31
0.0
  0
ARC
  5
69F
100
AcDbEntity
  8
Ech.1_5
 62
     7
  6
CONTINUOUS
100
AcDbCircle
 10
55294.4835707
 20
-8312.05479021
 30
0.0
 40
12.0
100
AcDbArc
 50
90.0
 51
144.35653925
  0
ARC
  5
6A0
100
AcDbEntity
  8
Ech.1_5
 62
     7
  6
CONTINUOUS
100
AcDbCircle
 10
55285.54432206
 20
-8305.64465498
 30
0.0
 40
1.0
100
AcDbArc
 50
144.35653926
 51
180.0
  0
LINE
  5
6A1
100
AcDbEntity
  8
Ech.1_5
 62
     7
  6
CONTINUOUS
100
AcDbLine
 10
55284.54432206
 20
-8305.64465498
 30
0.0
 11
55284.54432206
 21
-8307.58872295
 31
0.0
  0
ARC
  5
6A2
100
AcDbEntity
  8
Ech.1_5
 62
     7
  6
CONTINUOUS
100
AcDbCircle
 10
55286.01720433
 20
-8307.30479021
 30
0.0
 40
1.5
100
AcDbArc
 50
190.91126455
 51
268.53307366
  0
ARC
  5
6A3
100
AcDbEntity
  8
Ech.1_5
 62
     7
  6
CONTINUOUS
100
AcDbCircle
 10
55287.97880442
 20
-8308.80479021
 30
0.0
 40
2.0
100
AcDbArc
 50
179.98591679
 51
270.0
  0
LINE
  5
6A4
100
AcDbEntity
  8
Ech.1_5
 62
     7
  6
CONTINUOUS
100
AcDbLine
 10
55287.97880442
 20
-8310.80479021
 30
0.0
 11
55298.04722163
 21
-8310.80479021
 31
0.0
  0
ARC
  5
6A5
100
AcDbEntity
  8
Ech.1_5
 62
     7
  6
CONTINUOUS
100
AcDbCircle
 10
55298.04722163
 20
-8313.80479021
 30
0.0
 40
3.0
100
AcDbArc
 50
359.9999587
 51
90.0
  0
LINE
  5
6A6
100
AcDbEntity
  8
Ech.1_5
 62
     7
  6
CONTINUOUS
100
AcDbLine
 10
55301.04722163
 20
-8313.80479237
 30
0.0
 11
55301.04720433
 21
-8337.80479237
 31
0.0
  0
LWPOLYLINE
  5
6A7
100
AcDbEntity
  8
Ech.1_5
 62
     7
  6
CONTINUOUS
100
AcDbPolyline
 90
        5
 70
     0
 43
0.0
 10
55353.36488588
 20
-8313.15479021
 42
0.73157417
 10
55353.42844718
 20
-8314.60908766
 42
-0.1352145
 10
55354.73529618
 20
-8314.37559856
 42
0.92591457
 10
55354.73529618
 20
-8313.15479021
 10
55353.36488588
 20
-8313.15479021
  0
LWPOLYLINE
  5
6A8
100
AcDbEntity
  8
Ech.1_5
 62
     7
  6
CONTINUOUS
100
AcDbPolyline
 90
       65
 70
     0
 43
0.0
 10
55353.43541529
 20
-8314.60577262
 10
55353.39762344
 20
-8314.61554811
 10
55353.3601116
 20
-8314.62497491
 10
55353.32315786
 20
-8314.63370672
 10
55353.2870403
 20
-8314.64139726
 10
55353.25203698
 20
-8314.64770024
 10
55353.218426
 20
-8314.65226938
 10
55353.18648542
 20
-8314.6547584
 10
55353.15649333
 20
-8314.654821
 10
55353.1287278
 20
-8314.6521109
 10
55353.10346692
 20
-8314.64628182
 10
55353.08098876
 20
-8314.63698747
 10
55353.0615714
 20
-8314.62388156
 10
55353.04549291
 20
-8314.60661781
 10
55353.03291898
 20
-8314.5849856
 10
55353.02349792
 20
-8314.55939869
 10
55353.01672932
 20
-8314.53045035
 10
55353.01211277
 20
-8314.49873388
 10
55353.00914781
 20
-8314.46484258
 10
55353.00733404
 20
-8314.42936973
 10
55353.00617102
 20
-8314.39290862
 10
55353.00515832
 20
-8314.35605257
 10
55353.00379553
 20
-8314.31939484
 10
55353.00158219
 20
-8314.28352875
 10
55352.99801791
 20
-8314.24904758
 10
55352.99260223
 20
-8314.21654463
 10
55352.98483474
 20
-8314.18661319
 10
55352.97421501
 20
-8314.15984655
 10
55352.9602426
 20
-8314.13683801
 10
55352.9424171
 20
-8314.11818086
 10
55352.92023808
 20
-8314.10446839
 10
55352.89324713
 20
-8314.09629404
 10
55352.86282446
 20
-8314.09425679
 10
55352.83286423
 20
-8314.09896328
 10
55352.80664887
 20
-8314.11072662
 10
55352.78456574
 20
-8314.12878632
 10
55352.76634174
 20
-8314.15213696
 10
55352.75170373
 20
-8314.17977313
 10
55352.7403786
 20
-8314.21068942
 10
55352.73209324
 20
-8314.2438804
 10
55352.72657451
 20
-8314.27834066
 10
55352.72354856
 20
-8314.31307018
 10
55352.72269279
 20
-8314.34741625
 10
55352.72360728
 20
-8314.38127781
 10
55352.72588519
 20
-8314.41460291
 10
55352.72911971
 20
-8314.44733957
 10
55352.73290401
 20
-8314.47943581
 10
55352.73683127
 20
-8314.51083968
 10
55352.74049467
 20
-8314.54149919
 10
55352.74348739
 20
-8314.57136238
 10
55352.7454026
 20
-8314.60037728
 10
55352.74583349
 20
-8314.62849191
 10
55352.74437323
 20
-8314.65565431
 10
55352.740615
 20
-8314.68181251
 10
55352.73415198
 20
-8314.70691453
 10
55352.72457734
 20
-8314.7309084
 10
55352.71160382
 20
-8314.75376892
 10
55352.69546248
 20
-8314.77558691
 10
55352.67652485
 20
-8314.79648464
 10
55352.65516246
 20
-8314.81658438
 10
55352.63174682
 20
-8314.8360084
 10
55352.60664948
 20
-8314.85487897
 10
55352.58024196
 20
-8314.87331836
 10
55352.55289577
 20
-8314.89144884
 10
55352.52498246
 20
-8314.90939267
  0
LWPOLYLINE
  5
6A9
100
AcDbEntity
  8
Ech.1_5
 62
     7
  6
CONTINUOUS
100
AcDbPolyline
 90
       40
 70
     0
 43
0.0
 10
55353.43541529
 20
-8314.60577262
 42
-0.20099848
 10
55355.36485846
 20
-8314.51734354
 42
0.55145662
 10
55355.49879125
 20
-8314.41403809
 42
-0.1294239
 10
55355.6830484
 20
-8313.29563013
 42
0.54354517
 10
55355.59176805
 20
-8313.15479021
 10
55353.36488588
 20
-8313.15479021
 10
55353.36488588
 20
-8313.15479021
 10
55352.86488588
 20
-8313.65479021
 10
55352.36488588
 20
-8313.15479021
 10
55339.24501311
 20
-8313.15479021
 42
0.41421356
 10
55339.14501311
 20
-8313.25479021
 10
55339.14501311
 20
-8316.45479021
 42
-0.41421356
 10
55339.04501311
 20
-8316.55479021
 10
55338.64501311
 20
-8316.55479021
 42
-0.41421356
 10
55338.54501311
 20
-8316.45479021
 10
55338.54501311
 20
-8313.65479021
 42
0.41421356
 10
55338.44501311
 20
-8313.55479021
 10
55335.99565693
 20
-8313.55479021
 42
0.74863712
 10
55335.94160288
 20
-8313.73892201
 10
55337.89808212
 20
-8314.99594537
 42
-0.41421356
 10
55337.92815986
 20
-8315.13413122
 10
55337.71194364
 20
-8315.47065841
 42
-0.41421356
 10
55337.57375779
 20
-8315.50073615
 10
55334.59095905
 20
-8313.58431014
 42
-0.25526652
 10
55334.54501311
 20
-8313.50017834
 10
55334.54501311
 20
-8312.65479021
 42
-0.41421356
 10
55334.64501311
 20
-8312.55479021
 10
55356.24501311
 20
-8312.55479021
 42
-0.41421356
 10
55356.34501311
 20
-8312.65479021
 10
55356.34501311
 20
-8313.12140867
 42
-0.16012282
 10
55356.32551434
 20
-8313.18073448
 42
0.24300643
 10
55356.0757193
 20
-8314.74522888
 42
0.06909489
 10
55356.08784234
 20
-8314.76991991
 42
-0.7595554
 10
55355.68168894
 20
-8315.24745775
 42
0.27525427
 10
55353.6439464
 20
-8315.06026399
 42
-0.2097
 10
55349.44035744
 20
-8315.12845379
 42
-0.9750995
 10
55349.63377145
 20
-8314.66737784
 42
0.15529906
 10
55352.49297159
 20
-8314.92267245
 42
0.06565639
 10
55352.51753415
 20
-8314.9137006
 42
0.02152096
 10
55352.52498246
 20
-8314.90939267
  0
LINE
  5
6AA
100
AcDbEntity
  8
Ech.1_5
 62
     7
  6
CONTINUOUS
100
AcDbLine
 10
55335.54500577
 20
-8347.90453031
 30
0.0
 11
55334.64500577
 21
-8347.90454292
 31
0.0
  0
LINE
  5
6AB
100
AcDbEntity
  8
Ech.1_5
 62
     7
  6
CONTINUOUS
100
AcDbLine
 10
55334.64502258
 20
-8349.10454293
 30
0.0
 11
55332.54359306
 21
-8349.10457236
 31
0.0
  0
LINE
  5
6AC
100
AcDbEntity
  8
Ech.1_5
 62
     7
  6
CONTINUOUS
100
AcDbLine
 10
55331.68742848
 20
-8347.90458436
 30
0.0
 11
55331.18742848
 21
-8347.90459137
 31
0.0
  0
LINE
  5
6AD
100
AcDbEntity
  8
Ech.1_5
 62
     7
  6
CONTINUOUS
100
AcDbLine
 10
55334.64502258
 20
-8349.10454293
 30
0.0
 11
55334.64500576
 21
-8347.90454292
 31
0.0
  0
LINE
  5
6AE
100
AcDbEntity
  8
Ech.1_5
 62
     7
  6
CONTINUOUS
100
AcDbLine
 10
55334.64500577
 20
-8347.90454292
 30
0.0
 11
55331.68742848
 21
-8347.90458436
 31
0.0
  0
LINE
  5
6AF
100
AcDbEntity
  8
Ech.1_5
 62
     7
  6
CONTINUOUS
100
AcDbLine
 10
55328.52223757
 20
-8349.10462867
 30
0.0
 11
55328.49383795
 21
-8349.10462907
 31
0.0
  0
LINE
  5
6B0
100
AcDbEntity
  8
Ech.1_5
 62
     7
  6
CONTINUOUS
100
AcDbLine
 10
55327.75145477
 20
-8349.10463947
 30
0.0
 11
55326.84786529
 21
-8349.10465212
 31
0.0
  0
LINE
  5
6B1
100
AcDbEntity
  8
Ech.1_5
 62
     7
  6
CONTINUOUS
100
AcDbLine
 10
55329.62354477
 20
-8349.10461325
 30
0.0
 11
55328.52223757
 21
-8349.10462867
 31
0.0
  0
ARC
  5
6B2
100
AcDbEntity
  8
Ech.1_5
 62
     7
  6
CONTINUOUS
100
AcDbCircle
 10
55327.84786573
 20
-8349.13668839
 30
0.0
 40
1.0
100
AcDbArc
 50
180.00080237
 51
210.00084887
  0
ARC
  5
6B3
100
AcDbEntity
  8
Ech.1_5
 62
     7
  6
CONTINUOUS
100
AcDbCircle
 10
55327.64785968
 20
-8348.70464082
 30
0.0
 40
0.8
100
AcDbArc
 50
90.00765543
 51
180.00080238
  0
LINE
  5
6B4
100
AcDbEntity
  8
Ech.1_5
 62
     7
  6
CONTINUOUS
100
AcDbLine
 10
55326.84786573
 20
-8349.13670239
 30
0.0
 11
55326.84785968
 21
-8348.70465203
 31
0.0
  0
LINE
  5
6B5
100
AcDbEntity
  8
Ech.1_5
 62
     7
  6
CONTINUOUS
100
AcDbLine
 10
55327.64775279
 20
-8347.90464083
 30
0.0
 11
55327.84656299
 21
-8347.90463805
 31
0.0
  0
LINE
  5
6B6
100
AcDbEntity
  8
Ech.1_5
 62
     7
  6
CONTINUOUS
100
AcDbLine
 10
55327.84656299
 20
-8347.90463805
 30
0.0
 11
55327.98631071
 21
-8347.90463609
 31
0.0
  0
LINE
  5
6B7
100
AcDbEntity
  8
Ech.1_5
 62
     7
  6
CONTINUOUS
100
AcDbLine
 10
55328.49383795
 20
-8349.10462907
 30
0.0
 11
55327.75145477
 21
-8349.10463947
 31
0.0
  0
LINE
  5
6B8
100
AcDbEntity
  8
Ech.1_5
 62
     7
  6
CONTINUOUS
100
AcDbLine
 10
55332.54359306
 20
-8349.10457236
 30
0.0
 11
55329.62354477
 21
-8349.10461325
 31
0.0
  0
LINE
  5
6B9
100
AcDbEntity
  8
Ech.1_5
 62
     7
  6
CONTINUOUS
100
AcDbLine
 10
55327.98631071
 20
-8347.90463609
 30
0.0
 11
55331.18742848
 21
-8347.90459137
 31
0.0
  0
HATCH
  5
6BA
100
AcDbEntity
  8
Ech.1_5
 62
     7
100
AcDbHatch
 10
0.0
 20
0.0
 30
0.0
210
0.0
220
0.0
230
1.0
  2
_USER_1
 70
     0
 71
     0
 91
        1
 92
        7
 72
     0
 73
     1
 93
       19
 10
55326.84785968
 20
-8348.70465203
 10
55326.84786529
 20
-8349.10465212
 10
55334.64502258
 20
-8349.10454293
 10
55334.64500576
 20
-8347.90454292
 10
55331.68742848
 20
-8347.90458436
 10
55331.18742848
 20
-8347.90459137
 10
55327.98631071
 20
-8347.90463609
 10
55327.84656299
 20
-8347.90463805
 10
55327.64775279
 20
-8347.90464083
 10
55327.53391062
 20
-8347.91279765
 10
55327.42238777
 20
-8347.93707166
 10
55327.31545418
 20
-8347.97696879
 10
55327.21528638
 20
-8348.03167698
 10
55327.12392319
 20
-8348.10008268
 10
55327.04322421
 20
-8348.18079357
 10
55326.97483199
 20
-8348.27216687
 10
55326.92013859
 20
-8348.37234274
 10
55326.88025725
 20
-8348.47928222
 10
55326.8559997
 20
-8348.59080865
 97
        0
 75
     0
 76
     2
 52
0.0
 41
1.0
 77
     0
 78
     1
 53
135.00079346
 43
0.0
 44
0.0
 45
-1.76774247
 46
-1.76779143
 79
     2
 49
50.0
 49
0.0
 47
0.775229
 98
        1
 10
0.0
 20
0.0
  0
ARC
  5
6BB
100
AcDbEntity
  8
Ech.1_5
 62
     7
  6
CONTINUOUS
100
AcDbCircle
 10
55332.84361819
 20
-8350.89880401
 30
0.0
 40
0.3
100
AcDbArc
 50
180.00080237
 51
270.00080237
  0
LINE
  5
6BC
100
AcDbEntity
  8
Ech.1_5
 62
     7
  6
CONTINUOUS
100
AcDbLine
 10
55334.34505191
 20
-8351.19878299
 30
0.0
 11
55332.84362239
 21
-8351.19880401
 31
0.0
  0
ARC
  5
6BD
100
AcDbEntity
  8
Ech.1_5
 62
     7
  6
CONTINUOUS
100
AcDbCircle
 10
55331.89480542
 20
-8352.2988173
 30
0.0
 40
0.3
100
AcDbArc
 50
90.00080236
 51
150.00080238
  0
ARC
  5
6BE
100
AcDbEntity
  8
Ech.1_5
 62
     7
  6
CONTINUOUS
100
AcDbCircle
 10
55334.37116974
 20
-8352.29878262
 30
0.0
 40
0.3
100
AcDbArc
 50
8.33702231
 51
90.00080237
  0
ARC
  5
6BF
100
AcDbEntity
  8
Ech.1_5
 62
     7
  6
CONTINUOUS
100
AcDbCircle
 10
55334.3450477
 20
-8350.89878299
 30
0.0
 40
0.3
100
AcDbArc
 50
270.00080238
 51
0.00080236
  0
ARC
  5
6C0
100
AcDbEntity
  8
Ech.1_5
 62
     7
  6
CONTINUOUS
100
AcDbCircle
 10
55330.67901545
 20
-8350.40459837
 30
0.0
 40
1.0
100
AcDbArc
 50
330.00080238
 51
0.00080237
  0
ARC
  5
6C1
100
AcDbEntity
  8
Ech.1_5
 62
     7
  6
CONTINUOUS
100
AcDbCircle
 10
55330.88653546
 20
-8353.04522431
 30
0.0
 40
0.2
100
AcDbArc
 50
270.00080237
 51
330.00080237
  0
LINE
  5
6C2
100
AcDbEntity
  8
Ech.1_5
 62
     7
  6
CONTINUOUS
100
AcDbLine
 10
55331.89480122
 20
-8351.9988173
 30
0.0
 11
55334.37116554
 21
-8351.99878262
 31
0.0
  0
LINE
  5
6C3
100
AcDbEntity
  8
Ech.1_5
 62
     7
  6
CONTINUOUS
100
AcDbLine
 10
55331.05974194
 20
-8353.14522189
 30
0.0
 11
55331.63499569
 21
-8352.14882094
 31
0.0
  0
ARC
  5
6C4
100
AcDbEntity
  8
Ech.1_5
 62
     7
  6
CONTINUOUS
100
AcDbCircle
 10
55334.82985717
 20
-8354.18177422
 30
0.0
 40
0.71967841
100
AcDbArc
 50
267.84577807
 51
353.6317206
  0
ARC
  5
6C5
100
AcDbEntity
  8
Ech.1_5
 62
     7
  6
CONTINUOUS
100
AcDbCircle
 10
55334.63070157
 20
-8354.49226157
 30
0.0
 40
0.2
100
AcDbArc
 50
19.7606882
 51
85.24537524
  0
ARC
  5
6C6
100
AcDbEntity
  8
Ech.1_5
 62
     7
  6
CONTINUOUS
100
AcDbCircle
 10
55332.04114203
 20
-8354.6078275
 30
0.0
 40
0.3
100
AcDbArc
 50
85.24537527
 51
138.37547761
  0
ARC
  5
6C7
100
AcDbEntity
  8
Ech.1_5
 62
     7
  6
CONTINUOUS
100
AcDbCircle
 10
55334.91591116
 20
-8354.30074935
 30
0.0
 40
0.15734085
100
AcDbArc
 50
231.94531044
 51
79.31145967
  0
ARC
  5
6C8
100
AcDbEntity
  8
Ech.1_5
 62
     7
  6
CONTINUOUS
100
AcDbCircle
 10
55331.65452213
 20
-8354.32879249
 30
0.0
 40
0.18089908
100
AcDbArc
 50
85.92249746
 51
333.83771125
  0
LINE
  5
6C9
100
AcDbEntity
  8
Ech.1_5
 62
     7
  6
CONTINUOUS
100
AcDbLine
 10
55334.6472793
 20
-8354.29294981
 30
0.0
 11
55332.06600862
 21
-8354.30885986
 31
0.0
  0
LINE
  5
6CA
100
AcDbEntity
  8
Ech.1_5
 62
     7
  6
CONTINUOUS
100
AcDbLine
 10
55334.66799943
 20
-8352.25528395
 30
0.0
 11
55334.94509318
 21
-8354.14613839
 31
0.0
  0
ARC
  5
6CB
100
AcDbEntity
  8
Ech.1_5
 62
     7
  6
CONTINUOUS
100
AcDbCircle
 10
55329.9862427
 20
-8353.80460815
 30
0.0
 40
0.1
100
AcDbArc
 50
150.00080237
 51
266.6720651
  0
ARC
  5
6CC
100
AcDbEntity
  8
Ech.1_5
 62
     7
  6
CONTINUOUS
100
AcDbCircle
 10
55330.02683977
 20
-8353.10645018
 30
0.0
 40
0.79933731
100
AcDbArc
 50
266.67206513
 51
277.37648123
  0
ARC
  5
6CD
100
AcDbEntity
  8
Ech.1_5
 62
     7
  6
CONTINUOUS
100
AcDbCircle
 10
55328.80120381
 20
-8350.10614218
 30
0.0
 40
0.3
100
AcDbArc
 50
246.34437919
 51
56.27897772
  0
LINE
  5
6CE
100
AcDbEntity
  8
Ech.1_5
 62
     7
  6
CONTINUOUS
100
AcDbLine
 10
55329.89963946
 20
-8353.75460936
 30
0.0
 11
55331.54504786
 21
-8350.90458624
 31
0.0
  0
ARC
  5
6CF
100
AcDbEntity
  8
Ech.1_5
 62
     7
  6
CONTINUOUS
100
AcDbCircle
 10
55330.79762537
 20
-8350.11409989
 30
0.0
 40
0.3
100
AcDbArc
 50
239.48786326
 51
49.42246179
  0
LINE
  5
6D0
100
AcDbEntity
  8
Ech.1_5
 62
     7
  6
CONTINUOUS
100
AcDbLine
 10
55326.98184774
 20
-8349.63670122
 30
0.0
 11
55328.68083229
 21
-8350.38093427
 31
0.0
  0
LINE
  5
6D1
100
AcDbEntity
  8
Ech.1_5
 62
     7
  6
CONTINUOUS
100
AcDbLine
 10
55335.5450948
 20
-8354.26160004
 30
0.0
 11
55335.54500577
 21
-8347.90453031
 31
0.0
  0
LINE
  5
6D2
100
AcDbEntity
  8
Ech.1_5
 62
     7
  6
CONTINUOUS
100
AcDbLine
 10
55332.54359306
 20
-8349.10457236
 30
0.0
 11
55332.54361819
 21
-8350.89880821
 31
0.0
  0
LINE
  5
6D3
100
AcDbEntity
  8
Ech.1_5
 62
     7
  6
CONTINUOUS
100
AcDbLine
 10
55334.6450477
 20
-8350.89877878
 30
0.0
 11
55334.64502258
 21
-8349.10454293
 31
0.0
  0
LINE
  5
6D4
100
AcDbEntity
  8
Ech.1_5
 62
     7
  6
CONTINUOUS
100
AcDbLine
 10
55331.67899725
 20
-8349.10458447
 30
0.0
 11
55331.67901545
 21
-8350.40458436
 31
0.0
  0
LINE
  5
6D5
100
AcDbEntity
  8
Ech.1_5
 62
     7
  6
CONTINUOUS
100
AcDbLine
 10
55327.84109977
 20
-8349.10463821
 30
0.0
 11
55328.9677487
 21
-8349.85661703
 31
0.0
  0
LINE
  5
6D6
100
AcDbEntity
  8
Ech.1_5
 62
     7
  6
CONTINUOUS
100
AcDbLine
 10
55330.0800951
 20
-8349.10460686
 30
0.0
 11
55330.99276832
 21
-8349.88624198
 31
0.0
  0
LINE
  5
6D7
100
AcDbEntity
  8
Ech.1_5
 62
     7
  6
CONTINUOUS
100
AcDbLine
 10
55328.49383795
 20
-8349.10462907
 30
0.0
 11
55330.64530911
 21
-8350.37255638
 31
0.0
  0
ARC
  5
6D8
100
AcDbEntity
  8
Ech.1_5
 62
     7
  6
CONTINUOUS
100
AcDbCircle
 10
55330.14649306
 20
-8354.5538056
 30
0.0
 40
0.35
100
AcDbArc
 50
97.52289342
 51
135.24537528
  0
ARC
  5
6D9
100
AcDbEntity
  8
Ech.1_5
 62
     7
  6
CONTINUOUS
100
AcDbCircle
 10
55330.14649306
 20
-8354.5538056
 30
0.0
 40
0.35
100
AcDbArc
 50
225.24537527
 51
265.24537525
  0
ARC
  5
6DA
100
AcDbEntity
  8
Ech.1_5
 62
     7
  6
CONTINUOUS
100
AcDbCircle
 10
55330.14649306
 20
-8354.5538056
 30
0.0
 40
0.35
100
AcDbArc
 50
135.24537526
 51
225.24537526
  0
LINE
  5
6DB
100
AcDbEntity
  8
Ech.1_5
 62
     7
  6
CONTINUOUS
100
AcDbLine
 10
55334.80280489
 20
-8354.90094401
 30
0.0
 11
55330.11748204
 21
-8354.90260119
 31
0.0
  0
LINE
  5
6DC
100
AcDbEntity
  8
Ech.1_5
 62
     7
  6
CONTINUOUS
100
AcDbLine
 10
55330.10067025
 20
-8354.20681818
 30
0.0
 11
55330.93694935
 21
-8353.97295009
 31
0.0
  0
ARC
  5
6DD
100
AcDbEntity
  8
Ech.1_5
 62
     7
  6
CONTINUOUS
100
AcDbCircle
 10
55330.916792
 20
-8353.37239745
 30
0.0
 40
0.13072221
100
AcDbArc
 50
103.38158865
 51
4.55989385
  0
LINE
  5
6DE
100
AcDbEntity
  8
Ech.1_5
 62
     7
  6
CONTINUOUS
100
AcDbLine
 10
55330.1294655
 20
-8353.89917213
 30
0.0
 11
55331.10425759
 21
-8353.73311468
 31
0.0
  0
LINE
  5
6DF
100
AcDbEntity
  8
Ech.1_5
 62
     7
  6
CONTINUOUS
100
AcDbLine
 10
55331.6673851
 20
-8354.1483513
 30
0.0
 11
55332.34463876
 21
-8354.05320147
 31
0.0
  0
ARC
  5
6E0
100
AcDbEntity
  8
Ech.1_5
 62
     7
  6
CONTINUOUS
100
AcDbCircle
 10
55332.26506982
 20
-8353.20073924
 30
0.0
 40
0.85616766
100
AcDbArc
 50
275.33254518
 51
319.89687471
  0
ARC
  5
6E1
100
AcDbEntity
  8
Ech.1_5
 62
     7
  6
CONTINUOUS
100
AcDbCircle
 10
55332.84345208
 20
-8353.68783625
 30
0.0
 40
0.1
100
AcDbArc
 50
319.89687472
 51
41.05077062
  0
ARC
  5
6E2
100
AcDbEntity
  8
Ech.1_5
 62
     7
  6
CONTINUOUS
100
AcDbCircle
 10
55332.26506982
 20
-8353.20073924
 30
0.0
 40
0.85616766
100
AcDbArc
 50
0.65804242
 51
33.90586698
  0
ARC
  5
6E3
100
AcDbEntity
  8
Ech.1_5
 62
     7
  6
CONTINUOUS
100
AcDbCircle
 10
55332.89265508
 20
-8352.77892616
 30
0.0
 40
0.1
100
AcDbArc
 50
33.90586703
 51
114.87273418
  0
ARC
  5
6E4
100
AcDbEntity
  8
Ech.1_5
 62
     7
  6
CONTINUOUS
100
AcDbCircle
 10
55332.26506982
 20
-8353.20073924
 30
0.0
 40
0.45616766
100
AcDbArc
 50
275.33254519
 51
71.54778471
  0
ARC
  5
6E5
100
AcDbEntity
  8
Ech.1_5
 62
     7
  6
CONTINUOUS
100
AcDbCircle
 10
55333.96577563
 20
-8363.9136892
 30
0.0
 40
10.39192391
100
AcDbArc
 50
99.1823407
 51
106.94536207
  0
ARC
  5
6E6
100
AcDbEntity
  8
Ech.1_5
 62
     7
  6
CONTINUOUS
100
AcDbCircle
 10
55331.07002856
 20
-8353.32612535
 30
0.0
 40
0.40842618
100
AcDbArc
 50
274.80743485
 51
313.06235652
  0
LINE
  5
6E7
100
AcDbEntity
  8
Ech.1_5
 62
     7
  6
CONTINUOUS
100
AcDbLine
 10
55331.04710044
 20
-8353.36200488
 30
0.0
 11
55331.83244693
 21
-8352.45915641
 31
0.0
  0
LINE
  5
6E8
100
AcDbEntity
  8
Ech.1_5
 62
     7
  6
CONTINUOUS
100
AcDbLine
 10
55331.34889947
 20
-8353.62452602
 30
0.0
 11
55332.07484477
 21
-8352.78996622
 31
0.0
  0
ARC
  5
6E9
100
AcDbEntity
  8
Ech.1_5
 62
     7
  6
CONTINUOUS
100
AcDbCircle
 10
55332.28040744
 20
-8353.36242138
 30
0.0
 40
1.00824413
100
AcDbArc
 50
78.06160287
 51
116.37841191
  0
ARC
  5
6EA
100
AcDbEntity
  8
Ech.1_5
 62
     7
  6
CONTINUOUS
100
AcDbCircle
 10
55332.28040744
 20
-8353.36242138
 30
0.0
 40
0.60824413
100
AcDbArc
 50
77.75097841
 51
109.75268282
  0
ARC
  5
6EB
100
AcDbEntity
  8
Ech.1_5
 62
     7
  6
CONTINUOUS
100
AcDbCircle
 10
55333.07101285
 20
-8353.4896664
 30
0.0
 40
0.20175353
100
AcDbArc
 50
99.5041465
 51
221.05077062
  0
ARC
  5
6EC
100
AcDbEntity
  8
Ech.1_5
 62
     7
  6
CONTINUOUS
100
AcDbCircle
 10
55333.02118761
 20
-8353.19205484
 30
0.0
 40
0.1
100
AcDbArc
 50
279.50414646
 51
0.65804245
  0
ARC
  5
6ED
100
AcDbEntity
  8
Ech.1_5
 62
     7
  6
CONTINUOUS
100
AcDbCircle
 10
55332.76647385
 20
-8352.50675288
 30
0.0
 40
0.2
100
AcDbArc
 50
173.69797491
 51
294.87273421
  0
ARC
  5
6EE
100
AcDbEntity
  8
Ech.1_5
 62
     7
  6
CONTINUOUS
100
AcDbCircle
 10
55332.46828672
 20
-8352.47382205
 30
0.0
 40
0.1
100
AcDbArc
 50
353.69797488
 51
78.06160286
  0
LWPOLYLINE
  5
6EF
100
AcDbEntity
  8
Ech.1_5
 62
     7
  6
CONTINUOUS
100
AcDbPolyline
 90
       99
 70
     0
 43
0.0
 10
55286.82306967
 20
-8312.57799063
 10
55290.19368569
 20
-8313.80479453
 10
55295.1472173
 20
-8313.80479453
 10
55295.4472173
 20
-8313.50479453
 10
55296.1472173
 20
-8313.50479453
 42
-0.95548796
 10
55296.18358094
 20
-8314.30313821
 42
0.38779458
 10
55296.0472173
 20
-8314.45251709
 10
55296.0472173
 20
-8317.68767807
 42
0.34415073
 10
55296.16083696
 20
-8317.83319945
 10
55296.73359765
 20
-8317.97638962
 42
-0.34415073
 10
55296.8472173
 20
-8318.12191099
 10
55296.8472173
 20
-8333.48767807
 42
-0.34415073
 10
55296.73359765
 20
-8333.63319945
 10
55296.16083696
 20
-8333.77638962
 42
0.34415073
 10
55296.0472173
 20
-8333.92191099
 10
55296.0472173
 20
-8337.15707198
 42
0.38779458
 10
55296.18358094
 20
-8337.30645086
 42
-0.95548796
 10
55296.1472173
 20
-8338.10479453
 10
55295.4472173
 20
-8338.10479453
 10
55295.1472173
 20
-8337.80479453
 10
55290.19368569
 20
-8337.80479453
 10
55286.84848321
 20
-8339.02234867
 42
-1.10738051
 10
55286.75795386
 20
-8338.77362132
 10
55288.05954348
 20
-8338.44508803
 42
0.93251509
 10
55287.94653747
 20
-8337.80659467
 10
55285.52553516
 20
-8338.13343849
 42
-0.18531675
 10
55284.87164923
 20
-8337.97875934
 42
0.15081813
 10
55284.30803069
 20
-8337.80479453
 10
55284.01676898
 20
-8337.80479453
 10
55283.01676898
 20
-8337.80479453
 42
0.30843151
 10
55282.6611562
 20
-8338.06201871
 42
0.26795044
 10
55284.90271616
 20
-8343.3286502
 42
0.52171267
 10
55285.14515835
 20
-8343.28663856
 42
-0.15565301
 10
55286.24758189
 20
-8342.45558104
 10
55286.0472173
 20
-8340.79818063
 42
-0.31529879
 10
55286.17881328
 20
-8340.61024211
 10
55288.85416569
 20
-8339.63649346
 42
-0.87140053
 10
55288.90046101
 20
-8339.72406987
 10
55288.18195759
 20
-8340.24083021
 42
1.00812133
 10
55288.49114744
 20
-8340.76106141
 10
55290.79594675
 20
-8339.28383742
 42
-0.14346618
 10
55291.06575244
 20
-8339.20479453
 10
55292.64698803
 20
-8339.20479453
 42
-0.72472287
 10
55292.70615163
 20
-8339.38541506
 10
55291.81782435
 20
-8340.03731653
 42
0.94855512
 10
55292.28349298
 20
-8340.74695271
 10
55294.23331231
 20
-8339.3029824
 42
-0.16072186
 10
55294.5308808
 20
-8339.20479453
 10
55296.08871772
 20
-8339.20479453
 42
0.08748866
 10
55296.15712174
 20
-8339.19273306
 10
55297.94852033
 20
-8338.5407173
 42
0.31529879
 10
55298.0472173
 20
-8338.3997634
 10
55298.0472173
 20
-8337.02191099
 42
0.34415073
 10
55297.93359765
 20
-8336.87638962
 10
55297.36083696
 20
-8336.73319945
 42
-0.34415073
 10
55297.2472173
 20
-8336.58767807
 10
55297.2472173
 20
-8334.82191099
 42
-0.34415073
 10
55297.36083696
 20
-8334.67638962
 10
55297.93359765
 20
-8334.53319945
 42
0.34415073
 10
55298.0472173
 20
-8334.38767807
 10
55298.0472173
 20
-8317.22191099
 42
0.34415073
 10
55297.93359765
 20
-8317.07638962
 10
55297.36083696
 20
-8316.93319945
 42
-0.34415073
 10
55297.2472173
 20
-8316.78767807
 10
55297.2472173
 20
-8315.02191099
 42
-0.34415073
 10
55297.36083696
 20
-8314.87638962
 10
55297.93359765
 20
-8314.73319945
 42
0.34415073
 10
55298.0472173
 20
-8314.58767807
 10
55298.0472173
 20
-8313.20982566
 42
0.31529879
 10
55297.94852033
 20
-8313.06887177
 10
55296.15712174
 20
-8312.41685601
 42
0.08748866
 10
55296.08871772
 20
-8312.40479453
 10
55294.5308808
 20
-8312.40479453
 42
-0.16072186
 10
55294.23331231
 20
-8312.30660667
 10
55292.28349298
 20
-8310.86263635
 42
0.94855512
 10
55291.81782435
 20
-8311.57227253
 10
55292.70615163
 20
-8312.22417401
 42
-0.72472287
 10
55292.64698803
 20
-8312.40479453
 10
55291.06575244
 20
-8312.40479453
 42
-0.14346618
 10
55290.79594675
 20
-8312.32575165
 10
55288.49114744
 20
-8310.84852765
 42
1.00812133
 10
55288.18195759
 20
-8311.36875886
 10
55288.90046101
 20
-8311.8855192
 42
-0.87140053
 10
55288.85416569
 20
-8311.9730956
 10
55286.17881328
 20
-8310.99934696
 42
-0.31529879
 10
55286.0472173
 20
-8310.81140844
 10
55286.24758189
 20
-8309.15396771
 42
-0.15565608
 10
55285.14517663
 20
-8308.32293124
 42
0.52171267
 10
55284.90273444
 20
-8308.2809196
 42
0.26794928
 10
55282.6611562
 20
-8313.54757036
 42
0.30843151
 10
55283.01676898
 20
-8313.80479453
 10
55284.01676898
 20
-8313.80479453
 10
55284.30803069
 20
-8313.80479453
 42
0.15081813
 10
55284.87164923
 20
-8313.63082973
 42
-0.18531675
 10
55285.52553516
 20
-8313.47615058
 10
55287.94653747
 20
-8313.8029944
 42
0.93251509
 10
55288.05954348
 20
-8313.16450104
 10
55286.75795386
 20
-8312.83596775
 42
-1.10738051
 10
55286.84848321
 20
-8312.5872404
  0
LWPOLYLINE
  5
6F0
100
AcDbEntity
  8
Ech.1_5
 62
     7
  6
CONTINUOUS
100
AcDbPolyline
 90
       25
 70
     0
 43
0.0
 10
55357.54810781
 20
-8373.05543087
 10
55375.5697116
 20
-8373.05535193
 42
0.40824515
 10
55376.54923896
 20
-8372.05550777
 10
55376.5491691
 20
-8370.75554754
 10
55381.54915513
 20
-8370.75549165
 42
0.41421487
 10
55382.54914115
 20
-8369.75547322
 10
55382.54834476
 20
-8326.5555846
 42
-0.41422032
 10
55383.54834476
 20
-8325.55556151
 10
55387.04830983
 20
-8325.55556151
 42
0.41421356
 10
55388.54830983
 20
-8324.05556151
 10
55388.54830983
 20
-8321.55552869
 42
0.41421036
 10
55382.54837548
 20
-8315.55552869
 10
55343.54529054
 20
-8315.5551019
 42
0.41421752
 10
55342.54527702
 20
-8316.5551019
 10
55342.54527702
 20
-8346.54458761
 42
0.36397023
 10
55343.37162884
 20
-8347.52939536
 10
55345.82648612
 20
-8347.96225293
 42
-0.31529879
 10
55346.6376457
 20
-8348.77341251
 10
55347.53833118
 20
-8353.88145372
 42
-0.46630766
 10
55346.55352343
 20
-8355.0551019
 10
55325.54028617
 20
-8355.0551019
 42
0.44001053
 10
55324.54409147
 20
-8356.14225764
 10
55325.86408672
 20
-8371.22987242
 42
0.38887999
 10
55327.85648488
 20
-8373.05556094
 10
55357.54810781
 20
-8373.05543087
  0
LWPOLYLINE
  5
6F1
102
{ACAD_REACTORS
330
6F2
102
}
100
AcDbEntity
  8
Ech.1_5
 62
     7
  6
CONTINUOUS
370
     5
100
AcDbPolyline
 90
        4
 70
     1
 43
0.0
 10
55044.17696016
 20
-8811.76659347
 10
55034.7443001
 20
-8811.76659347
 10
55034.7443001
 20
-8818.55558466
 10
55044.17696016
 20
-8818.55558466
  0
HATCH
  5
6F2
100
AcDbEntity
  8
Ech.1_5
 62
     2
  6
CONTINUOUS
100
AcDbHatch
 10
0.0
 20
0.0
 30
0.0
210
0.0
220
0.0
230
1.0
  2
SOLID
 70
     1
 71
     1
 91
        1
 92
        7
 72
     0
 73
     1
 93
        4
 10
55044.17696016
 20
-8811.76659347
 10
55034.7443001
 20
-8811.76659347
 10
55034.7443001
 20
-8818.55558466
 10
55044.17696016
 20
-8818.55558466
 97
        1
330
6F1
 75
     0
 76
     2
 47
0.775229
 98
        1
 10
0.0
 20
0.0
  0
HATCH
  5
6F3
100
AcDbEntity
  8
Ech.1_5
 62
     7
  6
CONTINUOUS
100
AcDbHatch
 10
0.0
 20
0.0
 30
0.0
210
0.0
220
0.0
230
1.0
  2
ANSI31
 70
     0
 71
     1
 91
        1
 92
        7
 72
     0
 73
     1
 93
        4
 10
55044.17696016
 20
-8811.76659347
 10
55034.7443001
 20
-8811.76659347
 10
55034.7443001
 20
-8818.55558466
 10
55044.17696016
 20
-8818.55558466
 97
        1
330
6F2
 75
     0
 76
     2
 52
0.0
 41
0.94488785
 77
     0
 78
     1
 53
45.0
 43
0.0
 44
0.0
 45
2.12132043
 46
-2.12132043
 79
     0
 47
0.775229
 98
        1
 10
0.0
 20
0.0
  0
LWPOLYLINE
  5
6F4
102
{ACAD_REACTORS
330
6F5
102
}
100
AcDbEntity
  8
Ech.1_5
 62
     7
  6
CONTINUOUS
370
     5
100
AcDbPolyline
 90
        4
 70
     1
 43
0.0
 10
55034.7443001
 20
-8811.76659347
 10
55044.17696016
 20
-8811.76659347
 10
55044.17696016
 20
-8798.38907299
 10
55034.7443001
 20
-8798.38907299
  0
HATCH
  5
6F5
100
AcDbEntity
  8
Ech.1_5
 62
     2
  6
CONTINUOUS
100
AcDbHatch
 10
0.0
 20
0.0
 30
0.0
210
0.0
220
0.0
230
1.0
  2
SOLID
 70
     1
 71
     1
 91
        1
 92
        7
 72
     0
 73
     1
 93
        4
 10
55034.7443001
 20
-8811.76659347
 10
55044.17696016
 20
-8811.76659347
 10
55044.17696016
 20
-8798.38907299
 10
55034.7443001
 20
-8798.38907299
 97
        1
330
6F4
 75
     0
 76
     2
 47
0.775229
 98
        1
 10
0.0
 20
0.0
  0
LWPOLYLINE
  5
6F6
100
AcDbEntity
  8
Ech.1_5
 62
   190
  6
CONTINUOUS
370
    -3
100
AcDbPolyline
 90
        4
 70
     1
 43
0.0
 10
55044.17755568
 20
-8798.38907299
 10
55044.1766721
 20
-8730.07619527
 10
55034.74401204
 20
-8730.07619527
 10
55034.74489562
 20
-8798.38907299
  0
LWPOLYLINE
  5
6F7
100
AcDbEntity
  8
Ech.1_5
 62
   190
  6
CONTINUOUS
370
    -3
100
AcDbPolyline
 90
        4
 70
     0
 43
0.0
 10
55034.74401204
 20
-8730.07619527
 10
55044.17755568
 20
-8798.38907299
 10
55034.74489562
 20
-8798.38907299
 10
55044.1766721
 20
-8730.07619527
  0
LWPOLYLINE
  5
6F8
102
{ACAD_REACTORS
330
6F9
102
}
100
AcDbEntity
  8
Ech.1_5
 62
     2
  6
CONTINUOUS
370
     5
100
AcDbPolyline
 90
        4
 70
     1
 43
0.0
 10
55388.51188523
 20
-9150.99138785
 10
55401.88940571
 20
-9150.99138785
 10
55401.88940571
 20
-9141.55872779
 10
55388.51188523
 20
-9141.55872779
  0
HATCH
  5
6F9
100
AcDbEntity
  8
Ech.1_5
 62
     2
  6
CONTINUOUS
100
AcDbHatch
 10
0.0
 20
0.0
 30
0.0
210
0.0
220
0.0
230
1.0
  2
SOLID
 70
     1
 71
     1
 91
        1
 92
        7
 72
     0
 73
     1
 93
        4
 10
55388.51188523
 20
-9150.99138785
 10
55401.88940571
 20
-9150.99138785
 10
55401.88940571
 20
-9141.55872779
 10
55388.51188523
 20
-9141.55872779
 97
        1
330
6F8
 75
     0
 76
     2
 47
0.775229
 98
        1
 10
0.0
 20
0.0
  0
LWPOLYLINE
  5
6FA
102
{ACAD_REACTORS
330
6FB
102
}
100
AcDbEntity
  8
Ech.1_5
 62
     7
  6
CONTINUOUS
370
     5
100
AcDbPolyline
 90
        4
 70
     1
 43
0.0
 10
55399.49320499
 20
-9160.53397461
 10
55392.7042138
 20
-9160.53397461
 10
55392.7042138
 20
-9169.96663467
 10
55399.49320499
 20
-9169.96663467
  0
HATCH
  5
6FB
100
AcDbEntity
  8
Ech.1_5
 62
     2
  6
CONTINUOUS
100
AcDbHatch
 10
0.0
 20
0.0
 30
0.0
210
0.0
220
0.0
230
1.0
  2
SOLID
 70
     1
 71
     1
 91
        1
 92
        7
 72
     0
 73
     1
 93
        4
 10
55399.49320499
 20
-9160.53397461
 10
55392.7042138
 20
-9160.53397461
 10
55392.7042138
 20
-9169.96663467
 10
55399.49320499
 20
-9169.96663467
 97
        1
330
6FA
 75
     0
 76
     2
 47
0.775229
 98
        1
 10
0.0
 20
0.0
  0
HATCH
  5
6FC
100
AcDbEntity
  8
Ech.1_5
 62
     7
  6
CONTINUOUS
100
AcDbHatch
 10
0.0
 20
0.0
 30
0.0
210
0.0
220
0.0
230
1.0
  2
ANSI31
 70
     0
 71
     1
 91
        1
 92
        7
 72
     0
 73
     1
 93
        4
 10
55399.49320499
 20
-9160.53397461
 10
55392.7042138
 20
-9160.53397461
 10
55392.7042138
 20
-9169.96663467
 10
55399.49320499
 20
-9169.96663467
 97
        1
330
6FB
 75
     0
 76
     2
 52
0.0
 41
0.94488785
 77
     0
 78
     1
 53
45.0
 43
0.0
 44
0.0
 45
2.12132043
 46
-2.12132043
 79
     0
 47
0.775229
 98
        1
 10
0.0
 20
0.0
  0
LWPOLYLINE
  5
6FD
100
AcDbEntity
  8
Ech.1_5
 62
   190
  6
CONTINUOUS
370
    -3
100
AcDbPolyline
 90
        4
 70
     1
 43
0.0
 10
55375.14109886
 20
-9198.95625931
 10
55415.21290453
 20
-9198.95581752
 10
55415.21290453
 20
-9189.52315746
 10
55375.14109886
 20
-9189.52359925
  0
LWPOLYLINE
  5
6FE
100
AcDbEntity
  8
Ech.1_5
 62
   190
  6
CONTINUOUS
370
    -3
100
AcDbPolyline
 90
        4
 70
     0
 43
0.0
 10
55415.21290453
 20
-9189.52315746
 10
55375.14109886
 20
-9198.95625931
 10
55375.14109886
 20
-9189.52359925
 10
55415.21290453
 20
-9198.95581752
  0
LWPOLYLINE
  5
6FF
100
AcDbEntity
  8
Ech.1_5
 62
     7
  6
CONTINUOUS
370
    -3
100
AcDbPolyline
 90
        5
 70
     0
 43
0.0
 10
55388.51188523
 20
-9141.55872779
 10
55401.88940571
 20
-9141.55872779
 10
55401.88940571
 20
-9150.99138785
 10
55388.51188523
 20
-9150.99138785
 10
55388.51188523
 20
-9141.55872779
  0
LWPOLYLINE
  5
700
100
AcDbEntity
  8
Ech.1_5
 62
   190
  6
CONTINUOUS
370
    -3
100
AcDbPolyline
 90
        8
 70
     1
 43
0.0
 10
54767.26281191
 20
-8747.37990536
 10
54731.3071119
 20
-8733.26996535
 10
54749.2844603
 20
-8749.7554685
 10
54749.28471473
 20
-8809.5555846
 10
54944.45158311
 20
-8809.5555846
 10
54944.45158311
 20
-8629.5555846
 10
54749.28444915
 20
-8629.5555846
 10
54749.2844603
 20
-8730.89355128
  0
LWPOLYLINE
  5
701
100
AcDbEntity
  8
Ech.1_5
 62
     7
  6
CONTINUOUS
370
    -3
100
AcDbPolyline
 90
        4
 70
     1
 43
0.0
 10
54989.45100212
 20
-8809.5555846
 10
54989.45100212
 20
-8629.5555846
 10
54944.45100212
 20
-8629.5555846
 10
54944.45100212
 20
-8809.5555846
  0
LWPOLYLINE
  5
702
100
AcDbEntity
  8
Ech.1_5
 62
     7
  6
CONTINUOUS
370
    -3
100
AcDbPolyline
 90
        4
 70
     1
 43
0.0
 10
55034.45100212
 20
-8809.5555846
 10
55034.45100212
 20
-8629.5555846
 10
54989.45100212
 20
-8629.5555846
 10
54989.45100212
 20
-8809.5555846
  0
LWPOLYLINE
  5
703
100
AcDbEntity
  8
Ech.1_5
 62
     7
  6
CONTINUOUS
100
AcDbPolyline
 90
        4
 70
     0
 43
0.0
 10
54749.28410031
 20
-8809.5555846
 10
54944.45100212
 20
-8809.5555846
 10
54944.45100212
 20
-8629.5555846
 10
54749.28444915
 20
-8629.5555846
  0
LWPOLYLINE
  5
704
100
AcDbEntity
  8
Ech.1_5
 62
   190
  6
CONTINUOUS
370
    -3
100
AcDbPolyline
 90
        4
 70
     1
 43
0.0
 10
54989.45100212
 20
-8629.5555846
 10
54944.45100212
 20
-8629.5555846
 10
54944.45100212
 20
-8809.5555846
 10
54989.45100212
 20
-8809.5555846
  0
LWPOLYLINE
  5
705
100
AcDbEntity
  8
Ech.1_5
 62
   190
  6
CONTINUOUS
370
    -3
100
AcDbPolyline
 90
       12
 70
     0
 43
0.0
 10
54749.28444915
 20
-8659.5555846
 42
-1.14028181
 10
54808.26221926
 20
-8667.32017343
 10
54780.30667905
 20
-8771.79099576
 42
1.30322619
 10
54838.26221926
 20
-8771.79099576
 10
54810.30667905
 20
-8667.32017343
 42
-1.30322619
 10
54868.26221926
 20
-8667.32017343
 10
54840.30667905
 20
-8771.79099576
 42
1.30322619
 10
54898.26221926
 20
-8771.79099576
 10
54870.30667905
 20
-8667.32017343
 42
-1.30322619
 10
54928.26221926
 20
-8667.32017343
 10
54900.30667905
 20
-8771.79099576
 42
0.67050386
 10
54944.45100212
 20
-8805.43947285
  0
LWPOLYLINE
  5
706
100
AcDbEntity
  8
Ech.1_5
 62
   190
  6
CONTINUOUS
370
    -3
100
AcDbPolyline
 90
        4
 70
     1
 43
0.0
 10
55034.45100212
 20
-8629.5555846
 10
54989.45100212
 20
-8629.5555846
 10
54989.45100212
 20
-8809.5555846
 10
55034.45100212
 20
-8809.5555846
  0
LWPOLYLINE
  5
707
100
AcDbEntity
  8
Ech.1_5
 62
     5
  6
CONTINUOUS
370
    -3
100
AcDbPolyline
 90
        5
 70
     0
 43
0.0
 10
54989.45100212
 20
-8809.5555846
 10
54989.45100212
 20
-8629.5555846
 10
54944.45100212
 20
-8629.5555846
 10
54944.45100212
 20
-8809.5555846
 10
54989.45100212
 20
-8809.5555846
  0
LWPOLYLINE
  5
708
100
AcDbEntity
  8
Ech.1_5
 62
     5
  6
CONTINUOUS
370
    -3
100
AcDbPolyline
 90
        5
 70
     0
 43
0.0
 10
55034.45100212
 20
-8809.5555846
 10
55034.45100212
 20
-8629.5555846
 10
54989.45100212
 20
-8629.5555846
 10
54989.45100212
 20
-8809.5555846
 10
55034.45100212
 20
-8809.5555846
  0
LWPOLYLINE
  5
709
100
AcDbEntity
  8
Ech.1_5
 62
   190
  6
CONTINUOUS
370
    -3
100
AcDbPolyline
 90
        4
 70
     1
 43
0.0
 10
55034.45141504
 20
-8843.55558466
 10
55034.45141504
 20
-8818.55558466
 10
54984.45141504
 20
-8818.55558466
 10
54984.45141504
 20
-8843.55558466
  0
LWPOLYLINE
  5
70A
100
AcDbEntity
  8
Ech.1_5
 62
   190
  6
CONTINUOUS
370
    -3
100
AcDbPolyline
 90
        4
 70
     1
 43
0.0
 10
55034.45141504
 20
-8818.55558466
 10
54984.45141504
 20
-8818.55558466
 10
54984.45141504
 20
-8843.55558466
 10
55034.45141504
 20
-8843.55558466
  0
LWPOLYLINE
  5
70B
100
AcDbEntity
  8
Ech.1_5
 62
     7
  6
CONTINUOUS
370
    -3
100
AcDbPolyline
 90
        4
 70
     1
 43
0.0
 10
54749.28444681
 20
-8863.55558466
 10
55034.45141504
 20
-8863.55558466
 10
55034.45141504
 20
-8843.55558466
 10
54749.28444681
 20
-8843.55558466
  0
LWPOLYLINE
  5
70C
100
AcDbEntity
  8
Ech.1_5
 62
     5
  6
CONTINUOUS
370
    -3
100
AcDbPolyline
 90
        5
 70
     0
 43
0.0
 10
55034.45141504
 20
-8818.55558466
 10
54984.45141504
 20
-8818.55558466
 10
54984.45141504
 20
-8843.55558466
 10
55034.45141504
 20
-8843.55558466
 10
55034.45141504
 20
-8818.55558466
  0
LWPOLYLINE
  5
70D
100
AcDbEntity
  8
Ech.1_5
 62
   150
  6
CADWORK_22
370
    35
100
AcDbPolyline
 90
        3
 70
     0
 43
0.0
 38
2500.0
 10
54749.28445063
 20
-8820.05558466
 10
55034.45141504
 20
-8820.05558466
 10
55034.45141504
 20
-8726.00541874
  0
LINE
  5
70E
100
AcDbEntity
  8
Ech.1_5
 62
   177
  6
DASHEDX2
 48
0.89999998
370
    70
100
AcDbLine
 10
55199.34695533
 20
-8658.5600248
 30
0.0
 11
55353.11425798
 21
-8658.5555846
 31
0.0
  0
LWPOLYLINE
  5
70F
100
AcDbEntity
  8
Ech.1_5
 62
   177
  6
CONTINUOUS
370
    70
100
AcDbPolyline
 90
        6
 70
     0
 43
0.0
 10
55199.34681845
 20
-8878.55558466
 10
55208.24855485
 20
-8878.55558466
 10
55353.11543216
 20
-8878.55558466
 10
55353.11543216
 20
-8868.55822209
 10
55353.11543216
 20
-8868.55848675
 10
55353.1120822
 20
-8658.55740956
  0
LWPOLYLINE
  5
710
102
{ACAD_REACTORS
330
711
102
}
100
AcDbEntity
  8
Ech.1_5
 62
     7
  6
CONTINUOUS
370
     5
100
AcDbPolyline
 90
        4
 70
     1
 43
0.0
 10
55353.11512756
 20
-8811.76659347
 10
55362.54778762
 20
-8811.76659347
 10
55362.54778762
 20
-8818.55558466
 10
55353.11512756
 20
-8818.55558466
  0
HATCH
  5
711
100
AcDbEntity
  8
Ech.1_5
 62
     2
  6
CONTINUOUS
100
AcDbHatch
 10
0.0
 20
0.0
 30
0.0
210
0.0
220
0.0
230
1.0
  2
SOLID
 70
     1
 71
     1
 91
        1
 92
        7
 72
     0
 73
     1
 93
        4
 10
55353.11512756
 20
-8811.76659347
 10
55362.54778762
 20
-8811.76659347
 10
55362.54778762
 20
-8818.55558466
 10
55353.11512756
 20
-8818.55558466
 97
        1
330
710
 75
     0
 76
     2
 47
0.775229
 98
        1
 10
0.0
 20
0.0
  0
HATCH
  5
712
100
AcDbEntity
  8
Ech.1_5
 62
     7
  6
CONTINUOUS
100
AcDbHatch
 10
0.0
 20
0.0
 30
0.0
210
0.0
220
0.0
230
1.0
  2
ANSI31
 70
     0
 71
     1
 91
        1
 92
        7
 72
     0
 73
     1
 93
        4
 10
55353.11512756
 20
-8811.76659347
 10
55362.54778762
 20
-8811.76659347
 10
55362.54778762
 20
-8818.55558466
 10
55353.11512756
 20
-8818.55558466
 97
        1
330
711
 75
     0
 76
     2
 52
0.0
 41
0.94488785
 77
     0
 78
     1
 53
45.0
 43
0.0
 44
0.0
 45
2.12132043
 46
-2.12132043
 79
     0
 47
0.775229
 98
        1
 10
0.0
 20
0.0
  0
LWPOLYLINE
  5
713
102
{ACAD_REACTORS
330
714
102
}
100
AcDbEntity
  8
Ech.1_5
 62
     7
  6
CONTINUOUS
370
     5
100
AcDbPolyline
 90
        4
 70
     1
 43
0.0
 10
55362.54778762
 20
-8811.76659347
 10
55353.11512756
 20
-8811.76659347
 10
55353.11512756
 20
-8798.38907299
 10
55362.54778762
 20
-8798.38907299
  0
HATCH
  5
714
100
AcDbEntity
  8
Ech.1_5
 62
     2
  6
CONTINUOUS
100
AcDbHatch
 10
0.0
 20
0.0
 30
0.0
210
0.0
220
0.0
230
1.0
  2
SOLID
 70
     1
 71
     1
 91
        1
 92
        7
 72
     0
 73
     1
 93
        4
 10
55362.54778762
 20
-8811.76659347
 10
55353.11512756
 20
-8811.76659347
 10
55353.11512756
 20
-8798.38907299
 10
55362.54778762
 20
-8798.38907299
 97
        1
330
713
 75
     0
 76
     2
 47
0.775229
 98
        1
 10
0.0
 20
0.0
  0
LWPOLYLINE
  5
715
100
AcDbEntity
  8
Ech.1_5
 62
   190
  6
CONTINUOUS
370
    -3
100
AcDbPolyline
 90
        4
 70
     1
 43
0.0
 10
55353.11453204
 20
-8798.38907299
 10
55353.11541562
 20
-8730.07619527
 10
55362.54807568
 20
-8730.07619527
 10
55362.5471921
 20
-8798.38907299
  0
LWPOLYLINE
  5
716
100
AcDbEntity
  8
Ech.1_5
 62
   190
  6
CONTINUOUS
370
    -3
100
AcDbPolyline
 90
        4
 70
     0
 43
0.0
 10
55362.54807568
 20
-8730.07619527
 10
55353.11453204
 20
-8798.38907299
 10
55362.5471921
 20
-8798.38907299
 10
55353.11541562
 20
-8730.07619527
  0
LWPOLYLINE
  5
717
100
AcDbEntity
  8
Ech.1_5
 62
   190
  6
CONTINUOUS
370
    -3
100
AcDbPolyline
 90
        4
 70
     1
 43
0.0
 10
55353.11453204
 20
-8692.0682743
 10
55353.11541562
 20
-8629.5555846
 10
55362.54807568
 20
-8629.5555846
 10
55362.5471921
 20
-8692.0682743
  0
LWPOLYLINE
  5
718
100
AcDbEntity
  8
Ech.1_5
 62
   190
  6
CONTINUOUS
370
    -3
100
AcDbPolyline
 90
        4
 70
     0
 43
0.0
 10
55362.54807568
 20
-8629.5555846
 10
55353.11453204
 20
-8692.0682743
 10
55362.5471921
 20
-8692.0682743
 10
55353.11541562
 20
-8629.5555846
  0
LWPOLYLINE
  5
719
100
AcDbEntity
  8
Ech.1_5
 62
     7
  6
CONTINUOUS
370
    -3
100
AcDbPolyline
 90
       12
 70
     1
 43
0.0
 10
55353.11512756
 20
-8629.85577204
 10
55353.11512756
 20
-8814.38907293
 10
55353.11512756
 20
-8857.55716801
 10
55353.11543216
 20
-8873.55558466
 10
55343.61445598
 20
-8873.55558466
 10
55343.61445598
 20
-8873.55558466
 10
55337.61445598
 20
-8873.55558466
 10
55337.61445598
 20
-8873.55558466
 10
55328.11347981
 20
-8873.55558466
 10
55328.11347981
 20
-8629.85577204
 10
55348.11512756
 20
-8629.85577204
 10
55348.11512756
 20
-8629.85577204
  0
LWPOLYLINE
  5
71A
100
AcDbEntity
  8
Ech.1_5
 62
     5
  6
CONTINUOUS
370
    -3
100
AcDbPolyline
 90
       11
 70
     0
 43
0.0
 10
55353.11512756
 20
-8629.85577204
 10
55353.11543216
 20
-8873.55558466
 10
55343.61445598
 20
-8873.55558466
 10
55343.61445598
 20
-8873.55558466
 10
55337.61445598
 20
-8873.55558466
 10
55337.61445598
 20
-8873.55558466
 10
55328.11347981
 20
-8873.55558466
 10
55328.11347981
 20
-8629.85577204
 10
55348.11512756
 20
-8629.85577204
 10
55348.11512756
 20
-8629.85577204
 10
55353.11512756
 20
-8629.85577204
  0
LWPOLYLINE
  5
71B
100
AcDbEntity
  8
Ech.1_5
 62
   190
  6
CONTINUOUS
370
    -3
100
AcDbPolyline
 90
        8
 70
     1
 43
0.0
 10
55630.02927581
 20
-8747.37990536
 10
55665.98497582
 20
-8733.26996535
 10
55648.00762741
 20
-8749.7554685
 10
55648.00737299
 20
-8809.5555846
 10
55452.84050461
 20
-8809.5555846
 10
55452.84050461
 20
-8629.5555846
 10
55648.00763856
 20
-8629.5555846
 10
55648.00762741
 20
-8730.89355128
  0
LWPOLYLINE
  5
71C
100
AcDbEntity
  8
Ech.1_5
 62
     7
  6
CONTINUOUS
370
    -3
100
AcDbPolyline
 90
        4
 70
     1
 43
0.0
 10
55407.8410856
 20
-8809.5555846
 10
55407.8410856
 20
-8629.5555846
 10
55452.8410856
 20
-8629.5555846
 10
55452.8410856
 20
-8809.5555846
  0
LWPOLYLINE
  5
71D
100
AcDbEntity
  8
Ech.1_5
 62
     7
  6
CONTINUOUS
370
    -3
100
AcDbPolyline
 90
        4
 70
     1
 43
0.0
 10
55362.8410856
 20
-8809.5555846
 10
55362.8410856
 20
-8629.5555846
 10
55407.8410856
 20
-8629.5555846
 10
55407.8410856
 20
-8809.5555846
  0
LWPOLYLINE
  5
71E
100
AcDbEntity
  8
Ech.1_5
 62
     7
  6
CONTINUOUS
100
AcDbPolyline
 90
        4
 70
     0
 43
0.0
 10
55648.00798741
 20
-8809.5555846
 10
55452.8410856
 20
-8809.5555846
 10
55452.8410856
 20
-8629.5555846
 10
55648.00763856
 20
-8629.5555846
  0
LWPOLYLINE
  5
71F
100
AcDbEntity
  8
Ech.1_5
 62
   190
  6
CONTINUOUS
370
    -3
100
AcDbPolyline
 90
        4
 70
     1
 43
0.0
 10
55407.8410856
 20
-8629.5555846
 10
55452.8410856
 20
-8629.5555846
 10
55452.8410856
 20
-8809.5555846
 10
55407.8410856
 20
-8809.5555846
  0
LWPOLYLINE
  5
720
100
AcDbEntity
  8
Ech.1_5
 62
   190
  6
CONTINUOUS
370
    -3
100
AcDbPolyline
 90
       12
 70
     0
 43
0.0
 10
55648.00763856
 20
-8659.5555846
 42
1.14028181
 10
55589.02986846
 20
-8667.32017343
 10
55616.98540867
 20
-8771.79099576
 42
-1.30322619
 10
55559.02986846
 20
-8771.79099576
 10
55586.98540867
 20
-8667.32017343
 42
1.30322619
 10
55529.02986846
 20
-8667.32017343
 10
55556.98540867
 20
-8771.79099576
 42
-1.30322619
 10
55499.02986846
 20
-8771.79099576
 10
55526.98540867
 20
-8667.32017343
 42
1.30322619
 10
55469.02986846
 20
-8667.32017343
 10
55496.98540867
 20
-8771.79099576
 42
-0.67050386
 10
55452.8410856
 20
-8805.43947285
  0
LWPOLYLINE
  5
721
100
AcDbEntity
  8
Ech.1_5
 62
   190
  6
CONTINUOUS
370
    -3
100
AcDbPolyline
 90
        4
 70
     1
 43
0.0
 10
55362.8410856
 20
-8629.5555846
 10
55407.8410856
 20
-8629.5555846
 10
55407.8410856
 20
-8809.5555846
 10
55362.8410856
 20
-8809.5555846
  0
LWPOLYLINE
  5
722
100
AcDbEntity
  8
Ech.1_5
 62
     5
  6
CONTINUOUS
370
    -3
100
AcDbPolyline
 90
        5
 70
     0
 43
0.0
 10
55407.8410856
 20
-8809.5555846
 10
55407.8410856
 20
-8629.5555846
 10
55452.8410856
 20
-8629.5555846
 10
55452.8410856
 20
-8809.5555846
 10
55407.8410856
 20
-8809.5555846
  0
LWPOLYLINE
  5
723
100
AcDbEntity
  8
Ech.1_5
 62
     5
  6
CONTINUOUS
370
    -3
100
AcDbPolyline
 90
        5
 70
     0
 43
0.0
 10
55362.8410856
 20
-8809.5555846
 10
55362.8410856
 20
-8629.5555846
 10
55407.8410856
 20
-8629.5555846
 10
55407.8410856
 20
-8809.5555846
 10
55362.8410856
 20
-8809.5555846
  0
LWPOLYLINE
  5
724
100
AcDbEntity
  8
Ech.1_5
 62
   190
  6
CONTINUOUS
370
    -3
100
AcDbPolyline
 90
        4
 70
     1
 43
0.0
 10
55362.84067268
 20
-8843.55558466
 10
55362.84067268
 20
-8818.55558466
 10
55412.84067268
 20
-8818.55558466
 10
55412.84067268
 20
-8843.55558466
  0
LWPOLYLINE
  5
725
100
AcDbEntity
  8
Ech.1_5
 62
   190
  6
CONTINUOUS
370
    -3
100
AcDbPolyline
 90
        4
 70
     1
 43
0.0
 10
55362.84067268
 20
-8818.55558466
 10
55412.84067268
 20
-8818.55558466
 10
55412.84067268
 20
-8843.55558466
 10
55362.84067268
 20
-8843.55558466
  0
LWPOLYLINE
  5
726
100
AcDbEntity
  8
Ech.1_5
 62
     7
  6
CONTINUOUS
370
    -3
100
AcDbPolyline
 90
        4
 70
     1
 43
0.0
 10
55648.00764091
 20
-8863.55558466
 10
55362.84067268
 20
-8863.55558466
 10
55362.84067268
 20
-8843.55558466
 10
55648.00764091
 20
-8843.55558466
  0
LWPOLYLINE
  5
727
100
AcDbEntity
  8
Ech.1_5
 62
     5
  6
CONTINUOUS
370
    -3
100
AcDbPolyline
 90
        5
 70
     0
 43
0.0
 10
55362.84067268
 20
-8818.55558466
 10
55412.84067268
 20
-8818.55558466
 10
55412.84067268
 20
-8843.55558466
 10
55362.84067268
 20
-8843.55558466
 10
55362.84067268
 20
-8818.55558466
  0
LWPOLYLINE
  5
728
100
AcDbEntity
  8
Ech.1_5
 62
   150
  6
CADWORK_22
370
    35
100
AcDbPolyline
 90
        3
 70
     0
 43
0.0
 38
2500.0
 10
55648.00763709
 20
-8820.05558466
 10
55362.84067268
 20
-8820.05558466
 10
55362.84067268
 20
-8726.00541874
  0
LWPOLYLINE
  5
729
102
{ACAD_REACTORS
330
72A
102
}
100
AcDbEntity
  8
Ech.1_5
 62
     9
  6
CONTINUOUS
370
    -3
100
AcDbPolyline
 90
        4
 70
     1
 43
0.0
 10
55382.84122981
 20
-8409.5555846
 10
55382.84122981
 20
-8609.5555846
 10
55648.00764657
 20
-8609.55848617
 10
55648.00764657
 20
-8409.5555846
  0
HATCH
  5
72A
100
AcDbEntity
  8
Ech.1_5
 62
     9
  6
CONTINUOUS
100
AcDbHatch
 10
0.0
 20
0.0
 30
0.0
210
0.0
220
0.0
230
1.0
  2
AR-CONC
 70
     0
 71
     1
 91
        1
 92
        7
 72
     0
 73
     1
 93
        4
 10
55382.84122981
 20
-8409.5555846
 10
55382.84122981
 20
-8609.5555846
 10
55648.00764657
 20
-8609.55848617
 10
55648.00764657
 20
-8409.5555846
 97
        1
330
729
 75
     0
 76
     2
 52
0.0
 41
0.11811097
 77
     0
 78
    13
 53
50.0
 43
0.0
 44
0.0
 45
-18.84283637
 46
1.64853443
 79
     2
 49
1.97029307
 49
-21.67322338
 53
355.0
 43
0.0
 44
0.0
 45
-3.64507756
 46
19.76051824
 79
     2
 49
1.57623377
 49
-17.3385787
 53
100.45140076
 43
1.57023568
 44
-0.13737749
 45
-15.19777228
 46
-18.11197244
 79
     2
 49
1.67449124
 49
-18.41940522
 53
46.18420029
 43
0.0
 44
5.25411576
 45
-28.03703353
 46
4.34827878
 79
     2
 49
2.95543872
 49
-32.50983238
 53
96.63559723
 43
2.33641885
 44
4.89175692
 45
-24.55412615
 46
-25.59063404
 79
     2
 49
2.51173697
 49
-27.62910426
 53
351.1842041
 43
0.0
 44
5.25411576
 45
24.55410288
 46
25.59065715
 79
     2
 49
2.36435249
 49
-26.00786805
 53
21.0
 43
2.62705699
 44
3.94058615
 45
-15.68109068
 46
10.57702905
 79
     2
 49
1.97029307
 49
-21.67322338
 53
326.0
 43
2.62705699
 44
3.94058615
 45
6.39203268
 46
19.05010734
 79
     2
 49
1.57623377
 49
-17.3385787
 53
71.45140076
 43
3.93381357
 44
3.05916555
 45
-22.07312962
 46
-8.47306182
 79
     2
 49
1.67449124
 49
-18.41940522
 53
37.5
 43
0.0
 44
0.0
 45
0.31944534
 46
8.74531245
 79
     6
 49
0.01875
 49
-17.12841332
 49
0.01875
 49
-17.60128498
 49
0.01875
 49
-17.40425348
 53
7.5
 43
0.0
 44
0.0
 45
6.91098818
 46
10.3614222
 79
     6
 49
0.01875
 49
-10.03535807
 49
0.01875
 49
-16.7343539
 49
0.01875
 49
-6.6333206
 53
-32.5
 43
-5.85833833
 44
0.0
 45
14.02382061
 46
-0.59253003
 79
     6
 49
0.01875
 49
-6.56764314
 49
0.01875
 49
-20.49104869
 49
0.01875
 49
-27.19004452
 53
-42.5
 43
-8.48539531
 44
0.0
 45
15.32063571
 46
2.62981542
 79
     6
 49
0.01875
 49
-8.53793621
 49
0.01875
 49
-13.60815793
 49
0.01875
 49
-19.30887222
 47
0.775229
 98
        1
 10
0.0
 20
0.0
  0
LWPOLYLINE
  5
72B
100
AcDbEntity
  8
Ech.1_5
 62
   254
  6
CONTINUOUS
370
    -3
100
AcDbPolyline
 90
        4
 70
     1
 43
0.0
 10
55382.84049483
 20
-8339.5555846
 10
55382.84049483
 20
-8389.5555846
 10
55648.00764657
 20
-8389.5555846
 10
55648.00764657
 20
-8339.5555846
  0
LWPOLYLINE
  5
72C
102
{ACAD_REACTORS
330
72D
102
}
100
AcDbEntity
  8
Ech.1_5
 62
     9
  6
CONTINUOUS
370
    -3
100
AcDbPolyline
 90
        4
 70
     1
 43
0.0
 10
55382.84049483
 20
-8326.5555846
 10
55382.84049483
 20
-8339.5555846
 10
55648.00764657
 20
-8339.5555846
 10
55648.00764657
 20
-8326.5555846
  0
HATCH
  5
72D
100
AcDbEntity
  8
Ech.1_5
 62
     9
  6
CONTINUOUS
100
AcDbHatch
 10
0.0
 20
0.0
 30
0.0
210
0.0
220
0.0
230
1.0
  2
DOTS2
 70
     0
 71
     1
 91
        1
 92
        7
 72
     0
 73
     1
 93
        4
 10
55382.84049483
 20
-8326.5555846
 10
55382.84049483
 20
-8339.5555846
 10
55648.00764657
 20
-8339.5555846
 10
55648.00764657
 20
-8326.5555846
 97
        1
330
72C
 75
     0
 76
     2
 52
0.0
 41
4.72440952
 77
     0
 78
     1
 53
0.0
 43
0.0
 44
0.0
 45
3.75
 46
3.535
 79
     2
 49
0.0
 49
-3.535
 47
0.775229
 98
        1
 10
0.0
 20
0.0
  0
3DFACE
  5
72E
102
{ACAD_REACTORS
330
72F
102
}
100
AcDbEntity
  8
Ech.1_5
 62
     9
  6
CONTINUOUS
370
    -3
100
AcDbFace
 70
     0
 10
55382.84122981
 20
-8373.05556094
 30
2500.0
 11
55335.48168251
 21
-8373.05556094
 31
2500.0
 12
55335.48168251
 22
-8609.5555846
 32
2500.0
 13
55382.83810939
 23
-8609.5555846
 33
2500.0
  0
HATCH
  5
72F
100
AcDbEntity
  8
Ech.1_5
 62
     9
  6
CONTINUOUS
100
AcDbHatch
 10
0.0
 20
0.0
 30
0.0
210
0.0
220
0.0
230
1.0
  2
ANSI31
 70
     0
 71
     1
 91
        1
 92
        7
 72
     0
 73
     1
 93
        4
 10
55382.84122981
 20
-8373.05556094
 10
55335.48168251
 20
-8373.05556094
 10
55335.48168251
 20
-8609.5555846
 10
55382.83810939
 20
-8609.5555846
 97
        1
330
72E
 75
     0
 76
     2
 52
0.0
 41
9.44887814
 77
     0
 78
     1
 53
45.0
 43
0.0
 44
0.0
 45
21.21320344
 46
-21.21320344
 79
     0
 47
0.775229
 98
        1
 10
0.0
 20
0.0
  0
LWPOLYLINE
  5
730
102
{ACAD_REACTORS
330
731
102
}
100
AcDbEntity
  8
Ech.1_5
 62
     9
  6
CONTINUOUS
370
    15
100
AcDbPolyline
 90
       27
 70
     1
 43
0.0
 10
55327.98507149
 20
-8593.98903844
 10
55327.83837627
 20
-8580.5208209
 10
55327.71580063
 20
-8570.46716107
 10
55327.59175322
 20
-8560.41353422
 10
55327.47494917
 20
-8550.35991968
 10
55327.3741036
 20
-8540.30629674
 10
55327.29793165
 20
-8530.25264472
 10
55327.25514845
 20
-8520.19894292
 10
55327.25360497
 20
-8510.53484801
 10
55327.29910175
 20
-8500.09131477
 10
55327.37264653
 20
-8490.03738905
 10
55327.45433861
 20
-8479.98341322
 10
55327.52341346
 20
-8469.92940704
 10
55327.55910651
 20
-8459.87539026
 10
55327.5271166
 20
-8447.58804074
 10
55327.45159042
 20
-8439.76740866
 10
55327.30960475
 20
-8429.71353119
 10
55327.14866417
 20
-8419.65983119
 10
55327.00283679
 20
-8409.60638978
 10
55326.9061907
 20
-8399.55328805
 10
55326.8913106
 20
-8389.90084286
 10
55326.9833135
 20
-8379.44835174
 10
55327.07807673
 20
-8373.05556094
 10
55335.48168251
 20
-8373.05556094
 10
55335.48168251
 20
-8609.5555846
 10
55328.11348813
 20
-8609.5555846
 10
55328.04500727
 20
-8600.62831953
  0
HATCH
  5
731
100
AcDbEntity
  8
Ech.1_5
 62
     9
  6
CONTINUOUS
100
AcDbHatch
 10
0.0
 20
0.0
 30
0.0
210
0.0
220
0.0
230
1.0
  2
SOLID
 70
     1
 71
     1
 91
        1
 92
        7
 72
     0
 73
     1
 93
       27
 10
55327.98507149
 20
-8593.98903844
 10
55327.83837627
 20
-8580.5208209
 10
55327.71580063
 20
-8570.46716107
 10
55327.59175322
 20
-8560.41353422
 10
55327.47494917
 20
-8550.35991968
 10
55327.3741036
 20
-8540.30629674
 10
55327.29793165
 20
-8530.25264472
 10
55327.25514845
 20
-8520.19894292
 10
55327.25360497
 20
-8510.53484801
 10
55327.29910175
 20
-8500.09131477
 10
55327.37264653
 20
-8490.03738905
 10
55327.45433861
 20
-8479.98341322
 10
55327.52341346
 20
-8469.92940704
 10
55327.55910651
 20
-8459.87539026
 10
55327.5271166
 20
-8447.58804074
 10
55327.45159042
 20
-8439.76740866
 10
55327.30960475
 20
-8429.71353119
 10
55327.14866417
 20
-8419.65983119
 10
55327.00283679
 20
-8409.60638978
 10
55326.9061907
 20
-8399.55328805
 10
55326.8913106
 20
-8389.90084286
 10
55326.9833135
 20
-8379.44835174
 10
55327.07807673
 20
-8373.05556094
 10
55335.48168251
 20
-8373.05556094
 10
55335.48168251
 20
-8609.5555846
 10
55328.11348813
 20
-8609.5555846
 10
55328.04500727
 20
-8600.62831953
 97
        1
330
730
 75
     0
 76
     2
 47
0.775229
 98
        1
 10
0.0
 20
0.0
  0
LWPOLYLINE
  5
732
102
{ACAD_REACTORS
330
733
102
}
100
AcDbEntity
  8
Ech.1_5
 62
     9
  6
CONTINUOUS
370
    15
100
AcDbPolyline
 90
       35
 70
     1
 43
0.0
 10
55338.15412445
 20
-8615.12362894
 10
55348.19549496
 20
-8615.66359293
 10
55358.23831719
 20
-8616.14739621
 10
55368.28331702
 20
-8616.54695843
 10
55376.3802915
 20
-8616.78854366
 10
55388.38227379
 20
-8617.00161956
 10
55398.43566866
 20
-8617.08706898
 10
55408.49044056
 20
-8617.13507631
 10
55418.54562721
 20
-8617.19008189
 10
55425.76577506
 20
-8617.2587346
 10
55438.65384814
 20
-8617.47009677
 10
55448.70660508
 20
-8617.67931271
 10
55458.75886839
 20
-8617.88641577
 10
55468.81096453
 20
-8618.0539536
 10
55479.26345564
 20
-8618.1459565
 10
55488.91590084
 20
-8618.1310764
 10
55498.96900256
 20
-8618.03443031
 10
55509.02244398
 20
-8617.88860293
 10
55519.07614397
 20
-8617.72766235
 10
55529.13002144
 20
-8617.58567669
 10
55536.95065352
 20
-8617.5101505
 10
55549.23800304
 20
-8617.47816059
 10
55559.29201983
 20
-8617.51385365
 10
55569.34602601
 20
-8617.58292849
 10
55579.40000183
 20
-8617.66462057
 10
55589.45392756
 20
-8617.73816535
 10
55599.89746079
 20
-8617.78366213
 10
55609.5615557
 20
-8617.78211866
 10
55619.6152575
 20
-8617.73933545
 10
55629.66890953
 20
-8617.6631635
 10
55639.72253246
 20
-8617.56231794
 10
55648.00763856
 20
-8617.46606062
 10
55648.00763856
 20
-8609.5555846
 10
55328.11348813
 20
-8609.5555846
 10
55328.11347981
 20
-8614.5555846
  0
HATCH
  5
733
100
AcDbEntity
  8
Ech.1_5
 62
     9
  6
CONTINUOUS
100
AcDbHatch
 10
0.0
 20
0.0
 30
0.0
210
0.0
220
0.0
230
1.0
  2
SOLID
 70
     1
 71
     1
 91
        1
 92
        7
 72
     0
 73
     1
 93
       35
 10
55338.15412445
 20
-8615.12362894
 10
55348.19549496
 20
-8615.66359293
 10
55358.23831719
 20
-8616.14739621
 10
55368.28331702
 20
-8616.54695843
 10
55376.3802915
 20
-8616.78854366
 10
55388.38227379
 20
-8617.00161956
 10
55398.43566866
 20
-8617.08706898
 10
55408.49044056
 20
-8617.13507631
 10
55418.54562721
 20
-8617.19008189
 10
55425.76577506
 20
-8617.2587346
 10
55438.65384814
 20
-8617.47009677
 10
55448.70660508
 20
-8617.67931271
 10
55458.75886839
 20
-8617.88641577
 10
55468.81096453
 20
-8618.0539536
 10
55479.26345564
 20
-8618.1459565
 10
55488.91590084
 20
-8618.1310764
 10
55498.96900256
 20
-8618.03443031
 10
55509.02244398
 20
-8617.88860293
 10
55519.07614397
 20
-8617.72766235
 10
55529.13002144
 20
-8617.58567669
 10
55536.95065352
 20
-8617.5101505
 10
55549.23800304
 20
-8617.47816059
 10
55559.29201983
 20
-8617.51385365
 10
55569.34602601
 20
-8617.58292849
 10
55579.40000183
 20
-8617.66462057
 10
55589.45392756
 20
-8617.73816535
 10
55599.89746079
 20
-8617.78366213
 10
55609.5615557
 20
-8617.78211866
 10
55619.6152575
 20
-8617.73933545
 10
55629.66890953
 20
-8617.6631635
 10
55639.72253246
 20
-8617.56231794
 10
55648.00763856
 20
-8617.46606062
 10
55648.00763856
 20
-8609.5555846
 10
55328.11348813
 20
-8609.5555846
 10
55328.11347981
 20
-8614.5555846
 97
        1
330
732
 75
     0
 76
     2
 47
0.775229
 98
        1
 10
0.0
 20
0.0
  0
LWPOLYLINE
  5
734
100
AcDbEntity
  8
Ech.1_5
 62
     9
  6
CONTINUOUS
370
    -3
100
AcDbPolyline
 90
       62
 70
     0
 43
0.0
 10
55648.00764657
 20
-8347.88891793
 42
1.14028181
 10
55631.62493265
 20
-8350.04574816
 10
55639.39036049
 20
-8379.06542103
 42
-1.30322619
 10
55623.29159932
 20
-8379.06542103
 10
55631.05702715
 20
-8350.04574816
 42
1.30322619
 10
55614.95826598
 20
-8350.04574816
 10
55622.72369382
 20
-8379.06542103
 42
-1.30322619
 10
55606.62493265
 20
-8379.06542103
 10
55614.39036049
 20
-8350.04574816
 42
1.30322619
 10
55598.29159932
 20
-8350.04574816
 10
55606.05702715
 20
-8379.06542103
 42
-1.30322619
 10
55589.95826598
 20
-8379.06542103
 10
55597.72369382
 20
-8350.04574816
 42
1.30322619
 10
55581.62493265
 20
-8350.04574816
 10
55589.39036049
 20
-8379.06542103
 42
-1.30322619
 10
55573.29159932
 20
-8379.06542103
 10
55581.05702715
 20
-8350.04574816
 42
1.30322619
 10
55564.95826598
 20
-8350.04574816
 10
55572.72369382
 20
-8379.06542103
 42
-1.30322619
 10
55556.62493265
 20
-8379.06542103
 10
55564.39036049
 20
-8350.04574816
 42
1.30322619
 10
55548.29159932
 20
-8350.04574816
 10
55556.05702715
 20
-8379.06542103
 42
-1.30322619
 10
55539.95826598
 20
-8379.06542103
 10
55547.72369382
 20
-8350.04574816
 42
1.30322619
 10
55531.62493265
 20
-8350.04574816
 10
55539.39036049
 20
-8379.06542103
 42
-1.30322619
 10
55523.29159932
 20
-8379.06542103
 10
55531.05702715
 20
-8350.04574816
 42
1.30322619
 10
55514.95826598
 20
-8350.04574816
 10
55522.72369382
 20
-8379.06542103
 42
-1.30322619
 10
55506.62493265
 20
-8379.06542103
 10
55514.39036049
 20
-8350.04574816
 42
1.30322619
 10
55498.29159932
 20
-8350.04574816
 10
55506.05702715
 20
-8379.06542103
 42
-1.30322619
 10
55489.95826598
 20
-8379.06542103
 10
55497.72369382
 20
-8350.04574816
 42
1.30322619
 10
55481.62493265
 20
-8350.04574816
 10
55489.39036049
 20
-8379.06542103
 42
-1.30322619
 10
55473.29159932
 20
-8379.06542103
 10
55481.05702715
 20
-8350.04574816
 42
1.30322619
 10
55464.95826598
 20
-8350.04574816
 10
55472.72369382
 20
-8379.06542103
 42
-1.30322619
 10
55456.62493265
 20
-8379.06542103
 10
55464.39036049
 20
-8350.04574816
 42
1.30322619
 10
55448.29159932
 20
-8350.04574816
 10
55456.05702715
 20
-8379.06542103
 42
-1.30322619
 10
55439.95826598
 20
-8379.06542103
 10
55447.72369382
 20
-8350.04574816
 42
1.30322619
 10
55431.62493265
 20
-8350.04574816
 10
55439.39036049
 20
-8379.06542103
 42
-1.30322619
 10
55423.29159932
 20
-8379.06542103
 10
55431.05702715
 20
-8350.04574816
 42
1.30322619
 10
55414.95826598
 20
-8350.04574816
 10
55422.72369382
 20
-8379.06542103
 42
-1.30322619
 10
55406.62493265
 20
-8379.06542103
 10
55414.39036049
 20
-8350.04574816
 42
1.30322619
 10
55398.29159932
 20
-8350.04574816
 10
55406.05702715
 20
-8379.06542103
 42
-1.30322619
 10
55389.95826598
 20
-8379.06542103
 10
55397.72369382
 20
-8350.04574816
 42
0.83977392
 10
55382.84049483
 20
-8343.11991694
  0
LWPOLYLINE
  5
735
100
AcDbEntity
  8
Ech.1_5
 62
     1
  6
CADWORK_22
 48
-5.0
370
    35
100
AcDbPolyline
 90
        3
 70
     0
 43
0.0
 10
55648.00763856
 20
-8629.5555846
 10
55362.8410856
 20
-8629.5555846
 10
55362.8410856
 20
-8730.07619527
  0
LINE
  5
736
100
AcDbEntity
  8
Ech.1_5
 62
     7
  6
CONTINUOUS
100
AcDbLine
 10
55101.24487041
 20
-8337.80478805
 30
0.0
 11
55197.65238421
 21
-8337.80478805
 31
0.0
  0
LINE
  5
737
100
AcDbEntity
  8
Ech.1_5
 62
     7
  6
CONTINUOUS
100
AcDbLine
 10
55101.24487041
 20
-8333.80478805
 30
0.0
 11
55197.65238421
 21
-8333.80479453
 31
0.0
  0
LINE
  5
738
100
AcDbEntity
  8
Ech.1_5
 62
     7
  6
CONTINUOUS
100
AcDbLine
 10
55101.24487041
 20
-8317.80478805
 30
0.0
 11
55197.65238421
 21
-8317.80479453
 31
0.0
  0
LINE
  5
739
100
AcDbEntity
  8
Ech.1_5
 62
     7
  6
CONTINUOUS
100
AcDbLine
 10
55101.24487041
 20
-8313.80478805
 30
0.0
 11
55197.65238421
 21
-8313.80479453
 31
0.0
  0
LINE
  5
73A
100
AcDbEntity
  8
Ech.1_5
 62
     7
  6
CONTINUOUS
100
AcDbLine
 10
55110.74487041
 20
-8317.80478805
 30
0.0
 11
55110.74487041
 21
-8333.80478805
 31
0.0
  0
LINE
  5
73B
100
AcDbEntity
  8
Ech.1_5
 62
     7
  6
CONTINUOUS
100
AcDbLine
 10
55101.24487041
 20
-8313.80478805
 30
0.0
 11
55101.24487041
 21
-8337.80478805
 31
0.0
  0
LINE
  5
73C
100
AcDbEntity
  8
Ech.1_5
 62
     7
  6
CONTINUOUS
100
AcDbLine
 10
55099.24487041
 20
-8319.80478805
 30
0.0
 11
55100.44487041
 21
-8319.80478805
 31
0.0
  0
LINE
  5
73D
100
AcDbEntity
  8
Ech.1_5
 62
     7
  6
CONTINUOUS
100
AcDbLine
 10
55099.24487041
 20
-8331.80478805
 30
0.0
 11
55100.44487041
 21
-8331.80478805
 31
0.0
  0
LINE
  5
73E
100
AcDbEntity
  8
Ech.1_5
 62
     7
  6
CONTINUOUS
100
AcDbLine
 10
55099.24487041
 20
-8337.80478805
 30
0.0
 11
55096.24487906
 21
-8313.80478372
 31
0.0
  0
LINE
  5
73F
100
AcDbEntity
  8
Ech.1_5
 62
     7
  6
CONTINUOUS
100
AcDbLine
 10
55099.24487041
 20
-8313.80478805
 30
0.0
 11
55096.24487906
 21
-8337.80478805
 31
0.0
  0
LINE
  5
740
100
AcDbEntity
  8
Ech.1_5
 62
     7
  6
CONTINUOUS
100
AcDbLine
 10
55096.24487906
 20
-8337.80478805
 30
0.0
 11
55096.24487041
 21
-8313.80478805
 31
0.0
  0
LINE
  5
741
100
AcDbEntity
  8
Ech.1_5
 62
     7
  6
CONTINUOUS
100
AcDbLine
 10
55096.24487041
 20
-8313.80478805
 30
0.0
 11
55099.24487041
 21
-8313.80478805
 31
0.0
  0
LINE
  5
742
100
AcDbEntity
  8
Ech.1_5
 62
     7
  6
CONTINUOUS
100
AcDbLine
 10
55099.24487041
 20
-8313.80478805
 30
0.0
 11
55099.24487041
 21
-8337.80478805
 31
0.0
  0
LINE
  5
743
100
AcDbEntity
  8
Ech.1_5
 62
     7
  6
CONTINUOUS
100
AcDbLine
 10
55099.24487041
 20
-8337.80478805
 30
0.0
 11
55096.24487041
 21
-8337.80478805
 31
0.0
  0
LINE
  5
744
100
AcDbEntity
  8
Ech.1_5
 62
     7
  6
CONTINUOUS
100
AcDbLine
 10
55041.88161144
 20
-8302.10769174
 30
0.0
 11
55075.83501562
 21
-8303.88711425
 31
0.0
  0
LINE
  5
745
100
AcDbEntity
  8
Ech.1_5
 62
     7
  6
CENTER
100
AcDbLine
 10
55029.11570345
 20
-8301.67039302
 30
0.0
 11
55029.11570345
 21
-8326.60779736
 31
0.0
  0
ARC
  5
746
100
AcDbEntity
  8
Ech.1_5
 62
     7
  6
CONTINUOUS
100
AcDbCircle
 10
55030.30498045
 20
-8305.00578943
 30
0.0
 40
6.59090909
100
AcDbArc
 50
96.52728338
 51
257.47271662
  0
LINE
  5
747
100
AcDbEntity
  8
Ech.1_5
 62
     7
  6
CONTINUOUS
100
AcDbLine
 10
55040.38579032
 20
-8311.54233636
 30
0.0
 11
55041.01382179
 21
-8299.55878194
 31
0.0
  0
LINE
  5
748
100
AcDbEntity
  8
Ech.1_5
 62
     7
  6
CONTINUOUS
100
AcDbLine
 10
55041.41058783
 20
-8311.09535755
 30
0.0
 11
55041.98628335
 21
-8300.11043267
 31
0.0
  0
LINE
  5
749
100
AcDbEntity
  8
Ech.1_5
 62
     7
  6
CONTINUOUS
100
AcDbLine
 10
55021.11570345
 20
-8312.55531529
 30
0.0
 11
55021.11570345
 21
-8300.23070582
 31
0.0
  0
LINE
  5
74A
100
AcDbEntity
  8
Ech.1_5
 62
     7
  6
CONTINUOUS
100
AcDbLine
 10
55036.11243103
 20
-8298.80122477
 30
0.0
 11
55035.26582543
 21
-8297.74296777
 31
0.0
  0
LINE
  5
74B
100
AcDbEntity
  8
Ech.1_5
 62
     7
  6
CONTINUOUS
100
AcDbLine
 10
55040.540675
 20
-8299.0332992
 30
0.0
 11
55029.55575012
 21
-8298.45760368
 31
0.0
  0
ARC
  5
74C
100
AcDbEntity
  8
Ech.1_5
 62
     7
  6
CONTINUOUS
100
AcDbCircle
 10
55040.51450703
 20
-8299.53261397
 30
0.0
 40
0.5
100
AcDbArc
 50
357.0
 51
87.0
  0
LINE
  5
74D
100
AcDbEntity
  8
Ech.1_5
 62
     7
  6
CONTINUOUS
100
AcDbLine
 10
55041.98628335
 20
-8300.11043267
 30
0.0
 11
55040.98765382
 21
-8300.05809671
 31
0.0
  0
LINE
  5
74E
100
AcDbEntity
  8
Ech.1_5
 62
     7
  6
CONTINUOUS
100
AcDbLine
 10
55034.11570345
 20
-8298.69658071
 30
0.0
 11
55034.11570345
 21
-8297.55531529
 31
0.0
  0
LINE
  5
74F
100
AcDbEntity
  8
Ech.1_5
 62
     7
  6
CONTINUOUS
100
AcDbLine
 10
55023.35601588
 20
-8297.55531529
 30
0.0
 11
55034.87539103
 21
-8297.55531529
 31
0.0
  0
ARC
  5
750
100
AcDbEntity
  8
Ech.1_5
 62
     7
  6
CONTINUOUS
100
AcDbCircle
 10
55034.87539103
 20
-8298.05531529
 30
0.0
 40
0.5
100
AcDbArc
 50
38.65980825
 51
90.00000001
  0
ARC
  5
751
100
AcDbEntity
  8
Ech.1_5
 62
     7
  6
CONTINUOUS
100
AcDbCircle
 10
55021.61570345
 20
-8300.23070582
 30
0.0
 40
0.5
100
AcDbArc
 50
141.34019174
 51
180.0
  0
ARC
  5
752
100
AcDbEntity
  8
Ech.1_5
 62
     7
  6
CONTINUOUS
100
AcDbCircle
 10
55021.61570345
 20
-8300.23070582
 30
0.0
 40
0.5
100
AcDbArc
 50
141.34019174
 51
180.0
  0
ARC
  5
753
100
AcDbEntity
  8
Ech.1_5
 62
     7
  6
CONTINUOUS
100
AcDbCircle
 10
55023.35601588
 20
-8298.05531529
 30
0.0
 40
0.5
100
AcDbArc
 50
89.99999999
 51
141.34019175
  0
LINE
  5
754
100
AcDbEntity
  8
Ech.1_5
 62
     7
  6
CONTINUOUS
100
AcDbLine
 10
55024.11570345
 20
-8302.68232799
 30
0.0
 11
55024.11570345
 21
-8297.55531529
 31
0.0
  0
LINE
  5
755
100
AcDbEntity
  8
Ech.1_5
 62
     7
  6
CONTINUOUS
100
AcDbLine
 10
55021.22526905
 20
-8299.9183583
 30
0.0
 11
55022.96558147
 21
-8297.74296777
 31
0.0
  0
LINE
  5
756
100
AcDbEntity
  8
Ech.1_5
 62
     7
  6
CENTER
100
AcDbLine
 10
55024.6453521
 20
-8304.70918087
 30
0.0
 11
55078.64772838
 21
-8307.53932549
 31
0.0
  0
LINE
  5
757
100
AcDbEntity
  8
Ech.1_5
 62
     7
  6
CONTINUOUS
100
AcDbLine
 10
55041.51525974
 20
-8309.09809848
 30
0.0
 11
55075.46866393
 21
-8310.87752099
 31
0.0
  0
ARC
  5
758
100
AcDbEntity
  8
Ech.1_5
 62
     7
  6
CONTINUOUS
100
AcDbCircle
 10
55070.01179932
 20
-8307.08673563
 30
0.0
 40
6.64435287
100
AcDbArc
 50
325.21298885
 51
28.78701115
  0
LINE
  5
759
100
AcDbEntity
  8
Ech.1_5
 62
     7
  6
CONTINUOUS
100
AcDbLine
 10
55075.46866393
 20
-8310.87752099
 30
0.0
 11
55075.83501562
 21
-8303.88711425
 31
0.0
  0
LINE
  5
75A
100
AcDbEntity
  8
Ech.1_5
 62
     7
  6
CONTINUOUS
100
AcDbLine
 10
55039.86030757
 20
-8312.01548315
 30
0.0
 11
55028.87538269
 21
-8311.43978763
 31
0.0
  0
LINE
  5
75B
100
AcDbEntity
  8
Ech.1_5
 62
     7
  6
CONTINUOUS
100
AcDbLine
 10
55038.61570345
 20
-8315.55531529
 30
0.0
 11
55019.61570345
 21
-8315.55531529
 31
0.0
  0
LINE
  5
75C
100
AcDbEntity
  8
Ech.1_5
 62
     7
  6
CONTINUOUS
100
AcDbLine
 10
55038.11570345
 20
-8312.55531529
 30
0.0
 11
55020.11570345
 21
-8312.55531529
 31
0.0
  0
LINE
  5
75D
100
AcDbEntity
  8
Ech.1_5
 62
     7
  6
CONTINUOUS
100
AcDbLine
 10
55037.11570345
 20
-8312.55531529
 30
0.0
 11
55037.11570345
 21
-8311.87164454
 31
0.0
  0
ARC
  5
75E
100
AcDbEntity
  8
Ech.1_5
 62
     7
  6
CONTINUOUS
100
AcDbCircle
 10
55039.88647555
 20
-8311.51616838
 30
0.0
 40
0.5
100
AcDbArc
 50
267.0
 51
357.0
  0
LINE
  5
75F
100
AcDbEntity
  8
Ech.1_5
 62
     7
  6
CONTINUOUS
100
AcDbLine
 10
55041.41058783
 20
-8311.09535755
 30
0.0
 11
55040.4119583
 21
-8311.04302159
 31
0.0
  0
ARC
  5
760
100
AcDbEntity
  8
Ech.1_5
 62
     7
  6
CONTINUOUS
100
AcDbCircle
 10
55038.11570345
 20
-8313.05531529
 30
0.0
 40
0.5
100
AcDbArc
 50
360.0
 51
90.0
  0
LINE
  5
761
100
AcDbEntity
  8
Ech.1_5
 62
     7
  6
CONTINUOUS
100
AcDbLine
 10
55037.11570345
 20
-8315.55531529
 30
0.0
 11
55037.11570345
 21
-8312.55531529
 31
0.0
  0
LINE
  5
762
100
AcDbEntity
  8
Ech.1_5
 62
     7
  6
CONTINUOUS
100
AcDbLine
 10
55038.61570345
 20
-8313.05531529
 30
0.0
 11
55038.61570345
 21
-8315.55531529
 31
0.0
  0
LINE
  5
763
100
AcDbEntity
  8
Ech.1_5
 62
     7
  6
CONTINUOUS
100
AcDbLine
 10
55026.11570345
 20
-8320.55531529
 30
0.0
 11
55026.11570345
 21
-8315.55531529
 31
0.0
  0
LINE
  5
764
100
AcDbEntity
  8
Ech.1_5
 62
     7
  6
CONTINUOUS
100
AcDbLine
 10
55032.11570345
 20
-8320.55531529
 30
0.0
 11
55032.11570345
 21
-8315.55531529
 31
0.0
  0
ARC
  5
765
100
AcDbEntity
  8
Ech.1_5
 62
     7
  6
CONTINUOUS
100
AcDbCircle
 10
55029.11570345
 20
-8316.53278533
 30
0.0
 40
5.01804218
100
AcDbArc
 50
233.2844502
 51
306.7155498
  0
LINE
  5
766
100
AcDbEntity
  8
Ech.1_5
 62
     7
  6
CONTINUOUS
100
AcDbLine
 10
55032.11570345
 20
-8320.55531529
 30
0.0
 11
55026.11570345
 21
-8320.55531529
 31
0.0
  0
LINE
  5
767
100
AcDbEntity
  8
Ech.1_5
 62
     7
  6
CONTINUOUS
100
AcDbLine
 10
55034.11570345
 20
-8312.55531529
 30
0.0
 11
55034.11570345
 21
-8311.71442121
 31
0.0
  0
LINE
  5
768
100
AcDbEntity
  8
Ech.1_5
 62
     7
  6
CONTINUOUS
100
AcDbLine
 10
55032.11570345
 20
-8314.55531529
 30
0.0
 11
55026.11570345
 21
-8314.55531529
 31
0.0
  0
LINE
  5
769
100
AcDbEntity
  8
Ech.1_5
 62
     7
  6
CONTINUOUS
100
AcDbLine
 10
55032.11570345
 20
-8315.55531529
 30
0.0
 11
55032.11570345
 21
-8314.55531529
 31
0.0
  0
LINE
  5
76A
100
AcDbEntity
  8
Ech.1_5
 62
     7
  6
CONTINUOUS
100
AcDbLine
 10
55026.11570345
 20
-8315.55531529
 30
0.0
 11
55026.11570345
 21
-8314.55531529
 31
0.0
  0
LINE
  5
76B
100
AcDbEntity
  8
Ech.1_5
 62
     7
  6
CONTINUOUS
100
AcDbLine
 10
55033.11570345
 20
-8312.85531529
 30
0.0
 11
55025.11570345
 21
-8312.85531529
 31
0.0
  0
LINE
  5
76C
100
AcDbEntity
  8
Ech.1_5
 62
     7
  6
CONTINUOUS
100
AcDbLine
 10
55033.11570345
 20
-8312.85531529
 30
0.0
 11
55033.11570345
 21
-8312.55531529
 31
0.0
  0
ARC
  5
76D
100
AcDbEntity
  8
Ech.1_5
 62
     7
  6
CONTINUOUS
100
AcDbCircle
 10
55020.11570345
 20
-8313.05531529
 30
0.0
 40
0.5
100
AcDbArc
 50
90.0
 51
180.0
  0
LINE
  5
76E
100
AcDbEntity
  8
Ech.1_5
 62
     7
  6
CONTINUOUS
100
AcDbLine
 10
55025.11570345
 20
-8312.85531529
 30
0.0
 11
55025.11570345
 21
-8312.55531529
 31
0.0
  0
LINE
  5
76F
100
AcDbEntity
  8
Ech.1_5
 62
     7
  6
CONTINUOUS
100
AcDbLine
 10
55024.11570345
 20
-8312.55531529
 30
0.0
 11
55024.11570345
 21
-8307.20459613
 31
0.0
  0
LINE
  5
770
100
AcDbEntity
  8
Ech.1_5
 62
     7
  6
CONTINUOUS
100
AcDbLine
 10
55021.11570345
 20
-8315.55531529
 30
0.0
 11
55021.11570345
 21
-8312.55531529
 31
0.0
  0
LINE
  5
771
100
AcDbEntity
  8
Ech.1_5
 62
     7
  6
CONTINUOUS
100
AcDbLine
 10
55019.61570345
 20
-8313.05531529
 30
0.0
 11
55019.61570345
 21
-8315.55531529
 31
0.0
  0
ARC
  5
772
100
AcDbEntity
  8
Ech.1_5
 62
     7
  6
CONTINUOUS
100
AcDbCircle
 10
55099.24488339
 20
-8337.80479021
 30
0.0
 40
3.0
100
AcDbArc
 50
180.0000413
 51
270.0
  0
LINE
  5
773
100
AcDbEntity
  8
Ech.1_5
 62
     7
  6
CONTINUOUS
100
AcDbLine
 10
55099.24488339
 20
-8340.80479021
 30
0.0
 11
55109.31328329
 21
-8340.80479021
 31
0.0
  0
ARC
  5
774
100
AcDbEntity
  8
Ech.1_5
 62
     7
  6
CONTINUOUS
100
AcDbCircle
 10
55109.31328329
 20
-8342.80479021
 30
0.0
 40
2.0
100
AcDbArc
 50
359.98591679
 51
90.0
  0
ARC
  5
775
100
AcDbEntity
  8
Ech.1_5
 62
     7
  6
CONTINUOUS
100
AcDbCircle
 10
55111.27488339
 20
-8344.30479021
 30
0.0
 40
1.5
100
AcDbArc
 50
10.91126456
 51
88.53307366
  0
LINE
  5
776
100
AcDbEntity
  8
Ech.1_5
 62
     7
  6
CONTINUOUS
100
AcDbLine
 10
55112.74776566
 20
-8344.02085746
 30
0.0
 11
55112.74776566
 21
-8345.96492544
 31
0.0
  0
ARC
  5
777
100
AcDbEntity
  8
Ech.1_5
 62
     7
  6
CONTINUOUS
100
AcDbCircle
 10
55111.74776566
 20
-8345.96492544
 30
0.0
 40
1.0
100
AcDbArc
 50
324.35653925
 51
2.5012899794893E-09
  0
ARC
  5
778
100
AcDbEntity
  8
Ech.1_5
 62
     7
  6
CONTINUOUS
100
AcDbCircle
 10
55102.80851702
 20
-8339.55479021
 30
0.0
 40
12.0
100
AcDbArc
 50
270.0
 51
324.35653925
  0
LINE
  5
779
100
AcDbEntity
  8
Ech.1_5
 62
     7
  6
CONTINUOUS
100
AcDbLine
 10
55102.80851702
 20
-8351.55479021
 30
0.0
 11
55102.30851702
 21
-8351.55479021
 31
0.0
  0
LINE
  5
77A
100
AcDbEntity
  8
Ech.1_5
 62
     7
  6
CONTINUOUS
100
AcDbLine
 10
55102.30851702
 20
-8351.55479021
 30
0.0
 11
55102.30851702
 21
-8353.55479021
 31
0.0
  0
LINE
  5
77B
100
AcDbEntity
  8
Ech.1_5
 62
     7
  6
CONTINUOUS
100
AcDbLine
 10
55102.30851702
 20
-8353.55479021
 30
0.0
 11
55101.30851702
 21
-8354.55479021
 31
0.0
  0
LINE
  5
77C
100
AcDbEntity
  8
Ech.1_5
 62
     7
  6
CONTINUOUS
100
AcDbLine
 10
55101.30851702
 20
-8354.55479021
 30
0.0
 11
55067.96202888
 21
-8354.55452076
 31
0.0
  0
LINE
  5
77D
100
AcDbEntity
  8
Ech.1_5
 62
     7
  6
CONTINUOUS
100
AcDbLine
 10
55067.96202888
 20
-8354.55452076
 30
0.0
 11
55065.7969709
 21
-8350.80453034
 31
0.0
  0
LINE
  5
77E
100
AcDbEntity
  8
Ech.1_5
 62
     7
  6
CONTINUOUS
100
AcDbLine
 10
55065.7969709
 20
-8350.80453034
 30
0.0
 11
55071.21310729
 21
-8350.80453034
 31
0.0
  0
LINE
  5
77F
100
AcDbEntity
  8
Ech.1_5
 62
     7
  6
CONTINUOUS
100
AcDbLine
 10
55071.21310729
 20
-8350.80453034
 30
0.0
 11
55071.21310729
 21
-8347.90453031
 31
0.0
  0
LINE
  5
780
100
AcDbEntity
  8
Ech.1_5
 62
     7
  6
CONTINUOUS
100
AcDbLine
 10
55071.21310729
 20
-8347.90453031
 30
0.0
 11
55061.74708195
 21
-8347.90453031
 31
0.0
  0
ARC
  5
781
100
AcDbEntity
  8
Ech.1_5
 62
     7
  6
CONTINUOUS
100
AcDbCircle
 10
55061.74708195
 20
-8346.90453031
 30
0.0
 40
1.0
100
AcDbArc
 50
180.00000083
 51
270.0
  0
LINE
  5
782
100
AcDbEntity
  8
Ech.1_5
 62
     7
  6
CONTINUOUS
100
AcDbLine
 10
55060.74708195
 20
-8346.90453033
 30
0.0
 11
55060.74708191
 21
-8344.56540617
 31
0.0
  0
LINE
  5
783
100
AcDbEntity
  8
Ech.1_5
 62
     7
  6
CONTINUOUS
100
AcDbLine
 10
55060.74708191
 20
-8344.56540617
 30
0.0
 11
55066.74708223
 21
-8340.36538778
 31
0.0
  0
LINE
  5
784
100
AcDbEntity
  8
Ech.1_5
 62
     7
  6
CONTINUOUS
100
AcDbLine
 10
55066.74708223
 20
-8340.36538778
 30
0.0
 11
55066.74708223
 21
-8336.16540611
 31
0.0
  0
LINE
  5
785
100
AcDbEntity
  8
Ech.1_5
 62
     7
  6
CONTINUOUS
100
AcDbLine
 10
55066.74708223
 20
-8336.16540611
 30
0.0
 11
55058.74708157
 21
-8334.75479015
 31
0.0
  0
LINE
  5
786
100
AcDbEntity
  8
Ech.1_5
 62
     7
  6
CONTINUOUS
100
AcDbLine
 10
55058.74708157
 20
-8334.75479015
 30
0.0
 11
55058.74708082
 21
-8332.75479237
 31
0.0
  0
LINE
  5
787
100
AcDbEntity
  8
Ech.1_5
 62
     7
  6
CONTINUOUS
100
AcDbLine
 10
55058.74708082
 20
-8332.75479237
 30
0.0
 11
55060.94708191
 21
-8332.75479237
 31
0.0
  0
LINE
  5
788
100
AcDbEntity
  8
Ech.1_5
 62
     7
  6
CONTINUOUS
100
AcDbLine
 10
55060.94708191
 20
-8332.75479237
 30
0.0
 11
55060.94708191
 21
-8330.75479237
 31
0.0
  0
LINE
  5
789
100
AcDbEntity
  8
Ech.1_5
 62
     7
  6
CONTINUOUS
100
AcDbLine
 10
55060.94708191
 20
-8330.75479237
 30
0.0
 11
55070.24708191
 21
-8330.75479237
 31
0.0
  0
LINE
  5
78A
100
AcDbEntity
  8
Ech.1_5
 62
     7
  6
CONTINUOUS
100
AcDbLine
 10
55070.24708191
 20
-8330.75479237
 30
0.0
 11
55070.24708191
 21
-8318.55479237
 31
0.0
  0
LINE
  5
78B
100
AcDbEntity
  8
Ech.1_5
 62
     7
  6
CONTINUOUS
100
AcDbLine
 10
55070.24708191
 20
-8318.55479237
 30
0.0
 11
55060.94708191
 21
-8318.55479237
 31
0.0
  0
LINE
  5
78C
100
AcDbEntity
  8
Ech.1_5
 62
     7
  6
CONTINUOUS
100
AcDbLine
 10
55060.94708191
 20
-8318.55479237
 30
0.0
 11
55060.94708191
 21
-8316.55479237
 31
0.0
  0
LINE
  5
78D
100
AcDbEntity
  8
Ech.1_5
 62
     7
  6
CONTINUOUS
100
AcDbLine
 10
55060.94708191
 20
-8316.55479237
 30
0.0
 11
55058.74707494
 21
-8316.55479237
 31
0.0
  0
LINE
  5
78E
100
AcDbEntity
  8
Ech.1_5
 62
     7
  6
CONTINUOUS
100
AcDbLine
 10
55058.74707494
 20
-8316.55479237
 30
0.0
 11
55058.74707461
 21
-8315.55479021
 31
0.0
  0
LINE
  5
78F
100
AcDbEntity
  8
Ech.1_5
 62
     7
  6
CONTINUOUS
100
AcDbLine
 10
55058.74707461
 20
-8315.55479021
 30
0.0
 11
55064.24707461
 21
-8315.55479021
 31
0.0
  0
LINE
  5
790
100
AcDbEntity
  8
Ech.1_5
 62
     7
  6
CONTINUOUS
100
AcDbLine
 10
55064.24707461
 20
-8315.55479021
 30
0.0
 11
55064.24707461
 21
-8312.55479021
 31
0.0
  0
LINE
  5
791
100
AcDbEntity
  8
Ech.1_5
 62
     7
  6
CONTINUOUS
100
AcDbLine
 10
55064.24707461
 20
-8312.55479021
 30
0.0
 11
55042.74707461
 21
-8312.55479021
 31
0.0
  0
ARC
  5
792
100
AcDbEntity
  8
Ech.1_5
 62
     7
  6
CONTINUOUS
100
AcDbCircle
 10
55042.74707461
 20
-8310.55479021
 30
0.0
 40
2.0
100
AcDbArc
 50
180.0
 51
270.0
  0
LINE
  5
793
100
AcDbEntity
  8
Ech.1_5
 62
     7
  6
CONTINUOUS
100
AcDbLine
 10
55040.74707461
 20
-8310.55479021
 30
0.0
 11
55040.74707461
 21
-8302.0547903
 31
0.0
  0
ARC
  5
794
100
AcDbEntity
  8
Ech.1_5
 62
     7
  6
CONTINUOUS
100
AcDbCircle
 10
55045.74707461
 20
-8302.0547903
 30
0.0
 40
5.0
100
AcDbArc
 50
89.99999541
 51
180.0
  0
LINE
  5
795
100
AcDbEntity
  8
Ech.1_5
 62
     7
  6
CONTINUOUS
100
AcDbLine
 10
55045.74707501
 20
-8297.0547903
 30
0.0
 11
55101.30852252
 21
-8297.05479571
 31
0.0
  0
LINE
  5
796
100
AcDbEntity
  8
Ech.1_5
 62
     7
  6
CONTINUOUS
100
AcDbLine
 10
55101.30852252
 20
-8297.05479571
 30
0.0
 11
55102.30851702
 21
-8298.05479021
 31
0.0
  0
LINE
  5
797
100
AcDbEntity
  8
Ech.1_5
 62
     7
  6
CONTINUOUS
100
AcDbLine
 10
55102.30851702
 20
-8298.05479021
 30
0.0
 11
55102.30851702
 21
-8300.05479021
 31
0.0
  0
LINE
  5
798
100
AcDbEntity
  8
Ech.1_5
 62
     7
  6
CONTINUOUS
100
AcDbLine
 10
55102.30851702
 20
-8300.05479021
 30
0.0
 11
55102.80851702
 21
-8300.05479021
 31
0.0
  0
ARC
  5
799
100
AcDbEntity
  8
Ech.1_5
 62
     7
  6
CONTINUOUS
100
AcDbCircle
 10
55102.80851702
 20
-8312.05479021
 30
0.0
 40
12.0
100
AcDbArc
 50
35.64346075
 51
90.0
  0
ARC
  5
79A
100
AcDbEntity
  8
Ech.1_5
 62
     7
  6
CONTINUOUS
100
AcDbCircle
 10
55111.74776566
 20
-8305.64465498
 30
0.0
 40
1.0
100
AcDbArc
 50
4.2730370467086E-09
 51
35.64346074
  0
LINE
  5
79B
100
AcDbEntity
  8
Ech.1_5
 62
     7
  6
CONTINUOUS
100
AcDbLine
 10
55112.74776566
 20
-8305.64465498
 30
0.0
 11
55112.74776566
 21
-8307.58872295
 31
0.0
  0
ARC
  5
79C
100
AcDbEntity
  8
Ech.1_5
 62
     7
  6
CONTINUOUS
100
AcDbCircle
 10
55111.27488339
 20
-8307.30479021
 30
0.0
 40
1.5
100
AcDbArc
 50
271.46692634
 51
349.08873545
  0
ARC
  5
79D
100
AcDbEntity
  8
Ech.1_5
 62
     7
  6
CONTINUOUS
100
AcDbCircle
 10
55109.31328329
 20
-8308.80479021
 30
0.0
 40
2.0
100
AcDbArc
 50
270.0
 51
0.01408321
  0
LINE
  5
79E
100
AcDbEntity
  8
Ech.1_5
 62
     7
  6
CONTINUOUS
100
AcDbLine
 10
55109.31328329
 20
-8310.80479021
 30
0.0
 11
55099.24486609
 21
-8310.80479021
 31
0.0
  0
ARC
  5
79F
100
AcDbEntity
  8
Ech.1_5
 62
     7
  6
CONTINUOUS
100
AcDbCircle
 10
55099.24486609
 20
-8313.80479021
 30
0.0
 40
3.0
100
AcDbArc
 50
90.0
 51
180.0000413
  0
LINE
  5
7A0
100
AcDbEntity
  8
Ech.1_5
 62
     7
  6
CONTINUOUS
100
AcDbLine
 10
55096.24486609
 20
-8313.80479237
 30
0.0
 11
55096.24488339
 21
-8337.80479237
 31
0.0
  0
LWPOLYLINE
  5
7A1
100
AcDbEntity
  8
Ech.1_5
 62
     7
  6
CONTINUOUS
100
AcDbPolyline
 90
        5
 70
     0
 43
0.0
 10
55043.92720184
 20
-8313.15479021
 42
-0.73157417
 10
55043.86364054
 20
-8314.60908766
 42
0.1352145
 10
55042.55679154
 20
-8314.37559856
 42
-0.92591457
 10
55042.55679154
 20
-8313.15479021
 10
55043.92720184
 20
-8313.15479021
  0
LWPOLYLINE
  5
7A2
100
AcDbEntity
  8
Ech.1_5
 62
     7
  6
CONTINUOUS
100
AcDbPolyline
 90
       65
 70
     0
 43
0.0
 10
55043.85667243
 20
-8314.60577262
 10
55043.89446428
 20
-8314.61554811
 10
55043.93197611
 20
-8314.62497491
 10
55043.96892985
 20
-8314.63370672
 10
55044.00504742
 20
-8314.64139726
 10
55044.04005074
 20
-8314.64770024
 10
55044.07366172
 20
-8314.65226938
 10
55044.1056023
 20
-8314.6547584
 10
55044.13559439
 20
-8314.654821
 10
55044.16335991
 20
-8314.6521109
 10
55044.1886208
 20
-8314.64628182
 10
55044.21109896
 20
-8314.63698747
 10
55044.23051632
 20
-8314.62388156
 10
55044.24659481
 20
-8314.60661781
 10
55044.25916874
 20
-8314.5849856
 10
55044.2685898
 20
-8314.55939869
 10
55044.27535839
 20
-8314.53045035
 10
55044.27997495
 20
-8314.49873388
 10
55044.2829399
 20
-8314.46484258
 10
55044.28475368
 20
-8314.42936973
 10
55044.2859167
 20
-8314.39290862
 10
55044.28692939
 20
-8314.35605257
 10
55044.28829219
 20
-8314.31939484
 10
55044.29050552
 20
-8314.28352875
 10
55044.29406981
 20
-8314.24904758
 10
55044.29948549
 20
-8314.21654463
 10
55044.30725298
 20
-8314.18661319
 10
55044.31787271
 20
-8314.15984655
 10
55044.33184511
 20
-8314.13683801
 10
55044.34967061
 20
-8314.11818086
 10
55044.37184964
 20
-8314.10446839
 10
55044.39884058
 20
-8314.09629404
 10
55044.42926326
 20
-8314.09425679
 10
55044.45922349
 20
-8314.09896328
 10
55044.48543885
 20
-8314.11072662
 10
55044.50752198
 20
-8314.12878632
 10
55044.52574598
 20
-8314.15213696
 10
55044.54038399
 20
-8314.17977313
 10
55044.55170912
 20
-8314.21068942
 10
55044.55999448
 20
-8314.2438804
 10
55044.5655132
 20
-8314.27834066
 10
55044.56853916
 20
-8314.31307018
 10
55044.56939492
 20
-8314.34741625
 10
55044.56848044
 20
-8314.38127781
 10
55044.56620253
 20
-8314.41460291
 10
55044.56296801
 20
-8314.44733957
 10
55044.55918371
 20
-8314.47943581
 10
55044.55525645
 20
-8314.51083968
 10
55044.55159305
 20
-8314.54149919
 10
55044.54860033
 20
-8314.57136238
 10
55044.54668512
 20
-8314.60037728
 10
55044.54625423
 20
-8314.62849191
 10
55044.54771449
 20
-8314.65565431
 10
55044.55147272
 20
-8314.68181251
 10
55044.55793574
 20
-8314.70691453
 10
55044.56751038
 20
-8314.7309084
 10
55044.5804839
 20
-8314.75376892
 10
55044.59662524
 20
-8314.77558691
 10
55044.61556287
 20
-8314.79648464
 10
55044.63692526
 20
-8314.81658438
 10
55044.66034089
 20
-8314.8360084
 10
55044.68543824
 20
-8314.85487897
 10
55044.71184576
 20
-8314.87331836
 10
55044.73919194
 20
-8314.89144884
 10
55044.76710526
 20
-8314.90939267
  0
LWPOLYLINE
  5
7A3
100
AcDbEntity
  8
Ech.1_5
 62
     7
  6
CONTINUOUS
100
AcDbPolyline
 90
       40
 70
     0
 43
0.0
 10
55043.85667243
 20
-8314.60577262
 42
0.20099848
 10
55041.92722926
 20
-8314.51734354
 42
-0.55145662
 10
55041.79329647
 20
-8314.41403809
 42
0.1294239
 10
55041.60903932
 20
-8313.29563013
 42
-0.54354517
 10
55041.70031966
 20
-8313.15479021
 10
55043.92720184
 20
-8313.15479021
 10
55043.92720184
 20
-8313.15479021
 10
55044.42720184
 20
-8313.65479021
 10
55044.92720184
 20
-8313.15479021
 10
55058.04707461
 20
-8313.15479021
 42
-0.41421356
 10
55058.14707461
 20
-8313.25479021
 10
55058.14707461
 20
-8316.45479021
 42
0.41421356
 10
55058.24707461
 20
-8316.55479021
 10
55058.64707461
 20
-8316.55479021
 42
0.41421356
 10
55058.74707461
 20
-8316.45479021
 10
55058.74707461
 20
-8313.65479021
 42
-0.41421356
 10
55058.84707461
 20
-8313.55479021
 10
55061.29643079
 20
-8313.55479021
 42
-0.74863712
 10
55061.35048484
 20
-8313.73892201
 10
55059.3940056
 20
-8314.99594537
 42
0.41421356
 10
55059.36392786
 20
-8315.13413122
 10
55059.58014408
 20
-8315.47065841
 42
0.41421356
 10
55059.71832993
 20
-8315.50073615
 10
55062.70112867
 20
-8313.58431014
 42
0.25526652
 10
55062.74707461
 20
-8313.50017834
 10
55062.74707461
 20
-8312.65479021
 42
0.41421356
 10
55062.64707461
 20
-8312.55479021
 10
55041.04707461
 20
-8312.55479021
 42
0.41421356
 10
55040.94707461
 20
-8312.65479021
 10
55040.94707461
 20
-8313.12140867
 42
0.16012282
 10
55040.96657338
 20
-8313.18073448
 42
-0.24300643
 10
55041.21636842
 20
-8314.74522888
 42
-0.06909489
 10
55041.20424538
 20
-8314.76991991
 42
0.7595554
 10
55041.61039878
 20
-8315.24745775
 42
-0.27525427
 10
55043.64814132
 20
-8315.06026399
 42
0.2097
 10
55047.85173027
 20
-8315.12845379
 42
0.9750995
 10
55047.65831627
 20
-8314.66737784
 42
-0.15529906
 10
55044.79911613
 20
-8314.92267245
 42
-0.06565639
 10
55044.77455357
 20
-8314.9137006
 42
-0.02152096
 10
55044.76710526
 20
-8314.90939267
  0
LINE
  5
7A4
100
AcDbEntity
  8
Ech.1_5
 62
     7
  6
CONTINUOUS
100
AcDbLine
 10
55061.74708195
 20
-8347.90453031
 30
0.0
 11
55062.64708195
 21
-8347.90454292
 31
0.0
  0
LINE
  5
7A5
100
AcDbEntity
  8
Ech.1_5
 62
     7
  6
CONTINUOUS
100
AcDbLine
 10
55062.64706514
 20
-8349.10454293
 30
0.0
 11
55064.74849465
 21
-8349.10457236
 31
0.0
  0
LINE
  5
7A6
100
AcDbEntity
  8
Ech.1_5
 62
     7
  6
CONTINUOUS
100
AcDbLine
 10
55065.60465924
 20
-8347.90458436
 30
0.0
 11
55066.10465924
 21
-8347.90459137
 31
0.0
  0
LINE
  5
7A7
100
AcDbEntity
  8
Ech.1_5
 62
     7
  6
CONTINUOUS
100
AcDbLine
 10
55062.64706514
 20
-8349.10454293
 30
0.0
 11
55062.64708195
 21
-8347.90454292
 31
0.0
  0
LINE
  5
7A8
100
AcDbEntity
  8
Ech.1_5
 62
     7
  6
CONTINUOUS
100
AcDbLine
 10
55062.64708195
 20
-8347.90454292
 30
0.0
 11
55065.60465924
 21
-8347.90458436
 31
0.0
  0
LINE
  5
7A9
100
AcDbEntity
  8
Ech.1_5
 62
     7
  6
CONTINUOUS
100
AcDbLine
 10
55068.76985015
 20
-8349.10462867
 30
0.0
 11
55068.79824977
 21
-8349.10462907
 31
0.0
  0
LINE
  5
7AA
100
AcDbEntity
  8
Ech.1_5
 62
     7
  6
CONTINUOUS
100
AcDbLine
 10
55069.54063295
 20
-8349.10463947
 30
0.0
 11
55070.44422243
 21
-8349.10465212
 31
0.0
  0
LINE
  5
7AB
100
AcDbEntity
  8
Ech.1_5
 62
     7
  6
CONTINUOUS
100
AcDbLine
 10
55067.66854295
 20
-8349.10461325
 30
0.0
 11
55068.76985015
 21
-8349.10462867
 31
0.0
  0
ARC
  5
7AC
100
AcDbEntity
  8
Ech.1_5
 62
     7
  6
CONTINUOUS
100
AcDbCircle
 10
55069.44422198
 20
-8349.13668839
 30
0.0
 40
1.0
100
AcDbArc
 50
329.99915113
 51
359.99919763
  0
ARC
  5
7AD
100
AcDbEntity
  8
Ech.1_5
 62
     7
  6
CONTINUOUS
100
AcDbCircle
 10
55069.64422803
 20
-8348.70464082
 30
0.0
 40
0.8
100
AcDbArc
 50
359.99919762
 51
89.99234457
  0
LINE
  5
7AE
100
AcDbEntity
  8
Ech.1_5
 62
     7
  6
CONTINUOUS
100
AcDbLine
 10
55070.44422198
 20
-8349.13670239
 30
0.0
 11
55070.44422803
 21
-8348.70465203
 31
0.0
  0
LINE
  5
7AF
100
AcDbEntity
  8
Ech.1_5
 62
     7
  6
CONTINUOUS
100
AcDbLine
 10
55069.64433492
 20
-8347.90464083
 30
0.0
 11
55069.44552473
 21
-8347.90463805
 31
0.0
  0
LINE
  5
7B0
100
AcDbEntity
  8
Ech.1_5
 62
     7
  6
CONTINUOUS
100
AcDbLine
 10
55069.44552473
 20
-8347.90463805
 30
0.0
 11
55069.30577701
 21
-8347.90463609
 31
0.0
  0
LINE
  5
7B1
100
AcDbEntity
  8
Ech.1_5
 62
     7
  6
CONTINUOUS
100
AcDbLine
 10
55068.79824977
 20
-8349.10462907
 30
0.0
 11
55069.54063295
 21
-8349.10463947
 31
0.0
  0
LINE
  5
7B2
100
AcDbEntity
  8
Ech.1_5
 62
     7
  6
CONTINUOUS
100
AcDbLine
 10
55064.74849465
 20
-8349.10457236
 30
0.0
 11
55067.66854295
 21
-8349.10461325
 31
0.0
  0
LINE
  5
7B3
100
AcDbEntity
  8
Ech.1_5
 62
     7
  6
CONTINUOUS
100
AcDbLine
 10
55069.30577701
 20
-8347.90463609
 30
0.0
 11
55066.10465924
 21
-8347.90459137
 31
0.0
  0
HATCH
  5
7B4
100
AcDbEntity
  8
Ech.1_5
 62
     7
100
AcDbHatch
 10
0.0
 20
0.0
 30
0.0
210
0.0
220
0.0
230
1.0
  2
_USER_1
 70
     0
 71
     0
 91
        1
 92
        7
 72
     0
 73
     1
 93
       19
 10
55070.44422803
 20
-8348.70465203
 10
55070.44422243
 20
-8349.10465212
 10
55062.64706514
 20
-8349.10454293
 10
55062.64708195
 20
-8347.90454292
 10
55065.60465924
 20
-8347.90458436
 10
55066.10465924
 20
-8347.90459137
 10
55069.30577701
 20
-8347.90463609
 10
55069.44552473
 20
-8347.90463805
 10
55069.64433492
 20
-8347.90464083
 10
55069.7581771
 20
-8347.91279765
 10
55069.86969995
 20
-8347.93707166
 10
55069.97663354
 20
-8347.97696879
 10
55070.07680134
 20
-8348.03167698
 10
55070.16816453
 20
-8348.10008268
 10
55070.24886351
 20
-8348.18079357
 10
55070.31725573
 20
-8348.27216687
 10
55070.37194912
 20
-8348.37234274
 10
55070.41183047
 20
-8348.47928222
 10
55070.43608802
 20
-8348.59080865
 97
        0
 75
     0
 76
     2
 52
0.0
 41
1.0
 77
     0
 78
     1
 53
135.00079346
 43
0.0
 44
0.0
 45
-1.76774247
 46
-1.76779143
 79
     2
 49
50.0
 49
0.0
 47
0.775229
 98
        1
 10
0.0
 20
0.0
  0
ARC
  5
7B5
100
AcDbEntity
  8
Ech.1_5
 62
     7
  6
CONTINUOUS
100
AcDbCircle
 10
55064.44846953
 20
-8350.89880401
 30
0.0
 40
0.3
100
AcDbArc
 50
269.99919763
 51
359.99919763
  0
LINE
  5
7B6
100
AcDbEntity
  8
Ech.1_5
 62
     7
  6
CONTINUOUS
100
AcDbLine
 10
55062.94703581
 20
-8351.19878299
 30
0.0
 11
55064.44846533
 21
-8351.19880401
 31
0.0
  0
ARC
  5
7B7
100
AcDbEntity
  8
Ech.1_5
 62
     7
  6
CONTINUOUS
100
AcDbCircle
 10
55065.3972823
 20
-8352.2988173
 30
0.0
 40
0.3
100
AcDbArc
 50
29.99919762
 51
89.99919763
  0
ARC
  5
7B8
100
AcDbEntity
  8
Ech.1_5
 62
     7
  6
CONTINUOUS
100
AcDbCircle
 10
55062.92091798
 20
-8352.29878262
 30
0.0
 40
0.3
100
AcDbArc
 50
89.99919762
 51
171.66297769
  0
ARC
  5
7B9
100
AcDbEntity
  8
Ech.1_5
 62
     7
  6
CONTINUOUS
100
AcDbCircle
 10
55062.94704001
 20
-8350.89878299
 30
0.0
 40
0.3
100
AcDbArc
 50
179.99919764
 51
269.99919762
  0
ARC
  5
7BA
100
AcDbEntity
  8
Ech.1_5
 62
     7
  6
CONTINUOUS
100
AcDbCircle
 10
55066.61307227
 20
-8350.40459837
 30
0.0
 40
1.0
100
AcDbArc
 50
179.99919763
 51
209.99919762
  0
ARC
  5
7BB
100
AcDbEntity
  8
Ech.1_5
 62
     7
  6
CONTINUOUS
100
AcDbCircle
 10
55066.40555226
 20
-8353.04522431
 30
0.0
 40
0.2
100
AcDbArc
 50
209.99919763
 51
269.99919763
  0
LINE
  5
7BC
100
AcDbEntity
  8
Ech.1_5
 62
     7
  6
CONTINUOUS
100
AcDbLine
 10
55065.3972865
 20
-8351.9988173
 30
0.0
 11
55062.92092218
 21
-8351.99878262
 31
0.0
  0
LINE
  5
7BD
100
AcDbEntity
  8
Ech.1_5
 62
     7
  6
CONTINUOUS
100
AcDbLine
 10
55066.23234577
 20
-8353.14522189
 30
0.0
 11
55065.65709202
 21
-8352.14882094
 31
0.0
  0
ARC
  5
7BE
100
AcDbEntity
  8
Ech.1_5
 62
     7
  6
CONTINUOUS
100
AcDbCircle
 10
55062.46223054
 20
-8354.18177422
 30
0.0
 40
0.71967841
100
AcDbArc
 50
186.3682794
 51
272.15422193
  0
ARC
  5
7BF
100
AcDbEntity
  8
Ech.1_5
 62
     7
  6
CONTINUOUS
100
AcDbCircle
 10
55062.66138615
 20
-8354.49226157
 30
0.0
 40
0.2
100
AcDbArc
 50
94.75462476
 51
160.23931181
  0
ARC
  5
7C0
100
AcDbEntity
  8
Ech.1_5
 62
     7
  6
CONTINUOUS
100
AcDbCircle
 10
55065.25094569
 20
-8354.6078275
 30
0.0
 40
0.3
100
AcDbArc
 50
41.62452239
 51
94.75462474
  0
ARC
  5
7C1
100
AcDbEntity
  8
Ech.1_5
 62
     7
  6
CONTINUOUS
100
AcDbCircle
 10
55062.37617656
 20
-8354.30074935
 30
0.0
 40
0.15734085
100
AcDbArc
 50
100.68854034
 51
308.05468955
  0
ARC
  5
7C2
100
AcDbEntity
  8
Ech.1_5
 62
     7
  6
CONTINUOUS
100
AcDbCircle
 10
55065.63756559
 20
-8354.32879249
 30
0.0
 40
0.18089908
100
AcDbArc
 50
206.16228875
 51
94.07750255
  0
LINE
  5
7C3
100
AcDbEntity
  8
Ech.1_5
 62
     7
  6
CONTINUOUS
100
AcDbLine
 10
55062.64480842
 20
-8354.29294981
 30
0.0
 11
55065.2260791
 21
-8354.30885986
 31
0.0
  0
LINE
  5
7C4
100
AcDbEntity
  8
Ech.1_5
 62
     7
  6
CONTINUOUS
100
AcDbLine
 10
55062.62408829
 20
-8352.25528395
 30
0.0
 11
55062.34699454
 21
-8354.14613839
 31
0.0
  0
ARC
  5
7C5
100
AcDbEntity
  8
Ech.1_5
 62
     7
  6
CONTINUOUS
100
AcDbCircle
 10
55067.30584502
 20
-8353.80460815
 30
0.0
 40
0.1
100
AcDbArc
 50
273.32793488
 51
29.99919763
  0
ARC
  5
7C6
100
AcDbEntity
  8
Ech.1_5
 62
     7
  6
CONTINUOUS
100
AcDbCircle
 10
55067.26524795
 20
-8353.10645018
 30
0.0
 40
0.79933731
100
AcDbArc
 50
262.62351877
 51
273.32793487
  0
ARC
  5
7C7
100
AcDbEntity
  8
Ech.1_5
 62
     7
  6
CONTINUOUS
100
AcDbCircle
 10
55068.49088391
 20
-8350.10614218
 30
0.0
 40
0.3
100
AcDbArc
 50
123.72102228
 51
293.65562081
  0
LINE
  5
7C8
100
AcDbEntity
  8
Ech.1_5
 62
     7
  6
CONTINUOUS
100
AcDbLine
 10
55067.39244826
 20
-8353.75460936
 30
0.0
 11
55065.74703986
 21
-8350.90458624
 31
0.0
  0
ARC
  5
7C9
100
AcDbEntity
  8
Ech.1_5
 62
     7
  6
CONTINUOUS
100
AcDbCircle
 10
55066.49446235
 20
-8350.11409989
 30
0.0
 40
0.3
100
AcDbArc
 50
130.57753821
 51
300.51213674
  0
LINE
  5
7CA
100
AcDbEntity
  8
Ech.1_5
 62
     7
  6
CONTINUOUS
100
AcDbLine
 10
55070.31023998
 20
-8349.63670122
 30
0.0
 11
55068.61125543
 21
-8350.38093427
 31
0.0
  0
LINE
  5
7CB
100
AcDbEntity
  8
Ech.1_5
 62
     7
  6
CONTINUOUS
100
AcDbLine
 10
55061.74699292
 20
-8354.26160004
 30
0.0
 11
55061.74708195
 21
-8347.90453031
 31
0.0
  0
LINE
  5
7CC
100
AcDbEntity
  8
Ech.1_5
 62
     7
  6
CONTINUOUS
100
AcDbLine
 10
55064.74849465
 20
-8349.10457236
 30
0.0
 11
55064.74846953
 21
-8350.89880821
 31
0.0
  0
LINE
  5
7CD
100
AcDbEntity
  8
Ech.1_5
 62
     7
  6
CONTINUOUS
100
AcDbLine
 10
55062.64704001
 20
-8350.89877878
 30
0.0
 11
55062.64706514
 21
-8349.10454293
 31
0.0
  0
LINE
  5
7CE
100
AcDbEntity
  8
Ech.1_5
 62
     7
  6
CONTINUOUS
100
AcDbLine
 10
55065.61309047
 20
-8349.10458447
 30
0.0
 11
55065.61307226
 21
-8350.40458436
 31
0.0
  0
LINE
  5
7CF
100
AcDbEntity
  8
Ech.1_5
 62
     7
  6
CONTINUOUS
100
AcDbLine
 10
55069.45098795
 20
-8349.10463821
 30
0.0
 11
55068.32433901
 21
-8349.85661703
 31
0.0
  0
LINE
  5
7D0
100
AcDbEntity
  8
Ech.1_5
 62
     7
  6
CONTINUOUS
100
AcDbLine
 10
55067.21199262
 20
-8349.10460686
 30
0.0
 11
55066.2993194
 21
-8349.88624198
 31
0.0
  0
LINE
  5
7D1
100
AcDbEntity
  8
Ech.1_5
 62
     7
  6
CONTINUOUS
100
AcDbLine
 10
55068.79824977
 20
-8349.10462907
 30
0.0
 11
55066.64677861
 21
-8350.37255638
 31
0.0
  0
ARC
  5
7D2
100
AcDbEntity
  8
Ech.1_5
 62
     7
  6
CONTINUOUS
100
AcDbCircle
 10
55067.14559466
 20
-8354.5538056
 30
0.0
 40
0.35
100
AcDbArc
 50
44.75462472
 51
82.47710657
  0
ARC
  5
7D3
100
AcDbEntity
  8
Ech.1_5
 62
     7
  6
CONTINUOUS
100
AcDbCircle
 10
55067.14559466
 20
-8354.5538056
 30
0.0
 40
0.35
100
AcDbArc
 50
274.75462476
 51
314.75462472
  0
ARC
  5
7D4
100
AcDbEntity
  8
Ech.1_5
 62
     7
  6
CONTINUOUS
100
AcDbCircle
 10
55067.14559466
 20
-8354.5538056
 30
0.0
 40
0.35
100
AcDbArc
 50
314.75462474
 51
44.75462474
  0
LINE
  5
7D5
100
AcDbEntity
  8
Ech.1_5
 62
     7
  6
CONTINUOUS
100
AcDbLine
 10
55062.48928283
 20
-8354.90094401
 30
0.0
 11
55067.17460568
 21
-8354.90260119
 31
0.0
  0
LINE
  5
7D6
100
AcDbEntity
  8
Ech.1_5
 62
     7
  6
CONTINUOUS
100
AcDbLine
 10
55067.19141747
 20
-8354.20681818
 30
0.0
 11
55066.35513837
 21
-8353.97295009
 31
0.0
  0
ARC
  5
7D7
100
AcDbEntity
  8
Ech.1_5
 62
     7
  6
CONTINUOUS
100
AcDbCircle
 10
55066.37529572
 20
-8353.37239745
 30
0.0
 40
0.13072221
100
AcDbArc
 50
175.44010614
 51
76.61841136
  0
LINE
  5
7D8
100
AcDbEntity
  8
Ech.1_5
 62
     7
  6
CONTINUOUS
100
AcDbLine
 10
55067.16262221
 20
-8353.89917213
 30
0.0
 11
55066.18783012
 21
-8353.73311468
 31
0.0
  0
LINE
  5
7D9
100
AcDbEntity
  8
Ech.1_5
 62
     7
  6
CONTINUOUS
100
AcDbLine
 10
55065.62470262
 20
-8354.1483513
 30
0.0
 11
55064.94744896
 21
-8354.05320147
 31
0.0
  0
ARC
  5
7DA
100
AcDbEntity
  8
Ech.1_5
 62
     7
  6
CONTINUOUS
100
AcDbCircle
 10
55065.02701789
 20
-8353.20073924
 30
0.0
 40
0.85616766
100
AcDbArc
 50
220.10312529
 51
264.66745481
  0
ARC
  5
7DB
100
AcDbEntity
  8
Ech.1_5
 62
     7
  6
CONTINUOUS
100
AcDbCircle
 10
55064.44863564
 20
-8353.68783625
 30
0.0
 40
0.1
100
AcDbArc
 50
138.94922935
 51
220.10312531
  0
ARC
  5
7DC
100
AcDbEntity
  8
Ech.1_5
 62
     7
  6
CONTINUOUS
100
AcDbCircle
 10
55065.02701789
 20
-8353.20073924
 30
0.0
 40
0.85616766
100
AcDbArc
 50
146.09413302
 51
179.34195758
  0
ARC
  5
7DD
100
AcDbEntity
  8
Ech.1_5
 62
     7
  6
CONTINUOUS
100
AcDbCircle
 10
55064.39943264
 20
-8352.77892616
 30
0.0
 40
0.1
100
AcDbArc
 50
65.1272658
 51
146.09413298
  0
ARC
  5
7DE
100
AcDbEntity
  8
Ech.1_5
 62
     7
  6
CONTINUOUS
100
AcDbCircle
 10
55065.02701789
 20
-8353.20073924
 30
0.0
 40
0.45616766
100
AcDbArc
 50
108.45221529
 51
264.66745481
  0
ARC
  5
7DF
100
AcDbEntity
  8
Ech.1_5
 62
     7
  6
CONTINUOUS
100
AcDbCircle
 10
55063.32631209
 20
-8363.9136892
 30
0.0
 40
10.39192391
100
AcDbArc
 50
73.05463793
 51
80.8176593
  0
ARC
  5
7E0
100
AcDbEntity
  8
Ech.1_5
 62
     7
  6
CONTINUOUS
100
AcDbCircle
 10
55066.22205916
 20
-8353.32612534
 30
0.0
 40
0.40842618
100
AcDbArc
 50
226.93764348
 51
265.19256514
  0
LINE
  5
7E1
100
AcDbEntity
  8
Ech.1_5
 62
     7
  6
CONTINUOUS
100
AcDbLine
 10
55066.24498728
 20
-8353.36200488
 30
0.0
 11
55065.45964078
 21
-8352.45915641
 31
0.0
  0
LINE
  5
7E2
100
AcDbEntity
  8
Ech.1_5
 62
     7
  6
CONTINUOUS
100
AcDbLine
 10
55065.94318825
 20
-8353.62452602
 30
0.0
 11
55065.21724294
 21
-8352.78996622
 31
0.0
  0
ARC
  5
7E3
100
AcDbEntity
  8
Ech.1_5
 62
     7
  6
CONTINUOUS
100
AcDbCircle
 10
55065.01168028
 20
-8353.36242138
 30
0.0
 40
1.00824413
100
AcDbArc
 50
63.62158809
 51
101.93839713
  0
ARC
  5
7E4
100
AcDbEntity
  8
Ech.1_5
 62
     7
  6
CONTINUOUS
100
AcDbCircle
 10
55065.01168028
 20
-8353.36242138
 30
0.0
 40
0.60824413
100
AcDbArc
 50
70.24731718
 51
102.24902159
  0
ARC
  5
7E5
100
AcDbEntity
  8
Ech.1_5
 62
     7
  6
CONTINUOUS
100
AcDbCircle
 10
55064.22107487
 20
-8353.4896664
 30
0.0
 40
0.20175353
100
AcDbArc
 50
318.94922937
 51
80.49585351
  0
ARC
  5
7E6
100
AcDbEntity
  8
Ech.1_5
 62
     7
  6
CONTINUOUS
100
AcDbCircle
 10
55064.2709001
 20
-8353.19205484
 30
0.0
 40
0.1
100
AcDbArc
 50
179.34195755
 51
260.49585353
  0
ARC
  5
7E7
100
AcDbEntity
  8
Ech.1_5
 62
     7
  6
CONTINUOUS
100
AcDbCircle
 10
55064.52561387
 20
-8352.50675288
 30
0.0
 40
0.2
100
AcDbArc
 50
245.1272658
 51
6.30202509
  0
ARC
  5
7E8
100
AcDbEntity
  8
Ech.1_5
 62
     7
  6
CONTINUOUS
100
AcDbCircle
 10
55064.823801
 20
-8352.47382205
 30
0.0
 40
0.1
100
AcDbArc
 50
101.93839713
 51
186.30202514
  0
LWPOLYLINE
  5
7E9
100
AcDbEntity
  8
Ech.1_5
 62
     7
  6
CONTINUOUS
100
AcDbPolyline
 90
       99
 70
     0
 43
0.0
 10
55110.46901804
 20
-8312.57799063
 10
55107.09840203
 20
-8313.80479453
 10
55102.14487041
 20
-8313.80479453
 10
55101.84487041
 20
-8313.50479453
 10
55101.14487041
 20
-8313.50479453
 42
0.95548796
 10
55101.10850678
 20
-8314.30313821
 42
-0.38779458
 10
55101.24487041
 20
-8314.45251709
 10
55101.24487041
 20
-8317.68767807
 42
-0.34415073
 10
55101.13125076
 20
-8317.83319945
 10
55100.55849007
 20
-8317.97638962
 42
0.34415073
 10
55100.44487041
 20
-8318.12191099
 10
55100.44487041
 20
-8333.48767807
 42
0.34415073
 10
55100.55849007
 20
-8333.63319945
 10
55101.13125076
 20
-8333.77638962
 42
-0.34415073
 10
55101.24487041
 20
-8333.92191099
 10
55101.24487041
 20
-8337.15707198
 42
-0.38779458
 10
55101.10850678
 20
-8337.30645086
 42
0.95548796
 10
55101.14487041
 20
-8338.10479453
 10
55101.84487041
 20
-8338.10479453
 10
55102.14487041
 20
-8337.80479453
 10
55107.09840203
 20
-8337.80479453
 10
55110.44360451
 20
-8339.02234867
 42
1.10738051
 10
55110.53413386
 20
-8338.77362132
 10
55109.23254424
 20
-8338.44508803
 42
-0.93251509
 10
55109.34555025
 20
-8337.80659467
 10
55111.76655256
 20
-8338.13343849
 42
0.18531675
 10
55112.42043849
 20
-8337.97875934
 42
-0.15081813
 10
55112.98405703
 20
-8337.80479453
 10
55113.27531874
 20
-8337.80479453
 10
55114.27531874
 20
-8337.80479453
 42
-0.30843151
 10
55114.63093152
 20
-8338.06201871
 42
-0.26795044
 10
55112.38937156
 20
-8343.3286502
 42
-0.52171267
 10
55112.14692937
 20
-8343.28663856
 42
0.15565301
 10
55111.04450583
 20
-8342.45558104
 10
55111.24487041
 20
-8340.79818063
 42
0.31529879
 10
55111.11327444
 20
-8340.61024211
 10
55108.43792203
 20
-8339.63649346
 42
0.87140053
 10
55108.39162671
 20
-8339.72406987
 10
55109.11013013
 20
-8340.24083021
 42
-1.00812133
 10
55108.80094027
 20
-8340.76106141
 10
55106.49614097
 20
-8339.28383742
 42
0.14346618
 10
55106.22633528
 20
-8339.20479453
 10
55104.64509969
 20
-8339.20479453
 42
0.72472287
 10
55104.58593609
 20
-8339.38541506
 10
55105.47426336
 20
-8340.03731653
 42
-0.94855512
 10
55105.00859473
 20
-8340.74695271
 10
55103.05877541
 20
-8339.3029824
 42
0.16072186
 10
55102.76120692
 20
-8339.20479453
 10
55101.20337
 20
-8339.20479453
 42
-0.08748866
 10
55101.13496597
 20
-8339.19273306
 10
55099.34356739
 20
-8338.5407173
 42
-0.31529879
 10
55099.24487041
 20
-8338.3997634
 10
55099.24487041
 20
-8337.02191099
 42
-0.34415073
 10
55099.35849007
 20
-8336.87638962
 10
55099.93125076
 20
-8336.73319945
 42
0.34415073
 10
55100.04487041
 20
-8336.58767807
 10
55100.04487041
 20
-8334.82191099
 42
0.34415073
 10
55099.93125076
 20
-8334.67638962
 10
55099.35849007
 20
-8334.53319945
 42
-0.34415073
 10
55099.24487041
 20
-8334.38767807
 10
55099.24487041
 20
-8317.22191099
 42
-0.34415073
 10
55099.35849007
 20
-8317.07638962
 10
55099.93125076
 20
-8316.93319945
 42
0.34415073
 10
55100.04487041
 20
-8316.78767807
 10
55100.04487041
 20
-8315.02191099
 42
0.34415073
 10
55099.93125076
 20
-8314.87638962
 10
55099.35849007
 20
-8314.73319945
 42
-0.34415073
 10
55099.24487041
 20
-8314.58767807
 10
55099.24487041
 20
-8313.20982566
 42
-0.31529879
 10
55099.34356739
 20
-8313.06887177
 10
55101.13496597
 20
-8312.41685601
 42
-0.08748866
 10
55101.20337
 20
-8312.40479453
 10
55102.76120692
 20
-8312.40479453
 42
0.16072186
 10
55103.05877541
 20
-8312.30660667
 10
55105.00859473
 20
-8310.86263635
 42
-0.94855512
 10
55105.47426336
 20
-8311.57227253
 10
55104.58593609
 20
-8312.22417401
 42
0.72472287
 10
55104.64509969
 20
-8312.40479453
 10
55106.22633528
 20
-8312.40479453
 42
0.14346618
 10
55106.49614097
 20
-8312.32575165
 10
55108.80094027
 20
-8310.84852765
 42
-1.00812133
 10
55109.11013013
 20
-8311.36875886
 10
55108.39162671
 20
-8311.8855192
 42
0.87140053
 10
55108.43792203
 20
-8311.9730956
 10
55111.11327444
 20
-8310.99934696
 42
0.31529879
 10
55111.24487041
 20
-8310.81140844
 10
55111.04450583
 20
-8309.15396771
 42
0.15565608
 10
55112.14691108
 20
-8308.32293124
 42
-0.52171267
 10
55112.38935328
 20
-8308.2809196
 42
-0.26794928
 10
55114.63093152
 20
-8313.54757036
 42
-0.30843151
 10
55114.27531874
 20
-8313.80479453
 10
55113.27531874
 20
-8313.80479453
 10
55112.98405703
 20
-8313.80479453
 42
-0.15081813
 10
55112.42043849
 20
-8313.63082973
 42
0.18531675
 10
55111.76655256
 20
-8313.47615058
 10
55109.34555025
 20
-8313.8029944
 42
-0.93251509
 10
55109.23254424
 20
-8313.16450104
 10
55110.53413386
 20
-8312.83596775
 42
1.10738051
 10
55110.44360451
 20
-8312.5872404
  0
LWPOLYLINE
  5
7EA
100
AcDbEntity
  8
Ech.1_5
 62
     7
  6
CONTINUOUS
100
AcDbPolyline
 90
       25
 70
     0
 43
0.0
 10
55039.7439799
 20
-8373.05543087
 10
55021.72237612
 20
-8373.05535193
 42
-0.40824515
 10
55020.74284876
 20
-8372.05550777
 10
55020.74291862
 20
-8370.75554754
 10
55015.74293259
 20
-8370.75549165
 42
-0.41421487
 10
55014.74294656
 20
-8369.75547322
 10
55014.74374296
 20
-8326.5555846
 42
0.41422032
 10
55013.74374296
 20
-8325.55556151
 10
55010.24377789
 20
-8325.55556151
 42
-0.41421356
 10
55008.74377789
 20
-8324.05556151
 10
55008.74377789
 20
-8321.55552869
 42
-0.41421036
 10
55014.74371224
 20
-8315.55552869
 10
55053.74679718
 20
-8315.5551019
 42
-0.41421752
 10
55054.7468107
 20
-8316.5551019
 10
55054.7468107
 20
-8346.54458761
 42
-0.36397023
 10
55053.92045887
 20
-8347.52939536
 10
55051.4656016
 20
-8347.96225293
 42
0.31529879
 10
55050.65444202
 20
-8348.77341251
 10
55049.75375654
 20
-8353.88145372
 42
0.46630766
 10
55050.73856429
 20
-8355.0551019
 10
55071.75180155
 20
-8355.0551019
 42
-0.44001053
 10
55072.74799625
 20
-8356.14225764
 10
55071.428001
 20
-8371.22987242
 42
-0.38887999
 10
55069.43560284
 20
-8373.05556094
 10
55039.7439799
 20
-8373.05543087
  0
LWPOLYLINE
  5
7EB
100
AcDbEntity
  8
Ech.1_5
 62
   190
  6
CONTINUOUS
370
    -3
100
AcDbPolyline
 90
        4
 70
     1
 43
0.0
 10
55044.17755568
 20
-8692.0682743
 10
55044.1766721
 20
-8629.5555846
 10
55034.74401204
 20
-8629.5555846
 10
55034.74489562
 20
-8692.0682743
  0
LWPOLYLINE
  5
7EC
100
AcDbEntity
  8
Ech.1_5
 62
   190
  6
CONTINUOUS
370
    -3
100
AcDbPolyline
 90
        4
 70
     0
 43
0.0
 10
55034.74401204
 20
-8629.5555846
 10
55044.17755568
 20
-8692.0682743
 10
55034.74489562
 20
-8692.0682743
 10
55044.1766721
 20
-8629.5555846
  0
LWPOLYLINE
  5
7ED
100
AcDbEntity
  8
Ech.1_5
 62
     7
  6
CONTINUOUS
370
    -3
100
AcDbPolyline
 90
       12
 70
     1
 43
0.0
 10
55044.17696016
 20
-8629.85577204
 10
55044.17696016
 20
-8814.38907293
 10
55044.17696016
 20
-8857.55716801
 10
55044.17665556
 20
-8873.55558466
 10
55053.67763174
 20
-8873.55558466
 10
55053.67763174
 20
-8873.55558466
 10
55059.67763174
 20
-8873.55558466
 10
55059.67763174
 20
-8873.55558466
 10
55069.17860791
 20
-8873.55558466
 10
55069.17860791
 20
-8629.85577204
 10
55049.17696016
 20
-8629.85577204
 10
55049.17696016
 20
-8629.85577204
  0
LWPOLYLINE
  5
7EE
100
AcDbEntity
  8
Ech.1_5
 62
     5
  6
CONTINUOUS
370
    -3
100
AcDbPolyline
 90
       11
 70
     0
 43
0.0
 10
55044.17696016
 20
-8629.85577204
 10
55044.17665556
 20
-8873.55558466
 10
55053.67763174
 20
-8873.55558466
 10
55053.67763174
 20
-8873.55558466
 10
55059.67763174
 20
-8873.55558466
 10
55059.67763174
 20
-8873.55558466
 10
55069.17860791
 20
-8873.55558466
 10
55069.17860791
 20
-8629.85577204
 10
55049.17696016
 20
-8629.85577204
 10
55049.17696016
 20
-8629.85577204
 10
55044.17696016
 20
-8629.85577204
  0
LWPOLYLINE
  5
7EF
102
{ACAD_REACTORS
330
7F0
102
}
100
AcDbEntity
  8
Ech.1_5
 62
     9
  6
CONTINUOUS
370
    -3
100
AcDbPolyline
 90
        4
 70
     1
 43
0.0
 10
55014.4508579
 20
-8409.5555846
 10
55014.4508579
 20
-8609.5555846
 10
54749.28444115
 20
-8609.55848617
 10
54749.28444115
 20
-8409.5555846
  0
HATCH
  5
7F0
100
AcDbEntity
  8
Ech.1_5
 62
     9
  6
CONTINUOUS
100
AcDbHatch
 10
0.0
 20
0.0
 30
0.0
210
0.0
220
0.0
230
1.0
  2
AR-CONC
 70
     0
 71
     1
 91
        1
 92
        7
 72
     0
 73
     1
 93
        4
 10
55014.4508579
 20
-8409.5555846
 10
55014.4508579
 20
-8609.5555846
 10
54749.28444115
 20
-8609.55848617
 10
54749.28444115
 20
-8409.5555846
 97
        1
330
7EF
 75
     0
 76
     2
 52
0.0
 41
0.11811097
 77
     0
 78
    13
 53
50.0
 43
0.0
 44
0.0
 45
-18.84283637
 46
1.64853443
 79
     2
 49
1.97029307
 49
-21.67322338
 53
355.0
 43
0.0
 44
0.0
 45
-3.64507756
 46
19.76051824
 79
     2
 49
1.57623377
 49
-17.3385787
 53
100.45140076
 43
1.57023568
 44
-0.13737749
 45
-15.19777228
 46
-18.11197244
 79
     2
 49
1.67449124
 49
-18.41940522
 53
46.18420029
 43
0.0
 44
5.25411576
 45
-28.03703353
 46
4.34827878
 79
     2
 49
2.95543872
 49
-32.50983238
 53
96.63559723
 43
2.33641885
 44
4.89175692
 45
-24.55412615
 46
-25.59063404
 79
     2
 49
2.51173697
 49
-27.62910426
 53
351.1842041
 43
0.0
 44
5.25411576
 45
24.55410288
 46
25.59065715
 79
     2
 49
2.36435249
 49
-26.00786805
 53
21.0
 43
2.62705699
 44
3.94058615
 45
-15.68109068
 46
10.57702905
 79
     2
 49
1.97029307
 49
-21.67322338
 53
326.0
 43
2.62705699
 44
3.94058615
 45
6.39203268
 46
19.05010734
 79
     2
 49
1.57623377
 49
-17.3385787
 53
71.45140076
 43
3.93381357
 44
3.05916555
 45
-22.07312962
 46
-8.47306182
 79
     2
 49
1.67449124
 49
-18.41940522
 53
37.5
 43
0.0
 44
0.0
 45
0.31944534
 46
8.74531245
 79
     6
 49
0.01875
 49
-17.12841332
 49
0.01875
 49
-17.60128498
 49
0.01875
 49
-17.40425348
 53
7.5
 43
0.0
 44
0.0
 45
6.91098818
 46
10.3614222
 79
     6
 49
0.01875
 49
-10.03535807
 49
0.01875
 49
-16.7343539
 49
0.01875
 49
-6.6333206
 53
-32.5
 43
-5.85833833
 44
0.0
 45
14.02382061
 46
-0.59253003
 79
     6
 49
0.01875
 49
-6.56764314
 49
0.01875
 49
-20.49104869
 49
0.01875
 49
-27.19004452
 53
-42.5
 43
-8.48539531
 44
0.0
 45
15.32063571
 46
2.62981542
 79
     6
 49
0.01875
 49
-8.53793621
 49
0.01875
 49
-13.60815793
 49
0.01875
 49
-19.30887222
 47
0.775229
 98
        1
 10
0.0
 20
0.0
  0
LWPOLYLINE
  5
7F1
100
AcDbEntity
  8
Ech.1_5
 62
   254
  6
CONTINUOUS
370
    -3
100
AcDbPolyline
 90
        4
 70
     1
 43
0.0
 10
55014.45159289
 20
-8339.5555846
 10
55014.45159289
 20
-8389.5555846
 10
54749.28444115
 20
-8389.5555846
 10
54749.28444115
 20
-8339.5555846
  0
LWPOLYLINE
  5
7F2
102
{ACAD_REACTORS
330
7F3
102
}
100
AcDbEntity
  8
Ech.1_5
 62
     9
  6
CONTINUOUS
370
    -3
100
AcDbPolyline
 90
        4
 70
     1
 43
0.0
 10
55014.45159289
 20
-8326.5555846
 10
55014.45159289
 20
-8339.5555846
 10
54749.28444115
 20
-8339.5555846
 10
54749.28444115
 20
-8326.5555846
  0
HATCH
  5
7F3
100
AcDbEntity
  8
Ech.1_5
 62
     9
  6
CONTINUOUS
100
AcDbHatch
 10
0.0
 20
0.0
 30
0.0
210
0.0
220
0.0
230
1.0
  2
DOTS2
 70
     0
 71
     1
 91
        1
 92
        7
 72
     0
 73
     1
 93
        4
 10
55014.45159289
 20
-8326.5555846
 10
55014.45159289
 20
-8339.5555846
 10
54749.28444115
 20
-8339.5555846
 10
54749.28444115
 20
-8326.5555846
 97
        1
330
7F2
 75
     0
 76
     2
 52
0.0
 41
4.72440952
 77
     0
 78
     1
 53
0.0
 43
0.0
 44
0.0
 45
3.75
 46
3.535
 79
     2
 49
0.0
 49
-3.535
 47
0.775229
 98
        1
 10
0.0
 20
0.0
  0
3DFACE
  5
7F4
102
{ACAD_REACTORS
330
7F5
102
}
100
AcDbEntity
  8
Ech.1_5
 62
     9
  6
CONTINUOUS
370
    -3
100
AcDbFace
 70
     0
 10
55014.4508579
 20
-8373.05556094
 30
2500.0
 11
55061.81040521
 21
-8373.05556094
 31
2500.0
 12
55061.81040521
 22
-8609.5555846
 32
2500.0
 13
55014.45397833
 23
-8609.5555846
 33
2500.0
  0
HATCH
  5
7F5
100
AcDbEntity
  8
Ech.1_5
 62
     9
  6
CONTINUOUS
100
AcDbHatch
 10
0.0
 20
0.0
 30
0.0
210
0.0
220
0.0
230
1.0
  2
ANSI31
 70
     0
 71
     1
 91
        1
 92
        7
 72
     0
 73
     1
 93
        4
 10
55014.4508579
 20
-8373.05556094
 10
55061.81040521
 20
-8373.05556094
 10
55061.81040521
 20
-8609.5555846
 10
55014.45397833
 20
-8609.5555846
 97
        1
330
7F4
 75
     0
 76
     2
 52
0.0
 41
9.44887814
 77
     0
 78
     1
 53
45.0
 43
0.0
 44
0.0
 45
21.21320344
 46
-21.21320344
 79
     0
 47
0.775229
 98
        1
 10
0.0
 20
0.0
  0
LWPOLYLINE
  5
7F6
102
{ACAD_REACTORS
330
7F7
102
}
100
AcDbEntity
  8
Ech.1_5
 62
     9
  6
CONTINUOUS
370
    15
100
AcDbPolyline
 90
       27
 70
     1
 43
0.0
 10
55069.30701623
 20
-8593.98903844
 10
55069.45371145
 20
-8580.5208209
 10
55069.57628709
 20
-8570.46716107
 10
55069.7003345
 20
-8560.41353422
 10
55069.81713855
 20
-8550.35991968
 10
55069.91798411
 20
-8540.30629674
 10
55069.99415606
 20
-8530.25264472
 10
55070.03693927
 20
-8520.19894292
 10
55070.03848275
 20
-8510.53484801
 10
55069.99298596
 20
-8500.09131477
 10
55069.91944119
 20
-8490.03738905
 10
55069.8377491
 20
-8479.98341322
 10
55069.76867426
 20
-8469.92940704
 10
55069.7329812
 20
-8459.87539026
 10
55069.76497112
 20
-8447.58804074
 10
55069.8404973
 20
-8439.76740866
 10
55069.98248297
 20
-8429.71353119
 10
55070.14342355
 20
-8419.65983119
 10
55070.28925093
 20
-8409.60638978
 10
55070.38589702
 20
-8399.55328805
 10
55070.40077711
 20
-8389.90084286
 10
55070.30877421
 20
-8379.44835174
 10
55070.21401099
 20
-8373.05556094
 10
55061.81040521
 20
-8373.05556094
 10
55061.81040521
 20
-8609.5555846
 10
55069.17859959
 20
-8609.5555846
 10
55069.24708045
 20
-8600.62831953
  0
HATCH
  5
7F7
100
AcDbEntity
  8
Ech.1_5
 62
     9
  6
CONTINUOUS
100
AcDbHatch
 10
0.0
 20
0.0
 30
0.0
210
0.0
220
0.0
230
1.0
  2
SOLID
 70
     1
 71
     1
 91
        1
 92
        7
 72
     0
 73
     1
 93
       27
 10
55069.30701623
 20
-8593.98903844
 10
55069.45371145
 20
-8580.5208209
 10
55069.57628709
 20
-8570.46716107
 10
55069.7003345
 20
-8560.41353422
 10
55069.81713855
 20
-8550.35991968
 10
55069.91798411
 20
-8540.30629674
 10
55069.99415606
 20
-8530.25264472
 10
55070.03693927
 20
-8520.19894292
 10
55070.03848275
 20
-8510.53484801
 10
55069.99298596
 20
-8500.09131477
 10
55069.91944119
 20
-8490.03738905
 10
55069.8377491
 20
-8479.98341322
 10
55069.76867426
 20
-8469.92940704
 10
55069.7329812
 20
-8459.87539026
 10
55069.76497112
 20
-8447.58804074
 10
55069.8404973
 20
-8439.76740866
 10
55069.98248297
 20
-8429.71353119
 10
55070.14342355
 20
-8419.65983119
 10
55070.28925093
 20
-8409.60638978
 10
55070.38589702
 20
-8399.55328805
 10
55070.40077711
 20
-8389.90084286
 10
55070.30877421
 20
-8379.44835174
 10
55070.21401099
 20
-8373.05556094
 10
55061.81040521
 20
-8373.05556094
 10
55061.81040521
 20
-8609.5555846
 10
55069.17859959
 20
-8609.5555846
 10
55069.24708045
 20
-8600.62831953
 97
        1
330
7F6
 75
     0
 76
     2
 47
0.775229
 98
        1
 10
0.0
 20
0.0
  0
LWPOLYLINE
  5
7F8
102
{ACAD_REACTORS
330
7F9
102
}
100
AcDbEntity
  8
Ech.1_5
 62
     9
  6
CONTINUOUS
370
    15
100
AcDbPolyline
 90
       35
 70
     1
 43
0.0
 10
55059.13796327
 20
-8615.12362894
 10
55049.09659276
 20
-8615.66359293
 10
55039.05377053
 20
-8616.14739621
 10
55029.0087707
 20
-8616.54695843
 10
55020.91179622
 20
-8616.78854366
 10
55008.90981393
 20
-8617.00161956
 10
54998.85641906
 20
-8617.08706898
 10
54988.80164716
 20
-8617.13507631
 10
54978.74646051
 20
-8617.19008189
 10
54971.52631266
 20
-8617.2587346
 10
54958.63823958
 20
-8617.47009677
 10
54948.58548264
 20
-8617.67931271
 10
54938.53321932
 20
-8617.88641577
 10
54928.48112319
 20
-8618.0539536
 10
54918.02863208
 20
-8618.1459565
 10
54908.37618688
 20
-8618.1310764
 10
54898.32308516
 20
-8618.03443031
 10
54888.26964374
 20
-8617.88860293
 10
54878.21594374
 20
-8617.72766235
 10
54868.16206627
 20
-8617.58567669
 10
54860.3414342
 20
-8617.5101505
 10
54848.05408468
 20
-8617.47816059
 10
54838.00006789
 20
-8617.51385365
 10
54827.94606171
 20
-8617.58292849
 10
54817.89208589
 20
-8617.66462057
 10
54807.83816016
 20
-8617.73816535
 10
54797.39462693
 20
-8617.78366213
 10
54787.73053201
 20
-8617.78211866
 10
54777.67683022
 20
-8617.73933545
 10
54767.62317819
 20
-8617.6631635
 10
54757.56955526
 20
-8617.56231794
 10
54749.28444915
 20
-8617.46606062
 10
54749.28444915
 20
-8609.5555846
 10
55069.17859959
 20
-8609.5555846
 10
55069.17860791
 20
-8614.5555846
  0
HATCH
  5
7F9
100
AcDbEntity
  8
Ech.1_5
 62
     9
  6
CONTINUOUS
100
AcDbHatch
 10
0.0
 20
0.0
 30
0.0
210
0.0
220
0.0
230
1.0
  2
SOLID
 70
     1
 71
     1
 91
        1
 92
        7
 72
     0
 73
     1
 93
       35
 10
55059.13796327
 20
-8615.12362894
 10
55049.09659276
 20
-8615.66359293
 10
55039.05377053
 20
-8616.14739621
 10
55029.0087707
 20
-8616.54695843
 10
55020.91179622
 20
-8616.78854366
 10
55008.90981393
 20
-8617.00161956
 10
54998.85641906
 20
-8617.08706898
 10
54988.80164716
 20
-8617.13507631
 10
54978.74646051
 20
-8617.19008189
 10
54971.52631266
 20
-8617.2587346
 10
54958.63823958
 20
-8617.47009677
 10
54948.58548264
 20
-8617.67931271
 10
54938.53321932
 20
-8617.88641577
 10
54928.48112319
 20
-8618.0539536
 10
54918.02863208
 20
-8618.1459565
 10
54908.37618688
 20
-8618.1310764
 10
54898.32308516
 20
-8618.03443031
 10
54888.26964374
 20
-8617.88860293
 10
54878.21594374
 20
-8617.72766235
 10
54868.16206627
 20
-8617.58567669
 10
54860.3414342
 20
-8617.5101505
 10
54848.05408468
 20
-8617.47816059
 10
54838.00006789
 20
-8617.51385365
 10
54827.94606171
 20
-8617.58292849
 10
54817.89208589
 20
-8617.66462057
 10
54807.83816016
 20
-8617.73816535
 10
54797.39462693
 20
-8617.78366213
 10
54787.73053201
 20
-8617.78211866
 10
54777.67683022
 20
-8617.73933545
 10
54767.62317819
 20
-8617.6631635
 10
54757.56955526
 20
-8617.56231794
 10
54749.28444915
 20
-8617.46606062
 10
54749.28444915
 20
-8609.5555846
 10
55069.17859959
 20
-8609.5555846
 10
55069.17860791
 20
-8614.5555846
 97
        1
330
7F8
 75
     0
 76
     2
 47
0.775229
 98
        1
 10
0.0
 20
0.0
  0
LWPOLYLINE
  5
7FA
100
AcDbEntity
  8
Ech.1_5
 62
     9
  6
CONTINUOUS
370
    -3
100
AcDbPolyline
 90
       62
 70
     0
 43
0.0
 10
54749.28444115
 20
-8347.88891793
 42
-1.14028181
 10
54765.66715507
 20
-8350.04574816
 10
54757.90172723
 20
-8379.06542103
 42
1.30322619
 10
54774.0004884
 20
-8379.06542103
 10
54766.23506056
 20
-8350.04574816
 42
-1.30322619
 10
54782.33382173
 20
-8350.04574816
 10
54774.5683939
 20
-8379.06542103
 42
1.30322619
 10
54790.66715507
 20
-8379.06542103
 10
54782.90172723
 20
-8350.04574816
 42
-1.30322619
 10
54799.0004884
 20
-8350.04574816
 10
54791.23506056
 20
-8379.06542103
 42
1.30322619
 10
54807.33382173
 20
-8379.06542103
 10
54799.5683939
 20
-8350.04574816
 42
-1.30322619
 10
54815.66715507
 20
-8350.04574816
 10
54807.90172723
 20
-8379.06542103
 42
1.30322619
 10
54824.0004884
 20
-8379.06542103
 10
54816.23506056
 20
-8350.04574816
 42
-1.30322619
 10
54832.33382173
 20
-8350.04574816
 10
54824.5683939
 20
-8379.06542103
 42
1.30322619
 10
54840.66715507
 20
-8379.06542103
 10
54832.90172723
 20
-8350.04574816
 42
-1.30322619
 10
54849.0004884
 20
-8350.04574816
 10
54841.23506056
 20
-8379.06542103
 42
1.30322619
 10
54857.33382173
 20
-8379.06542103
 10
54849.5683939
 20
-8350.04574816
 42
-1.30322619
 10
54865.66715507
 20
-8350.04574816
 10
54857.90172723
 20
-8379.06542103
 42
1.30322619
 10
54874.0004884
 20
-8379.06542103
 10
54866.23506056
 20
-8350.04574816
 42
-1.30322619
 10
54882.33382173
 20
-8350.04574816
 10
54874.5683939
 20
-8379.06542103
 42
1.30322619
 10
54890.66715507
 20
-8379.06542103
 10
54882.90172723
 20
-8350.04574816
 42
-1.30322619
 10
54899.0004884
 20
-8350.04574816
 10
54891.23506056
 20
-8379.06542103
 42
1.30322619
 10
54907.33382173
 20
-8379.06542103
 10
54899.5683939
 20
-8350.04574816
 42
-1.30322619
 10
54915.66715507
 20
-8350.04574816
 10
54907.90172723
 20
-8379.06542103
 42
1.30322619
 10
54924.0004884
 20
-8379.06542103
 10
54916.23506056
 20
-8350.04574816
 42
-1.30322619
 10
54932.33382173
 20
-8350.04574816
 10
54924.5683939
 20
-8379.06542103
 42
1.30322619
 10
54940.66715507
 20
-8379.06542103
 10
54932.90172723
 20
-8350.04574816
 42
-1.30322619
 10
54949.0004884
 20
-8350.04574816
 10
54941.23506056
 20
-8379.06542103
 42
1.30322619
 10
54957.33382173
 20
-8379.06542103
 10
54949.5683939
 20
-8350.04574816
 42
-1.30322619
 10
54965.66715507
 20
-8350.04574816
 10
54957.90172723
 20
-8379.06542103
 42
1.30322619
 10
54974.0004884
 20
-8379.06542103
 10
54966.23506056
 20
-8350.04574816
 42
-1.30322619
 10
54982.33382173
 20
-8350.04574816
 10
54974.5683939
 20
-8379.06542103
 42
1.30322619
 10
54990.66715507
 20
-8379.06542103
 10
54982.90172723
 20
-8350.04574816
 42
-1.30322619
 10
54999.0004884
 20
-8350.04574816
 10
54991.23506056
 20
-8379.06542103
 42
1.30322619
 10
55007.33382173
 20
-8379.06542103
 10
54999.5683939
 20
-8350.04574816
 42
-0.83977392
 10
55014.45159289
 20
-8343.11991694
  0
LWPOLYLINE
  5
7FB
100
AcDbEntity
  8
Ech.1_5
 62
     1
  6
CADWORK_22
 48
-5.0
370
    35
100
AcDbPolyline
 90
        3
 70
     0
 43
0.0
 10
54749.28444915
 20
-8629.5555846
 10
55034.45100212
 20
-8629.5555846
 10
55034.45100212
 20
-8730.07619527
  0
LWPOLYLINE
  5
7FC
100
AcDbEntity
  8
Ech.1_5
 62
   190
  6
CONTINUOUS
370
    -3
100
AcDbPolyline
 90
      172
 70
     0
 43
0.0
 10
54834.44645481
 20
-8627.62704555
 42
1.14028181
 10
54839.00714819
 20
-8627.01752285
 10
54836.82898031
 20
-8618.9410488
 42
-1.30322619
 10
54841.31178219
 20
-8618.93226407
 10
54839.16528507
 20
-8627.01721296
 42
1.30322619
 10
54843.64808694
 20
-8627.00842823
 10
54841.46991907
 20
-8618.93195418
 42
-1.30322619
 10
54845.95272094
 20
-8618.92316945
 10
54843.80622382
 20
-8627.00811833
 42
1.30322619
 10
54848.2890257
 20
-8626.9993336
 10
54846.11085782
 20
-8618.92285956
 42
-1.30322619
 10
54850.5936597
 20
-8618.91407483
 10
54848.44716258
 20
-8626.99902371
 42
1.30322619
 10
54852.92996445
 20
-8626.99023898
 10
54850.75179657
 20
-8618.91376493
 42
-1.30322619
 10
54855.23459845
 20
-8618.9049802
 10
54853.08810133
 20
-8626.98992909
 42
1.30322619
 10
54857.57090321
 20
-8626.98114436
 10
54855.39273533
 20
-8618.90467031
 42
-1.30322619
 10
54859.8755372
 20
-8618.89588558
 10
54857.72904008
 20
-8626.98083446
 42
1.30322619
 10
54862.21184196
 20
-8626.97204973
 10
54860.03367408
 20
-8618.89557569
 42
-1.30322619
 10
54864.51647596
 20
-8618.88679096
 10
54862.36997884
 20
-8626.97173984
 42
1.30322619
 10
54866.85278071
 20
-8626.96295511
 10
54864.67461284
 20
-8618.88648106
 42
-1.30322619
 10
54869.15741471
 20
-8618.87769633
 10
54867.01091759
 20
-8626.96264522
 42
1.30322619
 10
54871.49371947
 20
-8626.95386049
 10
54869.31555159
 20
-8618.87738644
 42
-1.30322619
 10
54873.79835346
 20
-8618.86860171
 10
54871.65185635
 20
-8626.95355059
 42
1.30322619
 10
54876.13465822
 20
-8626.94476586
 10
54873.95649034
 20
-8618.86829182
 42
-1.30322619
 10
54878.43929222
 20
-8618.85950709
 10
54876.2927951
 20
-8626.94445597
 42
1.30322619
 10
54880.77559698
 20
-8626.93567124
 10
54878.5974291
 20
-8618.85919719
 42
-1.30322619
 10
54883.08023097
 20
-8618.85041246
 10
54880.93373385
 20
-8626.93536135
 42
1.30322619
 10
54885.41653573
 20
-8626.92657662
 10
54883.23836785
 20
-8618.85010257
 42
-1.30322619
 10
54887.72116973
 20
-8618.84131784
 10
54885.57467261
 20
-8626.92626672
 42
1.30322619
 10
54890.05747448
 20
-8626.91748199
 10
54887.8793066
 20
-8618.84100795
 42
-1.30322619
 10
54892.36210848
 20
-8618.83222322
 10
54890.21561136
 20
-8626.9171721
 42
1.30322619
 10
54894.69841324
 20
-8626.90838737
 10
54892.52024536
 20
-8618.83191332
 42
-1.30322619
 10
54897.00304723
 20
-8618.82312859
 10
54894.85655011
 20
-8626.90807748
 42
1.30322619
 10
54899.33935199
 20
-8626.89929275
 10
54897.16118411
 20
-8618.8228187
 42
-1.30322619
 10
54901.64398599
 20
-8618.81403397
 10
54899.49748887
 20
-8626.89898285
 42
1.30322619
 10
54903.98029074
 20
-8626.89019812
 10
54901.80212287
 20
-8618.81372408
 42
-1.30322619
 10
54906.28492474
 20
-8618.80493935
 10
54904.13842762
 20
-8626.88988823
 42
1.30322619
 10
54908.6212295
 20
-8626.8811035
 10
54906.44306162
 20
-8618.80462945
 42
-1.30322619
 10
54910.92586349
 20
-8618.79584472
 10
54908.77936638
 20
-8626.88079361
 42
1.30322619
 10
54913.26216825
 20
-8626.87200888
 10
54911.08400037
 20
-8618.79553483
 42
-1.30322619
 10
54915.56680225
 20
-8618.7867501
 10
54913.42030513
 20
-8626.87169898
 42
1.30322619
 10
54917.90310701
 20
-8626.86291425
 10
54915.72493913
 20
-8618.78644021
 42
-1.30322619
 10
54920.207741
 20
-8618.77765548
 10
54918.06124388
 20
-8626.86260436
 42
1.30322619
 10
54922.54404576
 20
-8626.85381963
 10
54920.36587788
 20
-8618.77734558
 42
-1.30322619
 10
54924.84867976
 20
-8618.76856085
 10
54922.70218264
 20
-8626.85350974
 42
1.30322619
 10
54927.18498451
 20
-8626.84472501
 10
54925.00681663
 20
-8618.76825096
 42
-1.30322619
 10
54929.48961851
 20
-8618.75946623
 10
54927.34312139
 20
-8626.84441512
 42
1.30322619
 10
54931.82592327
 20
-8626.83563039
 10
54929.64775539
 20
-8618.75915634
 42
-1.30322619
 10
54934.13055726
 20
-8618.75037161
 10
54931.98406014
 20
-8626.83532049
 42
1.30322619
 10
54936.46686202
 20
-8626.82653576
 10
54934.28869414
 20
-8618.75006171
 42
-1.30322619
 10
54938.77149602
 20
-8618.74127698
 10
54936.6249989
 20
-8626.82622587
 42
1.30322619
 10
54941.10780077
 20
-8626.81744114
 10
54938.9296329
 20
-8618.74096709
 42
-1.30322619
 10
54943.41243477
 20
-8618.73218236
 10
54941.26593765
 20
-8626.81713125
 42
1.30322619
 10
54945.74873953
 20
-8626.80834652
 10
54943.57057165
 20
-8618.73187247
 42
-1.30322619
 10
54948.05337353
 20
-8618.72308774
 10
54945.90687641
 20
-8626.80803662
 42
1.30322619
 10
54950.38967828
 20
-8626.79925189
 10
54948.2115104
 20
-8618.72277784
 42
-1.30322619
 10
54952.69431228
 20
-8618.71399311
 10
54950.54781516
 20
-8626.798942
 42
1.30322619
 10
54955.03061704
 20
-8626.79015727
 10
54952.85244916
 20
-8618.71368322
 42
-1.30322619
 10
54957.33525103
 20
-8618.70489849
 10
54955.18875391
 20
-8626.78984738
 42
1.30322619
 10
54959.67155579
 20
-8626.78106265
 10
54957.49338791
 20
-8618.7045886
 42
-1.30322619
 10
54961.97618979
 20
-8618.69580387
 10
54959.82969267
 20
-8626.78075275
 42
1.30322619
 10
54964.31249454
 20
-8626.77196802
 10
54962.13432666
 20
-8618.69549397
 42
-1.30322619
 10
54966.61712854
 20
-8618.68670924
 10
54964.47063142
 20
-8626.77165813
 42
1.30322619
 10
54968.9534333
 20
-8626.7628734
 10
54966.77526542
 20
-8618.68639935
 42
-1.30322619
 10
54971.25806729
 20
-8618.67761462
 10
54969.11157017
 20
-8626.76256351
 42
1.30322619
 10
54973.59437205
 20
-8626.75377878
 10
54971.41620417
 20
-8618.67730473
 42
-1.30322619
 10
54975.89900605
 20
-8618.66852
 10
54973.75250893
 20
-8626.75346888
 42
1.30322619
 10
54978.2353108
 20
-8626.74468415
 10
54976.05714293
 20
-8618.66821011
 42
-1.30322619
 10
54980.5399448
 20
-8618.65942538
 10
54978.39344768
 20
-8626.74437426
 42
1.30322619
 10
54982.87624956
 20
-8626.73558953
 10
54980.69808168
 20
-8618.65911548
 42
-1.30322619
 10
54985.18088356
 20
-8618.65033075
 10
54983.03438644
 20
-8626.73527964
 42
1.30322619
 10
54987.51718831
 20
-8626.72649491
 10
54985.33902043
 20
-8618.65002086
 42
-1.30322619
 10
54989.82182231
 20
-8618.64123613
 10
54987.67532519
 20
-8626.72618501
 42
1.30322619
 10
54992.15812707
 20
-8626.71740028
 10
54989.97995919
 20
-8618.64092624
 42
-1.30322619
 10
54994.46276106
 20
-8618.63214151
 10
54992.31626394
 20
-8626.71709039
 42
1.30322619
 10
54996.79906582
 20
-8626.70830566
 10
54994.62089794
 20
-8618.63183161
 42
-1.30322619
 10
54999.10369982
 20
-8618.62304688
 10
54996.9572027
 20
-8626.70799577
 42
1.30322619
 10
55001.44000457
 20
-8626.69921104
 10
54999.26183669
 20
-8618.62273699
 42
-1.30322619
 10
55003.74463857
 20
-8618.61395226
 10
55001.59814145
 20
-8626.69890114
 42
1.30322619
 10
55006.08094333
 20
-8626.69011641
 10
55003.90277545
 20
-8618.61364237
 42
-1.30322619
 10
55008.38557732
 20
-8618.60485764
 10
55006.2390802
 20
-8626.68980652
 42
1.30322619
 10
55010.72188208
 20
-8626.68102179
 10
55008.5437142
 20
-8618.60454774
 42
-1.30322619
 10
55013.02651608
 20
-8618.59576301
 10
55010.88001896
 20
-8626.6807119
 42
1.30322619
 10
55015.36282083
 20
-8626.67192717
 10
55013.18465296
 20
-8618.59545312
 42
-1.30322619
 10
55017.66745483
 20
-8618.58666839
 10
55015.52095771
 20
-8626.67161727
 42
1.30322619
 10
55020.00375959
 20
-8626.66283254
 10
55017.82559171
 20
-8618.5863585
 42
-1.30322619
 10
55022.30839359
 20
-8618.57757377
 10
55020.16189647
 20
-8626.66252265
 42
1.30322619
 10
55024.64469834
 20
-8626.65373792
 10
55022.46653046
 20
-8618.57726387
 42
-1.30322619
 10
55026.94933234
 20
-8618.56847914
 10
55024.80283522
 20
-8626.65342803
 42
1.30322619
 10
55029.2856371
 20
-8626.6446433
 10
55027.10746922
 20
-8618.56816925
 42
-1.30322619
 10
55031.59027109
 20
-8618.55938452
 10
55029.44377397
 20
-8626.6443334
 42
1.30322619
 10
55033.92657585
 20
-8626.63554867
 10
55031.74840797
 20
-8618.55907463
 42
-0.55385991
 10
55034.42380061
 20
-8615.67479517
  0
LWPOLYLINE
  5
7FD
100
AcDbEntity
  8
Ech.1_5
 62
   190
  6
CONTINUOUS
370
    -3
100
AcDbPolyline
 90
      172
 70
     0
 43
0.0
 10
55562.84563291
 20
-8627.62704555
 42
-1.14028181
 10
55558.28493953
 20
-8627.01752285
 10
55560.46310741
 20
-8618.9410488
 42
1.30322619
 10
55555.98030553
 20
-8618.93226407
 10
55558.12680265
 20
-8627.01721296
 42
-1.30322619
 10
55553.64400077
 20
-8627.00842823
 10
55555.82216865
 20
-8618.93195418
 42
1.30322619
 10
55551.33936678
 20
-8618.92316945
 10
55553.4858639
 20
-8627.00811833
 42
-1.30322619
 10
55549.00306202
 20
-8626.9993336
 10
55551.1812299
 20
-8618.92285956
 42
1.30322619
 10
55546.69842802
 20
-8618.91407483
 10
55548.84492514
 20
-8626.99902371
 42
-1.30322619
 10
55544.36212327
 20
-8626.99023898
 10
55546.54029114
 20
-8618.91376493
 42
1.30322619
 10
55542.05748927
 20
-8618.9049802
 10
55544.20398639
 20
-8626.98992909
 42
-1.30322619
 10
55539.72118451
 20
-8626.98114436
 10
55541.89935239
 20
-8618.90467031
 42
1.30322619
 10
55537.41655051
 20
-8618.89588558
 10
55539.56304763
 20
-8626.98083446
 42
-1.30322619
 10
55535.08024576
 20
-8626.97204973
 10
55537.25841364
 20
-8618.89557569
 42
1.30322619
 10
55532.77561176
 20
-8618.88679096
 10
55534.92210888
 20
-8626.97173984
 42
-1.30322619
 10
55530.439307
 20
-8626.96295511
 10
55532.61747488
 20
-8618.88648106
 42
1.30322619
 10
55528.13467301
 20
-8618.87769633
 10
55530.28117013
 20
-8626.96264522
 42
-1.30322619
 10
55525.79836825
 20
-8626.95386049
 10
55527.97653613
 20
-8618.87738644
 42
1.30322619
 10
55523.49373425
 20
-8618.86860171
 10
55525.64023137
 20
-8626.95355059
 42
-1.30322619
 10
55521.1574295
 20
-8626.94476586
 10
55523.33559738
 20
-8618.86829182
 42
1.30322619
 10
55518.8527955
 20
-8618.85950709
 10
55520.99929262
 20
-8626.94445597
 42
-1.30322619
 10
55516.51649074
 20
-8626.93567124
 10
55518.69465862
 20
-8618.85919719
 42
1.30322619
 10
55514.21185675
 20
-8618.85041246
 10
55516.35835387
 20
-8626.93536135
 42
-1.30322619
 10
55511.87555199
 20
-8626.92657662
 10
55514.05371987
 20
-8618.85010257
 42
1.30322619
 10
55509.57091799
 20
-8618.84131784
 10
55511.71741511
 20
-8626.92626672
 42
-1.30322619
 10
55507.23461324
 20
-8626.91748199
 10
55509.41278111
 20
-8618.84100795
 42
1.30322619
 10
55504.92997924
 20
-8618.83222322
 10
55507.07647636
 20
-8626.9171721
 42
-1.30322619
 10
55502.59367448
 20
-8626.90838737
 10
55504.77184236
 20
-8618.83191332
 42
1.30322619
 10
55500.28904048
 20
-8618.82312859
 10
55502.4355376
 20
-8626.90807748
 42
-1.30322619
 10
55497.95273573
 20
-8626.89929275
 10
55500.13090361
 20
-8618.8228187
 42
1.30322619
 10
55495.64810173
 20
-8618.81403397
 10
55497.79459885
 20
-8626.89898285
 42
-1.30322619
 10
55493.31179697
 20
-8626.89019812
 10
55495.48996485
 20
-8618.81372408
 42
1.30322619
 10
55491.00716298
 20
-8618.80493935
 10
55493.1536601
 20
-8626.88988823
 42
-1.30322619
 10
55488.67085822
 20
-8626.8811035
 10
55490.8490261
 20
-8618.80462945
 42
1.30322619
 10
55486.36622422
 20
-8618.79584472
 10
55488.51272134
 20
-8626.88079361
 42
-1.30322619
 10
55484.02991947
 20
-8626.87200888
 10
55486.20808735
 20
-8618.79553483
 42
1.30322619
 10
55481.72528547
 20
-8618.7867501
 10
55483.87178259
 20
-8626.87169898
 42
-1.30322619
 10
55479.38898071
 20
-8626.86291425
 10
55481.56714859
 20
-8618.78644021
 42
1.30322619
 10
55477.08434672
 20
-8618.77765548
 10
55479.23084384
 20
-8626.86260436
 42
-1.30322619
 10
55474.74804196
 20
-8626.85381963
 10
55476.92620984
 20
-8618.77734558
 42
1.30322619
 10
55472.44340796
 20
-8618.76856085
 10
55474.58990508
 20
-8626.85350974
 42
-1.30322619
 10
55470.10710321
 20
-8626.84472501
 10
55472.28527108
 20
-8618.76825096
 42
1.30322619
 10
55467.80246921
 20
-8618.75946623
 10
55469.94896633
 20
-8626.84441512
 42
-1.30322619
 10
55465.46616445
 20
-8626.83563039
 10
55467.64433233
 20
-8618.75915634
 42
1.30322619
 10
55463.16153045
 20
-8618.75037161
 10
55465.30802757
 20
-8626.83532049
 42
-1.30322619
 10
55460.8252257
 20
-8626.82653576
 10
55463.00339358
 20
-8618.75006171
 42
1.30322619
 10
55458.5205917
 20
-8618.74127698
 10
55460.66708882
 20
-8626.82622587
 42
-1.30322619
 10
55456.18428694
 20
-8626.81744114
 10
55458.36245482
 20
-8618.74096709
 42
1.30322619
 10
55453.87965295
 20
-8618.73218236
 10
55456.02615007
 20
-8626.81713125
 42
-1.30322619
 10
55451.54334819
 20
-8626.80834652
 10
55453.72151607
 20
-8618.73187247
 42
1.30322619
 10
55449.23871419
 20
-8618.72308774
 10
55451.38521131
 20
-8626.80803662
 42
-1.30322619
 10
55446.90240944
 20
-8626.79925189
 10
55449.08057732
 20
-8618.72277784
 42
1.30322619
 10
55444.59777544
 20
-8618.71399311
 10
55446.74427256
 20
-8626.798942
 42
-1.30322619
 10
55442.26147068
 20
-8626.79015727
 10
55444.43963856
 20
-8618.71368322
 42
1.30322619
 10
55439.95683669
 20
-8618.70489849
 10
55442.10333381
 20
-8626.78984738
 42
-1.30322619
 10
55437.62053193
 20
-8626.78106265
 10
55439.79869981
 20
-8618.7045886
 42
1.30322619
 10
55435.31589793
 20
-8618.69580387
 10
55437.46239505
 20
-8626.78075275
 42
-1.30322619
 10
55432.97959318
 20
-8626.77196802
 10
55435.15776105
 20
-8618.69549397
 42
1.30322619
 10
55430.67495918
 20
-8618.68670924
 10
55432.8214563
 20
-8626.77165813
 42
-1.30322619
 10
55428.33865442
 20
-8626.7628734
 10
55430.5168223
 20
-8618.68639935
 42
1.30322619
 10
55426.03402042
 20
-8618.67761462
 10
55428.18051754
 20
-8626.76256351
 42
-1.30322619
 10
55423.69771567
 20
-8626.75377878
 10
55425.87588355
 20
-8618.67730473
 42
1.30322619
 10
55421.39308167
 20
-8618.66852
 10
55423.53957879
 20
-8626.75346888
 42
-1.30322619
 10
55419.05677691
 20
-8626.74468415
 10
55421.23494479
 20
-8618.66821011
 42
1.30322619
 10
55416.75214292
 20
-8618.65942538
 10
55418.89864004
 20
-8626.74437426
 42
-1.30322619
 10
55414.41583816
 20
-8626.73558953
 10
55416.59400604
 20
-8618.65911548
 42
1.30322619
 10
55412.11120416
 20
-8618.65033075
 10
55414.25770128
 20
-8626.73527964
 42
-1.30322619
 10
55409.77489941
 20
-8626.72649491
 10
55411.95306729
 20
-8618.65002086
 42
1.30322619
 10
55407.47026541
 20
-8618.64123613
 10
55409.61676253
 20
-8626.72618501
 42
-1.30322619
 10
55405.13396065
 20
-8626.71740028
 10
55407.31212853
 20
-8618.64092624
 42
1.30322619
 10
55402.82932666
 20
-8618.63214151
 10
55404.97582378
 20
-8626.71709039
 42
-1.30322619
 10
55400.4930219
 20
-8626.70830566
 10
55402.67118978
 20
-8618.63183161
 42
1.30322619
 10
55398.1883879
 20
-8618.62304688
 10
55400.33488502
 20
-8626.70799577
 42
-1.30322619
 10
55395.85208315
 20
-8626.69921104
 10
55398.03025102
 20
-8618.62273699
 42
1.30322619
 10
55393.54744915
 20
-8618.61395226
 10
55395.69394627
 20
-8626.69890114
 42
-1.30322619
 10
55391.21114439
 20
-8626.69011641
 10
55393.38931227
 20
-8618.61364237
 42
1.30322619
 10
55388.90651039
 20
-8618.60485764
 10
55391.05300751
 20
-8626.68980652
 42
-1.30322619
 10
55386.57020564
 20
-8626.68102179
 10
55388.74837352
 20
-8618.60454774
 42
1.30322619
 10
55384.26557164
 20
-8618.59576301
 10
55386.41206876
 20
-8626.6807119
 42
-1.30322619
 10
55381.92926688
 20
-8626.67192717
 10
55384.10743476
 20
-8618.59545312
 42
1.30322619
 10
55379.62463289
 20
-8618.58666839
 10
55381.77113001
 20
-8626.67161727
 42
-1.30322619
 10
55377.28832813
 20
-8626.66283254
 10
55379.46649601
 20
-8618.5863585
 42
1.30322619
 10
55374.98369413
 20
-8618.57757377
 10
55377.13019125
 20
-8626.66252265
 42
-1.30322619
 10
55372.64738938
 20
-8626.65373792
 10
55374.82555726
 20
-8618.57726387
 42
1.30322619
 10
55370.34275538
 20
-8618.56847914
 10
55372.4892525
 20
-8626.65342803
 42
-1.30322619
 10
55368.00645062
 20
-8626.6446433
 10
55370.1846185
 20
-8618.56816925
 42
1.30322619
 10
55365.70181663
 20
-8618.55938452
 10
55367.84831374
 20
-8626.6443334
 42
-1.30322619
 10
55363.36551187
 20
-8626.63554867
 10
55365.54367975
 20
-8618.55907463
 42
0.55385991
 10
55362.86828711
 20
-8615.67479517
  0
LWPOLYLINE
  5
7FE
100
AcDbEntity
  8
Ech.1_5
 62
   190
  6
CONTINUOUS
370
    -3
100
AcDbPolyline
 90
        6
 70
     0
 43
0.0
 10
54749.2850278
 20
-8883.13893137
 10
54749.2844603
 20
-8749.7554685
 10
54731.3071119
 20
-8733.26996535
 10
54767.26281191
 20
-8747.37990536
 10
54749.2844603
 20
-8730.89355128
 10
54749.28444115
 20
-8297.99212015
  0
LWPOLYLINE
  5
7FF
100
AcDbEntity
  8
Ech.1_5
 62
   190
  6
CONTINUOUS
370
    -3
100
AcDbPolyline
 90
        6
 70
     0
 43
0.0
 10
55648.00705992
 20
-8883.13893137
 10
55648.00762741
 20
-8749.7554685
 10
55665.98497582
 20
-8733.26996535
 10
55630.02927581
 20
-8747.37990536
 10
55648.00762741
 20
-8730.89355128
 10
55648.00764657
 20
-8297.99212015
  0
TEXT
  5
800
100
AcDbEntity
  8
Ech.1_5
 62
   190
100
AcDbText
 10
54863.33407121
 20
-9139.05602204
 30
0.0
 40
8.00000012
  1
Echelle en mm
  7
ARIAL
 50
0.0
 41
1.0
 51
0.0
100
AcDbText
  0
TEXT
  5
801
100
AcDbEntity
  8
Ech.1_5
 62
   190
100
AcDbText
 10
54849.35348646
 20
-9167.26585757
 30
0.0
 40
8.00000012
  1
0
  7
ARIAL
 50
0.0
 41
1.0
 51
0.0
100
AcDbText
  0
TEXT
  5
802
100
AcDbEntity
  8
Ech.1_5
 62
   190
100
AcDbText
 10
54935.95054435
 20
-9167.26585757
 30
0.0
 40
8.00000012
  1
100
  7
ARIAL
 50
0.0
 41
1.0
 51
0.0
100
AcDbText
  0
TEXT
  5
803
100
AcDbEntity
  8
Ech.1_5
 62
   190
100
AcDbText
 10
54897.21011278
 20
-9167.26585757
 30
0.0
 40
8.00000012
  1
50
  7
ARIAL
 50
0.0
 41
1.0
 51
0.0
100
AcDbText
  0
INSERT
  5
804
100
AcDbEntity
  8
Ech.1_5
 62
     0
370
    -3
100
AcDbBlockReference
  2
*D39
 10
0.0
 20
0.0
 30
0.0
  0
INSERT
  5
805
100
AcDbEntity
  8
Ech.1_5
 62
     0
370
    -3
100
AcDbBlockReference
  2
*D40
 10
0.0
 20
0.0
 30
0.0
  0
INSERT
  5
806
100
AcDbEntity
  8
Ech.1_5
 62
     0
370
    -3
100
AcDbBlockReference
  2
*D41
 10
0.0
 20
0.0
 30
0.0
  0
INSERT
  5
807
100
AcDbEntity
  8
Ech.1_5
 62
     0
370
    -3
100
AcDbBlockReference
  2
*D42
 10
0.0
 20
0.0
 30
0.0
  0
ENDSEC
  0
SECTION
  2
OBJECTS
  0
DICTIONARY
  5
1
100
AcDbDictionary
  3
ACAD_GROUP
350
2
  3
ACAD_MLINESTYLE
350
3
  0
DICTIONARY
  5
2
102
{CDWK_REACTORS
330
1
102
}
100
AcDbDictionary
  0
DICTIONARY
  5
3
102
{CDWK_REACTORS
330
1
102
}
100
AcDbDictionary
  3
STANDARD
350
4
  0
MLINESTYLE
  5
4
102
{CDWK_REACTORS
330
3
102
}
100
AcDbMlineStyle
  2
STANDARD
 70
     0
  3

 62
     0
 51
90.0
 52
90.0
 71
     2
 49
0.5
 62
   256
  6
BYLAYER
 49
-0.5
 62
   256
  6
BYLAYER
  0
ENDSEC
  0
EOF
