  0
SECTION
  2
HEADER
  9
$ACADVER
  1
AC1014
  9
$DWGCODEPAGE
  3
ANSI_1252
  9
$INSBASE
 10
0.0
 20
0.0
 30
0.0
  9
$EXTMIN
 10
1033.98771282
 20
-21718.34332712
  9
$EXTMAX
 10
122326.07664696
 20
2240.3362527
  9
$LIMMIN
 10
1033.98771282
 20
-21718.34332712
  9
$LIMMAX
 10
122326.07664696
 20
2240.3362527
  9
$ORTHOMODE
 70
     0
  9
$REGENMODE
 70
     1
  9
$FILLMODE
 70
     1
  9
$QTEXTMODE
 70
     0
  9
$MIRRTEXT
 70
     1
  9
$DRAGMODE
 70
     2
  9
$LTSCALE
 40
5.0
  9
$OSMODE
 70
     0
  9
$ATTMODE
 70
     1
  9
$TEXTSIZE
 40
3.5
  9
$TRACEWID
 40
1.0
  9
$TEXTSTYLE
  7
STANDARD
  9
$CLAYER
  8
0
  9
$CELTYPE
  6
BYLAYER
  9
$CECOLOR
 62
   256
  9
$DIMSCALE
 40
1.0
  9
$DIMASZ
 40
2.0
  9
$DIMEXO
 40
5.0
  9
$DIMDLI
 40
10.0
  9
$DIMRND
 40
0.0
  9
$DIMDLE
 40
2.0
  9
$DIMEXE
 40
2.0
  9
$DIMTP
 40
0.0
  9
$DIMTM
 40
0.0
  9
$DIMTXT
 40
2.5
  9
$DIMCEN
 40
1.5
  9
$DIMTSZ
 40
0.0
  9
$DIMTOL
 70
     0
  9
$DIMLIM
 70
     0
  9
$DIMTIH
 70
     1
  9
$DIMTOH
 70
     0
  9
$DIMSE1
 70
     0
  9
$DIMSE2
 70
     0
  9
$DIMTAD
 70
     1
  9
$DIMZIN
 70
     8
  9
$DIMBLK
  1

  9
$DIMASO
 70
     1
  9
$DIMSHO
 70
     1
  9
$DIMPOST
  1

  9
$DIMAPOST
  1

  9
$DIMALT
 70
     0
  9
$DIMALTD
 70
     2
  9
$DIMALTF
 40
25.4
  9
$DIMLFAC
 40
1.0
  9
$DIMTOFL
 70
     0
  9
$DIMTVP
 40
0.0
  9
$DIMTIX
 70
     0
  9
$DIMSOXD
 70
     0
  9
$DIMSAH
 70
     0
  9
$DIMBLK1
  1

  9
$DIMBLK2
  1

  9
$DIMSTYLE
  2
*UNNAMED
  9
$DIMCLRD
 70
   190
  9
$DIMCLRE
 70
   190
  9
$DIMCLRT
 70
   190
  9
$DIMTFAC
 40
1.0
  9
$DIMGAP
 40
0.09
  9
$DIMUNIT
 70
     2
  9
$LUNITS
 70
     2
  9
$LUPREC
 70
     6
  9
$AXISMODE
 70
     0
  9
$AXISUNIT
 10
0.0
 20
0.0
  9
$SKETCHINC
 40
0.1
  9
$FILLETRAD
 40
0.0
  9
$AUNITS
 70
     0
  9
$AUPREC
 70
     0
  9
$MENU
  1
ACAD
  9
$ELEVATION
 40
0.0
  9
$PELEVATION
 40
0.0
  9
$THICKNESS
 40
0.0
  9
$LIMCHECK
 70
     0
  9
$BLIPMODE
 70
     1
  9
$CHAMFERA
 40
0.0
  9
$CHAMFERB
 40
0.0
  9
$SKPOLY
 70
     1
  9
$TDCREATE
 40
2457808.0000000000
  9
$TDUPDATE
 40
2457808.0000000000
  9
$TDINDWG
 40
0.0
  9
$TDUSRTIMER
 40
0.0
  9
$USRTIMER
 70
     1
  9
$ANGBASE
 50
0.0
  9
$ANGDIR
 70
     0
  9
$PDMODE
 70
     0
  9
$PDSIZE
 40
0.0
  9
$PLINEWID
 40
0.0
  9
$COORDS
 70
     2
  9
$SPLFRAME
 70
     0
  9
$SPLINETYPE
 70
     6
  9
$SPLINESEGS
 70
     8
  9
$ATTDIA
 70
     1
  9
$ATTREQ
 70
     1
  9
$HANDLING
 70
     1
  9
$HANDSEED
  5
     7FC
  9
$SURFTAB1
 70
     6
  9
$SURFTAB2
 70
     6
  9
$SURFTYPE
 70
     6
  9
$SURFU
 70
     6
  9
$SURFV
 70
     6
  9
$UCSNAME
  2

  9
$UCSORG
 10
0.0
 20
0.0
 30
0.0
  9
$UCSXDIR
 10
1.0
 20
0.0
 30
0.0
  9
$UCSYDIR
 10
0.0
 20
1.0
 30
0.0
  9
$PUCSNAME
  2

  9
$PUCSORG
 10
0.0
 20
0.0
 30
0.0
  9
$PUCSXDIR
 10
1.0
 20
0.0
 30
0.0
  9
$PUCSYDIR
 10
0.0
 20
1.0
 30
0.0
  9
$USERI1
 70
     0
  9
$USERI2
 70
     0
  9
$USERI3
 70
     0
  9
$USERI4
 70
     0
  9
$USERI5
 70
     0
  9
$USERR1
 40
0.0
  9
$USERR2
 40
0.0
  9
$USERR3
 40
0.0
  9
$USERR4
 40
0.0
  9
$USERR5
 40
0.0
  9
$WORLDVIEW
 70
     1
  9
$SHADEDGE
 70
     3
  9
$SHADEDIF
 70
    70
  9
$TILEMODE
 70
     1
  9
$MAXACTVP
 70
    16
  9
$PINSBASE
 10
0.0
 20
0.0
 30
0.0
  9
$PLIMCHECK
 70
     0
  9
$PEXTMIN
 10
1.0000000000000E+20
 20
1.0000000000000E+20
 30
1.0000000000000E+20
  9
$PEXTMAX
 10
-1.0000000000000E+20
 20
-1.0000000000000E+20
 30
-1.0000000000000E+20
  9
$PLIMMIN
 10
0.0
 20
0.0
  9
$UNITMODE
 70
     0
  9
$VISRETAIN
 70
     0
  9
$MEASUREMENT
 70
     1
  0
ENDSEC
  0
SECTION
  2
TABLES
  0
TABLE
  2
VPORT
  5
4A2
100
AcDbSymbolTable
 70
     1
  0
ENDTAB
  0
TABLE
  2
STYLE
  5
4A3
100
AcDbSymbolTable
 70
     3
  0
STYLE
  5
4A4
100
AcDbSymbolTableRecord
100
AcDbTextStyleTableRecord
  2
STANDARD
 70
     0
 40
0.0
 41
1.0
 50
0.0
 71
     0
 42
3.5
  3
MONOTXT
  4

  0
STYLE
  5
4A5
100
AcDbSymbolTableRecord
100
AcDbTextStyleTableRecord
  2
SYMAP
 70
     0
 40
0.0
 41
1.0
 50
0.0
 71
     0
 42
3.5
  3
SYMAP
  4

  0
STYLE
  5
4A6
100
AcDbSymbolTableRecord
100
AcDbTextStyleTableRecord
  2
CADWORK1
 70
     0
 40
0.0
 41
1.0
 50
0.0
 71
     0
 42
3.5
  3
MONOTXT
  4

  0
STYLE
  5
4A7
100
AcDbSymbolTableRecord
100
AcDbTextStyleTableRecord
  2
MONOTXT
 70
     0
 40
0.0
 41
1.0
 50
0.0
 71
     0
 42
3.5
  3
MONOTXT
  4

  0
STYLE
  5
4A8
100
AcDbSymbolTableRecord
100
AcDbTextStyleTableRecord
  2
ARIAL
 70
     0
 40
0.0
 41
1.0
 50
0.0
 71
     0
 42
3.5
  3

  4

1001
ACAD
1000
Arial
1071
        0
  0
ENDTAB
  0
TABLE
  2
LTYPE
  5
4A9
100
AcDbSymbolTable
 70
    15
  0
LTYPE
  5
4AA
100
AcDbSymbolTableRecord
100
AcDbLinetypeTableRecord
  2
BYBLOCK
 70
    64
  3

 72
    65
 73
     0
 40
0.0
  0
LTYPE
  5
4AB
100
AcDbSymbolTableRecord
100
AcDbLinetypeTableRecord
  2
BYLAYER
 70
    64
  3

 72
    65
 73
     0
 40
0.0
  0
LTYPE
  5
4AC
100
AcDbSymbolTableRecord
100
AcDbLinetypeTableRecord
  2
CONTINUOUS
 70
    64
  3
Solid line
 72
    65
 73
     0
 40
0.0
  0
LTYPE
  5
4AD
100
AcDbSymbolTableRecord
100
AcDbLinetypeTableRecord
  2
DOT2
 70
    64
  3
...............................................
 72
    65
 73
     2
 40
1.25
 49
0.0
 74
     0
 49
-1.25
 74
     0
  0
LTYPE
  5
4AE
100
AcDbSymbolTableRecord
100
AcDbLinetypeTableRecord
  2
CADWORK_13
 70
    64
  3
13 =======================================
 72
    65
 73
     2
 40
4.0
 49
2.0
 74
     0
 49
-2.0
 74
     0
  0
LTYPE
  5
4AF
100
AcDbSymbolTableRecord
100
AcDbLinetypeTableRecord
  2
DASHDOT
 70
    64
  3
 __ . __ . __ . __ . __ . __ . __ . __ . __ . __
 72
    65
 73
     4
 40
10.0
 49
5.0
 74
     0
 49
-2.5
 74
     0
 49
0.0
 74
     0
 49
-2.5
 74
     0
  0
LTYPE
  5
4B0
100
AcDbSymbolTableRecord
100
AcDbLinetypeTableRecord
  2
CENTER
 70
    64
  3
 ____ _ ____ _ ____ _ ____ _ ____ _ ____ _ ____
 72
    65
 73
     4
 40
20.0
 49
12.5
 74
     0
 49
-2.5
 74
     0
 49
2.5
 74
     0
 49
-2.5
 74
     0
  0
LTYPE
  5
4B1
100
AcDbSymbolTableRecord
100
AcDbLinetypeTableRecord
  2
DASHEDX2
 70
    64
  3
____  ____  ____  ____  ____  ____  ____  ____
 72
    65
 73
     2
 40
3.75
 49
2.5
 74
     0
 49
-1.25
 74
     0
  0
LTYPE
  5
4B2
100
AcDbSymbolTableRecord
100
AcDbLinetypeTableRecord
  2
CADWORK_22
 70
    64
  3
22 =======================================
 72
    65
 73
     0
 40
0.0
  0
LTYPE
  5
4B3
100
AcDbSymbolTableRecord
100
AcDbLinetypeTableRecord
  2
DAL
 70
    64
  3
Solid line (for MAPS)
 72
    65
 73
     0
 40
0.0
  0
LTYPE
  5
4B4
100
AcDbSymbolTableRecord
100
AcDbLinetypeTableRecord
  2
MUR
 70
    64
  3
Solid line (for MAPS)
 72
    65
 73
     0
 40
0.0
  0
LTYPE
  5
4B5
100
AcDbSymbolTableRecord
100
AcDbLinetypeTableRecord
  2
SOM
 70
    64
  3
Solid line (for MAPS)
 72
    65
 73
     0
 40
0.0
  0
LTYPE
  5
4B6
100
AcDbSymbolTableRecord
100
AcDbLinetypeTableRecord
  2
COL
 70
    64
  3
Solid line (for MAPS)
 72
    65
 73
     0
 40
0.0
  0
LTYPE
  5
4B7
100
AcDbSymbolTableRecord
100
AcDbLinetypeTableRecord
  2
LGN
 70
    64
  3
Solid line (for MAPS)
 72
    65
 73
     0
 40
0.0
  0
LTYPE
  5
4B8
100
AcDbSymbolTableRecord
100
AcDbLinetypeTableRecord
  2
PNT
 70
    64
  3
Solid line (for MAPS)
 72
    65
 73
     0
 40
0.0
  0
ENDTAB
  0
TABLE
  2
LAYER
  5
4B9
100
AcDbSymbolTable
 70
    32
  0
LAYER
  5
4BA
100
AcDbSymbolTableRecord
100
AcDbLayerTableRecord
  2
Standard
 70
     0
 62
     7
  6
CONTINUOUS
370
    -3
  0
LAYER
  5
4BB
100
AcDbSymbolTableRecord
100
AcDbLayerTableRecord
  2
Ech.1_1
 70
     0
 62
     7
  6
CONTINUOUS
370
    -3
  0
LAYER
  5
4BC
100
AcDbSymbolTableRecord
100
AcDbLayerTableRecord
  2
Ech.1_2
 70
     0
 62
     7
  6
CONTINUOUS
370
    -3
  0
LAYER
  5
4BD
100
AcDbSymbolTableRecord
100
AcDbLayerTableRecord
  2
Ech.1_5
 70
     0
 62
     7
  6
CONTINUOUS
370
    -3
  0
LAYER
  5
4BE
100
AcDbSymbolTableRecord
100
AcDbLayerTableRecord
  2
Ech.1_10
 70
     0
 62
     7
  6
CONTINUOUS
370
    -3
  0
LAYER
  5
4BF
100
AcDbSymbolTableRecord
100
AcDbLayerTableRecord
  2
Ech.1_20
 70
     0
 62
     7
  6
CONTINUOUS
370
    -3
  0
LAYER
  5
4C0
100
AcDbSymbolTableRecord
100
AcDbLayerTableRecord
  2
Ech.1_25
 70
     0
 62
     7
  6
CONTINUOUS
370
    -3
  0
LAYER
  5
4C1
100
AcDbSymbolTableRecord
100
AcDbLayerTableRecord
  2
Ech.1_33
 70
     0
 62
     7
  6
CONTINUOUS
370
    -3
  0
LAYER
  5
4C2
100
AcDbSymbolTableRecord
100
AcDbLayerTableRecord
  2
Ech.1_50
 70
     0
 62
     7
  6
CONTINUOUS
370
    -3
  0
LAYER
  5
4C3
100
AcDbSymbolTableRecord
100
AcDbLayerTableRecord
  2
Ech.1_75
 70
     0
 62
     7
  6
CONTINUOUS
370
    -3
  0
LAYER
  5
4C4
100
AcDbSymbolTableRecord
100
AcDbLayerTableRecord
  2
Ech.1_100
 70
     0
 62
     7
  6
CONTINUOUS
370
    -3
  0
LAYER
  5
4C5
100
AcDbSymbolTableRecord
100
AcDbLayerTableRecord
  2
Ech.1_200
 70
     0
 62
     7
  6
CONTINUOUS
370
    -3
  0
LAYER
  5
4C6
100
AcDbSymbolTableRecord
100
AcDbLayerTableRecord
  2
Ech.1_500
 70
     0
 62
     7
  6
CONTINUOUS
370
    -3
  0
LAYER
  5
4C7
100
AcDbSymbolTableRecord
100
AcDbLayerTableRecord
  2
Ech.1_1000
 70
     0
 62
     7
  6
CONTINUOUS
370
    -3
  0
LAYER
  5
4C8
100
AcDbSymbolTableRecord
100
AcDbLayerTableRecord
  2
Cadres traceur
 70
     0
 62
     7
  6
CONTINUOUS
370
    18
  0
LAYER
  5
4C9
100
AcDbSymbolTableRecord
100
AcDbLayerTableRecord
  2
Cadres laser
 70
     0
 62
     7
  6
CONTINUOUS
370
    18
  0
LAYER
  5
4CA
100
AcDbSymbolTableRecord
100
AcDbLayerTableRecord
  2
Légende d_aide
 70
     0
 62
     7
  6
CONTINUOUS
370
    18
  0
LAYER
  5
4CB
100
AcDbSymbolTableRecord
100
AcDbLayerTableRecord
  2
hachures ok
 70
     0
 62
     7
  6
CONTINUOUS
370
    18
  0
LAYER
  5
4CC
100
AcDbSymbolTableRecord
100
AcDbLayerTableRecord
  2
ossature bois
 70
     0
 62
     7
  6
CONTINUOUS
370
    18
  0
LAYER
  5
4CD
100
AcDbSymbolTableRecord
100
AcDbLayerTableRecord
  2
VR
 70
     0
 62
     7
  6
CONTINUOUS
370
    25
  0
LAYER
  5
4CE
100
AcDbSymbolTableRecord
100
AcDbLayerTableRecord
  2
Calque1
 70
     0
 62
     7
  6
CONTINUOUS
370
     9
  0
LAYER
  5
4CF
100
AcDbSymbolTableRecord
100
AcDbLayerTableRecord
  2
0
 70
     0
 62
     7
  6
CONTINUOUS
370
    -3
  0
LAYER
  5
4D0
100
AcDbSymbolTableRecord
100
AcDbLayerTableRecord
  2
menuiserie
 70
     0
 62
     7
  6
CONTINUOUS
370
    -3
  0
LAYER
  5
4D1
100
AcDbSymbolTableRecord
100
AcDbLayerTableRecord
  2
cotation
 70
     0
 62
   250
  6
CONTINUOUS
370
     9
  0
LAYER
  5
4D2
100
AcDbSymbolTableRecord
100
AcDbLayerTableRecord
  2
Defpoints
 70
     0
 62
    10
  6
CONTINUOUS
370
    -3
  0
LAYER
  5
4D3
100
AcDbSymbolTableRecord
100
AcDbLayerTableRecord
  2
HACHURE
 70
     0
 62
   254
  6
CONTINUOUS
370
    25
  0
LAYER
  5
4D4
100
AcDbSymbolTableRecord
100
AcDbLayerTableRecord
  2
mat1
 70
     0
 62
     7
  6
CONTINUOUS
370
    30
  0
LAYER
  5
4D5
100
AcDbSymbolTableRecord
100
AcDbLayerTableRecord
  2
mat2
 70
     0
 62
     7
  6
CONTINUOUS
370
     5
  0
LAYER
  5
4D6
100
AcDbSymbolTableRecord
100
AcDbLayerTableRecord
  2
hach
 70
     0
 62
     8
  6
CONTINUOUS
370
     5
  0
LAYER
  5
4D7
100
AcDbSymbolTableRecord
100
AcDbLayerTableRecord
  2
menuiseries
 70
     0
 62
     7
  6
CONTINUOUS
370
     9
  0
LAYER
  5
4D8
100
AcDbSymbolTableRecord
100
AcDbLayerTableRecord
  2
BétonMétal
 70
     0
 62
     7
  6
CONTINUOUS
370
    80
  0
LAYER
  5
4D9
100
AcDbSymbolTableRecord
100
AcDbLayerTableRecord
  2
bois
 70
     0
 62
     7
  6
CONTINUOUS
370
    60
  0
ENDTAB
  0
TABLE
  2
VIEW
  5
4DA
100
AcDbSymbolTable
 70
     0
  0
ENDTAB
  0
TABLE
  2
UCS
  5
4DB
100
AcDbSymbolTable
 70
     0
  0
ENDTAB
  0
TABLE
  2
APPID
  5
4DC
100
AcDbSymbolTable
 70
     1
  0
APPID
  5
4DD
100
AcDbSymbolTableRecord
100
AcDbRegAppTableRecord
  2
ACAD
 70
     0
  0
ENDTAB
  0
TABLE
  2
DIMSTYLE
  5
4DE
100
AcDbSymbolTable
 70
     0
  0
ENDTAB
  0
TABLE
  2
BLOCK_RECORD
  5
4DF
100
AcDbSymbolTable
 70
     0
  0
BLOCK_RECORD
  5
4E0
100
AcDbSymbolTableRecord
100
AcDbBlockTableRecord
  2
*MODEL_SPACE
  0
BLOCK_RECORD
  5
4E1
100
AcDbSymbolTableRecord
100
AcDbBlockTableRecord
  2
*PAPER_SPACE
  0
BLOCK_RECORD
  5
4E2
100
AcDbSymbolTableRecord
100
AcDbBlockTableRecord
  2
CDWK_EXTR_0
  0
BLOCK_RECORD
  5
4E3
100
AcDbSymbolTableRecord
100
AcDbBlockTableRecord
  2
CDWK_EXTR_1D
  0
BLOCK_RECORD
  5
4E4
100
AcDbSymbolTableRecord
100
AcDbBlockTableRecord
  2
CDWK_EXTR_1G
  0
BLOCK_RECORD
  5
4E5
100
AcDbSymbolTableRecord
100
AcDbBlockTableRecord
  2
CDWK_EXTR_2
  0
BLOCK_RECORD
  5
4E6
100
AcDbSymbolTableRecord
100
AcDbBlockTableRecord
  2
CDWK_EXTR_3
  0
BLOCK_RECORD
  5
4E7
100
AcDbSymbolTableRecord
100
AcDbBlockTableRecord
  2
CDWK_EXTR_4
  0
BLOCK_RECORD
  5
4E8
100
AcDbSymbolTableRecord
100
AcDbBlockTableRecord
  2
CDWK_PTTYP0
  0
BLOCK_RECORD
  5
4E9
100
AcDbSymbolTableRecord
100
AcDbBlockTableRecord
  2
CDWK_PTTYP1
  0
BLOCK_RECORD
  5
4EA
100
AcDbSymbolTableRecord
100
AcDbBlockTableRecord
  2
CDWK_PTTYP2
  0
BLOCK_RECORD
  5
4EB
100
AcDbSymbolTableRecord
100
AcDbBlockTableRecord
  2
CDWK_PTTYP3
  0
BLOCK_RECORD
  5
4EC
100
AcDbSymbolTableRecord
100
AcDbBlockTableRecord
  2
CDWK_PTTYP4
  0
BLOCK_RECORD
  5
4ED
100
AcDbSymbolTableRecord
100
AcDbBlockTableRecord
  2
CDWK_PTTYP5
  0
BLOCK_RECORD
  5
4EE
100
AcDbSymbolTableRecord
100
AcDbBlockTableRecord
  2
CDWK_PTTYP6
  0
BLOCK_RECORD
  5
4EF
100
AcDbSymbolTableRecord
100
AcDbBlockTableRecord
  2
CDWK_PTTYP7
  0
BLOCK_RECORD
  5
4F0
100
AcDbSymbolTableRecord
100
AcDbBlockTableRecord
  2
CDWK_PTTYP8
  0
BLOCK_RECORD
  5
4F1
100
AcDbSymbolTableRecord
100
AcDbBlockTableRecord
  2
CDWK_PTTYP9
  0
BLOCK_RECORD
  5
4F2
100
AcDbSymbolTableRecord
100
AcDbBlockTableRecord
  2
CDWK_PTTYP10
  0
BLOCK_RECORD
  5
4F3
100
AcDbSymbolTableRecord
100
AcDbBlockTableRecord
  2
CDWK_PTTYP11
  0
BLOCK_RECORD
  5
4F4
100
AcDbSymbolTableRecord
100
AcDbBlockTableRecord
  2
CDWK_PTTYP12
  0
BLOCK_RECORD
  5
4F5
100
AcDbSymbolTableRecord
100
AcDbBlockTableRecord
  2
CDWK_PTTYP13
  0
BLOCK_RECORD
  5
4F6
100
AcDbSymbolTableRecord
100
AcDbBlockTableRecord
  2
CDWK_PTTYP14
  0
BLOCK_RECORD
  5
4F7
100
AcDbSymbolTableRecord
100
AcDbBlockTableRecord
  2
CDWK_PTTYP15
  0
BLOCK_RECORD
  5
4F8
100
AcDbSymbolTableRecord
100
AcDbBlockTableRecord
  2
CDWK_PTTYP16
  0
BLOCK_RECORD
  5
4F9
100
AcDbSymbolTableRecord
100
AcDbBlockTableRecord
  2
CDWK_PTTYP17
  0
BLOCK_RECORD
  5
4FA
100
AcDbSymbolTableRecord
100
AcDbBlockTableRecord
  2
CDWK_PTTYP18
  0
BLOCK_RECORD
  5
4FB
100
AcDbSymbolTableRecord
100
AcDbBlockTableRecord
  2
CDWK_PTTYP19
  0
BLOCK_RECORD
  5
4FC
100
AcDbSymbolTableRecord
100
AcDbBlockTableRecord
  2
CDWK_PTTYP20
  0
BLOCK_RECORD
  5
4FD
100
AcDbSymbolTableRecord
100
AcDbBlockTableRecord
  2
CDWK_PTTYP21
  0
BLOCK_RECORD
  5
4FE
100
AcDbSymbolTableRecord
100
AcDbBlockTableRecord
  2
CDWK_PTTYP22
  0
BLOCK_RECORD
  5
4FF
100
AcDbSymbolTableRecord
100
AcDbBlockTableRecord
  2
CDWK_PTTYP23
  0
BLOCK_RECORD
  5
500
100
AcDbSymbolTableRecord
100
AcDbBlockTableRecord
  2
CDWK_PTTYP24
  0
BLOCK_RECORD
  5
501
100
AcDbSymbolTableRecord
100
AcDbBlockTableRecord
  2
CDWK_PTTYP25
  0
BLOCK_RECORD
  5
502
100
AcDbSymbolTableRecord
100
AcDbBlockTableRecord
  2
CDWK_PTTYP26
  0
BLOCK_RECORD
  5
503
100
AcDbSymbolTableRecord
100
AcDbBlockTableRecord
  2
CDWK_PTTYP27
  0
BLOCK_RECORD
  5
504
100
AcDbSymbolTableRecord
100
AcDbBlockTableRecord
  2
CDWK_PTTYP28
  0
BLOCK_RECORD
  5
505
100
AcDbSymbolTableRecord
100
AcDbBlockTableRecord
  2
CDWK_PTTYP29
  0
BLOCK_RECORD
  5
506
100
AcDbSymbolTableRecord
100
AcDbBlockTableRecord
  2
CDWK_PTTYP30
  0
BLOCK_RECORD
  5
507
100
AcDbSymbolTableRecord
100
AcDbBlockTableRecord
  2
CDWK_PTTYP31
  0
BLOCK_RECORD
  5
508
100
AcDbSymbolTableRecord
100
AcDbBlockTableRecord
  2
CDWK_PTTYP32
  0
BLOCK_RECORD
  5
509
100
AcDbSymbolTableRecord
100
AcDbBlockTableRecord
  2
CDWK_PTTYP33
  0
BLOCK_RECORD
  5
50A
100
AcDbSymbolTableRecord
100
AcDbBlockTableRecord
  2
CDWK_PTTYP34
  0
BLOCK_RECORD
  5
50B
100
AcDbSymbolTableRecord
100
AcDbBlockTableRecord
  2
CDWK_PTTYP35
  0
BLOCK_RECORD
  5
50C
100
AcDbSymbolTableRecord
100
AcDbBlockTableRecord
  2
CDWK_PTTYP36
  0
BLOCK_RECORD
  5
50D
100
AcDbSymbolTableRecord
100
AcDbBlockTableRecord
  2
CDWK_PTTYP37
  0
BLOCK_RECORD
  5
50E
100
AcDbSymbolTableRecord
100
AcDbBlockTableRecord
  2
CDWK_PTTYP38
  0
BLOCK_RECORD
  5
50F
100
AcDbSymbolTableRecord
100
AcDbBlockTableRecord
  2
*X1
  0
BLOCK_RECORD
  5
510
100
AcDbSymbolTableRecord
100
AcDbBlockTableRecord
  2
*X2
  0
BLOCK_RECORD
  5
511
100
AcDbSymbolTableRecord
100
AcDbBlockTableRecord
  2
*X3
  0
BLOCK_RECORD
  5
512
100
AcDbSymbolTableRecord
100
AcDbBlockTableRecord
  2
*X4
  0
BLOCK_RECORD
  5
513
100
AcDbSymbolTableRecord
100
AcDbBlockTableRecord
  2
*X5
  0
BLOCK_RECORD
  5
514
100
AcDbSymbolTableRecord
100
AcDbBlockTableRecord
  2
*X6
  0
BLOCK_RECORD
  5
515
100
AcDbSymbolTableRecord
100
AcDbBlockTableRecord
  2
*D34
  0
BLOCK_RECORD
  5
516
100
AcDbSymbolTableRecord
100
AcDbBlockTableRecord
  2
*D35
  0
ENDTAB
  0
ENDSEC
  0
SECTION
  2
BLOCKS
  0
BLOCK
  5
517
100
AcDbEntity
  8
0
100
AcDbBlockBegin
  2
*MODEL_SPACE
 70
     0
 10
0.0
 20
0.0
 30
0.0
  3
*MODEL_SPACE
  1

  0
ENDBLK
  5
518
100
AcDbEntity
100
AcDbBlockEnd
  0
BLOCK
  5
519
100
AcDbEntity
  8
0
100
AcDbBlockBegin
  2
*PAPER_SPACE
 70
     0
 10
0.0
 20
0.0
 30
0.0
  3
*PAPER_SPACE
  1

  0
ENDBLK
  5
51A
100
AcDbEntity
100
AcDbBlockEnd
  0
BLOCK
  5
51B
100
AcDbEntity
  8
0
100
AcDbBlockBegin
  2
CDWK_EXTR_0
 70
     0
 10
0.0
 20
0.0
 30
0.0
  3
CDWK_EXTR_0
  1

  4
Cadwork line-extremity
  0
LINE
  5
51C
100
AcDbEntity
  8
0
 62
     0
370
    -2
100
AcDbLine
 10
0.0
 20
0.0
 30
0.0
 11
2.0
 21
0.5
 31
0.0
  0
LINE
  5
51D
100
AcDbEntity
  8
0
 62
     0
370
    -2
100
AcDbLine
 10
0.0
 20
0.0
 30
0.0
 11
2.0
 21
-0.5
 31
0.0
  0
LINE
  5
51E
100
AcDbEntity
  8
0
 62
     0
370
    -2
100
AcDbLine
 10
2.0
 20
0.5
 30
0.0
 11
2.0
 21
-0.5
 31
0.0
  0
ENDBLK
  5
51F
100
AcDbEntity
100
AcDbBlockEnd
  0
BLOCK
  5
520
100
AcDbEntity
  8
0
100
AcDbBlockBegin
  2
CDWK_EXTR_1D
 70
     0
 10
0.0
 20
0.0
 30
0.0
  3
CDWK_EXTR_1D
  1

  4
Cadwork line-extremity
  0
LINE
  5
521
100
AcDbEntity
  8
0
 62
     0
370
    -2
100
AcDbLine
 10
0.0
 20
0.0
 30
0.0
 11
0.0
 21
1.0
 31
0.0
  0
LINE
  5
522
100
AcDbEntity
  8
0
 62
     0
370
    -2
100
AcDbLine
 10
0.0
 20
1.0
 30
0.0
 11
0.5
 21
1.5
 31
0.0
  0
LINE
  5
523
100
AcDbEntity
  8
0
 62
     0
370
    -2
100
AcDbLine
 10
0.5
 20
1.5
 30
0.0
 11
1.5
 21
1.5
 31
0.0
  0
ENDBLK
  5
524
100
AcDbEntity
100
AcDbBlockEnd
  0
BLOCK
  5
525
100
AcDbEntity
  8
0
100
AcDbBlockBegin
  2
CDWK_EXTR_1G
 70
     0
 10
0.0
 20
0.0
 30
0.0
  3
CDWK_EXTR_1G
  1

  4
Cadwork line-extremity
  0
LINE
  5
526
100
AcDbEntity
  8
0
 62
     0
370
    -2
100
AcDbLine
 10
0.0
 20
0.0
 30
0.0
 11
0.0
 21
-1.0
 31
0.0
  0
LINE
  5
527
100
AcDbEntity
  8
0
 62
     0
370
    -2
100
AcDbLine
 10
0.0
 20
-1.0
 30
0.0
 11
0.5
 21
-1.5
 31
0.0
  0
LINE
  5
528
100
AcDbEntity
  8
0
 62
     0
370
    -2
100
AcDbLine
 10
0.5
 20
-1.5
 30
0.0
 11
1.5
 21
-1.5
 31
0.0
  0
ENDBLK
  5
529
100
AcDbEntity
100
AcDbBlockEnd
  0
BLOCK
  5
52A
100
AcDbEntity
  8
0
100
AcDbBlockBegin
  2
CDWK_EXTR_2
 70
     0
 10
0.0
 20
0.0
 30
0.0
  3
CDWK_EXTR_2
  1

  4
Cadwork line-extremity
  0
SOLID
  5
52B
100
AcDbEntity
  8
0
 62
     0
100
AcDbTrace
 10
0.0
 20
0.0
 11
2.0
 21
0.5
 12
2.0
 22
-0.5
 13
2.0
 23
-0.5
  0
ENDBLK
  5
52C
100
AcDbEntity
100
AcDbBlockEnd
  0
BLOCK
  5
52D
100
AcDbEntity
  8
0
100
AcDbBlockBegin
  2
CDWK_EXTR_3
 70
     0
 10
0.0
 20
0.0
 30
0.0
  3
CDWK_EXTR_3
  1

  4
Cadwork line-extremity
  0
SOLID
  5
52E
100
AcDbEntity
  8
0
 62
     0
100
AcDbTrace
 10
0.0
 20
0.0
 11
2.0
 21
0.5
 12
2.0
 22
-0.5
 13
2.0
 23
-0.5
  0
LINE
  5
52F
100
AcDbEntity
  8
0
 62
     0
370
    -2
100
AcDbLine
 10
0.0
 20
1.0
 30
0.0
 11
0.0
 21
-1.0
 31
0.0
  0
ENDBLK
  5
530
100
AcDbEntity
100
AcDbBlockEnd
  0
BLOCK
  5
531
100
AcDbEntity
  8
0
100
AcDbBlockBegin
  2
CDWK_EXTR_4
 70
     0
 10
0.0
 20
0.0
 30
0.0
  3
CDWK_EXTR_4
  1

  4
Cadwork line-extremity
  0
HATCH
  5
532
100
AcDbEntity
  8
0
 62
     0
370
    -2
100
AcDbHatch
 10
0.0
 20
0.0
 30
0.0
210
0.0
220
0.0
230
1.0
  2
SOLID
 70
     1
 71
     0
 91
        1
 92
        1
 93
        1
 72
     2
 10
0.0
 20
0.0
 40
0.5
 50
0.0
 51
360.0
 73
     1
 97
        0
 75
     0
 76
     1
 98
        1
 10
0.0
 20
0.0
  0
ENDBLK
  5
533
100
AcDbEntity
100
AcDbBlockEnd
  0
BLOCK
  5
534
100
AcDbEntity
  8
0
100
AcDbBlockBegin
  2
CDWK_PTTYP0
 70
     0
 10
0.0
 20
0.0
 30
0.0
  3
CDWK_PTTYP0
  1

  4
Cadwork point
  0
POINT
  5
535
100
AcDbEntity
  8
0
 62
     0
100
AcDbPoint
 10
0.0
 20
0.0
 30
0.0
  0
ENDBLK
  5
536
100
AcDbEntity
100
AcDbBlockEnd
  0
BLOCK
  5
537
100
AcDbEntity
  8
0
100
AcDbBlockBegin
  2
CDWK_PTTYP1
 70
     0
 10
0.0
 20
0.0
 30
0.0
  3
CDWK_PTTYP1
  1

  4
Cadwork node
  0
LINE
  5
538
100
AcDbEntity
  8
0
 62
     0
370
    -2
100
AcDbLine
 10
-0.5
 20
0.5
 30
0.0
 11
0.5
 21
0.5
 31
0.0
  0
LINE
  5
539
100
AcDbEntity
  8
0
 62
     0
370
    -2
100
AcDbLine
 10
0.5
 20
0.5
 30
0.0
 11
0.5
 21
-0.5
 31
0.0
  0
LINE
  5
53A
100
AcDbEntity
  8
0
 62
     0
370
    -2
100
AcDbLine
 10
0.5
 20
-0.5
 30
0.0
 11
-0.5
 21
-0.5
 31
0.0
  0
LINE
  5
53B
100
AcDbEntity
  8
0
 62
     0
370
    -2
100
AcDbLine
 10
-0.5
 20
-0.5
 30
0.0
 11
-0.5
 21
0.5
 31
0.0
  0
ENDBLK
  5
53C
100
AcDbEntity
100
AcDbBlockEnd
  0
BLOCK
  5
53D
100
AcDbEntity
  8
0
100
AcDbBlockBegin
  2
CDWK_PTTYP2
 70
     0
 10
0.0
 20
0.0
 30
0.0
  3
CDWK_PTTYP2
  1

  4
Cadwork node
  0
LINE
  5
53E
100
AcDbEntity
  8
0
 62
     0
370
    -2
100
AcDbLine
 10
0.0
 20
0.5
 30
0.0
 11
0.0
 21
-0.5
 31
0.0
  0
LINE
  5
53F
100
AcDbEntity
  8
0
 62
     0
370
    -2
100
AcDbLine
 10
-0.5
 20
0.0
 30
0.0
 11
0.5
 21
0.0
 31
0.0
  0
ENDBLK
  5
540
100
AcDbEntity
100
AcDbBlockEnd
  0
BLOCK
  5
541
100
AcDbEntity
  8
0
100
AcDbBlockBegin
  2
CDWK_PTTYP3
 70
     0
 10
0.0
 20
0.0
 30
0.0
  3
CDWK_PTTYP3
  1

  4
Cadwork node
  0
CIRCLE
  5
542
100
AcDbEntity
  8
0
 62
     0
370
    -2
100
AcDbCircle
 10
0.0
 20
0.0
 30
0.0
 40
0.5
  0
ENDBLK
  5
543
100
AcDbEntity
100
AcDbBlockEnd
  0
BLOCK
  5
544
100
AcDbEntity
  8
0
100
AcDbBlockBegin
  2
CDWK_PTTYP4
 70
     0
 10
0.0
 20
0.0
 30
0.0
  3
CDWK_PTTYP4
  1

  4
Cadwork node
  0
HATCH
  5
545
100
AcDbEntity
  8
0
 62
     0
370
    -2
100
AcDbHatch
 10
0.0
 20
0.0
 30
0.0
210
0.0
220
0.0
230
1.0
  2
SOLID
 70
     1
 71
     0
 91
        1
 92
        1
 93
        1
 72
     2
 10
0.0
 20
0.0
 40
0.5
 50
0.0
 51
360.0
 73
     1
 97
        0
 75
     0
 76
     1
 98
        1
 10
0.0
 20
0.0
  0
ENDBLK
  5
546
100
AcDbEntity
100
AcDbBlockEnd
  0
BLOCK
  5
547
100
AcDbEntity
  8
0
100
AcDbBlockBegin
  2
CDWK_PTTYP5
 70
     0
 10
0.0
 20
0.0
 30
0.0
  3
CDWK_PTTYP5
  1

  4
Cadwork node
  0
LINE
  5
548
100
AcDbEntity
  8
0
 62
     0
370
    -2
100
AcDbLine
 10
-0.5
 20
0.5
 30
0.0
 11
0.5
 21
0.5
 31
0.0
  0
LINE
  5
549
100
AcDbEntity
  8
0
 62
     0
370
    -2
100
AcDbLine
 10
0.5
 20
0.5
 30
0.0
 11
0.5
 21
-0.5
 31
0.0
  0
LINE
  5
54A
100
AcDbEntity
  8
0
 62
     0
370
    -2
100
AcDbLine
 10
0.5
 20
-0.5
 30
0.0
 11
-0.5
 21
-0.5
 31
0.0
  0
LINE
  5
54B
100
AcDbEntity
  8
0
 62
     0
370
    -2
100
AcDbLine
 10
-0.5
 20
-0.5
 30
0.0
 11
-0.5
 21
0.5
 31
0.0
  0
SOLID
  5
54C
100
AcDbEntity
  8
0
 62
     0
100
AcDbTrace
 10
-0.5
 20
-0.5
 11
-0.5
 21
0.0
 12
0.0
 22
-0.5
 13
0.0
 23
0.0
  0
SOLID
  5
54D
100
AcDbEntity
  8
0
 62
     0
100
AcDbTrace
 10
0.0
 20
0.0
 11
0.0
 21
0.5
 12
0.5
 22
0.0
 13
0.5
 23
0.5
  0
ENDBLK
  5
54E
100
AcDbEntity
100
AcDbBlockEnd
  0
BLOCK
  5
54F
100
AcDbEntity
  8
0
100
AcDbBlockBegin
  2
CDWK_PTTYP6
 70
     0
 10
0.0
 20
0.0
 30
0.0
  3
CDWK_PTTYP6
  1

  4
Cadwork node
  0
LINE
  5
550
100
AcDbEntity
  8
0
 62
     0
370
    -2
100
AcDbLine
 10
-0.5
 20
0.5
 30
0.0
 11
0.5
 21
0.5
 31
0.0
  0
LINE
  5
551
100
AcDbEntity
  8
0
 62
     0
370
    -2
100
AcDbLine
 10
0.5
 20
0.5
 30
0.0
 11
0.5
 21
-0.5
 31
0.0
  0
LINE
  5
552
100
AcDbEntity
  8
0
 62
     0
370
    -2
100
AcDbLine
 10
0.5
 20
-0.5
 30
0.0
 11
-0.5
 21
-0.5
 31
0.0
  0
LINE
  5
553
100
AcDbEntity
  8
0
 62
     0
370
    -2
100
AcDbLine
 10
-0.5
 20
-0.5
 30
0.0
 11
-0.5
 21
0.5
 31
0.0
  0
SOLID
  5
554
100
AcDbEntity
  8
0
 62
     0
100
AcDbTrace
 10
-0.5
 20
-0.5
 11
-0.5
 21
0.5
 12
0.5
 22
0.5
 13
0.5
 23
0.5
  0
ENDBLK
  5
555
100
AcDbEntity
100
AcDbBlockEnd
  0
BLOCK
  5
556
100
AcDbEntity
  8
0
100
AcDbBlockBegin
  2
CDWK_PTTYP7
 70
     0
 10
0.0
 20
0.0
 30
0.0
  3
CDWK_PTTYP7
  1

  4
Cadwork node
  0
LINE
  5
557
100
AcDbEntity
  8
0
 62
     0
370
    -2
100
AcDbLine
 10
-0.5
 20
0.5
 30
0.0
 11
0.5
 21
0.5
 31
0.0
  0
LINE
  5
558
100
AcDbEntity
  8
0
 62
     0
370
    -2
100
AcDbLine
 10
0.5
 20
0.5
 30
0.0
 11
0.5
 21
-0.5
 31
0.0
  0
LINE
  5
559
100
AcDbEntity
  8
0
 62
     0
370
    -2
100
AcDbLine
 10
0.5
 20
-0.5
 30
0.0
 11
-0.5
 21
-0.5
 31
0.0
  0
LINE
  5
55A
100
AcDbEntity
  8
0
 62
     0
370
    -2
100
AcDbLine
 10
-0.5
 20
-0.5
 30
0.0
 11
-0.5
 21
0.5
 31
0.0
  0
LINE
  5
55B
100
AcDbEntity
  8
0
 62
     0
370
    -2
100
AcDbLine
 10
0.0
 20
0.5
 30
0.0
 11
0.0
 21
-0.5
 31
0.0
  0
LINE
  5
55C
100
AcDbEntity
  8
0
 62
     0
370
    -2
100
AcDbLine
 10
-0.5
 20
0.0
 30
0.0
 11
0.5
 21
0.0
 31
0.0
  0
ENDBLK
  5
55D
100
AcDbEntity
100
AcDbBlockEnd
  0
BLOCK
  5
55E
100
AcDbEntity
  8
0
100
AcDbBlockBegin
  2
CDWK_PTTYP8
 70
     0
 10
0.0
 20
0.0
 30
0.0
  3
CDWK_PTTYP8
  1

  4
Cadwork node
  0
SOLID
  5
55F
100
AcDbEntity
  8
0
 62
     0
100
AcDbTrace
 10
-0.5
 20
0.5
 11
0.5
 21
0.5
 12
-0.5
 22
-0.5
 13
0.5
 23
-0.5
  0
ENDBLK
  5
560
100
AcDbEntity
100
AcDbBlockEnd
  0
BLOCK
  5
561
100
AcDbEntity
  8
0
100
AcDbBlockBegin
  2
CDWK_PTTYP9
 70
     0
 10
0.0
 20
0.0
 30
0.0
  3
CDWK_PTTYP9
  1

  4
Cadwork node
  0
CIRCLE
  5
562
100
AcDbEntity
  8
0
 62
     0
370
    -2
100
AcDbCircle
 10
0.0
 20
0.0
 30
0.0
 40
0.5
  0
CIRCLE
  5
563
100
AcDbEntity
  8
0
 62
     0
370
    -2
100
AcDbCircle
 10
0.0
 20
0.0
 30
0.0
 40
0.16666667
  0
ENDBLK
  5
564
100
AcDbEntity
100
AcDbBlockEnd
  0
BLOCK
  5
565
100
AcDbEntity
  8
0
100
AcDbBlockBegin
  2
CDWK_PTTYP10
 70
     0
 10
0.0
 20
0.0
 30
0.0
  3
CDWK_PTTYP10
  1

  4
Cadwork node
  0
CIRCLE
  5
566
100
AcDbEntity
  8
0
 62
     0
370
    -2
100
AcDbCircle
 10
0.0
 20
0.0
 30
0.0
 40
0.5
  0
ENDBLK
  5
567
100
AcDbEntity
100
AcDbBlockEnd
  0
BLOCK
  5
568
100
AcDbEntity
  8
0
100
AcDbBlockBegin
  2
CDWK_PTTYP11
 70
     0
 10
0.0
 20
0.0
 30
0.0
  3
CDWK_PTTYP11
  1

  4
Cadwork node
  0
CIRCLE
  5
569
100
AcDbEntity
  8
0
 62
     0
370
    -2
100
AcDbCircle
 10
0.0
 20
0.0
 30
0.0
 40
0.5
  0
CIRCLE
  5
56A
100
AcDbEntity
  8
0
 62
     0
370
    -2
100
AcDbCircle
 10
0.0
 20
0.0
 30
0.0
 40
0.25
  0
ENDBLK
  5
56B
100
AcDbEntity
100
AcDbBlockEnd
  0
BLOCK
  5
56C
100
AcDbEntity
  8
0
100
AcDbBlockBegin
  2
CDWK_PTTYP12
 70
     0
 10
0.0
 20
0.0
 30
0.0
  3
CDWK_PTTYP12
  1

  4
Cadwork node
  0
CIRCLE
  5
56D
100
AcDbEntity
  8
0
 62
     0
370
    -2
100
AcDbCircle
 10
0.0
 20
0.0
 30
0.0
 40
0.5
  0
CIRCLE
  5
56E
100
AcDbEntity
  8
0
 62
     0
370
    -2
100
AcDbCircle
 10
0.25
 20
0.0
 30
0.0
 40
0.25
  0
ENDBLK
  5
56F
100
AcDbEntity
100
AcDbBlockEnd
  0
BLOCK
  5
570
100
AcDbEntity
  8
0
100
AcDbBlockBegin
  2
CDWK_PTTYP13
 70
     0
 10
0.0
 20
0.0
 30
0.0
  3
CDWK_PTTYP13
  1

  4
Cadwork node
  0
CIRCLE
  5
571
100
AcDbEntity
  8
0
 62
     0
370
    -2
100
AcDbCircle
 10
0.0
 20
0.0
 30
0.0
 40
0.5
  0
CIRCLE
  5
572
100
AcDbEntity
  8
0
 62
     0
370
    -2
100
AcDbCircle
 10
0.25
 20
0.0
 30
0.0
 40
0.25
  0
CIRCLE
  5
573
100
AcDbEntity
  8
0
 62
     0
370
    -2
100
AcDbCircle
 10
-0.25
 20
0.0
 30
0.0
 40
0.25
  0
ENDBLK
  5
574
100
AcDbEntity
100
AcDbBlockEnd
  0
BLOCK
  5
575
100
AcDbEntity
  8
0
100
AcDbBlockBegin
  2
CDWK_PTTYP14
 70
     0
 10
0.0
 20
0.0
 30
0.0
  3
CDWK_PTTYP14
  1

  4
Cadwork node
  0
POINT
  5
576
100
AcDbEntity
  8
0
 62
     0
100
AcDbPoint
 10
0.0
 20
0.0
 30
0.0
  0
ENDBLK
  5
577
100
AcDbEntity
100
AcDbBlockEnd
  0
BLOCK
  5
578
100
AcDbEntity
  8
0
100
AcDbBlockBegin
  2
CDWK_PTTYP15
 70
     0
 10
0.0
 20
0.0
 30
0.0
  3
CDWK_PTTYP15
  1

  4
Cadwork node
  0
POINT
  5
579
100
AcDbEntity
  8
0
 62
     0
100
AcDbPoint
 10
0.0
 20
0.0
 30
0.0
  0
ENDBLK
  5
57A
100
AcDbEntity
100
AcDbBlockEnd
  0
BLOCK
  5
57B
100
AcDbEntity
  8
0
100
AcDbBlockBegin
  2
CDWK_PTTYP16
 70
     0
 10
0.0
 20
0.0
 30
0.0
  3
CDWK_PTTYP16
  1

  4
Cadwork node
  0
LINE
  5
57C
100
AcDbEntity
  8
0
 62
     0
370
    -2
100
AcDbLine
 10
-0.5
 20
-0.28867513
 30
0.0
 11
0.5
 21
-0.28867513
 31
0.0
  0
LINE
  5
57D
100
AcDbEntity
  8
0
 62
     0
370
    -2
100
AcDbLine
 10
0.5
 20
-0.28867513
 30
0.0
 11
0.0
 21
0.57735027
 31
0.0
  0
LINE
  5
57E
100
AcDbEntity
  8
0
 62
     0
370
    -2
100
AcDbLine
 10
0.0
 20
0.57735027
 30
0.0
 11
-0.5
 21
-0.28867513
 31
0.0
  0
CIRCLE
  5
57F
100
AcDbEntity
  8
0
 62
     0
370
    -2
100
AcDbCircle
 10
0.0
 20
0.0
 30
0.0
 40
0.28867513
  0
ENDBLK
  5
580
100
AcDbEntity
100
AcDbBlockEnd
  0
BLOCK
  5
581
100
AcDbEntity
  8
0
100
AcDbBlockBegin
  2
CDWK_PTTYP17
 70
     0
 10
0.0
 20
0.0
 30
0.0
  3
CDWK_PTTYP17
  1

  4
Cadwork node
  0
CIRCLE
  5
582
100
AcDbEntity
  8
0
 62
     0
370
    -2
100
AcDbCircle
 10
0.0
 20
0.0
 30
0.0
 40
0.5
  0
HATCH
  5
583
100
AcDbEntity
  8
0
 62
     0
370
    -2
100
AcDbHatch
 10
0.0
 20
0.0
 30
0.0
210
0.0
220
0.0
230
1.0
  2
SOLID
 70
     1
 71
     0
 91
        1
 92
        1
 93
        1
 72
     2
 10
0.0
 20
0.0
 40
0.25
 50
0.0
 51
360.0
 73
     1
 97
        0
 75
     0
 76
     1
 98
        1
 10
0.0
 20
0.0
  0
ENDBLK
  5
584
100
AcDbEntity
100
AcDbBlockEnd
  0
BLOCK
  5
585
100
AcDbEntity
  8
0
100
AcDbBlockBegin
  2
CDWK_PTTYP18
 70
     0
 10
0.0
 20
0.0
 30
0.0
  3
CDWK_PTTYP18
  1

  4
Cadwork node
  0
CIRCLE
  5
586
100
AcDbEntity
  8
0
 62
     0
370
    -2
100
AcDbCircle
 10
0.0
 20
0.0
 30
0.0
 40
0.5
  0
CIRCLE
  5
587
100
AcDbEntity
  8
0
 62
     0
370
    -2
100
AcDbCircle
 10
0.0
 20
0.0
 30
0.0
 40
0.2
  0
ENDBLK
  5
588
100
AcDbEntity
100
AcDbBlockEnd
  0
BLOCK
  5
589
100
AcDbEntity
  8
0
100
AcDbBlockBegin
  2
CDWK_PTTYP19
 70
     0
 10
0.0
 20
0.0
 30
0.0
  3
CDWK_PTTYP19
  1

  4
Cadwork node
  0
CIRCLE
  5
58A
100
AcDbEntity
  8
0
 62
     0
370
    -2
100
AcDbCircle
 10
0.0
 20
0.0
 30
0.0
 40
0.4
  0
CIRCLE
  5
58B
100
AcDbEntity
  8
0
 62
     0
370
    -2
100
AcDbCircle
 10
0.0
 20
0.0
 30
0.0
 40
0.25
  0
LINE
  5
58C
100
AcDbEntity
  8
0
 62
     0
370
    -2
100
AcDbLine
 10
-0.25
 20
0.0
 30
0.0
 11
0.25
 21
0.0
 31
0.0
  0
ENDBLK
  5
58D
100
AcDbEntity
100
AcDbBlockEnd
  0
BLOCK
  5
58E
100
AcDbEntity
  8
0
100
AcDbBlockBegin
  2
CDWK_PTTYP20
 70
     0
 10
0.0
 20
0.0
 30
0.0
  3
CDWK_PTTYP20
  1

  4
Cadwork node
  0
CIRCLE
  5
58F
100
AcDbEntity
  8
0
 62
     0
370
    -2
100
AcDbCircle
 10
0.0
 20
0.0
 30
0.0
 40
0.5
  0
CIRCLE
  5
590
100
AcDbEntity
  8
0
 62
     0
370
    -2
100
AcDbCircle
 10
0.0
 20
0.0
 30
0.0
 40
0.3
  0
ENDBLK
  5
591
100
AcDbEntity
100
AcDbBlockEnd
  0
BLOCK
  5
592
100
AcDbEntity
  8
0
100
AcDbBlockBegin
  2
CDWK_PTTYP21
 70
     0
 10
0.0
 20
0.0
 30
0.0
  3
CDWK_PTTYP21
  1

  4
Cadwork node
  0
CIRCLE
  5
593
100
AcDbEntity
  8
0
 62
     0
370
    -2
100
AcDbCircle
 10
0.0
 20
0.0
 30
0.0
 40
0.5
  0
LINE
  5
594
100
AcDbEntity
  8
0
 62
     0
370
    -2
100
AcDbLine
 10
-0.5
 20
0.0
 30
0.0
 11
0.5
 21
0.0
 31
0.0
  0
ENDBLK
  5
595
100
AcDbEntity
100
AcDbBlockEnd
  0
BLOCK
  5
596
100
AcDbEntity
  8
0
100
AcDbBlockBegin
  2
CDWK_PTTYP22
 70
     0
 10
0.0
 20
0.0
 30
0.0
  3
CDWK_PTTYP22
  1

  4
Cadwork node
  0
POINT
  5
597
100
AcDbEntity
  8
0
 62
     0
100
AcDbPoint
 10
0.0
 20
0.0
 30
0.0
  0
ENDBLK
  5
598
100
AcDbEntity
100
AcDbBlockEnd
  0
BLOCK
  5
599
100
AcDbEntity
  8
0
100
AcDbBlockBegin
  2
CDWK_PTTYP23
 70
     0
 10
0.0
 20
0.0
 30
0.0
  3
CDWK_PTTYP23
  1

  4
Cadwork node
  0
POINT
  5
59A
100
AcDbEntity
  8
0
 62
     0
100
AcDbPoint
 10
0.0
 20
0.0
 30
0.0
  0
ENDBLK
  5
59B
100
AcDbEntity
100
AcDbBlockEnd
  0
BLOCK
  5
59C
100
AcDbEntity
  8
0
100
AcDbBlockBegin
  2
CDWK_PTTYP24
 70
     0
 10
0.0
 20
0.0
 30
0.0
  3
CDWK_PTTYP24
  1

  4
Cadwork node
  0
POINT
  5
59D
100
AcDbEntity
  8
0
 62
     0
100
AcDbPoint
 10
0.0
 20
0.0
 30
0.0
  0
ENDBLK
  5
59E
100
AcDbEntity
100
AcDbBlockEnd
  0
BLOCK
  5
59F
100
AcDbEntity
  8
0
100
AcDbBlockBegin
  2
CDWK_PTTYP25
 70
     0
 10
0.0
 20
0.0
 30
0.0
  3
CDWK_PTTYP25
  1

  4
Cadwork node
  0
LINE
  5
5A0
100
AcDbEntity
  8
0
 62
     0
370
    -2
100
AcDbLine
 10
-0.43290044
 20
-0.25
 30
0.0
 11
0.43290044
 21
-0.25
 31
0.0
  0
LINE
  5
5A1
100
AcDbEntity
  8
0
 62
     0
370
    -2
100
AcDbLine
 10
-0.43290044
 20
-0.25
 30
0.0
 11
0.0
 21
0.5
 31
0.0
  0
LINE
  5
5A2
100
AcDbEntity
  8
0
 62
     0
370
    -2
100
AcDbLine
 10
0.43290044
 20
-0.25
 30
0.0
 11
0.0
 21
0.5
 31
0.0
  0
CIRCLE
  5
5A3
100
AcDbEntity
  8
0
 62
     0
370
    -2
100
AcDbCircle
 10
0.0
 20
0.0
 30
0.0
 40
0.5
  0
ENDBLK
  5
5A4
100
AcDbEntity
100
AcDbBlockEnd
  0
BLOCK
  5
5A5
100
AcDbEntity
  8
0
100
AcDbBlockBegin
  2
CDWK_PTTYP26
 70
     0
 10
0.0
 20
0.0
 30
0.0
  3
CDWK_PTTYP26
  1

  4
Cadwork node
  0
LINE
  5
5A6
100
AcDbEntity
  8
0
 62
     0
370
    -2
100
AcDbLine
 10
-0.5
 20
-0.28850001
 30
0.0
 11
0.5
 21
-0.28850001
 31
0.0
  0
LINE
  5
5A7
100
AcDbEntity
  8
0
 62
     0
370
    -2
100
AcDbLine
 10
-0.5
 20
-0.28850001
 30
0.0
 11
0.0
 21
0.57736721
 31
0.0
  0
LINE
  5
5A8
100
AcDbEntity
  8
0
 62
     0
370
    -2
100
AcDbLine
 10
0.5
 20
-0.28850001
 30
0.0
 11
0.0
 21
0.57736721
 31
0.0
  0
CIRCLE
  5
5A9
100
AcDbEntity
  8
0
 62
     0
370
    -2
100
AcDbCircle
 10
0.0
 20
0.0
 30
0.0
 40
0.1312336
  0
ENDBLK
  5
5AA
100
AcDbEntity
100
AcDbBlockEnd
  0
BLOCK
  5
5AB
100
AcDbEntity
  8
0
100
AcDbBlockBegin
  2
CDWK_PTTYP27
 70
     0
 10
0.0
 20
0.0
 30
0.0
  3
CDWK_PTTYP27
  1

  4
Cadwork node
  0
LINE
  5
5AC
100
AcDbEntity
  8
0
 62
     0
370
    -2
100
AcDbLine
 10
-0.43290044
 20
-0.25
 30
0.0
 11
0.43290044
 21
-0.25
 31
0.0
  0
LINE
  5
5AD
100
AcDbEntity
  8
0
 62
     0
370
    -2
100
AcDbLine
 10
-0.43290044
 20
-0.25
 30
0.0
 11
0.0
 21
0.5
 31
0.0
  0
LINE
  5
5AE
100
AcDbEntity
  8
0
 62
     0
370
    -2
100
AcDbLine
 10
0.43290044
 20
-0.25
 30
0.0
 11
0.0
 21
0.5
 31
0.0
  0
CIRCLE
  5
5AF
100
AcDbEntity
  8
0
 62
     0
370
    -2
100
AcDbCircle
 10
0.0
 20
0.0
 30
0.0
 40
0.5
  0
CIRCLE
  5
5B0
100
AcDbEntity
  8
0
 62
     0
370
    -2
100
AcDbCircle
 10
0.0
 20
0.0
 30
0.0
 40
0.1312336
  0
ENDBLK
  5
5B1
100
AcDbEntity
100
AcDbBlockEnd
  0
BLOCK
  5
5B2
100
AcDbEntity
  8
0
100
AcDbBlockBegin
  2
CDWK_PTTYP28
 70
     0
 10
0.0
 20
0.0
 30
0.0
  3
CDWK_PTTYP28
  1

  4
Cadwork node
  0
POINT
  5
5B3
100
AcDbEntity
  8
0
 62
     0
100
AcDbPoint
 10
0.0
 20
0.0
 30
0.0
  0
ENDBLK
  5
5B4
100
AcDbEntity
100
AcDbBlockEnd
  0
BLOCK
  5
5B5
100
AcDbEntity
  8
0
100
AcDbBlockBegin
  2
CDWK_PTTYP29
 70
     0
 10
0.0
 20
0.0
 30
0.0
  3
CDWK_PTTYP29
  1

  4
Cadwork node
  0
CIRCLE
  5
5B6
100
AcDbEntity
  8
0
 62
     0
370
    -2
100
AcDbCircle
 10
0.0
 20
0.0
 30
0.0
 40
0.5
  0
CIRCLE
  5
5B7
100
AcDbEntity
  8
0
 62
     0
370
    -2
100
AcDbCircle
 10
0.0
 20
0.0
 30
0.0
 40
0.375
  0
CIRCLE
  5
5B8
100
AcDbEntity
  8
0
 62
     0
370
    -2
100
AcDbCircle
 10
0.0
 20
0.0
 30
0.0
 40
0.21875
  0
ENDBLK
  5
5B9
100
AcDbEntity
100
AcDbBlockEnd
  0
BLOCK
  5
5BA
100
AcDbEntity
  8
0
100
AcDbBlockBegin
  2
CDWK_PTTYP30
 70
     0
 10
0.0
 20
0.0
 30
0.0
  3
CDWK_PTTYP30
  1

  4
Cadwork node
  0
LINE
  5
5BB
100
AcDbEntity
  8
0
 62
     0
370
    -2
100
AcDbLine
 10
0.17680339
 20
0.17680339
 30
0.0
 11
0.5
 21
0.5
 31
0.0
  0
LINE
  5
5BC
100
AcDbEntity
  8
0
 62
     0
370
    -2
100
AcDbLine
 10
-0.17680339
 20
0.17680339
 30
0.0
 11
-0.5
 21
0.5
 31
0.0
  0
LINE
  5
5BD
100
AcDbEntity
  8
0
 62
     0
370
    -2
100
AcDbLine
 10
0.17680339
 20
-0.17680339
 30
0.0
 11
0.5
 21
-0.5
 31
0.0
  0
LINE
  5
5BE
100
AcDbEntity
  8
0
 62
     0
370
    -2
100
AcDbLine
 10
-0.17680339
 20
-0.17680339
 30
0.0
 11
-0.5
 21
-0.5
 31
0.0
  0
ENDBLK
  5
5BF
100
AcDbEntity
100
AcDbBlockEnd
  0
BLOCK
  5
5C0
100
AcDbEntity
  8
0
100
AcDbBlockBegin
  2
CDWK_PTTYP31
 70
     0
 10
0.0
 20
0.0
 30
0.0
  3
CDWK_PTTYP31
  1

  4
Cadwork node
  0
CIRCLE
  5
5C1
100
AcDbEntity
  8
0
 62
     0
370
    -2
100
AcDbCircle
 10
0.0
 20
0.0
 30
0.0
 40
0.075
  0
LINE
  5
5C2
100
AcDbEntity
  8
0
 62
     0
370
    -2
100
AcDbLine
 10
0.075
 20
0.0
 30
0.0
 11
0.5
 21
0.0
 31
0.0
  0
LINE
  5
5C3
100
AcDbEntity
  8
0
 62
     0
370
    -2
100
AcDbLine
 10
-0.075
 20
0.0
 30
0.0
 11
-0.5
 21
0.0
 31
0.0
  0
LINE
  5
5C4
100
AcDbEntity
  8
0
 62
     0
370
    -2
100
AcDbLine
 10
0.0
 20
0.075
 30
0.0
 11
0.0
 21
0.5
 31
0.0
  0
LINE
  5
5C5
100
AcDbEntity
  8
0
 62
     0
370
    -2
100
AcDbLine
 10
0.0
 20
-0.075
 30
0.0
 11
0.0
 21
-0.5
 31
0.0
  0
ENDBLK
  5
5C6
100
AcDbEntity
100
AcDbBlockEnd
  0
BLOCK
  5
5C7
100
AcDbEntity
  8
0
100
AcDbBlockBegin
  2
CDWK_PTTYP32
 70
     0
 10
0.0
 20
0.0
 30
0.0
  3
CDWK_PTTYP32
  1

  4
Cadwork node
  0
CIRCLE
  5
5C8
100
AcDbEntity
  8
0
 62
     0
370
    -2
100
AcDbCircle
 10
0.0
 20
0.0
 30
0.0
 40
0.5
  0
CIRCLE
  5
5C9
100
AcDbEntity
  8
0
 62
     0
370
    -2
100
AcDbCircle
 10
0.0
 20
0.0
 30
0.0
 40
0.16666667
  0
LINE
  5
5CA
100
AcDbEntity
  8
0
 62
     0
370
    -2
100
AcDbLine
 10
0.11786893
 20
0.11786893
 30
0.0
 11
0.35360678
 21
0.35360678
 31
0.0
  0
LINE
  5
5CB
100
AcDbEntity
  8
0
 62
     0
370
    -2
100
AcDbLine
 10
-0.11786893
 20
0.11786893
 30
0.0
 11
-0.35360678
 21
0.35360678
 31
0.0
  0
LINE
  5
5CC
100
AcDbEntity
  8
0
 62
     0
370
    -2
100
AcDbLine
 10
0.11786893
 20
-0.11786893
 30
0.0
 11
0.35360678
 21
-0.35360678
 31
0.0
  0
LINE
  5
5CD
100
AcDbEntity
  8
0
 62
     0
370
    -2
100
AcDbLine
 10
-0.11786893
 20
-0.11786893
 30
0.0
 11
-0.35360678
 21
-0.35360678
 31
0.0
  0
ENDBLK
  5
5CE
100
AcDbEntity
100
AcDbBlockEnd
  0
BLOCK
  5
5CF
100
AcDbEntity
  8
0
100
AcDbBlockBegin
  2
CDWK_PTTYP33
 70
     0
 10
0.0
 20
0.0
 30
0.0
  3
CDWK_PTTYP33
  1

  4
Cadwork node
  0
CIRCLE
  5
5D0
100
AcDbEntity
  8
0
 62
     0
370
    -2
100
AcDbCircle
 10
0.0
 20
0.0
 30
0.0
 40
0.5
  0
LINE
  5
5D1
100
AcDbEntity
  8
0
 62
     0
370
    -2
100
AcDbLine
 10
0.0
 20
0.5
 30
0.0
 11
0.0
 21
-0.5
 31
0.0
  0
LINE
  5
5D2
100
AcDbEntity
  8
0
 62
     0
370
    -2
100
AcDbLine
 10
-0.5
 20
0.0
 30
0.0
 11
0.5
 21
0.0
 31
0.0
  0
ENDBLK
  5
5D3
100
AcDbEntity
100
AcDbBlockEnd
  0
BLOCK
  5
5D4
100
AcDbEntity
  8
0
100
AcDbBlockBegin
  2
CDWK_PTTYP34
 70
     0
 10
0.0
 20
0.0
 30
0.0
  3
CDWK_PTTYP34
  1

  4
Cadwork node
  0
CIRCLE
  5
5D5
100
AcDbEntity
  8
0
 62
     0
370
    -2
100
AcDbCircle
 10
0.0
 20
0.0
 30
0.0
 40
0.5
  0
LINE
  5
5D6
100
AcDbEntity
  8
0
 62
     0
370
    -2
100
AcDbLine
 10
-0.30360678
 20
-0.40360678
 30
0.0
 11
0.40360678
 21
0.30360678
 31
0.0
  0
LINE
  5
5D7
100
AcDbEntity
  8
0
 62
     0
370
    -2
100
AcDbLine
 10
-0.40360678
 20
-0.30360678
 30
0.0
 11
0.30360678
 21
0.40360678
 31
0.0
  0
ENDBLK
  5
5D8
100
AcDbEntity
100
AcDbBlockEnd
  0
BLOCK
  5
5D9
100
AcDbEntity
  8
0
100
AcDbBlockBegin
  2
CDWK_PTTYP35
 70
     0
 10
0.0
 20
0.0
 30
0.0
  3
CDWK_PTTYP35
  1

  4
Cadwork node
  0
CIRCLE
  5
5DA
100
AcDbEntity
  8
0
 62
     0
370
    -2
100
AcDbCircle
 10
0.0
 20
0.0
 30
0.0
 40
0.21431634
  0
LINE
  5
5DB
100
AcDbEntity
  8
0
 62
     0
370
    -2
100
AcDbLine
 10
0.0
 20
0.21431634
 30
0.0
 11
0.0
 21
0.5
 31
0.0
  0
LINE
  5
5DC
100
AcDbEntity
  8
0
 62
     0
370
    -2
100
AcDbLine
 10
0.0
 20
-0.21431634
 30
0.0
 11
0.0
 21
-0.5
 31
0.0
  0
ENDBLK
  5
5DD
100
AcDbEntity
100
AcDbBlockEnd
  0
BLOCK
  5
5DE
100
AcDbEntity
  8
0
100
AcDbBlockBegin
  2
CDWK_PTTYP36
 70
     0
 10
0.0
 20
0.0
 30
0.0
  3
CDWK_PTTYP36
  1

  4
Cadwork node
  0
LINE
  5
5DF
100
AcDbEntity
  8
0
 62
     0
370
    -2
100
AcDbLine
 10
-0.5
 20
-0.16666667
 30
0.0
 11
0.5
 21
-0.16666667
 31
0.0
  0
LINE
  5
5E0
100
AcDbEntity
  8
0
 62
     0
370
    -2
100
AcDbLine
 10
0.5
 20
-0.16666667
 30
0.0
 11
0.5
 21
0.16666667
 31
0.0
  0
LINE
  5
5E1
100
AcDbEntity
  8
0
 62
     0
370
    -2
100
AcDbLine
 10
0.5
 20
0.16666667
 30
0.0
 11
-0.5
 21
0.16666667
 31
0.0
  0
LINE
  5
5E2
100
AcDbEntity
  8
0
 62
     0
370
    -2
100
AcDbLine
 10
-0.5
 20
0.16666667
 30
0.0
 11
-0.5
 21
-0.16666667
 31
0.0
  0
SOLID
  5
5E3
100
AcDbEntity
  8
0
 62
     0
100
AcDbTrace
 10
-0.5
 20
-0.16666667
 11
0.5
 21
0.16666667
 12
0.5
 22
-0.16666667
 13
0.5
 23
-0.16666667
  0
ENDBLK
  5
5E4
100
AcDbEntity
100
AcDbBlockEnd
  0
BLOCK
  5
5E5
100
AcDbEntity
  8
0
100
AcDbBlockBegin
  2
CDWK_PTTYP37
 70
     0
 10
0.0
 20
0.0
 30
0.0
  3
CDWK_PTTYP37
  1

  4
Cadwork node
  0
CIRCLE
  5
5E6
100
AcDbEntity
  8
0
 62
     0
370
    -2
100
AcDbCircle
 10
0.0
 20
0.0
 30
0.0
 40
0.5
  0
SOLID
  5
5E7
100
AcDbEntity
  8
0
 62
     0
100
AcDbTrace
 10
0.0
 20
0.0
 11
0.35350001
 21
0.35350001
 12
0.5
 22
0.0
 13
0.46200001
 23
0.19149999
  0
SOLID
  5
5E8
100
AcDbEntity
  8
0
 62
     0
100
AcDbTrace
 10
0.0
 20
0.0
 11
0.35350001
 21
-0.35350001
 12
0.5
 22
0.0
 13
0.46200001
 23
-0.19149999
  0
SOLID
  5
5E9
100
AcDbEntity
  8
0
 62
     0
100
AcDbTrace
 10
0.0
 20
0.0
 11
0.0
 21
-0.5
 12
0.35350001
 22
-0.35350001
 13
0.19149999
 23
-0.46200001
  0
SOLID
  5
5EA
100
AcDbEntity
  8
0
 62
     0
100
AcDbTrace
 10
0.0
 20
0.0
 11
0.0
 21
-0.5
 12
-0.35350001
 22
-0.35350001
 13
-0.19149999
 23
-0.46200001
  0
ENDBLK
  5
5EB
100
AcDbEntity
100
AcDbBlockEnd
  0
BLOCK
  5
5EC
100
AcDbEntity
  8
0
100
AcDbBlockBegin
  2
CDWK_PTTYP38
 70
     0
 10
0.0
 20
0.0
 30
0.0
  3
CDWK_PTTYP38
  1

  4
Cadwork node
  0
CIRCLE
  5
5ED
100
AcDbEntity
  8
0
 62
     0
370
    -2
100
AcDbCircle
 10
0.0
 20
0.0
 30
0.0
 40
0.5
  0
SOLID
  5
5EE
100
AcDbEntity
  8
0
 62
     0
100
AcDbTrace
 10
0.0
 20
0.0
 11
0.35350001
 21
0.35350001
 12
0.0
 22
0.5
 13
0.19149999
 23
0.46200001
  0
SOLID
  5
5EF
100
AcDbEntity
  8
0
 62
     0
100
AcDbTrace
 10
0.0
 20
0.0
 11
0.5
 21
0.0
 12
0.35350001
 22
0.35350001
 13
0.46200001
 23
0.19149999
  0
SOLID
  5
5F0
100
AcDbEntity
  8
0
 62
     0
100
AcDbTrace
 10
0.0
 20
0.0
 11
0.0
 21
-0.5
 12
-0.35350001
 22
-0.35350001
 13
-0.19149999
 23
-0.46200001
  0
SOLID
  5
5F1
100
AcDbEntity
  8
0
 62
     0
100
AcDbTrace
 10
0.0
 20
0.0
 11
-0.5
 21
0.0
 12
-0.35350001
 22
-0.35350001
 13
-0.46200001
 23
-0.19149999
  0
ENDBLK
  5
5F2
100
AcDbEntity
100
AcDbBlockEnd
  0
BLOCK
  5
5F3
100
AcDbEntity
  8
Ech.1_5
100
AcDbBlockBegin
  2
*X1
 70
     1
 10
0.0
 20
0.0
 30
0.0
  3
*X1
  1

  4
Cadwork hatch
  0
LINE
  5
5F4
100
AcDbEntity
  8
Ech.1_5
 62
   190
  6
CONTINUOUS
370
    -2
100
AcDbLine
 10
51820.0929216
 20
-8611.1712462
 30
0.0
 11
51775.08754761
 21
-8791.17131104
 31
0.0
  0
LINE
  5
5F5
100
AcDbEntity
  8
Ech.1_5
 62
   190
  6
CONTINUOUS
370
    -2
100
AcDbLine
 10
51775.08754761
 20
-8611.1712462
 30
0.0
 11
51820.0929216
 21
-8791.17131104
 31
0.0
  0
ENDBLK
  5
5F6
100
AcDbEntity
100
AcDbBlockEnd
  0
BLOCK
  5
5F7
100
AcDbEntity
  8
Ech.1_5
100
AcDbBlockBegin
  2
*X2
 70
     1
 10
0.0
 20
0.0
 30
0.0
  3
*X2
  1

  4
Cadwork hatch
  0
LINE
  5
5F8
100
AcDbEntity
  8
Ech.1_5
 62
   190
  6
CONTINUOUS
370
    -2
100
AcDbLine
 10
51865.08877065
 20
-8611.1712462
 30
0.0
 11
51820.0929216
 21
-8791.17131104
 31
0.0
  0
LINE
  5
5F9
100
AcDbEntity
  8
Ech.1_5
 62
   190
  6
CONTINUOUS
370
    -2
100
AcDbLine
 10
51820.0929216
 20
-8611.1712462
 30
0.0
 11
51865.08877065
 21
-8791.17131104
 31
0.0
  0
ENDBLK
  5
5FA
100
AcDbEntity
100
AcDbBlockEnd
  0
BLOCK
  5
5FB
100
AcDbEntity
  8
Ech.1_5
100
AcDbBlockBegin
  2
*X3
 70
     1
 10
0.0
 20
0.0
 30
0.0
  3
*X3
  1

  4
Cadwork hatch
  0
LINE
  5
5FC
100
AcDbEntity
  8
Ech.1_5
 62
   190
  6
CONTINUOUS
370
    -2
100
AcDbLine
 10
51865.08877065
 20
-8800.1700046
 30
0.0
 11
51815.08756202
 21
-8825.17060892
 31
0.0
  0
LINE
  5
5FD
100
AcDbEntity
  8
Ech.1_5
 62
   190
  6
CONTINUOUS
370
    -2
100
AcDbLine
 10
51815.08756202
 20
-8800.1700046
 30
0.0
 11
51865.08877065
 21
-8825.17060892
 31
0.0
  0
ENDBLK
  5
5FE
100
AcDbEntity
100
AcDbBlockEnd
  0
BLOCK
  5
5FF
100
AcDbEntity
  8
Ech.1_5
100
AcDbBlockBegin
  2
*X4
 70
     1
 10
0.0
 20
0.0
 30
0.0
  3
*X4
  1

  4
Cadwork hatch
  0
LINE
  5
600
100
AcDbEntity
  8
Ech.1_5
 62
   190
  6
CONTINUOUS
370
    -2
100
AcDbLine
 10
52248.73458095
 20
-8611.1712462
 30
0.0
 11
52293.73519247
 21
-8791.17131104
 31
0.0
  0
LINE
  5
601
100
AcDbEntity
  8
Ech.1_5
 62
   190
  6
CONTINUOUS
370
    -2
100
AcDbLine
 10
52293.73519247
 20
-8611.1712462
 30
0.0
 11
52248.73458095
 21
-8791.17131104
 31
0.0
  0
ENDBLK
  5
602
100
AcDbEntity
100
AcDbBlockEnd
  0
BLOCK
  5
603
100
AcDbEntity
  8
Ech.1_5
100
AcDbBlockBegin
  2
*X5
 70
     1
 10
0.0
 20
0.0
 30
0.0
  3
*X5
  1

  4
Cadwork hatch
  0
LINE
  5
604
100
AcDbEntity
  8
Ech.1_5
 62
   190
  6
CONTINUOUS
370
    -2
100
AcDbLine
 10
52203.73396943
 20
-8611.1712462
 30
0.0
 11
52248.73458095
 21
-8791.17131104
 31
0.0
  0
LINE
  5
605
100
AcDbEntity
  8
Ech.1_5
 62
   190
  6
CONTINUOUS
370
    -2
100
AcDbLine
 10
52248.73458095
 20
-8611.1712462
 30
0.0
 11
52203.73396943
 21
-8791.17131104
 31
0.0
  0
ENDBLK
  5
606
100
AcDbEntity
100
AcDbBlockEnd
  0
BLOCK
  5
607
100
AcDbEntity
  8
Ech.1_5
100
AcDbBlockBegin
  2
*X6
 70
     1
 10
0.0
 20
0.0
 30
0.0
  3
*X6
  1

  4
Cadwork hatch
  0
LINE
  5
608
100
AcDbEntity
  8
Ech.1_5
 62
   190
  6
CONTINUOUS
370
    -2
100
AcDbLine
 10
52203.73396943
 20
-8800.1700046
 30
0.0
 11
52253.73517806
 21
-8825.17060892
 31
0.0
  0
LINE
  5
609
100
AcDbEntity
  8
Ech.1_5
 62
   190
  6
CONTINUOUS
370
    -2
100
AcDbLine
 10
52253.73517806
 20
-8800.1700046
 30
0.0
 11
52203.73396943
 21
-8825.17060892
 31
0.0
  0
ENDBLK
  5
60A
100
AcDbEntity
100
AcDbBlockEnd
  0
BLOCK
  5
60B
100
AcDbEntity
  8
Ech.1_5
100
AcDbBlockBegin
  2
*D34
 70
     1
 10
0.0
 20
0.0
 30
0.0
  3
*D34
  1

  4
Cadwork dimension
  0
TEXT
  5
60C
100
AcDbEntity
  8
Ech.1_5
 62
   190
370
    18
100
AcDbText
 10
52289.47921481
 20
-8569.5449979
 30
0.0
 40
12.5
  1
200mm min
  7
ARIAL
 50
0.0
 41
1.0
 51
0.0
100
AcDbText
  0
LINE
  5
60D
100
AcDbEntity
  8
Ech.1_5
 62
   190
370
    -2
100
AcDbLine
 10
52203.73435225
 20
-8569.5449979
 30
0.0
 11
52203.73435225
 21
-8576.16983932
 31
0.0
  0
LINE
  5
60E
100
AcDbEntity
  8
Ech.1_5
 62
   190
370
    -2
100
AcDbLine
 10
52403.73435225
 20
-8569.5449979
 30
0.0
 11
52403.73435225
 21
-8576.17202781
 31
0.0
  0
LINE
  5
60F
100
AcDbEntity
  8
Ech.1_5
 62
   190
370
    -2
100
AcDbLine
 10
52198.73435225
 20
-8574.5449979
 30
0.0
 11
52408.73435225
 21
-8574.5449979
 31
0.0
  0
LINE
  5
610
100
AcDbEntity
  8
Ech.1_5
 62
   190
370
    -2
100
AcDbLine
 10
52201.23435225
 20
-8577.0449979
 30
0.0
 11
52206.23435225
 21
-8572.0449979
 31
0.0
  0
LINE
  5
611
100
AcDbEntity
  8
Ech.1_5
 62
   190
370
    -2
100
AcDbLine
 10
52401.23435225
 20
-8577.0449979
 30
0.0
 11
52406.23435225
 21
-8572.0449979
 31
0.0
  0
ENDBLK
  5
612
100
AcDbEntity
100
AcDbBlockEnd
  0
BLOCK
  5
613
100
AcDbEntity
  8
Ech.1_5
100
AcDbBlockBegin
  2
*D35
 70
     1
 10
0.0
 20
0.0
 30
0.0
  3
*D35
  1

  4
Cadwork dimension
  0
TEXT
  5
614
100
AcDbEntity
  8
Ech.1_5
 62
   190
370
    18
100
AcDbText
 10
51750.83399734
 20
-8569.5449979
 30
0.0
 40
12.5
  1
200mm min
  7
ARIAL
 50
0.0
 41
1.0
 51
0.0
100
AcDbText
  0
LINE
  5
615
100
AcDbEntity
  8
Ech.1_5
 62
   190
370
    -2
100
AcDbLine
 10
51665.08913478
 20
-8569.5449979
 30
0.0
 11
51665.08913478
 21
-8576.16983932
 31
0.0
  0
LINE
  5
616
100
AcDbEntity
  8
Ech.1_5
 62
   190
370
    -2
100
AcDbLine
 10
51865.08913478
 20
-8569.5449979
 30
0.0
 11
51865.08913478
 21
-8576.17202781
 31
0.0
  0
LINE
  5
617
100
AcDbEntity
  8
Ech.1_5
 62
   190
370
    -2
100
AcDbLine
 10
51660.08913478
 20
-8574.5449979
 30
0.0
 11
51870.08913478
 21
-8574.5449979
 31
0.0
  0
LINE
  5
618
100
AcDbEntity
  8
Ech.1_5
 62
   190
370
    -2
100
AcDbLine
 10
51662.58913478
 20
-8577.0449979
 30
0.0
 11
51667.58913478
 21
-8572.0449979
 31
0.0
  0
LINE
  5
619
100
AcDbEntity
  8
Ech.1_5
 62
   190
370
    -2
100
AcDbLine
 10
51862.58913478
 20
-8577.0449979
 30
0.0
 11
51867.58913478
 21
-8572.0449979
 31
0.0
  0
ENDBLK
  5
61A
100
AcDbEntity
100
AcDbBlockEnd
  0
ENDSEC
  0
SECTION
  2
ENTITIES
  0
INSERT
  5
61B
100
AcDbEntity
  8
Ech.1_5
 62
     0
100
AcDbBlockReference
  2
*X1
 10
0.0
 20
0.0
 30
0.0
  0
INSERT
  5
61C
100
AcDbEntity
  8
Ech.1_5
 62
     0
100
AcDbBlockReference
  2
*X2
 10
0.0
 20
0.0
 30
0.0
  0
INSERT
  5
61D
100
AcDbEntity
  8
Ech.1_5
 62
     0
100
AcDbBlockReference
  2
*X3
 10
0.0
 20
0.0
 30
0.0
  0
INSERT
  5
61E
100
AcDbEntity
  8
Ech.1_5
 62
     0
100
AcDbBlockReference
  2
*X4
 10
0.0
 20
0.0
 30
0.0
  0
INSERT
  5
61F
100
AcDbEntity
  8
Ech.1_5
 62
     0
100
AcDbBlockReference
  2
*X5
 10
0.0
 20
0.0
 30
0.0
  0
INSERT
  5
620
100
AcDbEntity
  8
Ech.1_5
 62
     0
100
AcDbBlockReference
  2
*X6
 10
0.0
 20
0.0
 30
0.0
  0
LWPOLYLINE
  5
621
100
AcDbEntity
  8
Ech.1_5
 62
   190
  6
CONTINUOUS
370
    -3
100
AcDbPolyline
 90
      120
 70
     0
 43
0.0
 10
52403.73431578
 20
-8594.50536114
 42
1.14028181
 10
52397.18122077
 20
-8595.36802153
 10
52400.28726489
 20
-8606.97592466
 42
-1.30322619
 10
52393.84776042
 20
-8606.9758542
 10
52396.95405857
 20
-8595.36801904
 42
1.30322619
 10
52390.5145541
 20
-8595.36794858
 10
52393.62059822
 20
-8606.97585172
 42
-1.30322619
 10
52387.18109375
 20
-8606.97578125
 10
52390.28739191
 20
-8595.36794609
 42
1.30322619
 10
52383.84788744
 20
-8595.36787563
 10
52386.95393155
 20
-8606.97577877
 42
-1.30322619
 10
52380.51442709
 20
-8606.9757083
 10
52383.62072524
 20
-8595.36787314
 42
1.30322619
 10
52377.18122077
 20
-8595.36780268
 10
52380.28726489
 20
-8606.97570582
 42
-1.30322619
 10
52373.84776042
 20
-8606.97563535
 10
52376.95405857
 20
-8595.36780019
 42
1.30322619
 10
52370.51455411
 20
-8595.36772973
 10
52373.62059822
 20
-8606.97563287
 42
-1.30322619
 10
52367.18109376
 20
-8606.9755624
 10
52370.28739191
 20
-8595.36772725
 42
1.30322619
 10
52363.84788744
 20
-8595.36765678
 10
52366.95393156
 20
-8606.97555992
 42
-1.30322619
 10
52360.51442709
 20
-8606.97548945
 10
52363.62072524
 20
-8595.3676543
 42
1.30322619
 10
52357.18122077
 20
-8595.36758383
 10
52360.28726489
 20
-8606.97548697
 42
-1.30322619
 10
52353.84776042
 20
-8606.9754165
 10
52356.95405858
 20
-8595.36758135
 42
1.30322619
 10
52350.51455411
 20
-8595.36751088
 10
52353.62059822
 20
-8606.97541402
 42
-1.30322619
 10
52347.18109376
 20
-8606.97534355
 10
52350.28739191
 20
-8595.3675084
 42
1.30322619
 10
52343.84788744
 20
-8595.36743793
 10
52346.95393156
 20
-8606.97534107
 42
-1.30322619
 10
52340.51442709
 20
-8606.9752706
 10
52343.62072524
 20
-8595.36743545
 42
1.30322619
 10
52337.18122078
 20
-8595.36736498
 10
52340.28726489
 20
-8606.97526812
 42
-1.30322619
 10
52333.84776043
 20
-8606.97519765
 10
52336.95405858
 20
-8595.3673625
 42
1.30322619
 10
52330.51455411
 20
-8595.36729203
 10
52333.62059823
 20
-8606.97519517
 42
-1.30322619
 10
52327.18109376
 20
-8606.9751247
 10
52330.28739191
 20
-8595.36728955
 42
1.30322619
 10
52323.84788745
 20
-8595.36721908
 10
52326.95393156
 20
-8606.97512222
 42
-1.30322619
 10
52320.51442709
 20
-8606.97505175
 10
52323.62072525
 20
-8595.3672166
 42
1.30322619
 10
52317.18122078
 20
-8595.36714613
 10
52320.28726489
 20
-8606.97504927
 42
-1.30322619
 10
52313.84776043
 20
-8606.9749788
 10
52316.95405858
 20
-8595.36714365
 42
1.30322619
 10
52310.51455411
 20
-8595.36707318
 10
52313.62059823
 20
-8606.97497632
 42
-1.30322619
 10
52307.18109376
 20
-8606.97490585
 10
52310.28739191
 20
-8595.3670707
 42
1.30322619
 10
52303.84788745
 20
-8595.36700023
 10
52306.95393156
 20
-8606.97490337
 42
-1.30322619
 10
52300.5144271
 20
-8606.9748329
 10
52303.62072525
 20
-8595.36699775
 42
1.30322619
 10
52297.18122078
 20
-8595.36692728
 10
52300.2872649
 20
-8606.97483042
 42
-1.30322619
 10
52293.84776043
 20
-8606.97475996
 10
52296.95405858
 20
-8595.3669248
 42
1.30322619
 10
52290.51455412
 20
-8595.36685433
 10
52293.62059823
 20
-8606.97475747
 42
-1.30322619
 10
52287.18109376
 20
-8606.97468701
 10
52290.28739192
 20
-8595.36685185
 42
1.30322619
 10
52283.84788745
 20
-8595.36678138
 10
52286.95393157
 20
-8606.97468452
 42
-1.30322619
 10
52280.5144271
 20
-8606.97461406
 10
52283.62072525
 20
-8595.3667789
 42
1.30322619
 10
52277.18122078
 20
-8595.36670843
 10
52280.2872649
 20
-8606.97461157
 42
-1.30322619
 10
52273.84776043
 20
-8606.97454111
 10
52276.95405859
 20
-8595.36670595
 42
1.30322619
 10
52270.51455412
 20
-8595.36663549
 10
52273.62059823
 20
-8606.97453862
 42
-1.30322619
 10
52267.18109377
 20
-8606.97446816
 10
52270.28739192
 20
-8595.366633
 42
1.30322619
 10
52263.84788745
 20
-8595.36656254
 10
52266.95393157
 20
-8606.97446567
 42
-1.30322619
 10
52260.5144271
 20
-8606.97439521
 10
52263.62072525
 20
-8595.36656005
 42
1.30322619
 10
52257.18122079
 20
-8595.36648959
 10
52260.2872649
 20
-8606.97439272
 42
-1.30322619
 10
52253.84776044
 20
-8606.97432226
 10
52256.95405859
 20
-8595.3664871
 42
1.30322619
 10
52250.51455412
 20
-8595.36641664
 10
52253.62059824
 20
-8606.97431977
 42
-1.30322619
 10
52247.18109377
 20
-8606.97424931
 10
52250.28739192
 20
-8595.36641415
 42
1.30322619
 10
52243.84788746
 20
-8595.36634369
 10
52246.95393157
 20
-8606.97424682
 42
-1.30322619
 10
52240.5144271
 20
-8606.97417636
 10
52243.62072526
 20
-8595.3663412
 42
1.30322619
 10
52237.18122079
 20
-8595.36627074
 10
52240.2872649
 20
-8606.97417387
 42
-1.30322619
 10
52233.84776044
 20
-8606.97410341
 10
52236.95405859
 20
-8595.36626825
 42
1.30322619
 10
52230.51455412
 20
-8595.36619779
 10
52233.62059824
 20
-8606.97410092
 42
-1.30322619
 10
52227.18109377
 20
-8606.97403046
 10
52230.28739192
 20
-8595.3661953
 42
1.30322619
 10
52223.84788746
 20
-8595.36612484
 10
52226.95393157
 20
-8606.97402797
 42
-1.30322619
 10
52220.51442711
 20
-8606.97395751
 10
52223.62072526
 20
-8595.36612235
 42
1.30322619
 10
52217.18122079
 20
-8595.36605189
 10
52220.28726491
 20
-8606.97395502
 42
-1.30322619
 10
52213.84776044
 20
-8606.97388456
 10
52216.95405859
 20
-8595.3660494
 42
1.30322619
 10
52210.51455413
 20
-8595.36597894
 10
52213.62059824
 20
-8606.97388207
 42
-1.30322619
 10
52207.18109377
 20
-8606.97381161
 10
52210.28739193
 20
-8595.36597645
 42
1.30322619
 10
52203.84788746
 20
-8595.36590599
 10
52206.95393158
 20
-8606.97380912
 42
-0.52586277
 10
52203.7341334
 20
-8611.16983932
  0
LWPOLYLINE
  5
622
100
AcDbEntity
  8
Ech.1_5
 62
   190
  6
CONTINUOUS
370
    -3
100
AcDbPolyline
 90
      120
 70
     0
 43
0.0
 10
51865.08909831
 20
-8594.50536114
 42
1.14028181
 10
51858.5360033
 20
-8595.36802153
 10
51861.64204741
 20
-8606.97592466
 42
-1.30322619
 10
51855.20254295
 20
-8606.9758542
 10
51858.3088411
 20
-8595.36801904
 42
1.30322619
 10
51851.86933663
 20
-8595.36794858
 10
51854.97538075
 20
-8606.97585172
 42
-1.30322619
 10
51848.53587628
 20
-8606.97578125
 10
51851.64217443
 20
-8595.36794609
 42
1.30322619
 10
51845.20266997
 20
-8595.36787563
 10
51848.30871408
 20
-8606.97577877
 42
-1.30322619
 10
51841.86920962
 20
-8606.9757083
 10
51844.97550777
 20
-8595.36787314
 42
1.30322619
 10
51838.5360033
 20
-8595.36780268
 10
51841.64204742
 20
-8606.97570582
 42
-1.30322619
 10
51835.20254295
 20
-8606.97563535
 10
51838.3088411
 20
-8595.36780019
 42
1.30322619
 10
51831.86933664
 20
-8595.36772973
 10
51834.97538075
 20
-8606.97563287
 42
-1.30322619
 10
51828.53587628
 20
-8606.9755624
 10
51831.64217444
 20
-8595.36772725
 42
1.30322619
 10
51825.20266997
 20
-8595.36765678
 10
51828.30871408
 20
-8606.97555992
 42
-1.30322619
 10
51821.86920962
 20
-8606.97548945
 10
51824.97550777
 20
-8595.3676543
 42
1.30322619
 10
51818.5360033
 20
-8595.36758383
 10
51821.64204742
 20
-8606.97548697
 42
-1.30322619
 10
51815.20254295
 20
-8606.9754165
 10
51818.3088411
 20
-8595.36758135
 42
1.30322619
 10
51811.86933664
 20
-8595.36751088
 10
51814.97538075
 20
-8606.97541402
 42
-1.30322619
 10
51808.53587629
 20
-8606.97534355
 10
51811.64217444
 20
-8595.3675084
 42
1.30322619
 10
51805.20266997
 20
-8595.36743793
 10
51808.30871409
 20
-8606.97534107
 42
-1.30322619
 10
51801.86920962
 20
-8606.9752706
 10
51804.97550777
 20
-8595.36743545
 42
1.30322619
 10
51798.53600331
 20
-8595.36736498
 10
51801.64204742
 20
-8606.97526812
 42
-1.30322619
 10
51795.20254295
 20
-8606.97519765
 10
51798.30884111
 20
-8595.3673625
 42
1.30322619
 10
51791.86933664
 20
-8595.36729203
 10
51794.97538076
 20
-8606.97519517
 42
-1.30322619
 10
51788.53587629
 20
-8606.9751247
 10
51791.64217444
 20
-8595.36728955
 42
1.30322619
 10
51785.20266997
 20
-8595.36721908
 10
51788.30871409
 20
-8606.97512222
 42
-1.30322619
 10
51781.86920962
 20
-8606.97505175
 10
51784.97550778
 20
-8595.3672166
 42
1.30322619
 10
51778.53600331
 20
-8595.36714613
 10
51781.64204742
 20
-8606.97504927
 42
-1.30322619
 10
51775.20254296
 20
-8606.9749788
 10
51778.30884111
 20
-8595.36714365
 42
1.30322619
 10
51771.86933664
 20
-8595.36707318
 10
51774.97538076
 20
-8606.97497632
 42
-1.30322619
 10
51768.53587629
 20
-8606.97490585
 10
51771.64217444
 20
-8595.3670707
 42
1.30322619
 10
51765.20266998
 20
-8595.36700023
 10
51768.30871409
 20
-8606.97490337
 42
-1.30322619
 10
51761.86920963
 20
-8606.9748329
 10
51764.97550778
 20
-8595.36699775
 42
1.30322619
 10
51758.53600331
 20
-8595.36692728
 10
51761.64204743
 20
-8606.97483042
 42
-1.30322619
 10
51755.20254296
 20
-8606.97475996
 10
51758.30884111
 20
-8595.3669248
 42
1.30322619
 10
51751.86933664
 20
-8595.36685433
 10
51754.97538076
 20
-8606.97475747
 42
-1.30322619
 10
51748.53587629
 20
-8606.97468701
 10
51751.64217445
 20
-8595.36685185
 42
1.30322619
 10
51745.20266998
 20
-8595.36678138
 10
51748.30871409
 20
-8606.97468452
 42
-1.30322619
 10
51741.86920963
 20
-8606.97461406
 10
51744.97550778
 20
-8595.3667789
 42
1.30322619
 10
51738.53600331
 20
-8595.36670843
 10
51741.64204743
 20
-8606.97461157
 42
-1.30322619
 10
51735.20254296
 20
-8606.97454111
 10
51738.30884111
 20
-8595.36670595
 42
1.30322619
 10
51731.86933665
 20
-8595.36663549
 10
51734.97538076
 20
-8606.97453862
 42
-1.30322619
 10
51728.5358763
 20
-8606.97446816
 10
51731.64217445
 20
-8595.366633
 42
1.30322619
 10
51725.20266998
 20
-8595.36656254
 10
51728.3087141
 20
-8606.97446567
 42
-1.30322619
 10
51721.86920963
 20
-8606.97439521
 10
51724.97550778
 20
-8595.36656005
 42
1.30322619
 10
51718.53600332
 20
-8595.36648959
 10
51721.64204743
 20
-8606.97439272
 42
-1.30322619
 10
51715.20254296
 20
-8606.97432226
 10
51718.30884112
 20
-8595.3664871
 42
1.30322619
 10
51711.86933665
 20
-8595.36641664
 10
51714.97538077
 20
-8606.97431977
 42
-1.30322619
 10
51708.5358763
 20
-8606.97424931
 10
51711.64217445
 20
-8595.36641415
 42
1.30322619
 10
51705.20266998
 20
-8595.36634369
 10
51708.3087141
 20
-8606.97424682
 42
-1.30322619
 10
51701.86920963
 20
-8606.97417636
 10
51704.97550778
 20
-8595.3663412
 42
1.30322619
 10
51698.53600332
 20
-8595.36627074
 10
51701.64204743
 20
-8606.97417387
 42
-1.30322619
 10
51695.20254297
 20
-8606.97410341
 10
51698.30884112
 20
-8595.36626825
 42
1.30322619
 10
51691.86933665
 20
-8595.36619779
 10
51694.97538077
 20
-8606.97410092
 42
-1.30322619
 10
51688.5358763
 20
-8606.97403046
 10
51691.64217445
 20
-8595.3661953
 42
1.30322619
 10
51685.20266999
 20
-8595.36612484
 10
51688.3087141
 20
-8606.97402797
 42
-1.30322619
 10
51681.86920963
 20
-8606.97395751
 10
51684.97550779
 20
-8595.36612235
 42
1.30322619
 10
51678.53600332
 20
-8595.36605189
 10
51681.64204744
 20
-8606.97395502
 42
-1.30322619
 10
51675.20254297
 20
-8606.97388456
 10
51678.30884112
 20
-8595.3660494
 42
1.30322619
 10
51671.86933665
 20
-8595.36597894
 10
51674.97538077
 20
-8606.97388207
 42
-1.30322619
 10
51668.5358763
 20
-8606.97381161
 10
51671.64217446
 20
-8595.36597645
 42
1.30322619
 10
51665.20266999
 20
-8595.36590599
 10
51668.3087141
 20
-8606.97380912
 42
-0.52586277
 10
51665.08891593
 20
-8611.16983932
  0
LWPOLYLINE
  5
623
102
{ACAD_REACTORS
330
624
102
}
100
AcDbEntity
  8
Ech.1_5
 62
     9
  6
CONTINUOUS
370
    -3
100
AcDbPolyline
 90
        4
 70
     1
 43
0.0
 10
52203.73361727
 20
-8308.16983932
 10
52190.73361727
 20
-8308.16983932
 10
52190.73361727
 20
-8674.06986706
 10
52203.73361727
 20
-8674.06986706
  0
HATCH
  5
624
100
AcDbEntity
  8
Ech.1_5
 62
     9
  6
CONTINUOUS
100
AcDbHatch
 10
0.0
 20
0.0
 30
0.0
210
0.0
220
0.0
230
1.0
  2
DOTS2
 70
     0
 71
     1
 91
        1
 92
        7
 72
     0
 73
     1
 93
        4
 10
52203.73361727
 20
-8308.16983932
 10
52190.73361727
 20
-8308.16983932
 10
52190.73361727
 20
-8674.06986706
 10
52203.73361727
 20
-8674.06986706
 97
        1
330
623
 75
     0
 76
     2
 52
0.0
 41
4.72440952
 77
     0
 78
     1
 53
0.0
 43
0.0
 44
0.0
 45
3.75
 46
3.535
 79
     2
 49
0.0
 49
-3.535
 47
0.775229
 98
        1
 10
0.0
 20
0.0
  0
LWPOLYLINE
  5
625
102
{ACAD_REACTORS
330
626
102
}
100
AcDbEntity
  8
Ech.1_5
 62
     9
  6
CONTINUOUS
370
    -3
100
AcDbPolyline
 90
        4
 70
     1
 43
0.0
 10
51865.08983329
 20
-8308.16983932
 10
51878.08983329
 20
-8308.16983932
 10
51878.08983329
 20
-8674.06986706
 10
51865.08983329
 20
-8674.06986706
  0
HATCH
  5
626
100
AcDbEntity
  8
Ech.1_5
 62
     9
  6
CONTINUOUS
100
AcDbHatch
 10
0.0
 20
0.0
 30
0.0
210
0.0
220
0.0
230
1.0
  2
DOTS2
 70
     0
 71
     1
 91
        1
 92
        7
 72
     0
 73
     1
 93
        4
 10
51865.08983329
 20
-8308.16983932
 10
51878.08983329
 20
-8308.16983932
 10
51878.08983329
 20
-8674.06986706
 10
51865.08983329
 20
-8674.06986706
 97
        1
330
625
 75
     0
 76
     2
 52
0.0
 41
4.72440952
 77
     0
 78
     1
 53
0.0
 43
0.0
 44
0.0
 45
3.75
 46
3.535
 79
     2
 49
0.0
 49
-3.535
 47
0.775229
 98
        1
 10
0.0
 20
0.0
  0
LWPOLYLINE
  5
627
100
AcDbEntity
  8
Ech.1_5
 62
   190
  6
CONTINUOUS
370
    -3
100
AcDbPolyline
 90
        8
 70
     1
 43
0.0
 10
51597.90090809
 20
-8728.99416009
 10
51561.94520808
 20
-8714.88422007
 10
51579.92255649
 20
-8731.36972323
 10
51579.92281091
 20
-8791.16983932
 10
51775.0896793
 20
-8791.16983932
 10
51775.0896793
 20
-8611.16983932
 10
51579.92254534
 20
-8611.16983932
 10
51579.92255649
 20
-8712.50780601
  0
LWPOLYLINE
  5
628
100
AcDbEntity
  8
Ech.1_5
 62
   190
100
AcDbPolyline
 90
        5
 70
     0
 43
0.0
 10
51753.20774489
 20
-9114.62290779
 10
51887.63652387
 20
-9114.62290779
 10
51887.63652387
 20
-9171.3458666
 10
51753.20774489
 20
-9171.3458666
 10
51753.20774489
 20
-9114.62290779
  0
HATCH
  5
629
100
AcDbEntity
  8
Ech.1_5
 62
   190
100
AcDbHatch
 10
0.0
 20
0.0
 30
0.0
210
0.0
220
0.0
230
1.0
  2
SOLID
 70
     1
 71
     0
 91
        1
 92
        7
 72
     0
 73
     1
 93
        4
 10
51771.48779067
 20
-9148.27971892
 10
51821.48779067
 20
-9148.27971892
 10
51821.48779067
 20
-9140.86458138
 10
51771.48779067
 20
-9140.86458138
 97
        0
 75
     0
 76
     2
 47
0.775229
 98
        1
 10
0.0
 20
0.0
  0
LWPOLYLINE
  5
62A
100
AcDbEntity
  8
Ech.1_5
 62
   190
100
AcDbPolyline
 90
        5
 70
     0
 43
0.0
 10
51771.48779067
 20
-9148.27971892
 10
51821.48779067
 20
-9148.27971892
 10
51821.48779067
 20
-9140.86458138
 10
51771.48779067
 20
-9140.86458138
 10
51771.48779067
 20
-9148.27971892
  0
LWPOLYLINE
  5
62B
100
AcDbEntity
  8
Ech.1_5
 62
   190
100
AcDbPolyline
 90
        5
 70
     0
 43
0.0
 10
51821.48779067
 20
-9148.27971892
 10
51871.48779067
 20
-9148.27971892
 10
51871.48779067
 20
-9140.86458138
 10
51821.48779067
 20
-9140.86458138
 10
51821.48779067
 20
-9148.27971892
  0
LWPOLYLINE
  5
62C
100
AcDbEntity
  8
Ech.1_5
 62
     7
  6
CONTINUOUS
370
    -3
100
AcDbPolyline
 90
        4
 70
     1
 43
0.0
 10
51820.08909831
 20
-8791.16983932
 10
51820.08909831
 20
-8611.16983932
 10
51775.08909831
 20
-8611.16983932
 10
51775.08909831
 20
-8791.16983932
  0
LWPOLYLINE
  5
62D
100
AcDbEntity
  8
Ech.1_5
 62
     7
  6
CONTINUOUS
370
    -3
100
AcDbPolyline
 90
        4
 70
     1
 43
0.0
 10
51865.08909831
 20
-8791.16983932
 10
51865.08909831
 20
-8611.16983932
 10
51820.08909831
 20
-8611.16983932
 10
51820.08909831
 20
-8791.16983932
  0
LWPOLYLINE
  5
62E
100
AcDbEntity
  8
Ech.1_5
 62
     7
  6
CONTINUOUS
100
AcDbPolyline
 90
        4
 70
     0
 43
0.0
 10
51579.9221965
 20
-8791.16983932
 10
51775.08909831
 20
-8791.16983932
 10
51775.08909831
 20
-8611.16983932
 10
51579.92254534
 20
-8611.16983932
  0
LWPOLYLINE
  5
62F
100
AcDbEntity
  8
Ech.1_5
 62
   190
  6
CONTINUOUS
370
    -3
100
AcDbPolyline
 90
        4
 70
     1
 43
0.0
 10
51820.08909831
 20
-8611.16983932
 10
51775.08909831
 20
-8611.16983932
 10
51775.08909831
 20
-8791.16983932
 10
51820.08909831
 20
-8791.16983932
  0
LWPOLYLINE
  5
630
102
{ACAD_REACTORS
330
631
102
}
100
AcDbEntity
  8
Ech.1_5
 62
     7
  6
CONTINUOUS
370
     5
100
AcDbPolyline
 90
        4
 70
     1
 43
0.0
 10
51874.52217129
 20
-8793.38084819
 10
51865.08951123
 20
-8793.38084819
 10
51865.08951123
 20
-8800.16983938
 10
51874.52217129
 20
-8800.16983938
  0
HATCH
  5
631
100
AcDbEntity
  8
Ech.1_5
 62
     2
  6
CONTINUOUS
100
AcDbHatch
 10
0.0
 20
0.0
 30
0.0
210
0.0
220
0.0
230
1.0
  2
SOLID
 70
     1
 71
     1
 91
        1
 92
        7
 72
     0
 73
     1
 93
        4
 10
51874.52217129
 20
-8793.38084819
 10
51865.08951123
 20
-8793.38084819
 10
51865.08951123
 20
-8800.16983938
 10
51874.52217129
 20
-8800.16983938
 97
        1
330
630
 75
     0
 76
     2
 47
0.775229
 98
        1
 10
0.0
 20
0.0
  0
HATCH
  5
632
100
AcDbEntity
  8
Ech.1_5
 62
     7
  6
CONTINUOUS
100
AcDbHatch
 10
0.0
 20
0.0
 30
0.0
210
0.0
220
0.0
230
1.0
  2
ANSI31
 70
     0
 71
     1
 91
        1
 92
        7
 72
     0
 73
     1
 93
        4
 10
51874.52217129
 20
-8793.38084819
 10
51865.08951123
 20
-8793.38084819
 10
51865.08951123
 20
-8800.16983938
 10
51874.52217129
 20
-8800.16983938
 97
        1
330
631
 75
     0
 76
     2
 52
0.0
 41
0.94488785
 77
     0
 78
     1
 53
45.0
 43
0.0
 44
0.0
 45
2.12132043
 46
-2.12132043
 79
     0
 47
0.775229
 98
        1
 10
0.0
 20
0.0
  0
LWPOLYLINE
  5
633
100
AcDbEntity
  8
Ech.1_5
 62
   190
  6
CONTINUOUS
370
    -3
100
AcDbPolyline
 90
       12
 70
     0
 43
0.0
 10
51579.92254534
 20
-8641.16983932
 42
-1.14028181
 10
51638.90031544
 20
-8648.93442816
 10
51610.94477523
 20
-8753.40525048
 42
1.30322619
 10
51668.90031544
 20
-8753.40525048
 10
51640.94477523
 20
-8648.93442816
 42
-1.30322619
 10
51698.90031544
 20
-8648.93442816
 10
51670.94477523
 20
-8753.40525048
 42
1.30322619
 10
51728.90031544
 20
-8753.40525048
 10
51700.94477523
 20
-8648.93442816
 42
-1.30322619
 10
51758.90031544
 20
-8648.93442816
 10
51730.94477523
 20
-8753.40525048
 42
0.67050386
 10
51775.08909831
 20
-8787.05372757
  0
LWPOLYLINE
  5
634
100
AcDbEntity
  8
Ech.1_5
 62
   190
  6
CONTINUOUS
370
    -3
100
AcDbPolyline
 90
        4
 70
     1
 43
0.0
 10
51865.08909831
 20
-8611.16983932
 10
51820.08909831
 20
-8611.16983932
 10
51820.08909831
 20
-8791.16983932
 10
51865.08909831
 20
-8791.16983932
  0
LWPOLYLINE
  5
635
100
AcDbEntity
  8
Ech.1_5
 62
     5
  6
CONTINUOUS
370
    -3
100
AcDbPolyline
 90
        5
 70
     0
 43
0.0
 10
51820.08909831
 20
-8791.16983932
 10
51820.08909831
 20
-8611.16983932
 10
51775.08909831
 20
-8611.16983932
 10
51775.08909831
 20
-8791.16983932
 10
51820.08909831
 20
-8791.16983932
  0
LWPOLYLINE
  5
636
100
AcDbEntity
  8
Ech.1_5
 62
     5
  6
CONTINUOUS
370
    -3
100
AcDbPolyline
 90
        5
 70
     0
 43
0.0
 10
51865.08909831
 20
-8791.16983932
 10
51865.08909831
 20
-8611.16983932
 10
51820.08909831
 20
-8611.16983932
 10
51820.08909831
 20
-8791.16983932
 10
51865.08909831
 20
-8791.16983932
  0
LWPOLYLINE
  5
637
102
{ACAD_REACTORS
330
638
102
}
100
AcDbEntity
  8
Ech.1_5
 62
     7
  6
CONTINUOUS
370
     5
100
AcDbPolyline
 90
        4
 70
     1
 43
0.0
 10
51865.08951123
 20
-8793.38084819
 10
51874.52217129
 20
-8793.38084819
 10
51874.52217129
 20
-8780.00332772
 10
51865.08951123
 20
-8780.00332772
  0
HATCH
  5
638
100
AcDbEntity
  8
Ech.1_5
 62
     2
  6
CONTINUOUS
100
AcDbHatch
 10
0.0
 20
0.0
 30
0.0
210
0.0
220
0.0
230
1.0
  2
SOLID
 70
     1
 71
     1
 91
        1
 92
        7
 72
     0
 73
     1
 93
        4
 10
51865.08951123
 20
-8793.38084819
 10
51874.52217129
 20
-8793.38084819
 10
51874.52217129
 20
-8780.00332772
 10
51865.08951123
 20
-8780.00332772
 97
        1
330
637
 75
     0
 76
     2
 47
0.775229
 98
        1
 10
0.0
 20
0.0
  0
LINE
  5
639
100
AcDbEntity
  8
Ech.1_5
 62
     7
  6
CENTER
370
    18
100
AcDbLine
 10
52028.29048039
 20
-8526.77041576
 30
0.0
 11
52028.29048039
 21
-8911.47206974
 31
0.0
  0
LINE
  5
63A
100
AcDbEntity
  8
Ech.1_5
 62
     7
  6
CONTINUOUS
100
AcDbLine
 10
51991.52412308
 20
-8676.31912642
 30
0.0
 11
51991.52412308
 21
-8692.31912642
 31
0.0
  0
LINE
  5
63B
100
AcDbEntity
  8
Ech.1_5
 62
     7
  6
CONTINUOUS
100
AcDbLine
 10
51982.02412308
 20
-8672.31912642
 30
0.0
 11
51982.02412308
 21
-8696.31912642
 31
0.0
  0
LINE
  5
63C
100
AcDbEntity
  8
Ech.1_5
 62
     7
  6
CONTINUOUS
100
AcDbLine
 10
51980.02412308
 20
-8678.31912642
 30
0.0
 11
51981.22412308
 21
-8678.31912642
 31
0.0
  0
LINE
  5
63D
100
AcDbEntity
  8
Ech.1_5
 62
     7
  6
CONTINUOUS
100
AcDbLine
 10
51980.02412308
 20
-8690.31912642
 30
0.0
 11
51981.22412308
 21
-8690.31912642
 31
0.0
  0
LINE
  5
63E
100
AcDbEntity
  8
Ech.1_5
 62
     7
  6
CONTINUOUS
100
AcDbLine
 10
51980.02412308
 20
-8696.31912642
 30
0.0
 11
51977.02413173
 21
-8672.31912209
 31
0.0
  0
LINE
  5
63F
100
AcDbEntity
  8
Ech.1_5
 62
     7
  6
CONTINUOUS
100
AcDbLine
 10
51980.02412308
 20
-8672.31912642
 30
0.0
 11
51977.02413173
 21
-8696.31912642
 31
0.0
  0
LINE
  5
640
100
AcDbEntity
  8
Ech.1_5
 62
     7
  6
CONTINUOUS
100
AcDbLine
 10
51977.02413173
 20
-8696.31912642
 30
0.0
 11
51977.02412308
 21
-8672.31912642
 31
0.0
  0
LINE
  5
641
100
AcDbEntity
  8
Ech.1_5
 62
     7
  6
CONTINUOUS
100
AcDbLine
 10
51977.02412308
 20
-8672.31912642
 30
0.0
 11
51980.02412308
 21
-8672.31912642
 31
0.0
  0
LINE
  5
642
100
AcDbEntity
  8
Ech.1_5
 62
     7
  6
CONTINUOUS
100
AcDbLine
 10
51980.02412308
 20
-8672.31912642
 30
0.0
 11
51980.02412308
 21
-8696.31912642
 31
0.0
  0
LINE
  5
643
100
AcDbEntity
  8
Ech.1_5
 62
     7
  6
CONTINUOUS
100
AcDbLine
 10
51980.02412308
 20
-8696.31912642
 30
0.0
 11
51977.02412308
 21
-8696.31912642
 31
0.0
  0
LINE
  5
644
100
AcDbEntity
  8
Ech.1_5
 62
     7
  6
CONTINUOUS
100
AcDbLine
 10
51922.66086411
 20
-8660.62203011
 30
0.0
 11
51956.61426829
 21
-8662.40145262
 31
0.0
  0
LINE
  5
645
100
AcDbEntity
  8
Ech.1_5
 62
     7
  6
CENTER
100
AcDbLine
 10
51909.89495612
 20
-8660.18473139
 30
0.0
 11
51909.89495612
 21
-8685.12213573
 31
0.0
  0
ARC
  5
646
100
AcDbEntity
  8
Ech.1_5
 62
     7
  6
CONTINUOUS
100
AcDbCircle
 10
51911.08423311
 20
-8663.5201278
 30
0.0
 40
6.59090909
100
AcDbArc
 50
96.52728338
 51
257.47271662
  0
LINE
  5
647
100
AcDbEntity
  8
Ech.1_5
 62
     7
  6
CONTINUOUS
100
AcDbLine
 10
51921.16504299
 20
-8670.05667473
 30
0.0
 11
51921.79307446
 21
-8658.07312031
 31
0.0
  0
LINE
  5
648
100
AcDbEntity
  8
Ech.1_5
 62
     7
  6
CONTINUOUS
100
AcDbLine
 10
51922.1898405
 20
-8669.60969592
 30
0.0
 11
51922.76553602
 21
-8658.62477104
 31
0.0
  0
LINE
  5
649
100
AcDbEntity
  8
Ech.1_5
 62
     7
  6
CONTINUOUS
100
AcDbLine
 10
51901.89495612
 20
-8671.06965366
 30
0.0
 11
51901.89495612
 21
-8658.74504419
 31
0.0
  0
LINE
  5
64A
100
AcDbEntity
  8
Ech.1_5
 62
     7
  6
CONTINUOUS
100
AcDbLine
 10
51916.8916837
 20
-8657.31556314
 30
0.0
 11
51916.0450781
 21
-8656.25730614
 31
0.0
  0
LINE
  5
64B
100
AcDbEntity
  8
Ech.1_5
 62
     7
  6
CONTINUOUS
100
AcDbLine
 10
51921.31992767
 20
-8657.54763757
 30
0.0
 11
51910.33500279
 21
-8656.97194205
 31
0.0
  0
ARC
  5
64C
100
AcDbEntity
  8
Ech.1_5
 62
     7
  6
CONTINUOUS
100
AcDbCircle
 10
51921.29375969
 20
-8658.04695234
 30
0.0
 40
0.5
100
AcDbArc
 50
357.0
 51
87.0
  0
LINE
  5
64D
100
AcDbEntity
  8
Ech.1_5
 62
     7
  6
CONTINUOUS
100
AcDbLine
 10
51922.76553602
 20
-8658.62477104
 30
0.0
 11
51921.76690648
 21
-8658.57243508
 31
0.0
  0
LINE
  5
64E
100
AcDbEntity
  8
Ech.1_5
 62
     7
  6
CONTINUOUS
100
AcDbLine
 10
51914.89495612
 20
-8657.21091908
 30
0.0
 11
51914.89495612
 21
-8656.06965366
 31
0.0
  0
LINE
  5
64F
100
AcDbEntity
  8
Ech.1_5
 62
     7
  6
CONTINUOUS
100
AcDbLine
 10
51904.13526854
 20
-8656.06965366
 30
0.0
 11
51915.6546437
 21
-8656.06965366
 31
0.0
  0
ARC
  5
650
100
AcDbEntity
  8
Ech.1_5
 62
     7
  6
CONTINUOUS
100
AcDbCircle
 10
51915.6546437
 20
-8656.56965366
 30
0.0
 40
0.5
100
AcDbArc
 50
38.65980826
 51
89.99999999
  0
ARC
  5
651
100
AcDbEntity
  8
Ech.1_5
 62
     7
  6
CONTINUOUS
100
AcDbCircle
 10
51902.39495612
 20
-8658.74504419
 30
0.0
 40
0.5
100
AcDbArc
 50
141.34019175
 51
180.0
  0
ARC
  5
652
100
AcDbEntity
  8
Ech.1_5
 62
     7
  6
CONTINUOUS
100
AcDbCircle
 10
51902.39495612
 20
-8658.74504419
 30
0.0
 40
0.5
100
AcDbArc
 50
141.34019175
 51
180.0
  0
ARC
  5
653
100
AcDbEntity
  8
Ech.1_5
 62
     7
  6
CONTINUOUS
100
AcDbCircle
 10
51904.13526854
 20
-8656.56965366
 30
0.0
 40
0.5
100
AcDbArc
 50
90.00000001
 51
141.34019174
  0
LINE
  5
654
100
AcDbEntity
  8
Ech.1_5
 62
     7
  6
CONTINUOUS
100
AcDbLine
 10
51904.89495612
 20
-8661.19666636
 30
0.0
 11
51904.89495612
 21
-8656.06965366
 31
0.0
  0
LINE
  5
655
100
AcDbEntity
  8
Ech.1_5
 62
     7
  6
CONTINUOUS
100
AcDbLine
 10
51902.00452172
 20
-8658.43269667
 30
0.0
 11
51903.74483414
 21
-8656.25730614
 31
0.0
  0
LINE
  5
656
100
AcDbEntity
  8
Ech.1_5
 62
     7
  6
CENTER
100
AcDbLine
 10
51905.42460477
 20
-8663.22351924
 30
0.0
 11
51959.42698104
 21
-8666.05366386
 31
0.0
  0
LINE
  5
657
100
AcDbEntity
  8
Ech.1_5
 62
     7
  6
CONTINUOUS
100
AcDbLine
 10
51922.29451241
 20
-8667.61243685
 30
0.0
 11
51956.24791659
 21
-8669.39185936
 31
0.0
  0
ARC
  5
658
100
AcDbEntity
  8
Ech.1_5
 62
     7
  6
CONTINUOUS
100
AcDbCircle
 10
51950.79105199
 20
-8665.601074
 30
0.0
 40
6.64435287
100
AcDbArc
 50
325.21298885
 51
28.78701115
  0
LINE
  5
659
100
AcDbEntity
  8
Ech.1_5
 62
     7
  6
CONTINUOUS
100
AcDbLine
 10
51956.24791659
 20
-8669.39185936
 30
0.0
 11
51956.61426829
 21
-8662.40145262
 31
0.0
  0
LINE
  5
65A
100
AcDbEntity
  8
Ech.1_5
 62
     7
  6
CONTINUOUS
100
AcDbLine
 10
51920.63956024
 20
-8670.52982152
 30
0.0
 11
51909.65463536
 21
-8669.954126
 31
0.0
  0
LINE
  5
65B
100
AcDbEntity
  8
Ech.1_5
 62
     7
  6
CONTINUOUS
100
AcDbLine
 10
51919.39495612
 20
-8674.06965366
 30
0.0
 11
51900.39495612
 21
-8674.06965366
 31
0.0
  0
LINE
  5
65C
100
AcDbEntity
  8
Ech.1_5
 62
     7
  6
CONTINUOUS
100
AcDbLine
 10
51918.89495612
 20
-8671.06965366
 30
0.0
 11
51900.89495612
 21
-8671.06965366
 31
0.0
  0
LINE
  5
65D
100
AcDbEntity
  8
Ech.1_5
 62
     7
  6
CONTINUOUS
100
AcDbLine
 10
51917.89495612
 20
-8671.06965366
 30
0.0
 11
51917.89495612
 21
-8670.38598291
 31
0.0
  0
ARC
  5
65E
100
AcDbEntity
  8
Ech.1_5
 62
     7
  6
CONTINUOUS
100
AcDbCircle
 10
51920.66572822
 20
-8670.03050675
 30
0.0
 40
0.5
100
AcDbArc
 50
267.0
 51
357.0
  0
LINE
  5
65F
100
AcDbEntity
  8
Ech.1_5
 62
     7
  6
CONTINUOUS
100
AcDbLine
 10
51922.1898405
 20
-8669.60969592
 30
0.0
 11
51921.19121096
 21
-8669.55735996
 31
0.0
  0
ARC
  5
660
100
AcDbEntity
  8
Ech.1_5
 62
     7
  6
CONTINUOUS
100
AcDbCircle
 10
51918.89495612
 20
-8671.56965366
 30
0.0
 40
0.5
100
AcDbArc
 50
1.6675266527623E-09
 51
90.0
  0
LINE
  5
661
100
AcDbEntity
  8
Ech.1_5
 62
     7
  6
CONTINUOUS
100
AcDbLine
 10
51917.89495612
 20
-8674.06965366
 30
0.0
 11
51917.89495612
 21
-8671.06965366
 31
0.0
  0
LINE
  5
662
100
AcDbEntity
  8
Ech.1_5
 62
     7
  6
CONTINUOUS
100
AcDbLine
 10
51919.39495612
 20
-8671.56965366
 30
0.0
 11
51919.39495612
 21
-8674.06965366
 31
0.0
  0
LINE
  5
663
100
AcDbEntity
  8
Ech.1_5
 62
     7
  6
CONTINUOUS
100
AcDbLine
 10
51906.89495612
 20
-8679.06965366
 30
0.0
 11
51906.89495612
 21
-8674.06965366
 31
0.0
  0
LINE
  5
664
100
AcDbEntity
  8
Ech.1_5
 62
     7
  6
CONTINUOUS
100
AcDbLine
 10
51912.89495612
 20
-8679.06965366
 30
0.0
 11
51912.89495612
 21
-8674.06965366
 31
0.0
  0
ARC
  5
665
100
AcDbEntity
  8
Ech.1_5
 62
     7
  6
CONTINUOUS
100
AcDbCircle
 10
51909.89495612
 20
-8675.0471237
 30
0.0
 40
5.01804218
100
AcDbArc
 50
233.2844502
 51
306.7155498
  0
LINE
  5
666
100
AcDbEntity
  8
Ech.1_5
 62
     7
  6
CONTINUOUS
100
AcDbLine
 10
51912.89495612
 20
-8679.06965366
 30
0.0
 11
51906.89495612
 21
-8679.06965366
 31
0.0
  0
LINE
  5
667
100
AcDbEntity
  8
Ech.1_5
 62
     7
  6
CONTINUOUS
100
AcDbLine
 10
51914.89495612
 20
-8671.06965366
 30
0.0
 11
51914.89495612
 21
-8670.22875958
 31
0.0
  0
LINE
  5
668
100
AcDbEntity
  8
Ech.1_5
 62
     7
  6
CONTINUOUS
100
AcDbLine
 10
51912.89495612
 20
-8673.06965366
 30
0.0
 11
51906.89495612
 21
-8673.06965366
 31
0.0
  0
LINE
  5
669
100
AcDbEntity
  8
Ech.1_5
 62
     7
  6
CONTINUOUS
100
AcDbLine
 10
51912.89495612
 20
-8674.06965366
 30
0.0
 11
51912.89495612
 21
-8673.06965366
 31
0.0
  0
LINE
  5
66A
100
AcDbEntity
  8
Ech.1_5
 62
     7
  6
CONTINUOUS
100
AcDbLine
 10
51906.89495612
 20
-8674.06965366
 30
0.0
 11
51906.89495612
 21
-8673.06965366
 31
0.0
  0
LINE
  5
66B
100
AcDbEntity
  8
Ech.1_5
 62
     7
  6
CONTINUOUS
100
AcDbLine
 10
51913.89495612
 20
-8671.36965366
 30
0.0
 11
51905.89495612
 21
-8671.36965366
 31
0.0
  0
LINE
  5
66C
100
AcDbEntity
  8
Ech.1_5
 62
     7
  6
CONTINUOUS
100
AcDbLine
 10
51913.89495612
 20
-8671.36965366
 30
0.0
 11
51913.89495612
 21
-8671.06965366
 31
0.0
  0
ARC
  5
66D
100
AcDbEntity
  8
Ech.1_5
 62
     7
  6
CONTINUOUS
100
AcDbCircle
 10
51900.89495612
 20
-8671.56965366
 30
0.0
 40
0.5
100
AcDbArc
 50
90.0
 51
180.0
  0
LINE
  5
66E
100
AcDbEntity
  8
Ech.1_5
 62
     7
  6
CONTINUOUS
100
AcDbLine
 10
51905.89495612
 20
-8671.36965366
 30
0.0
 11
51905.89495612
 21
-8671.06965366
 31
0.0
  0
LINE
  5
66F
100
AcDbEntity
  8
Ech.1_5
 62
     7
  6
CONTINUOUS
100
AcDbLine
 10
51904.89495612
 20
-8671.06965366
 30
0.0
 11
51904.89495612
 21
-8665.7189345
 31
0.0
  0
LINE
  5
670
100
AcDbEntity
  8
Ech.1_5
 62
     7
  6
CONTINUOUS
100
AcDbLine
 10
51901.89495612
 20
-8674.06965366
 30
0.0
 11
51901.89495612
 21
-8671.06965366
 31
0.0
  0
LINE
  5
671
100
AcDbEntity
  8
Ech.1_5
 62
     7
  6
CONTINUOUS
100
AcDbLine
 10
51900.39495612
 20
-8671.56965366
 30
0.0
 11
51900.39495612
 21
-8674.06965366
 31
0.0
  0
ARC
  5
672
100
AcDbEntity
  8
Ech.1_5
 62
     7
  6
CONTINUOUS
100
AcDbCircle
 10
51980.02413606
 20
-8696.31912858
 30
0.0
 40
3.0
100
AcDbArc
 50
180.0000413
 51
270.0
  0
LINE
  5
673
100
AcDbEntity
  8
Ech.1_5
 62
     7
  6
CONTINUOUS
100
AcDbLine
 10
51980.02413606
 20
-8699.31912858
 30
0.0
 11
51990.09253596
 21
-8699.31912858
 31
0.0
  0
ARC
  5
674
100
AcDbEntity
  8
Ech.1_5
 62
     7
  6
CONTINUOUS
100
AcDbCircle
 10
51990.09253596
 20
-8701.31912858
 30
0.0
 40
2.0
100
AcDbArc
 50
359.98591679
 51
90.0
  0
ARC
  5
675
100
AcDbEntity
  8
Ech.1_5
 62
     7
  6
CONTINUOUS
100
AcDbCircle
 10
51992.05413606
 20
-8702.81912858
 30
0.0
 40
1.5
100
AcDbArc
 50
10.91126455
 51
88.53307366
  0
LINE
  5
676
100
AcDbEntity
  8
Ech.1_5
 62
     7
  6
CONTINUOUS
100
AcDbLine
 10
51993.52701833
 20
-8702.53519583
 30
0.0
 11
51993.52701833
 21
-8704.47926381
 31
0.0
  0
ARC
  5
677
100
AcDbEntity
  8
Ech.1_5
 62
     7
  6
CONTINUOUS
100
AcDbCircle
 10
51992.52701833
 20
-8704.47926381
 30
0.0
 40
1.0
100
AcDbArc
 50
324.35653925
 51
360.0
  0
ARC
  5
678
100
AcDbEntity
  8
Ech.1_5
 62
     7
  6
CONTINUOUS
100
AcDbCircle
 10
51983.58776969
 20
-8698.06912858
 30
0.0
 40
12.0
100
AcDbArc
 50
270.0
 51
324.35653925
  0
LINE
  5
679
100
AcDbEntity
  8
Ech.1_5
 62
     7
  6
CONTINUOUS
100
AcDbLine
 10
51983.58776969
 20
-8710.06912858
 30
0.0
 11
51983.08776969
 21
-8710.06912858
 31
0.0
  0
LINE
  5
67A
100
AcDbEntity
  8
Ech.1_5
 62
     7
  6
CONTINUOUS
100
AcDbLine
 10
51983.08776969
 20
-8710.06912858
 30
0.0
 11
51983.08776969
 21
-8712.06912858
 31
0.0
  0
LINE
  5
67B
100
AcDbEntity
  8
Ech.1_5
 62
     7
  6
CONTINUOUS
100
AcDbLine
 10
51983.08776969
 20
-8712.06912858
 30
0.0
 11
51982.08776969
 21
-8713.06912858
 31
0.0
  0
LINE
  5
67C
100
AcDbEntity
  8
Ech.1_5
 62
     7
  6
CONTINUOUS
100
AcDbLine
 10
51982.08776969
 20
-8713.06912858
 30
0.0
 11
51948.74128155
 21
-8713.06885913
 31
0.0
  0
LINE
  5
67D
100
AcDbEntity
  8
Ech.1_5
 62
     7
  6
CONTINUOUS
100
AcDbLine
 10
51948.74128155
 20
-8713.06885913
 30
0.0
 11
51946.57622357
 21
-8709.31886871
 31
0.0
  0
LINE
  5
67E
100
AcDbEntity
  8
Ech.1_5
 62
     7
  6
CONTINUOUS
100
AcDbLine
 10
51946.57622357
 20
-8709.31886871
 30
0.0
 11
51951.99235996
 21
-8709.31886871
 31
0.0
  0
LINE
  5
67F
100
AcDbEntity
  8
Ech.1_5
 62
     7
  6
CONTINUOUS
100
AcDbLine
 10
51951.99235996
 20
-8709.31886871
 30
0.0
 11
51951.99235996
 21
-8706.41886868
 31
0.0
  0
LINE
  5
680
100
AcDbEntity
  8
Ech.1_5
 62
     7
  6
CONTINUOUS
100
AcDbLine
 10
51951.99235996
 20
-8706.41886868
 30
0.0
 11
51942.52633461
 21
-8706.41886868
 31
0.0
  0
ARC
  5
681
100
AcDbEntity
  8
Ech.1_5
 62
     7
  6
CONTINUOUS
100
AcDbCircle
 10
51942.52633461
 20
-8705.41886868
 30
0.0
 40
1.0
100
AcDbArc
 50
180.00000083
 51
270.0
  0
LINE
  5
682
100
AcDbEntity
  8
Ech.1_5
 62
     7
  6
CONTINUOUS
100
AcDbLine
 10
51941.52633461
 20
-8705.4188687
 30
0.0
 11
51941.52633458
 21
-8703.07974454
 31
0.0
  0
LINE
  5
683
100
AcDbEntity
  8
Ech.1_5
 62
     7
  6
CONTINUOUS
100
AcDbLine
 10
51941.52633458
 20
-8703.07974454
 30
0.0
 11
51947.5263349
 21
-8698.87972615
 31
0.0
  0
LINE
  5
684
100
AcDbEntity
  8
Ech.1_5
 62
     7
  6
CONTINUOUS
100
AcDbLine
 10
51947.5263349
 20
-8698.87972615
 30
0.0
 11
51947.5263349
 21
-8694.67974448
 31
0.0
  0
LINE
  5
685
100
AcDbEntity
  8
Ech.1_5
 62
     7
  6
CONTINUOUS
100
AcDbLine
 10
51947.5263349
 20
-8694.67974448
 30
0.0
 11
51939.52633424
 21
-8693.26912852
 31
0.0
  0
LINE
  5
686
100
AcDbEntity
  8
Ech.1_5
 62
     7
  6
CONTINUOUS
100
AcDbLine
 10
51939.52633424
 20
-8693.26912852
 30
0.0
 11
51939.52633349
 21
-8691.26913074
 31
0.0
  0
LINE
  5
687
100
AcDbEntity
  8
Ech.1_5
 62
     7
  6
CONTINUOUS
100
AcDbLine
 10
51939.52633349
 20
-8691.26913074
 30
0.0
 11
51941.72633458
 21
-8691.26913074
 31
0.0
  0
LINE
  5
688
100
AcDbEntity
  8
Ech.1_5
 62
     7
  6
CONTINUOUS
100
AcDbLine
 10
51941.72633458
 20
-8691.26913074
 30
0.0
 11
51941.72633458
 21
-8689.26913074
 31
0.0
  0
LINE
  5
689
100
AcDbEntity
  8
Ech.1_5
 62
     7
  6
CONTINUOUS
100
AcDbLine
 10
51941.72633458
 20
-8689.26913074
 30
0.0
 11
51951.02633458
 21
-8689.26913074
 31
0.0
  0
LINE
  5
68A
100
AcDbEntity
  8
Ech.1_5
 62
     7
  6
CONTINUOUS
100
AcDbLine
 10
51951.02633458
 20
-8689.26913074
 30
0.0
 11
51951.02633458
 21
-8677.06913074
 31
0.0
  0
LINE
  5
68B
100
AcDbEntity
  8
Ech.1_5
 62
     7
  6
CONTINUOUS
100
AcDbLine
 10
51951.02633458
 20
-8677.06913074
 30
0.0
 11
51941.72633458
 21
-8677.06913074
 31
0.0
  0
LINE
  5
68C
100
AcDbEntity
  8
Ech.1_5
 62
     7
  6
CONTINUOUS
100
AcDbLine
 10
51941.72633458
 20
-8677.06913074
 30
0.0
 11
51941.72633458
 21
-8675.06913074
 31
0.0
  0
LINE
  5
68D
100
AcDbEntity
  8
Ech.1_5
 62
     7
  6
CONTINUOUS
100
AcDbLine
 10
51941.72633458
 20
-8675.06913074
 30
0.0
 11
51939.52632761
 21
-8675.06913074
 31
0.0
  0
LINE
  5
68E
100
AcDbEntity
  8
Ech.1_5
 62
     7
  6
CONTINUOUS
100
AcDbLine
 10
51939.52632761
 20
-8675.06913074
 30
0.0
 11
51939.52632728
 21
-8674.06912858
 31
0.0
  0
LINE
  5
68F
100
AcDbEntity
  8
Ech.1_5
 62
     7
  6
CONTINUOUS
100
AcDbLine
 10
51939.52632728
 20
-8674.06912858
 30
0.0
 11
51945.02632728
 21
-8674.06912858
 31
0.0
  0
LINE
  5
690
100
AcDbEntity
  8
Ech.1_5
 62
     7
  6
CONTINUOUS
100
AcDbLine
 10
51945.02632728
 20
-8674.06912858
 30
0.0
 11
51945.02632728
 21
-8671.06912858
 31
0.0
  0
LINE
  5
691
100
AcDbEntity
  8
Ech.1_5
 62
     7
  6
CONTINUOUS
100
AcDbLine
 10
51945.02632728
 20
-8671.06912858
 30
0.0
 11
51923.52632728
 21
-8671.06912858
 31
0.0
  0
ARC
  5
692
100
AcDbEntity
  8
Ech.1_5
 62
     7
  6
CONTINUOUS
100
AcDbCircle
 10
51923.52632728
 20
-8669.06912858
 30
0.0
 40
2.0
100
AcDbArc
 50
180.0
 51
270.0
  0
LINE
  5
693
100
AcDbEntity
  8
Ech.1_5
 62
     7
  6
CONTINUOUS
100
AcDbLine
 10
51921.52632728
 20
-8669.06912858
 30
0.0
 11
51921.52632728
 21
-8660.56912867
 31
0.0
  0
ARC
  5
694
100
AcDbEntity
  8
Ech.1_5
 62
     7
  6
CONTINUOUS
100
AcDbCircle
 10
51926.52632728
 20
-8660.56912867
 30
0.0
 40
5.0
100
AcDbArc
 50
89.99999541
 51
180.0
  0
LINE
  5
695
100
AcDbEntity
  8
Ech.1_5
 62
     7
  6
CONTINUOUS
100
AcDbLine
 10
51926.52632768
 20
-8655.56912867
 30
0.0
 11
51982.08777519
 21
-8655.56913408
 31
0.0
  0
LINE
  5
696
100
AcDbEntity
  8
Ech.1_5
 62
     7
  6
CONTINUOUS
100
AcDbLine
 10
51982.08777519
 20
-8655.56913408
 30
0.0
 11
51983.08776969
 21
-8656.56912858
 31
0.0
  0
LINE
  5
697
100
AcDbEntity
  8
Ech.1_5
 62
     7
  6
CONTINUOUS
100
AcDbLine
 10
51983.08776969
 20
-8656.56912858
 30
0.0
 11
51983.08776969
 21
-8658.56912858
 31
0.0
  0
LINE
  5
698
100
AcDbEntity
  8
Ech.1_5
 62
     7
  6
CONTINUOUS
100
AcDbLine
 10
51983.08776969
 20
-8658.56912858
 30
0.0
 11
51983.58776969
 21
-8658.56912858
 31
0.0
  0
ARC
  5
699
100
AcDbEntity
  8
Ech.1_5
 62
     7
  6
CONTINUOUS
100
AcDbCircle
 10
51983.58776969
 20
-8670.56912858
 30
0.0
 40
12.0
100
AcDbArc
 50
35.64346075
 51
90.0
  0
ARC
  5
69A
100
AcDbEntity
  8
Ech.1_5
 62
     7
  6
CONTINUOUS
100
AcDbCircle
 10
51992.52701833
 20
-8664.15899335
 30
0.0
 40
1.0
100
AcDbArc
 50
1.7717470685342E-09
 51
35.64346075
  0
LINE
  5
69B
100
AcDbEntity
  8
Ech.1_5
 62
     7
  6
CONTINUOUS
100
AcDbLine
 10
51993.52701833
 20
-8664.15899335
 30
0.0
 11
51993.52701833
 21
-8666.10306132
 31
0.0
  0
ARC
  5
69C
100
AcDbEntity
  8
Ech.1_5
 62
     7
  6
CONTINUOUS
100
AcDbCircle
 10
51992.05413606
 20
-8665.81912858
 30
0.0
 40
1.5
100
AcDbArc
 50
271.46692634
 51
349.08873544
  0
ARC
  5
69D
100
AcDbEntity
  8
Ech.1_5
 62
     7
  6
CONTINUOUS
100
AcDbCircle
 10
51990.09253596
 20
-8667.31912858
 30
0.0
 40
2.0
100
AcDbArc
 50
270.0
 51
0.01408321
  0
LINE
  5
69E
100
AcDbEntity
  8
Ech.1_5
 62
     7
  6
CONTINUOUS
100
AcDbLine
 10
51990.09253596
 20
-8669.31912858
 30
0.0
 11
51980.02411876
 21
-8669.31912858
 31
0.0
  0
ARC
  5
69F
100
AcDbEntity
  8
Ech.1_5
 62
     7
  6
CONTINUOUS
100
AcDbCircle
 10
51980.02411876
 20
-8672.31912858
 30
0.0
 40
3.0
100
AcDbArc
 50
90.0
 51
180.0000413
  0
LINE
  5
6A0
100
AcDbEntity
  8
Ech.1_5
 62
     7
  6
CONTINUOUS
100
AcDbLine
 10
51977.02411876
 20
-8672.31913074
 30
0.0
 11
51977.02413606
 21
-8696.31913074
 31
0.0
  0
LWPOLYLINE
  5
6A1
100
AcDbEntity
  8
Ech.1_5
 62
     7
  6
CONTINUOUS
100
AcDbPolyline
 90
        5
 70
     0
 43
0.0
 10
51924.7064545
 20
-8671.66912858
 42
-0.73157417
 10
51924.64289321
 20
-8673.12342603
 42
0.1352145
 10
51923.3360442
 20
-8672.88993693
 42
-0.92591457
 10
51923.3360442
 20
-8671.66912858
 10
51924.7064545
 20
-8671.66912858
  0
LWPOLYLINE
  5
6A2
100
AcDbEntity
  8
Ech.1_5
 62
     7
  6
CONTINUOUS
100
AcDbPolyline
 90
       65
 70
     0
 43
0.0
 10
51924.63592509
 20
-8673.12011099
 10
51924.67371695
 20
-8673.12988648
 10
51924.71122878
 20
-8673.13931328
 10
51924.74818252
 20
-8673.14804509
 10
51924.78430009
 20
-8673.15573563
 10
51924.8193034
 20
-8673.16203861
 10
51924.85291439
 20
-8673.16660775
 10
51924.88485497
 20
-8673.16909677
 10
51924.91484706
 20
-8673.16915937
 10
51924.94261258
 20
-8673.16644927
 10
51924.96787347
 20
-8673.16062019
 10
51924.99035163
 20
-8673.15132584
 10
51925.00976899
 20
-8673.13821993
 10
51925.02584747
 20
-8673.12095618
 10
51925.03842141
 20
-8673.09932397
 10
51925.04784247
 20
-8673.07373706
 10
51925.05461106
 20
-8673.04478872
 10
51925.05922762
 20
-8673.01307225
 10
51925.06219257
 20
-8672.97918095
 10
51925.06400634
 20
-8672.9437081
 10
51925.06516937
 20
-8672.90724699
 10
51925.06618206
 20
-8672.87039094
 10
51925.06754486
 20
-8672.83373321
 10
51925.06975819
 20
-8672.79786712
 10
51925.07332248
 20
-8672.76338595
 10
51925.07873816
 20
-8672.730883
 10
51925.08650565
 20
-8672.70095156
 10
51925.09712538
 20
-8672.67418492
 10
51925.11109778
 20
-8672.65117638
 10
51925.12892328
 20
-8672.63251923
 10
51925.15110231
 20
-8672.61880676
 10
51925.17809325
 20
-8672.61063241
 10
51925.20851592
 20
-8672.60859516
 10
51925.23847616
 20
-8672.61330165
 10
51925.26469152
 20
-8672.62506499
 10
51925.28677464
 20
-8672.64312469
 10
51925.30499865
 20
-8672.66647533
 10
51925.31963666
 20
-8672.6941115
 10
51925.33096178
 20
-8672.72502779
 10
51925.33924715
 20
-8672.75821877
 10
51925.34476587
 20
-8672.79267903
 10
51925.34779183
 20
-8672.82740855
 10
51925.34864759
 20
-8672.86175462
 10
51925.34773311
 20
-8672.89561618
 10
51925.34545519
 20
-8672.92894128
 10
51925.34222068
 20
-8672.96167794
 10
51925.33843638
 20
-8672.99377418
 10
51925.33450912
 20
-8673.02517805
 10
51925.33084572
 20
-8673.05583756
 10
51925.327853
 20
-8673.08570075
 10
51925.32593778
 20
-8673.11471565
 10
51925.3255069
 20
-8673.14283028
 10
51925.32696716
 20
-8673.16999268
 10
51925.33072539
 20
-8673.19615088
 10
51925.33718841
 20
-8673.2212529
 10
51925.34676304
 20
-8673.24524677
 10
51925.35973657
 20
-8673.26810729
 10
51925.37587791
 20
-8673.28992528
 10
51925.39481554
 20
-8673.31082301
 10
51925.41617793
 20
-8673.33092275
 10
51925.43959356
 20
-8673.35034677
 10
51925.4646909
 20
-8673.36921734
 10
51925.49109843
 20
-8673.38765673
 10
51925.51844461
 20
-8673.40578721
 10
51925.54635792
 20
-8673.42373104
  0
LWPOLYLINE
  5
6A3
100
AcDbEntity
  8
Ech.1_5
 62
     7
  6
CONTINUOUS
100
AcDbPolyline
 90
       40
 70
     0
 43
0.0
 10
51924.63592509
 20
-8673.12011099
 42
0.20099848
 10
51922.70648192
 20
-8673.03168191
 42
-0.55145662
 10
51922.57254913
 20
-8672.92837646
 42
0.1294239
 10
51922.38829199
 20
-8671.8099685
 42
-0.54354517
 10
51922.47957233
 20
-8671.66912858
 10
51924.7064545
 20
-8671.66912858
 10
51924.7064545
 20
-8671.66912858
 10
51925.2064545
 20
-8672.16912858
 10
51925.7064545
 20
-8671.66912858
 10
51938.82632728
 20
-8671.66912858
 42
-0.41421356
 10
51938.92632728
 20
-8671.76912858
 10
51938.92632728
 20
-8674.96912858
 42
0.41421356
 10
51939.02632728
 20
-8675.06912858
 10
51939.42632728
 20
-8675.06912858
 42
0.41421356
 10
51939.52632728
 20
-8674.96912858
 10
51939.52632728
 20
-8672.16912858
 42
-0.41421356
 10
51939.62632728
 20
-8672.06912858
 10
51942.07568346
 20
-8672.06912858
 42
-0.74863712
 10
51942.12973751
 20
-8672.25326038
 10
51940.17325827
 20
-8673.51028374
 42
0.41421356
 10
51940.14318053
 20
-8673.64846959
 10
51940.35939674
 20
-8673.98499678
 42
0.41421356
 10
51940.49758259
 20
-8674.01507452
 10
51943.48038133
 20
-8672.09864851
 42
0.25526652
 10
51943.52632728
 20
-8672.01451671
 10
51943.52632728
 20
-8671.16912858
 42
0.41421356
 10
51943.42632728
 20
-8671.06912858
 10
51921.82632728
 20
-8671.06912858
 42
0.41421356
 10
51921.72632728
 20
-8671.16912858
 10
51921.72632728
 20
-8671.63574704
 42
0.16012282
 10
51921.74582605
 20
-8671.69507285
 42
-0.24300643
 10
51921.99562108
 20
-8673.25956725
 42
-0.06909489
 10
51921.98349805
 20
-8673.28425828
 42
0.7595554
 10
51922.38965145
 20
-8673.76179612
 42
-0.27525427
 10
51924.42739399
 20
-8673.57460236
 42
0.2097
 10
51928.63098294
 20
-8673.64279216
 42
0.9750995
 10
51928.43756894
 20
-8673.18171621
 42
-0.15529906
 10
51925.5783688
 20
-8673.43701082
 42
-0.06565638
 10
51925.55380623
 20
-8673.42803897
 42
-0.02152095
 10
51925.54635792
 20
-8673.42373104
  0
LINE
  5
6A4
100
AcDbEntity
  8
Ech.1_5
 62
     7
  6
CONTINUOUS
100
AcDbLine
 10
51942.52633461
 20
-8706.41886868
 30
0.0
 11
51943.42633461
 21
-8706.41888129
 31
0.0
  0
LINE
  5
6A5
100
AcDbEntity
  8
Ech.1_5
 62
     7
  6
CONTINUOUS
100
AcDbLine
 10
51943.42631781
 20
-8707.6188813
 30
0.0
 11
51945.52774732
 21
-8707.61891073
 31
0.0
  0
LINE
  5
6A6
100
AcDbEntity
  8
Ech.1_5
 62
     7
  6
CONTINUOUS
100
AcDbLine
 10
51946.38391191
 20
-8706.41892273
 30
0.0
 11
51946.88391191
 21
-8706.41892974
 31
0.0
  0
LINE
  5
6A7
100
AcDbEntity
  8
Ech.1_5
 62
     7
  6
CONTINUOUS
100
AcDbLine
 10
51943.42631781
 20
-8707.6188813
 30
0.0
 11
51943.42633462
 21
-8706.41888129
 31
0.0
  0
LINE
  5
6A8
100
AcDbEntity
  8
Ech.1_5
 62
     7
  6
CONTINUOUS
100
AcDbLine
 10
51943.42633461
 20
-8706.41888129
 30
0.0
 11
51946.38391191
 21
-8706.41892273
 31
0.0
  0
LINE
  5
6A9
100
AcDbEntity
  8
Ech.1_5
 62
     7
  6
CONTINUOUS
100
AcDbLine
 10
51949.54910282
 20
-8707.61896704
 30
0.0
 11
51949.57750244
 21
-8707.61896744
 31
0.0
  0
LINE
  5
6AA
100
AcDbEntity
  8
Ech.1_5
 62
     7
  6
CONTINUOUS
100
AcDbLine
 10
51950.31988561
 20
-8707.61897784
 30
0.0
 11
51951.2234751
 21
-8707.61899049
 31
0.0
  0
LINE
  5
6AB
100
AcDbEntity
  8
Ech.1_5
 62
     7
  6
CONTINUOUS
100
AcDbLine
 10
51948.44779562
 20
-8707.61895162
 30
0.0
 11
51949.54910282
 21
-8707.61896704
 31
0.0
  0
ARC
  5
6AC
100
AcDbEntity
  8
Ech.1_5
 62
     7
  6
CONTINUOUS
100
AcDbCircle
 10
51950.22347465
 20
-8707.65102676
 30
0.0
 40
1.0
100
AcDbArc
 50
329.99915112
 51
359.99919763
  0
ARC
  5
6AD
100
AcDbEntity
  8
Ech.1_5
 62
     7
  6
CONTINUOUS
100
AcDbCircle
 10
51950.4234807
 20
-8707.21897919
 30
0.0
 40
0.8
100
AcDbArc
 50
359.99919763
 51
89.99234457
  0
LINE
  5
6AE
100
AcDbEntity
  8
Ech.1_5
 62
     7
  6
CONTINUOUS
100
AcDbLine
 10
51951.22347465
 20
-8707.65104076
 30
0.0
 11
51951.2234807
 21
-8707.2189904
 31
0.0
  0
LINE
  5
6AF
100
AcDbEntity
  8
Ech.1_5
 62
     7
  6
CONTINUOUS
100
AcDbLine
 10
51950.42358759
 20
-8706.4189792
 30
0.0
 11
51950.2247774
 21
-8706.41897642
 31
0.0
  0
LINE
  5
6B0
100
AcDbEntity
  8
Ech.1_5
 62
     7
  6
CONTINUOUS
100
AcDbLine
 10
51950.2247774
 20
-8706.41897642
 30
0.0
 11
51950.08502967
 21
-8706.41897446
 31
0.0
  0
LINE
  5
6B1
100
AcDbEntity
  8
Ech.1_5
 62
     7
  6
CONTINUOUS
100
AcDbLine
 10
51949.57750244
 20
-8707.61896744
 30
0.0
 11
51950.31988561
 21
-8707.61897784
 31
0.0
  0
LINE
  5
6B2
100
AcDbEntity
  8
Ech.1_5
 62
     7
  6
CONTINUOUS
100
AcDbLine
 10
51945.52774732
 20
-8707.61891073
 30
0.0
 11
51948.44779562
 21
-8707.61895162
 31
0.0
  0
LINE
  5
6B3
100
AcDbEntity
  8
Ech.1_5
 62
     7
  6
CONTINUOUS
100
AcDbLine
 10
51950.08502967
 20
-8706.41897446
 30
0.0
 11
51946.88391191
 21
-8706.41892974
 31
0.0
  0
HATCH
  5
6B4
100
AcDbEntity
  8
Ech.1_5
 62
     7
100
AcDbHatch
 10
0.0
 20
0.0
 30
0.0
210
0.0
220
0.0
230
1.0
  2
_USER_1
 70
     0
 71
     0
 91
        1
 92
        7
 72
     0
 73
     1
 93
       19
 10
51951.2234807
 20
-8707.2189904
 10
51951.21534069
 20
-8707.10514702
 10
51951.19108314
 20
-8706.99362059
 10
51951.15120179
 20
-8706.88668111
 10
51951.0965084
 20
-8706.78650524
 10
51951.02811618
 20
-8706.69513194
 10
51950.9474172
 20
-8706.61442105
 10
51950.856054
 20
-8706.54601535
 10
51950.7558862
 20
-8706.49130716
 10
51950.64895261
 20
-8706.45141003
 10
51950.53742976
 20
-8706.42713602
 10
51950.42358759
 20
-8706.4189792
 10
51950.2247774
 20
-8706.41897642
 10
51950.08502967
 20
-8706.41897446
 10
51946.88391191
 20
-8706.41892974
 10
51946.38391191
 20
-8706.41892273
 10
51943.42633462
 20
-8706.41888129
 10
51943.42631781
 20
-8707.6188813
 10
51951.2234751
 20
-8707.61899049
 97
        0
 75
     0
 76
     2
 52
0.0
 41
1.0
 77
     0
 78
     1
 53
135.00079346
 43
0.0
 44
0.0
 45
-1.76774247
 46
-1.76779143
 79
     2
 49
50.0
 49
0.0
 47
0.775229
 98
        1
 10
0.0
 20
0.0
  0
ARC
  5
6B5
100
AcDbEntity
  8
Ech.1_5
 62
     7
  6
CONTINUOUS
100
AcDbCircle
 10
51945.22772219
 20
-8709.41314238
 30
0.0
 40
0.3
100
AcDbArc
 50
269.99919761
 51
359.99919764
  0
LINE
  5
6B6
100
AcDbEntity
  8
Ech.1_5
 62
     7
  6
CONTINUOUS
100
AcDbLine
 10
51943.72628848
 20
-8709.71312136
 30
0.0
 11
51945.22771799
 21
-8709.71314238
 31
0.0
  0
ARC
  5
6B7
100
AcDbEntity
  8
Ech.1_5
 62
     7
  6
CONTINUOUS
100
AcDbCircle
 10
51946.17653497
 20
-8710.81315567
 30
0.0
 40
0.3
100
AcDbArc
 50
29.99919765
 51
89.9991976
  0
ARC
  5
6B8
100
AcDbEntity
  8
Ech.1_5
 62
     7
  6
CONTINUOUS
100
AcDbCircle
 10
51943.70017064
 20
-8710.81312099
 30
0.0
 40
0.3
100
AcDbArc
 50
89.99919763
 51
171.6629777
  0
ARC
  5
6B9
100
AcDbEntity
  8
Ech.1_5
 62
     7
  6
CONTINUOUS
100
AcDbCircle
 10
51943.72629268
 20
-8709.41312136
 30
0.0
 40
0.3
100
AcDbArc
 50
179.99919762
 51
269.99919764
  0
ARC
  5
6BA
100
AcDbEntity
  8
Ech.1_5
 62
     7
  6
CONTINUOUS
100
AcDbCircle
 10
51947.39232493
 20
-8708.91893674
 30
0.0
 40
1.0
100
AcDbArc
 50
179.99919763
 51
209.99919763
  0
ARC
  5
6BB
100
AcDbEntity
  8
Ech.1_5
 62
     7
  6
CONTINUOUS
100
AcDbCircle
 10
51947.18480492
 20
-8711.55956268
 30
0.0
 40
0.2
100
AcDbArc
 50
209.99919763
 51
269.99919763
  0
LINE
  5
6BC
100
AcDbEntity
  8
Ech.1_5
 62
     7
  6
CONTINUOUS
100
AcDbLine
 10
51946.17653917
 20
-8710.51315567
 30
0.0
 11
51943.70017485
 21
-8710.51312099
 31
0.0
  0
LINE
  5
6BD
100
AcDbEntity
  8
Ech.1_5
 62
     7
  6
CONTINUOUS
100
AcDbLine
 10
51947.01159844
 20
-8711.65956026
 30
0.0
 11
51946.43634469
 21
-8710.66315931
 31
0.0
  0
ARC
  5
6BE
100
AcDbEntity
  8
Ech.1_5
 62
     7
  6
CONTINUOUS
100
AcDbCircle
 10
51943.24148321
 20
-8712.69611259
 30
0.0
 40
0.71967841
100
AcDbArc
 50
186.36827941
 51
272.15422192
  0
ARC
  5
6BF
100
AcDbEntity
  8
Ech.1_5
 62
     7
  6
CONTINUOUS
100
AcDbCircle
 10
51943.44063882
 20
-8713.00659994
 30
0.0
 40
0.2
100
AcDbArc
 50
94.75462471
 51
160.23931182
  0
ARC
  5
6C0
100
AcDbEntity
  8
Ech.1_5
 62
     7
  6
CONTINUOUS
100
AcDbCircle
 10
51946.03019836
 20
-8713.12216587
 30
0.0
 40
0.3
100
AcDbArc
 50
41.62452238
 51
94.75462473
  0
ARC
  5
6C1
100
AcDbEntity
  8
Ech.1_5
 62
     7
  6
CONTINUOUS
100
AcDbCircle
 10
51943.15542922
 20
-8712.81508772
 30
0.0
 40
0.15734085
100
AcDbArc
 50
100.68854033
 51
308.05468957
  0
ARC
  5
6C2
100
AcDbEntity
  8
Ech.1_5
 62
     7
  6
CONTINUOUS
100
AcDbCircle
 10
51946.41681826
 20
-8712.84313086
 30
0.0
 40
0.18089908
100
AcDbArc
 50
206.16228875
 51
94.07750255
  0
LINE
  5
6C3
100
AcDbEntity
  8
Ech.1_5
 62
     7
  6
CONTINUOUS
100
AcDbLine
 10
51943.42406109
 20
-8712.80728818
 30
0.0
 11
51946.00533176
 21
-8712.82319823
 31
0.0
  0
LINE
  5
6C4
100
AcDbEntity
  8
Ech.1_5
 62
     7
  6
CONTINUOUS
100
AcDbLine
 10
51943.40334095
 20
-8710.76962232
 30
0.0
 11
51943.12624721
 21
-8712.66047676
 31
0.0
  0
ARC
  5
6C5
100
AcDbEntity
  8
Ech.1_5
 62
     7
  6
CONTINUOUS
100
AcDbCircle
 10
51948.08509769
 20
-8712.31894652
 30
0.0
 40
0.1
100
AcDbArc
 50
273.32793489
 51
29.99919762
  0
ARC
  5
6C6
100
AcDbEntity
  8
Ech.1_5
 62
     7
  6
CONTINUOUS
100
AcDbCircle
 10
51948.04450062
 20
-8711.62078855
 30
0.0
 40
0.79933731
100
AcDbArc
 50
262.62351877
 51
273.32793487
  0
ARC
  5
6C7
100
AcDbEntity
  8
Ech.1_5
 62
     7
  6
CONTINUOUS
100
AcDbCircle
 10
51949.27013657
 20
-8708.62048055
 30
0.0
 40
0.3
100
AcDbArc
 50
123.72102228
 51
293.65562082
  0
LINE
  5
6C8
100
AcDbEntity
  8
Ech.1_5
 62
     7
  6
CONTINUOUS
100
AcDbLine
 10
51948.17170093
 20
-8712.26894773
 30
0.0
 11
51946.52629253
 21
-8709.41892461
 31
0.0
  0
ARC
  5
6C9
100
AcDbEntity
  8
Ech.1_5
 62
     7
  6
CONTINUOUS
100
AcDbCircle
 10
51947.27371502
 20
-8708.62843826
 30
0.0
 40
0.3
100
AcDbArc
 50
130.57753821
 51
300.51213674
  0
LINE
  5
6CA
100
AcDbEntity
  8
Ech.1_5
 62
     7
  6
CONTINUOUS
100
AcDbLine
 10
51951.08949265
 20
-8708.15103959
 30
0.0
 11
51949.3905081
 21
-8708.89527264
 31
0.0
  0
LINE
  5
6CB
100
AcDbEntity
  8
Ech.1_5
 62
     7
  6
CONTINUOUS
100
AcDbLine
 10
51942.52624559
 20
-8712.77593841
 30
0.0
 11
51942.52633461
 21
-8706.41886868
 31
0.0
  0
LINE
  5
6CC
100
AcDbEntity
  8
Ech.1_5
 62
     7
  6
CONTINUOUS
100
AcDbLine
 10
51945.52774732
 20
-8707.61891073
 30
0.0
 11
51945.52772219
 21
-8709.41314658
 31
0.0
  0
LINE
  5
6CD
100
AcDbEntity
  8
Ech.1_5
 62
     7
  6
CONTINUOUS
100
AcDbLine
 10
51943.42629268
 20
-8709.41311715
 30
0.0
 11
51943.42631781
 21
-8707.6188813
 31
0.0
  0
LINE
  5
6CE
100
AcDbEntity
  8
Ech.1_5
 62
     7
  6
CONTINUOUS
100
AcDbLine
 10
51946.39234314
 20
-8707.61892284
 30
0.0
 11
51946.39232493
 21
-8708.91892273
 31
0.0
  0
LINE
  5
6CF
100
AcDbEntity
  8
Ech.1_5
 62
     7
  6
CONTINUOUS
100
AcDbLine
 10
51950.23024061
 20
-8707.61897658
 30
0.0
 11
51949.10359168
 21
-8708.3709554
 31
0.0
  0
LINE
  5
6D0
100
AcDbEntity
  8
Ech.1_5
 62
     7
  6
CONTINUOUS
100
AcDbLine
 10
51947.99124528
 20
-8707.61894523
 30
0.0
 11
51947.07857206
 21
-8708.40058035
 31
0.0
  0
LINE
  5
6D1
100
AcDbEntity
  8
Ech.1_5
 62
     7
  6
CONTINUOUS
100
AcDbLine
 10
51949.57750244
 20
-8707.61896744
 30
0.0
 11
51947.42603128
 21
-8708.88689475
 31
0.0
  0
ARC
  5
6D2
100
AcDbEntity
  8
Ech.1_5
 62
     7
  6
CONTINUOUS
100
AcDbCircle
 10
51947.92484732
 20
-8713.06814397
 30
0.0
 40
0.35
100
AcDbArc
 50
44.75462477
 51
82.47710653
  0
ARC
  5
6D3
100
AcDbEntity
  8
Ech.1_5
 62
     7
  6
CONTINUOUS
100
AcDbCircle
 10
51947.92484732
 20
-8713.06814397
 30
0.0
 40
0.35
100
AcDbArc
 50
274.75462471
 51
314.75462477
  0
ARC
  5
6D4
100
AcDbEntity
  8
Ech.1_5
 62
     7
  6
CONTINUOUS
100
AcDbCircle
 10
51947.92484732
 20
-8713.06814397
 30
0.0
 40
0.35
100
AcDbArc
 50
314.75462473
 51
44.75462474
  0
LINE
  5
6D5
100
AcDbEntity
  8
Ech.1_5
 62
     7
  6
CONTINUOUS
100
AcDbLine
 10
51943.2685355
 20
-8713.41528238
 30
0.0
 11
51947.95385835
 21
-8713.41693956
 31
0.0
  0
LINE
  5
6D6
100
AcDbEntity
  8
Ech.1_5
 62
     7
  6
CONTINUOUS
100
AcDbLine
 10
51947.97067014
 20
-8712.72115655
 30
0.0
 11
51947.13439104
 21
-8712.48728846
 31
0.0
  0
ARC
  5
6D7
100
AcDbEntity
  8
Ech.1_5
 62
     7
  6
CONTINUOUS
100
AcDbCircle
 10
51947.15454839
 20
-8711.88673582
 30
0.0
 40
0.13072221
100
AcDbArc
 50
175.44010616
 51
76.61841137
  0
LINE
  5
6D8
100
AcDbEntity
  8
Ech.1_5
 62
     7
  6
CONTINUOUS
100
AcDbLine
 10
51947.94187488
 20
-8712.4135105
 30
0.0
 11
51946.96708279
 21
-8712.24745305
 31
0.0
  0
LINE
  5
6D9
100
AcDbEntity
  8
Ech.1_5
 62
     7
  6
CONTINUOUS
100
AcDbLine
 10
51946.40395529
 20
-8712.66268967
 30
0.0
 11
51945.72670162
 21
-8712.56753984
 31
0.0
  0
ARC
  5
6DA
100
AcDbEntity
  8
Ech.1_5
 62
     7
  6
CONTINUOUS
100
AcDbCircle
 10
51945.80627056
 20
-8711.71507761
 30
0.0
 40
0.85616766
100
AcDbArc
 50
220.10312531
 51
264.6674548
  0
ARC
  5
6DB
100
AcDbEntity
  8
Ech.1_5
 62
     7
  6
CONTINUOUS
100
AcDbCircle
 10
51945.2278883
 20
-8712.20217462
 30
0.0
 40
0.1
100
AcDbArc
 50
138.94922937
 51
220.10312529
  0
ARC
  5
6DC
100
AcDbEntity
  8
Ech.1_5
 62
     7
  6
CONTINUOUS
100
AcDbCircle
 10
51945.80627056
 20
-8711.71507761
 30
0.0
 40
0.85616766
100
AcDbArc
 50
146.09413301
 51
179.34195759
  0
ARC
  5
6DD
100
AcDbEntity
  8
Ech.1_5
 62
     7
  6
CONTINUOUS
100
AcDbCircle
 10
51945.1786853
 20
-8711.29326453
 30
0.0
 40
0.1
100
AcDbArc
 50
65.12726579
 51
146.09413304
  0
ARC
  5
6DE
100
AcDbEntity
  8
Ech.1_5
 62
     7
  6
CONTINUOUS
100
AcDbCircle
 10
51945.80627056
 20
-8711.71507761
 30
0.0
 40
0.45616766
100
AcDbArc
 50
108.45221529
 51
264.66745481
  0
ARC
  5
6DF
100
AcDbEntity
  8
Ech.1_5
 62
     7
  6
CONTINUOUS
100
AcDbCircle
 10
51944.10556475
 20
-8722.42802757
 30
0.0
 40
10.39192391
100
AcDbArc
 50
73.05463793
 51
80.8176593
  0
ARC
  5
6E0
100
AcDbEntity
  8
Ech.1_5
 62
     7
  6
CONTINUOUS
100
AcDbCircle
 10
51947.00131183
 20
-8711.84046372
 30
0.0
 40
0.40842618
100
AcDbArc
 50
226.93764348
 51
265.19256515
  0
LINE
  5
6E1
100
AcDbEntity
  8
Ech.1_5
 62
     7
  6
CONTINUOUS
100
AcDbLine
 10
51947.02423995
 20
-8711.87634325
 30
0.0
 11
51946.23889345
 21
-8710.97349478
 31
0.0
  0
LINE
  5
6E2
100
AcDbEntity
  8
Ech.1_5
 62
     7
  6
CONTINUOUS
100
AcDbLine
 10
51946.72244092
 20
-8712.13886439
 30
0.0
 11
51945.99649561
 21
-8711.30430459
 31
0.0
  0
ARC
  5
6E3
100
AcDbEntity
  8
Ech.1_5
 62
     7
  6
CONTINUOUS
100
AcDbCircle
 10
51945.79093295
 20
-8711.87675975
 30
0.0
 40
1.00824413
100
AcDbArc
 50
63.62158809
 51
101.93839715
  0
ARC
  5
6E4
100
AcDbEntity
  8
Ech.1_5
 62
     7
  6
CONTINUOUS
100
AcDbCircle
 10
51945.79093295
 20
-8711.87675975
 30
0.0
 40
0.60824413
100
AcDbArc
 50
70.24731714
 51
102.24902163
  0
ARC
  5
6E5
100
AcDbEntity
  8
Ech.1_5
 62
     7
  6
CONTINUOUS
100
AcDbCircle
 10
51945.00032754
 20
-8712.00400477
 30
0.0
 40
0.20175353
100
AcDbArc
 50
318.94922937
 51
80.49585351
  0
ARC
  5
6E6
100
AcDbEntity
  8
Ech.1_5
 62
     7
  6
CONTINUOUS
100
AcDbCircle
 10
51945.05015277
 20
-8711.70639321
 30
0.0
 40
0.1
100
AcDbArc
 50
179.3419576
 51
260.49585348
  0
ARC
  5
6E7
100
AcDbEntity
  8
Ech.1_5
 62
     7
  6
CONTINUOUS
100
AcDbCircle
 10
51945.30486654
 20
-8711.02109125
 30
0.0
 40
0.2
100
AcDbArc
 50
245.12726578
 51
6.30202511
  0
ARC
  5
6E8
100
AcDbEntity
  8
Ech.1_5
 62
     7
  6
CONTINUOUS
100
AcDbCircle
 10
51945.60305366
 20
-8710.98816042
 30
0.0
 40
0.1
100
AcDbArc
 50
101.93839713
 51
186.30202511
  0
LWPOLYLINE
  5
6E9
100
AcDbEntity
  8
Ech.1_5
 62
     7
  6
CONTINUOUS
100
AcDbPolyline
 90
       99
 70
     0
 43
0.0
 10
51991.24827071
 20
-8671.092329
 10
51987.87765469
 20
-8672.3191329
 10
51982.92412308
 20
-8672.3191329
 10
51982.62412308
 20
-8672.0191329
 10
51981.92412308
 20
-8672.0191329
 42
0.95548796
 10
51981.88775944
 20
-8672.81747658
 42
-0.38779458
 10
51982.02412308
 20
-8672.96685546
 10
51982.02412308
 20
-8676.20201644
 42
-0.34415073
 10
51981.91050342
 20
-8676.34753782
 10
51981.33774274
 20
-8676.49072799
 42
0.34415073
 10
51981.22412308
 20
-8676.63624936
 10
51981.22412308
 20
-8692.00201644
 42
0.34415073
 10
51981.33774274
 20
-8692.14753782
 10
51981.91050342
 20
-8692.29072799
 42
-0.34415073
 10
51982.02412308
 20
-8692.43624936
 10
51982.02412308
 20
-8695.67141035
 42
-0.38779458
 10
51981.88775944
 20
-8695.82078923
 42
0.95548796
 10
51981.92412308
 20
-8696.6191329
 10
51982.62412308
 20
-8696.6191329
 10
51982.92412308
 20
-8696.3191329
 10
51987.87765469
 20
-8696.3191329
 10
51991.22285718
 20
-8697.53668704
 42
1.10738051
 10
51991.31338653
 20
-8697.28795969
 10
51990.0117969
 20
-8696.9594264
 42
-0.93251509
 10
51990.12480292
 20
-8696.32093304
 10
51992.54580522
 20
-8696.64777686
 42
0.18531675
 10
51993.19969115
 20
-8696.49309771
 42
-0.15081813
 10
51993.76330969
 20
-8696.3191329
 10
51994.05457141
 20
-8696.3191329
 10
51995.05457141
 20
-8696.3191329
 42
-0.30843151
 10
51995.41018419
 20
-8696.57635708
 42
-0.26795044
 10
51993.16862423
 20
-8701.84298857
 42
-0.52171267
 10
51992.92618203
 20
-8701.80097693
 42
0.15565301
 10
51991.82375849
 20
-8700.96991941
 10
51992.02412308
 20
-8699.312519
 42
0.31529879
 10
51991.89252711
 20
-8699.12458048
 10
51989.2171747
 20
-8698.15083183
 42
0.87140053
 10
51989.17087938
 20
-8698.23840824
 10
51989.8893828
 20
-8698.75516858
 42
-1.00812133
 10
51989.58019294
 20
-8699.27539978
 10
51987.27539363
 20
-8697.79817579
 42
0.14346618
 10
51987.00558795
 20
-8697.7191329
 10
51985.42435235
 20
-8697.7191329
 42
0.72472287
 10
51985.36518876
 20
-8697.89975343
 10
51986.25351603
 20
-8698.5516549
 42
-0.94855512
 10
51985.7878474
 20
-8699.26129108
 10
51983.83802808
 20
-8697.81732077
 42
0.16072186
 10
51983.54045959
 20
-8697.7191329
 10
51981.98262267
 20
-8697.7191329
 42
-0.08748866
 10
51981.91421864
 20
-8697.70707143
 10
51980.12282006
 20
-8697.05505567
 42
-0.31529879
 10
51980.02412308
 20
-8696.91410177
 10
51980.02412308
 20
-8695.53624936
 42
-0.34415073
 10
51980.13774274
 20
-8695.39072799
 10
51980.71050342
 20
-8695.24753782
 42
0.34415073
 10
51980.82412308
 20
-8695.10201644
 10
51980.82412308
 20
-8693.33624936
 42
0.34415073
 10
51980.71050342
 20
-8693.19072799
 10
51980.13774274
 20
-8693.04753782
 42
-0.34415073
 10
51980.02412308
 20
-8692.90201644
 10
51980.02412308
 20
-8675.73624936
 42
-0.34415073
 10
51980.13774274
 20
-8675.59072799
 10
51980.71050342
 20
-8675.44753782
 42
0.34415073
 10
51980.82412308
 20
-8675.30201644
 10
51980.82412308
 20
-8673.53624936
 42
0.34415073
 10
51980.71050342
 20
-8673.39072799
 10
51980.13774274
 20
-8673.24753782
 42
-0.34415073
 10
51980.02412308
 20
-8673.10201644
 10
51980.02412308
 20
-8671.72416403
 42
-0.31529879
 10
51980.12282006
 20
-8671.58321014
 10
51981.91421864
 20
-8670.93119438
 42
-0.08748866
 10
51981.98262267
 20
-8670.9191329
 10
51983.54045959
 20
-8670.9191329
 42
0.16072186
 10
51983.83802808
 20
-8670.82094504
 10
51985.7878474
 20
-8669.37697472
 42
-0.94855512
 10
51986.25351603
 20
-8670.0866109
 10
51985.36518876
 20
-8670.73851238
 42
0.72472287
 10
51985.42435235
 20
-8670.9191329
 10
51987.00558795
 20
-8670.9191329
 42
0.14346618
 10
51987.27539363
 20
-8670.84009002
 10
51989.58019294
 20
-8669.36286602
 42
-1.00812133
 10
51989.8893828
 20
-8669.88309723
 10
51989.17087938
 20
-8670.39985757
 42
0.87140053
 10
51989.2171747
 20
-8670.48743397
 10
51991.89252711
 20
-8669.51368533
 42
0.31529879
 10
51992.02412308
 20
-8669.32574681
 10
51991.82375849
 20
-8667.66830608
 42
0.15565608
 10
51992.92616375
 20
-8666.83726961
 42
-0.52171267
 10
51993.16860595
 20
-8666.79525797
 42
-0.26794928
 10
51995.41018419
 20
-8672.06190873
 42
-0.30843151
 10
51995.05457141
 20
-8672.3191329
 10
51994.05457141
 20
-8672.3191329
 10
51993.76330969
 20
-8672.3191329
 42
-0.15081813
 10
51993.19969115
 20
-8672.1451681
 42
0.18531675
 10
51992.54580522
 20
-8671.99048895
 10
51990.12480292
 20
-8672.31733277
 42
-0.93251509
 10
51990.0117969
 20
-8671.67883941
 10
51991.31338653
 20
-8671.35030612
 42
1.10738051
 10
51991.22285718
 20
-8671.10157877
  0
LWPOLYLINE
  5
6EA
100
AcDbEntity
  8
Ech.1_5
 62
     7
  6
CONTINUOUS
100
AcDbPolyline
 90
        4
 70
     0
 43
0.0
 10
51867.08741983
 20
-8674.06986706
 10
51934.52604985
 20
-8674.06944027
 42
-0.41421752
 10
51935.52606336
 20
-8675.06944027
 10
51935.52606336
 20
-8685.06992297
  0
LWPOLYLINE
  5
6EB
100
AcDbEntity
  8
Ech.1_5
 62
     7
  6
CONTINUOUS
100
AcDbPolyline
 90
       18
 70
     0
 43
0.0
 10
51935.52606336
 20
-8685.06992297
 10
51935.52606336
 20
-8705.05892598
 42
-0.36397023
 10
51934.69971154
 20
-8706.04373373
 10
51932.24485426
 20
-8706.4765913
 42
0.31529879
 10
51931.43369469
 20
-8707.28775088
 10
51930.5330092
 20
-8712.39579209
 42
0.46630766
 10
51931.51781696
 20
-8713.56944027
 10
51952.53105422
 20
-8713.56944027
 42
-0.44001053
 10
51953.52724892
 20
-8714.65659601
 10
51952.20725366
 20
-8729.74421079
 42
-0.38887999
 10
51950.21485551
 20
-8731.56989931
 10
51920.52323257
 20
-8731.56976924
 10
51902.50162879
 20
-8731.5696903
 42
-0.40824515
 10
51901.52210143
 20
-8730.56984614
 10
51901.52217129
 20
-8729.26988591
 10
51868.08664019
 20
-8729.26983002
 42
-0.41421487
 10
51867.08665416
 20
-8728.26981159
 10
51867.08745055
 20
-8674.06986706
  0
LINE
  5
6EC
100
AcDbEntity
  8
Ech.1_5
 62
     7
  6
CONTINUOUS
100
AcDbLine
 10
51982.02412308
 20
-8696.31912642
 30
0.0
 11
52028.29048039
 21
-8696.31912642
 31
0.0
  0
LINE
  5
6ED
100
AcDbEntity
  8
Ech.1_5
 62
     7
  6
CONTINUOUS
100
AcDbLine
 10
51982.02412308
 20
-8692.31912642
 30
0.0
 11
52028.29048039
 21
-8692.3191329
 31
0.0
  0
LINE
  5
6EE
100
AcDbEntity
  8
Ech.1_5
 62
     7
  6
CONTINUOUS
100
AcDbLine
 10
51982.02412308
 20
-8676.31912642
 30
0.0
 11
52028.29048039
 21
-8676.3191329
 31
0.0
  0
LINE
  5
6EF
100
AcDbEntity
  8
Ech.1_5
 62
     7
  6
CONTINUOUS
100
AcDbLine
 10
51982.02412308
 20
-8672.31912642
 30
0.0
 11
52028.29048039
 21
-8672.3191329
 31
0.0
  0
LWPOLYLINE
  5
6F0
100
AcDbEntity
  8
Ech.1_5
 62
   190
  6
CONTINUOUS
370
    -3
100
AcDbPolyline
 90
        4
 70
     1
 43
0.0
 10
51865.08951123
 20
-8780.00332772
 10
51874.52217129
 20
-8780.00332772
 10
51874.52305486
 20
-8729.26988591
 10
51865.0903948
 20
-8729.26988591
  0
LWPOLYLINE
  5
6F1
100
AcDbEntity
  8
Ech.1_5
 62
   190
  6
CONTINUOUS
370
    -3
100
AcDbPolyline
 90
        4
 70
     0
 43
0.0
 10
51874.52305486
 20
-8729.26988591
 10
51865.08951123
 20
-8780.00332772
 10
51874.52217129
 20
-8780.00332772
 10
51865.0903948
 20
-8729.26988591
  0
LWPOLYLINE
  5
6F2
100
AcDbEntity
  8
Ech.1_5
 62
   190
  6
CONTINUOUS
370
    -3
100
AcDbPolyline
 90
        5
 70
     0
 43
0.0
 10
52532.16374177
 20
-8157.40601397
 10
51547.16374177
 20
-8157.40601397
 10
51547.16374177
 20
-9512.40601397
 10
52532.16374177
 20
-9512.40601397
 10
52532.16374177
 20
-8157.40601397
  0
LWPOLYLINE
  5
6F3
100
AcDbEntity
  8
Ech.1_5
 62
   190
  6
CONTINUOUS
370
    -3
100
AcDbPolyline
 90
        4
 70
     1
 43
0.0
 10
51865.08951123
 20
-8825.16983938
 10
51865.08951123
 20
-8800.16983938
 10
51815.08951123
 20
-8800.16983938
 10
51815.08951123
 20
-8825.16983938
  0
LWPOLYLINE
  5
6F4
100
AcDbEntity
  8
Ech.1_5
 62
   190
  6
CONTINUOUS
370
    -3
100
AcDbPolyline
 90
        4
 70
     1
 43
0.0
 10
51865.08951123
 20
-8800.16983938
 10
51815.08951123
 20
-8800.16983938
 10
51815.08951123
 20
-8825.16983938
 10
51865.08951123
 20
-8825.16983938
  0
LWPOLYLINE
  5
6F5
100
AcDbEntity
  8
Ech.1_5
 62
     7
  6
CONTINUOUS
370
    -3
100
AcDbPolyline
 90
        4
 70
     1
 43
0.0
 10
51579.92254299
 20
-8845.16983938
 10
51865.08951123
 20
-8845.16983938
 10
51865.08951123
 20
-8825.16983938
 10
51579.92254299
 20
-8825.16983938
  0
LINE
  5
6F6
100
AcDbEntity
  8
Ech.1_5
 62
   177
  6
DASHEDX2
 48
0.89999998
370
    70
100
AcDbLine
 10
52028.29048039
 20
-8776.37183938
 30
0.0
 11
51873.48723797
 21
-8776.36739918
 31
0.0
  0
LWPOLYLINE
  5
6F7
100
AcDbEntity
  8
Ech.1_5
 62
   177
  6
CONTINUOUS
370
    70
100
AcDbPolyline
 90
        6
 70
     0
 43
0.0
 10
52028.29048039
 20
-8860.16983938
 10
52019.38874399
 20
-8860.16983938
 10
51873.48592692
 20
-8860.16983938
 10
51873.48592692
 20
-8847.17115812
 10
51873.48592692
 20
-8847.17142279
 10
51873.48941376
 20
-8776.36922414
  0
LWPOLYLINE
  5
6F8
100
AcDbEntity
  8
Ech.1_5
 62
     5
  6
CONTINUOUS
370
    -3
100
AcDbPolyline
 90
        5
 70
     0
 43
0.0
 10
51865.08951123
 20
-8800.16983938
 10
51815.08951123
 20
-8800.16983938
 10
51815.08951123
 20
-8825.16983938
 10
51865.08951123
 20
-8825.16983938
 10
51865.08951123
 20
-8800.16983938
  0
LWPOLYLINE
  5
6F9
100
AcDbEntity
  8
Ech.1_5
 62
   150
  6
CADWORK_22
370
    35
100
AcDbPolyline
 90
        3
 70
     0
 43
0.0
 38
2500.0
 10
51579.92254681
 20
-8801.66983938
 10
51865.08951123
 20
-8801.66983938
 10
51865.08951123
 20
-8707.61967346
  0
LWPOLYLINE
  5
6FA
102
{ACAD_REACTORS
330
6FB
102
}
100
AcDbEntity
  8
Ech.1_5
 62
     7
  6
CONTINUOUS
370
     5
100
AcDbPolyline
 90
        4
 70
     1
 43
0.0
 10
51892.90057534
 20
-8729.26988591
 10
51892.90057534
 20
-8739.26988591
 10
51899.52470262
 20
-8739.26988591
 10
51899.52470262
 20
-8729.26988591
  0
HATCH
  5
6FB
100
AcDbEntity
  8
Ech.1_5
 62
     2
  6
CONTINUOUS
100
AcDbHatch
 10
0.0
 20
0.0
 30
0.0
210
0.0
220
0.0
230
1.0
  2
SOLID
 70
     1
 71
     1
 91
        1
 92
        7
 72
     0
 73
     1
 93
        4
 10
51892.90057534
 20
-8729.26988591
 10
51892.90057534
 20
-8739.26988591
 10
51899.52470262
 20
-8739.26988591
 10
51899.52470262
 20
-8729.26988591
 97
        1
330
6FA
 75
     0
 76
     2
 47
0.775229
 98
        1
 10
0.0
 20
0.0
  0
HATCH
  5
6FC
100
AcDbEntity
  8
Ech.1_5
 62
     7
  6
CONTINUOUS
100
AcDbHatch
 10
0.0
 20
0.0
 30
0.0
210
0.0
220
0.0
230
1.0
  2
ANSI31
 70
     0
 71
     1
 91
        1
 92
        7
 72
     0
 73
     1
 93
        4
 10
51892.90057534
 20
-8729.26988591
 10
51892.90057534
 20
-8739.26988591
 10
51899.52470262
 20
-8739.26988591
 10
51899.52470262
 20
-8729.26988591
 97
        1
330
6FB
 75
     0
 76
     2
 52
0.0
 41
0.94488785
 77
     0
 78
     1
 53
45.0
 43
0.0
 44
0.0
 45
2.12132043
 46
-2.12132043
 79
     0
 47
0.775229
 98
        1
 10
0.0
 20
0.0
  0
LWPOLYLINE
  5
6FD
102
{ACAD_REACTORS
330
6FE
102
}
100
AcDbEntity
  8
Ech.1_5
 62
     7
  6
CONTINUOUS
370
     5
100
AcDbPolyline
 90
        4
 70
     1
 43
0.0
 10
51892.90057534
 20
-8739.26988591
 10
51892.90057534
 20
-8729.26988591
 10
51879.52305486
 20
-8729.26988591
 10
51879.52305486
 20
-8739.26988591
  0
HATCH
  5
6FE
100
AcDbEntity
  8
Ech.1_5
 62
     2
  6
CONTINUOUS
100
AcDbHatch
 10
0.0
 20
0.0
 30
0.0
210
0.0
220
0.0
230
1.0
  2
SOLID
 70
     1
 71
     1
 91
        1
 92
        7
 72
     0
 73
     1
 93
        4
 10
51892.90057534
 20
-8739.26988591
 10
51892.90057534
 20
-8729.26988591
 10
51879.52305486
 20
-8729.26988591
 10
51879.52305486
 20
-8739.26988591
 97
        1
330
6FD
 75
     0
 76
     2
 47
0.775229
 98
        1
 10
0.0
 20
0.0
  0
LWPOLYLINE
  5
6FF
100
AcDbEntity
  8
Ech.1_5
 62
     7
  6
CONTINUOUS
370
    -3
100
AcDbPolyline
 90
       12
 70
     1
 43
0.0
 10
51874.52305486
 20
-8729.26988591
 10
51874.52305486
 20
-8855.16983938
 10
51874.52305486
 20
-8839.17142279
 10
51874.52275026
 20
-8855.16983938
 10
51884.02372644
 20
-8855.16983938
 10
51884.02372644
 20
-8855.16983938
 10
51890.02372644
 20
-8855.16983938
 10
51890.02372644
 20
-8855.16983938
 10
51899.52470262
 20
-8855.16983938
 10
51899.52470262
 20
-8739.26988591
 10
51879.52305486
 20
-8739.26988591
 10
51879.52305486
 20
-8729.26988591
  0
LWPOLYLINE
  5
700
100
AcDbEntity
  8
Ech.1_5
 62
     5
  6
CONTINUOUS
370
    -3
100
AcDbPolyline
 90
       11
 70
     0
 43
0.0
 10
51874.52305486
 20
-8729.26988591
 10
51874.52275026
 20
-8855.16983938
 10
51884.02372644
 20
-8855.16983938
 10
51884.02372644
 20
-8855.16983938
 10
51890.02372644
 20
-8855.16983938
 10
51890.02372644
 20
-8855.16983938
 10
51899.52470262
 20
-8855.16983938
 10
51899.52470262
 20
-8739.26988591
 10
51879.52305486
 20
-8739.26988591
 10
51879.52305486
 20
-8729.26988591
 10
51874.52305486
 20
-8729.26988591
  0
LWPOLYLINE
  5
701
100
AcDbEntity
  8
Ech.1_5
 62
   190
  6
CONTINUOUS
370
    -3
100
AcDbPolyline
 90
        8
 70
     1
 43
0.0
 10
52470.92254247
 20
-8728.99416009
 10
52506.87824248
 20
-8714.88422007
 10
52488.90089407
 20
-8731.36972323
 10
52488.90063964
 20
-8791.16983932
 10
52293.73377126
 20
-8791.16983932
 10
52293.73377126
 20
-8611.16983932
 10
52488.90090522
 20
-8611.16983932
 10
52488.90089407
 20
-8712.50780601
  0
LWPOLYLINE
  5
702
100
AcDbEntity
  8
Ech.1_5
 62
     7
  6
CONTINUOUS
370
    -3
100
AcDbPolyline
 90
        4
 70
     1
 43
0.0
 10
52248.73435225
 20
-8791.16983932
 10
52248.73435225
 20
-8611.16983932
 10
52293.73435225
 20
-8611.16983932
 10
52293.73435225
 20
-8791.16983932
  0
LWPOLYLINE
  5
703
100
AcDbEntity
  8
Ech.1_5
 62
     7
  6
CONTINUOUS
370
    -3
100
AcDbPolyline
 90
        4
 70
     1
 43
0.0
 10
52203.73435225
 20
-8791.16983932
 10
52203.73435225
 20
-8611.16983932
 10
52248.73435225
 20
-8611.16983932
 10
52248.73435225
 20
-8791.16983932
  0
LWPOLYLINE
  5
704
100
AcDbEntity
  8
Ech.1_5
 62
     7
  6
CONTINUOUS
100
AcDbPolyline
 90
        4
 70
     0
 43
0.0
 10
52488.90125406
 20
-8791.16983932
 10
52293.73435225
 20
-8791.16983932
 10
52293.73435225
 20
-8611.16983932
 10
52488.90090522
 20
-8611.16983932
  0
LWPOLYLINE
  5
705
100
AcDbEntity
  8
Ech.1_5
 62
   190
  6
CONTINUOUS
370
    -3
100
AcDbPolyline
 90
        4
 70
     1
 43
0.0
 10
52248.73435225
 20
-8611.16983932
 10
52293.73435225
 20
-8611.16983932
 10
52293.73435225
 20
-8791.16983932
 10
52248.73435225
 20
-8791.16983932
  0
LWPOLYLINE
  5
706
102
{ACAD_REACTORS
330
707
102
}
100
AcDbEntity
  8
Ech.1_5
 62
     7
  6
CONTINUOUS
370
     5
100
AcDbPolyline
 90
        4
 70
     1
 43
0.0
 10
52194.30127927
 20
-8793.38084819
 10
52203.73393933
 20
-8793.38084819
 10
52203.73393933
 20
-8800.16983938
 10
52194.30127927
 20
-8800.16983938
  0
HATCH
  5
707
100
AcDbEntity
  8
Ech.1_5
 62
     2
  6
CONTINUOUS
100
AcDbHatch
 10
0.0
 20
0.0
 30
0.0
210
0.0
220
0.0
230
1.0
  2
SOLID
 70
     1
 71
     1
 91
        1
 92
        7
 72
     0
 73
     1
 93
        4
 10
52194.30127927
 20
-8793.38084819
 10
52203.73393933
 20
-8793.38084819
 10
52203.73393933
 20
-8800.16983938
 10
52194.30127927
 20
-8800.16983938
 97
        1
330
706
 75
     0
 76
     2
 47
0.775229
 98
        1
 10
0.0
 20
0.0
  0
HATCH
  5
708
100
AcDbEntity
  8
Ech.1_5
 62
     7
  6
CONTINUOUS
100
AcDbHatch
 10
0.0
 20
0.0
 30
0.0
210
0.0
220
0.0
230
1.0
  2
ANSI31
 70
     0
 71
     1
 91
        1
 92
        7
 72
     0
 73
     1
 93
        4
 10
52194.30127927
 20
-8793.38084819
 10
52203.73393933
 20
-8793.38084819
 10
52203.73393933
 20
-8800.16983938
 10
52194.30127927
 20
-8800.16983938
 97
        1
330
707
 75
     0
 76
     2
 52
0.0
 41
0.94488785
 77
     0
 78
     1
 53
45.0
 43
0.0
 44
0.0
 45
2.12132043
 46
-2.12132043
 79
     0
 47
0.775229
 98
        1
 10
0.0
 20
0.0
  0
LWPOLYLINE
  5
709
100
AcDbEntity
  8
Ech.1_5
 62
   190
  6
CONTINUOUS
370
    -3
100
AcDbPolyline
 90
       12
 70
     0
 43
0.0
 10
52488.90090522
 20
-8641.16983932
 42
1.14028181
 10
52429.92313511
 20
-8648.93442816
 10
52457.87867532
 20
-8753.40525048
 42
-1.30322619
 10
52399.92313511
 20
-8753.40525048
 10
52427.87867532
 20
-8648.93442816
 42
1.30322619
 10
52369.92313511
 20
-8648.93442816
 10
52397.87867532
 20
-8753.40525048
 42
-1.30322619
 10
52339.92313511
 20
-8753.40525048
 10
52367.87867532
 20
-8648.93442816
 42
1.30322619
 10
52309.92313511
 20
-8648.93442816
 10
52337.87867532
 20
-8753.40525048
 42
-0.67050386
 10
52293.73435225
 20
-8787.05372757
  0
LWPOLYLINE
  5
70A
100
AcDbEntity
  8
Ech.1_5
 62
   190
  6
CONTINUOUS
370
    -3
100
AcDbPolyline
 90
        4
 70
     1
 43
0.0
 10
52203.73435225
 20
-8611.16983932
 10
52248.73435225
 20
-8611.16983932
 10
52248.73435225
 20
-8791.16983932
 10
52203.73435225
 20
-8791.16983932
  0
LWPOLYLINE
  5
70B
100
AcDbEntity
  8
Ech.1_5
 62
     5
  6
CONTINUOUS
370
    -3
100
AcDbPolyline
 90
        5
 70
     0
 43
0.0
 10
52248.73435225
 20
-8791.16983932
 10
52248.73435225
 20
-8611.16983932
 10
52293.73435225
 20
-8611.16983932
 10
52293.73435225
 20
-8791.16983932
 10
52248.73435225
 20
-8791.16983932
  0
LWPOLYLINE
  5
70C
100
AcDbEntity
  8
Ech.1_5
 62
     5
  6
CONTINUOUS
370
    -3
100
AcDbPolyline
 90
        5
 70
     0
 43
0.0
 10
52203.73435225
 20
-8791.16983932
 10
52203.73435225
 20
-8611.16983932
 10
52248.73435225
 20
-8611.16983932
 10
52248.73435225
 20
-8791.16983932
 10
52203.73435225
 20
-8791.16983932
  0
LWPOLYLINE
  5
70D
102
{ACAD_REACTORS
330
70E
102
}
100
AcDbEntity
  8
Ech.1_5
 62
     7
  6
CONTINUOUS
370
     5
100
AcDbPolyline
 90
        4
 70
     1
 43
0.0
 10
52203.73393933
 20
-8793.38084819
 10
52194.30127927
 20
-8793.38084819
 10
52194.30127927
 20
-8780.00332772
 10
52203.73393933
 20
-8780.00332772
  0
HATCH
  5
70E
100
AcDbEntity
  8
Ech.1_5
 62
     2
  6
CONTINUOUS
100
AcDbHatch
 10
0.0
 20
0.0
 30
0.0
210
0.0
220
0.0
230
1.0
  2
SOLID
 70
     1
 71
     1
 91
        1
 92
        7
 72
     0
 73
     1
 93
        4
 10
52203.73393933
 20
-8793.38084819
 10
52194.30127927
 20
-8793.38084819
 10
52194.30127927
 20
-8780.00332772
 10
52203.73393933
 20
-8780.00332772
 97
        1
330
70D
 75
     0
 76
     2
 47
0.775229
 98
        1
 10
0.0
 20
0.0
  0
LINE
  5
70F
100
AcDbEntity
  8
Ech.1_5
 62
     7
  6
CENTER
370
    18
100
AcDbLine
 10
52040.53297017
 20
-8526.77041576
 30
0.0
 11
52040.53297017
 21
-8911.47206974
 31
0.0
  0
LINE
  5
710
100
AcDbEntity
  8
Ech.1_5
 62
     7
  6
CONTINUOUS
100
AcDbLine
 10
52077.29932748
 20
-8676.31912642
 30
0.0
 11
52077.29932748
 21
-8692.31912642
 31
0.0
  0
LINE
  5
711
100
AcDbEntity
  8
Ech.1_5
 62
     7
  6
CONTINUOUS
100
AcDbLine
 10
52086.79932748
 20
-8672.31912642
 30
0.0
 11
52086.79932748
 21
-8696.31912642
 31
0.0
  0
LINE
  5
712
100
AcDbEntity
  8
Ech.1_5
 62
     7
  6
CONTINUOUS
100
AcDbLine
 10
52088.79932748
 20
-8678.31912642
 30
0.0
 11
52087.59932748
 21
-8678.31912642
 31
0.0
  0
LINE
  5
713
100
AcDbEntity
  8
Ech.1_5
 62
     7
  6
CONTINUOUS
100
AcDbLine
 10
52088.79932748
 20
-8690.31912642
 30
0.0
 11
52087.59932748
 21
-8690.31912642
 31
0.0
  0
LINE
  5
714
100
AcDbEntity
  8
Ech.1_5
 62
     7
  6
CONTINUOUS
100
AcDbLine
 10
52088.79932748
 20
-8696.31912642
 30
0.0
 11
52091.79931883
 21
-8672.31912209
 31
0.0
  0
LINE
  5
715
100
AcDbEntity
  8
Ech.1_5
 62
     7
  6
CONTINUOUS
100
AcDbLine
 10
52088.79932748
 20
-8672.31912642
 30
0.0
 11
52091.79931883
 21
-8696.31912642
 31
0.0
  0
LINE
  5
716
100
AcDbEntity
  8
Ech.1_5
 62
     7
  6
CONTINUOUS
100
AcDbLine
 10
52091.79931883
 20
-8696.31912642
 30
0.0
 11
52091.79932748
 21
-8672.31912642
 31
0.0
  0
LINE
  5
717
100
AcDbEntity
  8
Ech.1_5
 62
     7
  6
CONTINUOUS
100
AcDbLine
 10
52091.79932748
 20
-8672.31912642
 30
0.0
 11
52088.79932748
 21
-8672.31912642
 31
0.0
  0
LINE
  5
718
100
AcDbEntity
  8
Ech.1_5
 62
     7
  6
CONTINUOUS
100
AcDbLine
 10
52088.79932748
 20
-8672.31912642
 30
0.0
 11
52088.79932748
 21
-8696.31912642
 31
0.0
  0
LINE
  5
719
100
AcDbEntity
  8
Ech.1_5
 62
     7
  6
CONTINUOUS
100
AcDbLine
 10
52088.79932748
 20
-8696.31912642
 30
0.0
 11
52091.79932748
 21
-8696.31912642
 31
0.0
  0
LINE
  5
71A
100
AcDbEntity
  8
Ech.1_5
 62
     7
  6
CONTINUOUS
100
AcDbLine
 10
52146.16258645
 20
-8660.62203011
 30
0.0
 11
52112.20918227
 21
-8662.40145262
 31
0.0
  0
LINE
  5
71B
100
AcDbEntity
  8
Ech.1_5
 62
     7
  6
CENTER
100
AcDbLine
 10
52158.92849444
 20
-8660.18473139
 30
0.0
 11
52158.92849444
 21
-8685.12213573
 31
0.0
  0
ARC
  5
71C
100
AcDbEntity
  8
Ech.1_5
 62
     7
  6
CONTINUOUS
100
AcDbCircle
 10
52157.73921744
 20
-8663.5201278
 30
0.0
 40
6.59090909
100
AcDbArc
 50
282.52728338
 51
83.47271662
  0
LINE
  5
71D
100
AcDbEntity
  8
Ech.1_5
 62
     7
  6
CONTINUOUS
100
AcDbLine
 10
52147.65840757
 20
-8670.05667473
 30
0.0
 11
52147.0303761
 21
-8658.07312031
 31
0.0
  0
LINE
  5
71E
100
AcDbEntity
  8
Ech.1_5
 62
     7
  6
CONTINUOUS
100
AcDbLine
 10
52146.63361006
 20
-8669.60969592
 30
0.0
 11
52146.05791454
 21
-8658.62477104
 31
0.0
  0
LINE
  5
71F
100
AcDbEntity
  8
Ech.1_5
 62
     7
  6
CONTINUOUS
100
AcDbLine
 10
52166.92849444
 20
-8671.06965366
 30
0.0
 11
52166.92849444
 21
-8658.74504419
 31
0.0
  0
LINE
  5
720
100
AcDbEntity
  8
Ech.1_5
 62
     7
  6
CONTINUOUS
100
AcDbLine
 10
52151.93176686
 20
-8657.31556314
 30
0.0
 11
52152.77837246
 21
-8656.25730614
 31
0.0
  0
LINE
  5
721
100
AcDbEntity
  8
Ech.1_5
 62
     7
  6
CONTINUOUS
100
AcDbLine
 10
52147.50352288
 20
-8657.54763757
 30
0.0
 11
52158.48844777
 21
-8656.97194205
 31
0.0
  0
ARC
  5
722
100
AcDbEntity
  8
Ech.1_5
 62
     7
  6
CONTINUOUS
100
AcDbCircle
 10
52147.52969086
 20
-8658.04695234
 30
0.0
 40
0.5
100
AcDbArc
 50
93.0
 51
183.0
  0
LINE
  5
723
100
AcDbEntity
  8
Ech.1_5
 62
     7
  6
CONTINUOUS
100
AcDbLine
 10
52146.05791454
 20
-8658.62477104
 30
0.0
 11
52147.05654407
 21
-8658.57243508
 31
0.0
  0
LINE
  5
724
100
AcDbEntity
  8
Ech.1_5
 62
     7
  6
CONTINUOUS
100
AcDbLine
 10
52153.92849444
 20
-8657.21091908
 30
0.0
 11
52153.92849444
 21
-8656.06965366
 31
0.0
  0
LINE
  5
725
100
AcDbEntity
  8
Ech.1_5
 62
     7
  6
CONTINUOUS
100
AcDbLine
 10
52164.68818201
 20
-8656.06965366
 30
0.0
 11
52153.16880686
 21
-8656.06965366
 31
0.0
  0
ARC
  5
726
100
AcDbEntity
  8
Ech.1_5
 62
     7
  6
CONTINUOUS
100
AcDbCircle
 10
52153.16880686
 20
-8656.56965366
 30
0.0
 40
0.5
100
AcDbArc
 50
90.00000001
 51
141.34019174
  0
ARC
  5
727
100
AcDbEntity
  8
Ech.1_5
 62
     7
  6
CONTINUOUS
100
AcDbCircle
 10
52166.42849444
 20
-8658.74504419
 30
0.0
 40
0.5
100
AcDbArc
 50
4.5856982944291E-09
 51
38.65980825
  0
ARC
  5
728
100
AcDbEntity
  8
Ech.1_5
 62
     7
  6
CONTINUOUS
100
AcDbCircle
 10
52166.42849444
 20
-8658.74504419
 30
0.0
 40
0.5
100
AcDbArc
 50
4.5856982944291E-09
 51
38.65980825
  0
ARC
  5
729
100
AcDbEntity
  8
Ech.1_5
 62
     7
  6
CONTINUOUS
100
AcDbCircle
 10
52164.68818201
 20
-8656.56965366
 30
0.0
 40
0.5
100
AcDbArc
 50
38.65980826
 51
89.99999999
  0
LINE
  5
72A
100
AcDbEntity
  8
Ech.1_5
 62
     7
  6
CONTINUOUS
100
AcDbLine
 10
52163.92849444
 20
-8661.19666636
 30
0.0
 11
52163.92849444
 21
-8656.06965366
 31
0.0
  0
LINE
  5
72B
100
AcDbEntity
  8
Ech.1_5
 62
     7
  6
CONTINUOUS
100
AcDbLine
 10
52166.81892884
 20
-8658.43269667
 30
0.0
 11
52165.07861642
 21
-8656.25730614
 31
0.0
  0
LINE
  5
72C
100
AcDbEntity
  8
Ech.1_5
 62
     7
  6
CENTER
100
AcDbLine
 10
52163.39884579
 20
-8663.22351924
 30
0.0
 11
52109.39646951
 21
-8666.05366386
 31
0.0
  0
LINE
  5
72D
100
AcDbEntity
  8
Ech.1_5
 62
     7
  6
CONTINUOUS
100
AcDbLine
 10
52146.52893814
 20
-8667.61243685
 30
0.0
 11
52112.57553396
 21
-8669.39185936
 31
0.0
  0
ARC
  5
72E
100
AcDbEntity
  8
Ech.1_5
 62
     7
  6
CONTINUOUS
100
AcDbCircle
 10
52118.03239857
 20
-8665.601074
 30
0.0
 40
6.64435287
100
AcDbArc
 50
151.21298885
 51
214.78701115
  0
LINE
  5
72F
100
AcDbEntity
  8
Ech.1_5
 62
     7
  6
CONTINUOUS
100
AcDbLine
 10
52112.57553396
 20
-8669.39185936
 30
0.0
 11
52112.20918227
 21
-8662.40145262
 31
0.0
  0
LINE
  5
730
100
AcDbEntity
  8
Ech.1_5
 62
     7
  6
CONTINUOUS
100
AcDbLine
 10
52148.18389032
 20
-8670.52982152
 30
0.0
 11
52159.1688152
 21
-8669.954126
 31
0.0
  0
LINE
  5
731
100
AcDbEntity
  8
Ech.1_5
 62
     7
  6
CONTINUOUS
100
AcDbLine
 10
52149.42849444
 20
-8674.06965366
 30
0.0
 11
52168.42849444
 21
-8674.06965366
 31
0.0
  0
LINE
  5
732
100
AcDbEntity
  8
Ech.1_5
 62
     7
  6
CONTINUOUS
100
AcDbLine
 10
52149.92849444
 20
-8671.06965366
 30
0.0
 11
52167.92849444
 21
-8671.06965366
 31
0.0
  0
LINE
  5
733
100
AcDbEntity
  8
Ech.1_5
 62
     7
  6
CONTINUOUS
100
AcDbLine
 10
52150.92849444
 20
-8671.06965366
 30
0.0
 11
52150.92849444
 21
-8670.38598291
 31
0.0
  0
ARC
  5
734
100
AcDbEntity
  8
Ech.1_5
 62
     7
  6
CONTINUOUS
100
AcDbCircle
 10
52148.15772234
 20
-8670.03050675
 30
0.0
 40
0.5
100
AcDbArc
 50
183.0
 51
273.0
  0
LINE
  5
735
100
AcDbEntity
  8
Ech.1_5
 62
     7
  6
CONTINUOUS
100
AcDbLine
 10
52146.63361006
 20
-8669.60969592
 30
0.0
 11
52147.63223959
 21
-8669.55735996
 31
0.0
  0
ARC
  5
736
100
AcDbEntity
  8
Ech.1_5
 62
     7
  6
CONTINUOUS
100
AcDbCircle
 10
52149.92849444
 20
-8671.56965366
 30
0.0
 40
0.5
100
AcDbArc
 50
90.0
 51
180.0
  0
LINE
  5
737
100
AcDbEntity
  8
Ech.1_5
 62
     7
  6
CONTINUOUS
100
AcDbLine
 10
52150.92849444
 20
-8674.06965366
 30
0.0
 11
52150.92849444
 21
-8671.06965366
 31
0.0
  0
LINE
  5
738
100
AcDbEntity
  8
Ech.1_5
 62
     7
  6
CONTINUOUS
100
AcDbLine
 10
52149.42849444
 20
-8671.56965366
 30
0.0
 11
52149.42849444
 21
-8674.06965366
 31
0.0
  0
LINE
  5
739
100
AcDbEntity
  8
Ech.1_5
 62
     7
  6
CONTINUOUS
100
AcDbLine
 10
52161.92849444
 20
-8679.06965366
 30
0.0
 11
52161.92849444
 21
-8674.06965366
 31
0.0
  0
LINE
  5
73A
100
AcDbEntity
  8
Ech.1_5
 62
     7
  6
CONTINUOUS
100
AcDbLine
 10
52155.92849444
 20
-8679.06965366
 30
0.0
 11
52155.92849444
 21
-8674.06965366
 31
0.0
  0
ARC
  5
73B
100
AcDbEntity
  8
Ech.1_5
 62
     7
  6
CONTINUOUS
100
AcDbCircle
 10
52158.92849444
 20
-8675.0471237
 30
0.0
 40
5.01804218
100
AcDbArc
 50
233.2844502
 51
306.7155498
  0
LINE
  5
73C
100
AcDbEntity
  8
Ech.1_5
 62
     7
  6
CONTINUOUS
100
AcDbLine
 10
52155.92849444
 20
-8679.06965366
 30
0.0
 11
52161.92849444
 21
-8679.06965366
 31
0.0
  0
LINE
  5
73D
100
AcDbEntity
  8
Ech.1_5
 62
     7
  6
CONTINUOUS
100
AcDbLine
 10
52153.92849444
 20
-8671.06965366
 30
0.0
 11
52153.92849444
 21
-8670.22875958
 31
0.0
  0
LINE
  5
73E
100
AcDbEntity
  8
Ech.1_5
 62
     7
  6
CONTINUOUS
100
AcDbLine
 10
52155.92849444
 20
-8673.06965366
 30
0.0
 11
52161.92849444
 21
-8673.06965366
 31
0.0
  0
LINE
  5
73F
100
AcDbEntity
  8
Ech.1_5
 62
     7
  6
CONTINUOUS
100
AcDbLine
 10
52155.92849444
 20
-8674.06965366
 30
0.0
 11
52155.92849444
 21
-8673.06965366
 31
0.0
  0
LINE
  5
740
100
AcDbEntity
  8
Ech.1_5
 62
     7
  6
CONTINUOUS
100
AcDbLine
 10
52161.92849444
 20
-8674.06965366
 30
0.0
 11
52161.92849444
 21
-8673.06965366
 31
0.0
  0
LINE
  5
741
100
AcDbEntity
  8
Ech.1_5
 62
     7
  6
CONTINUOUS
100
AcDbLine
 10
52154.92849444
 20
-8671.36965366
 30
0.0
 11
52162.92849444
 21
-8671.36965366
 31
0.0
  0
LINE
  5
742
100
AcDbEntity
  8
Ech.1_5
 62
     7
  6
CONTINUOUS
100
AcDbLine
 10
52154.92849444
 20
-8671.36965366
 30
0.0
 11
52154.92849444
 21
-8671.06965366
 31
0.0
  0
ARC
  5
743
100
AcDbEntity
  8
Ech.1_5
 62
     7
  6
CONTINUOUS
100
AcDbCircle
 10
52167.92849444
 20
-8671.56965366
 30
0.0
 40
0.5
100
AcDbArc
 50
360.0
 51
90.0
  0
LINE
  5
744
100
AcDbEntity
  8
Ech.1_5
 62
     7
  6
CONTINUOUS
100
AcDbLine
 10
52162.92849444
 20
-8671.36965366
 30
0.0
 11
52162.92849444
 21
-8671.06965366
 31
0.0
  0
LINE
  5
745
100
AcDbEntity
  8
Ech.1_5
 62
     7
  6
CONTINUOUS
100
AcDbLine
 10
52163.92849444
 20
-8671.06965366
 30
0.0
 11
52163.92849444
 21
-8665.7189345
 31
0.0
  0
LINE
  5
746
100
AcDbEntity
  8
Ech.1_5
 62
     7
  6
CONTINUOUS
100
AcDbLine
 10
52166.92849444
 20
-8674.06965366
 30
0.0
 11
52166.92849444
 21
-8671.06965366
 31
0.0
  0
LINE
  5
747
100
AcDbEntity
  8
Ech.1_5
 62
     7
  6
CONTINUOUS
100
AcDbLine
 10
52168.42849444
 20
-8671.56965366
 30
0.0
 11
52168.42849444
 21
-8674.06965366
 31
0.0
  0
ARC
  5
748
100
AcDbEntity
  8
Ech.1_5
 62
     7
  6
CONTINUOUS
100
AcDbCircle
 10
52088.7993145
 20
-8696.31912858
 30
0.0
 40
3.0
100
AcDbArc
 50
270.0
 51
359.9999587
  0
LINE
  5
749
100
AcDbEntity
  8
Ech.1_5
 62
     7
  6
CONTINUOUS
100
AcDbLine
 10
52088.7993145
 20
-8699.31912858
 30
0.0
 11
52078.7309146
 21
-8699.31912858
 31
0.0
  0
ARC
  5
74A
100
AcDbEntity
  8
Ech.1_5
 62
     7
  6
CONTINUOUS
100
AcDbCircle
 10
52078.7309146
 20
-8701.31912858
 30
0.0
 40
2.0
100
AcDbArc
 50
90.0
 51
180.01408321
  0
ARC
  5
74B
100
AcDbEntity
  8
Ech.1_5
 62
     7
  6
CONTINUOUS
100
AcDbCircle
 10
52076.7693145
 20
-8702.81912858
 30
0.0
 40
1.5
100
AcDbArc
 50
91.46692634
 51
169.08873545
  0
LINE
  5
74C
100
AcDbEntity
  8
Ech.1_5
 62
     7
  6
CONTINUOUS
100
AcDbLine
 10
52075.29643223
 20
-8702.53519583
 30
0.0
 11
52075.29643223
 21
-8704.47926381
 31
0.0
  0
ARC
  5
74D
100
AcDbEntity
  8
Ech.1_5
 62
     7
  6
CONTINUOUS
100
AcDbCircle
 10
52076.29643223
 20
-8704.47926381
 30
0.0
 40
1.0
100
AcDbArc
 50
180.00000001
 51
215.64346075
  0
ARC
  5
74E
100
AcDbEntity
  8
Ech.1_5
 62
     7
  6
CONTINUOUS
100
AcDbCircle
 10
52085.23568087
 20
-8698.06912858
 30
0.0
 40
12.0
100
AcDbArc
 50
215.64346075
 51
270.0
  0
LINE
  5
74F
100
AcDbEntity
  8
Ech.1_5
 62
     7
  6
CONTINUOUS
100
AcDbLine
 10
52085.23568087
 20
-8710.06912858
 30
0.0
 11
52085.73568087
 21
-8710.06912858
 31
0.0
  0
LINE
  5
750
100
AcDbEntity
  8
Ech.1_5
 62
     7
  6
CONTINUOUS
100
AcDbLine
 10
52085.73568087
 20
-8710.06912858
 30
0.0
 11
52085.73568087
 21
-8712.06912858
 31
0.0
  0
LINE
  5
751
100
AcDbEntity
  8
Ech.1_5
 62
     7
  6
CONTINUOUS
100
AcDbLine
 10
52085.73568087
 20
-8712.06912858
 30
0.0
 11
52086.73568087
 21
-8713.06912858
 31
0.0
  0
LINE
  5
752
100
AcDbEntity
  8
Ech.1_5
 62
     7
  6
CONTINUOUS
100
AcDbLine
 10
52086.73568087
 20
-8713.06912858
 30
0.0
 11
52120.08216901
 21
-8713.06885913
 31
0.0
  0
LINE
  5
753
100
AcDbEntity
  8
Ech.1_5
 62
     7
  6
CONTINUOUS
100
AcDbLine
 10
52120.08216901
 20
-8713.06885913
 30
0.0
 11
52122.24722699
 21
-8709.31886871
 31
0.0
  0
LINE
  5
754
100
AcDbEntity
  8
Ech.1_5
 62
     7
  6
CONTINUOUS
100
AcDbLine
 10
52122.24722699
 20
-8709.31886871
 30
0.0
 11
52116.8310906
 21
-8709.31886871
 31
0.0
  0
LINE
  5
755
100
AcDbEntity
  8
Ech.1_5
 62
     7
  6
CONTINUOUS
100
AcDbLine
 10
52116.8310906
 20
-8709.31886871
 30
0.0
 11
52116.8310906
 21
-8706.41886868
 31
0.0
  0
LINE
  5
756
100
AcDbEntity
  8
Ech.1_5
 62
     7
  6
CONTINUOUS
100
AcDbLine
 10
52116.8310906
 20
-8706.41886868
 30
0.0
 11
52126.29711594
 21
-8706.41886868
 31
0.0
  0
ARC
  5
757
100
AcDbEntity
  8
Ech.1_5
 62
     7
  6
CONTINUOUS
100
AcDbCircle
 10
52126.29711594
 20
-8705.41886868
 30
0.0
 40
1.0
100
AcDbArc
 50
270.0
 51
359.99999917
  0
LINE
  5
758
100
AcDbEntity
  8
Ech.1_5
 62
     7
  6
CONTINUOUS
100
AcDbLine
 10
52127.29711594
 20
-8705.4188687
 30
0.0
 11
52127.29711598
 21
-8703.07974454
 31
0.0
  0
LINE
  5
759
100
AcDbEntity
  8
Ech.1_5
 62
     7
  6
CONTINUOUS
100
AcDbLine
 10
52127.29711598
 20
-8703.07974454
 30
0.0
 11
52121.29711566
 21
-8698.87972615
 31
0.0
  0
LINE
  5
75A
100
AcDbEntity
  8
Ech.1_5
 62
     7
  6
CONTINUOUS
100
AcDbLine
 10
52121.29711566
 20
-8698.87972615
 30
0.0
 11
52121.29711566
 21
-8694.67974448
 31
0.0
  0
LINE
  5
75B
100
AcDbEntity
  8
Ech.1_5
 62
     7
  6
CONTINUOUS
100
AcDbLine
 10
52121.29711566
 20
-8694.67974448
 30
0.0
 11
52129.29711632
 21
-8693.26912852
 31
0.0
  0
LINE
  5
75C
100
AcDbEntity
  8
Ech.1_5
 62
     7
  6
CONTINUOUS
100
AcDbLine
 10
52129.29711632
 20
-8693.26912852
 30
0.0
 11
52129.29711707
 21
-8691.26913074
 31
0.0
  0
LINE
  5
75D
100
AcDbEntity
  8
Ech.1_5
 62
     7
  6
CONTINUOUS
100
AcDbLine
 10
52129.29711707
 20
-8691.26913074
 30
0.0
 11
52127.09711598
 21
-8691.26913074
 31
0.0
  0
LINE
  5
75E
100
AcDbEntity
  8
Ech.1_5
 62
     7
  6
CONTINUOUS
100
AcDbLine
 10
52127.09711598
 20
-8691.26913074
 30
0.0
 11
52127.09711598
 21
-8689.26913074
 31
0.0
  0
LINE
  5
75F
100
AcDbEntity
  8
Ech.1_5
 62
     7
  6
CONTINUOUS
100
AcDbLine
 10
52127.09711598
 20
-8689.26913074
 30
0.0
 11
52117.79711598
 21
-8689.26913074
 31
0.0
  0
LINE
  5
760
100
AcDbEntity
  8
Ech.1_5
 62
     7
  6
CONTINUOUS
100
AcDbLine
 10
52117.79711598
 20
-8689.26913074
 30
0.0
 11
52117.79711598
 21
-8677.06913074
 31
0.0
  0
LINE
  5
761
100
AcDbEntity
  8
Ech.1_5
 62
     7
  6
CONTINUOUS
100
AcDbLine
 10
52117.79711598
 20
-8677.06913074
 30
0.0
 11
52127.09711598
 21
-8677.06913074
 31
0.0
  0
LINE
  5
762
100
AcDbEntity
  8
Ech.1_5
 62
     7
  6
CONTINUOUS
100
AcDbLine
 10
52127.09711598
 20
-8677.06913074
 30
0.0
 11
52127.09711598
 21
-8675.06913074
 31
0.0
  0
LINE
  5
763
100
AcDbEntity
  8
Ech.1_5
 62
     7
  6
CONTINUOUS
100
AcDbLine
 10
52127.09711598
 20
-8675.06913074
 30
0.0
 11
52129.29712295
 21
-8675.06913074
 31
0.0
  0
LINE
  5
764
100
AcDbEntity
  8
Ech.1_5
 62
     7
  6
CONTINUOUS
100
AcDbLine
 10
52129.29712295
 20
-8675.06913074
 30
0.0
 11
52129.29712328
 21
-8674.06912858
 31
0.0
  0
LINE
  5
765
100
AcDbEntity
  8
Ech.1_5
 62
     7
  6
CONTINUOUS
100
AcDbLine
 10
52129.29712328
 20
-8674.06912858
 30
0.0
 11
52123.79712328
 21
-8674.06912858
 31
0.0
  0
LINE
  5
766
100
AcDbEntity
  8
Ech.1_5
 62
     7
  6
CONTINUOUS
100
AcDbLine
 10
52123.79712328
 20
-8674.06912858
 30
0.0
 11
52123.79712328
 21
-8671.06912858
 31
0.0
  0
LINE
  5
767
100
AcDbEntity
  8
Ech.1_5
 62
     7
  6
CONTINUOUS
100
AcDbLine
 10
52123.79712328
 20
-8671.06912858
 30
0.0
 11
52145.29712328
 21
-8671.06912858
 31
0.0
  0
ARC
  5
768
100
AcDbEntity
  8
Ech.1_5
 62
     7
  6
CONTINUOUS
100
AcDbCircle
 10
52145.29712328
 20
-8669.06912858
 30
0.0
 40
2.0
100
AcDbArc
 50
270.0
 51
4.1688166321182E-10
  0
LINE
  5
769
100
AcDbEntity
  8
Ech.1_5
 62
     7
  6
CONTINUOUS
100
AcDbLine
 10
52147.29712328
 20
-8669.06912858
 30
0.0
 11
52147.29712328
 21
-8660.56912867
 31
0.0
  0
ARC
  5
76A
100
AcDbEntity
  8
Ech.1_5
 62
     7
  6
CONTINUOUS
100
AcDbCircle
 10
52142.29712328
 20
-8660.56912867
 30
0.0
 40
5.0
100
AcDbArc
 50
8.9629557588585E-10
 51
90.00000459
  0
LINE
  5
76B
100
AcDbEntity
  8
Ech.1_5
 62
     7
  6
CONTINUOUS
100
AcDbLine
 10
52142.29712288
 20
-8655.56912867
 30
0.0
 11
52086.73567537
 21
-8655.56913408
 31
0.0
  0
LINE
  5
76C
100
AcDbEntity
  8
Ech.1_5
 62
     7
  6
CONTINUOUS
100
AcDbLine
 10
52086.73567537
 20
-8655.56913408
 30
0.0
 11
52085.73568087
 21
-8656.56912858
 31
0.0
  0
LINE
  5
76D
100
AcDbEntity
  8
Ech.1_5
 62
     7
  6
CONTINUOUS
100
AcDbLine
 10
52085.73568087
 20
-8656.56912858
 30
0.0
 11
52085.73568087
 21
-8658.56912858
 31
0.0
  0
LINE
  5
76E
100
AcDbEntity
  8
Ech.1_5
 62
     7
  6
CONTINUOUS
100
AcDbLine
 10
52085.73568087
 20
-8658.56912858
 30
0.0
 11
52085.23568087
 21
-8658.56912858
 31
0.0
  0
ARC
  5
76F
100
AcDbEntity
  8
Ech.1_5
 62
     7
  6
CONTINUOUS
100
AcDbCircle
 10
52085.23568087
 20
-8670.56912858
 30
0.0
 40
12.0
100
AcDbArc
 50
90.0
 51
144.35653925
  0
ARC
  5
770
100
AcDbEntity
  8
Ech.1_5
 62
     7
  6
CONTINUOUS
100
AcDbCircle
 10
52076.29643223
 20
-8664.15899335
 30
0.0
 40
1.0
100
AcDbArc
 50
144.35653925
 51
180.0
  0
LINE
  5
771
100
AcDbEntity
  8
Ech.1_5
 62
     7
  6
CONTINUOUS
100
AcDbLine
 10
52075.29643223
 20
-8664.15899335
 30
0.0
 11
52075.29643223
 21
-8666.10306132
 31
0.0
  0
ARC
  5
772
100
AcDbEntity
  8
Ech.1_5
 62
     7
  6
CONTINUOUS
100
AcDbCircle
 10
52076.7693145
 20
-8665.81912858
 30
0.0
 40
1.5
100
AcDbArc
 50
190.91126456
 51
268.53307366
  0
ARC
  5
773
100
AcDbEntity
  8
Ech.1_5
 62
     7
  6
CONTINUOUS
100
AcDbCircle
 10
52078.7309146
 20
-8667.31912858
 30
0.0
 40
2.0
100
AcDbArc
 50
179.98591679
 51
270.0
  0
LINE
  5
774
100
AcDbEntity
  8
Ech.1_5
 62
     7
  6
CONTINUOUS
100
AcDbLine
 10
52078.7309146
 20
-8669.31912858
 30
0.0
 11
52088.7993318
 21
-8669.31912858
 31
0.0
  0
ARC
  5
775
100
AcDbEntity
  8
Ech.1_5
 62
     7
  6
CONTINUOUS
100
AcDbCircle
 10
52088.7993318
 20
-8672.31912858
 30
0.0
 40
3.0
100
AcDbArc
 50
359.9999587
 51
90.0
  0
LINE
  5
776
100
AcDbEntity
  8
Ech.1_5
 62
     7
  6
CONTINUOUS
100
AcDbLine
 10
52091.7993318
 20
-8672.31913074
 30
0.0
 11
52091.7993145
 21
-8696.31913074
 31
0.0
  0
LWPOLYLINE
  5
777
100
AcDbEntity
  8
Ech.1_5
 62
     7
  6
CONTINUOUS
100
AcDbPolyline
 90
        5
 70
     0
 43
0.0
 10
52144.11699605
 20
-8671.66912858
 42
0.73157417
 10
52144.18055735
 20
-8673.12342603
 42
-0.1352145
 10
52145.48740635
 20
-8672.88993693
 42
0.92591457
 10
52145.48740635
 20
-8671.66912858
 10
52144.11699605
 20
-8671.66912858
  0
LWPOLYLINE
  5
778
100
AcDbEntity
  8
Ech.1_5
 62
     7
  6
CONTINUOUS
100
AcDbPolyline
 90
       65
 70
     0
 43
0.0
 10
52144.18752546
 20
-8673.12011099
 10
52144.14973361
 20
-8673.12988648
 10
52144.11222178
 20
-8673.13931328
 10
52144.07526803
 20
-8673.14804509
 10
52144.03915047
 20
-8673.15573563
 10
52144.00414715
 20
-8673.16203861
 10
52143.97053617
 20
-8673.16660775
 10
52143.93859559
 20
-8673.16909677
 10
52143.9086035
 20
-8673.16915937
 10
52143.88083797
 20
-8673.16644927
 10
52143.85557709
 20
-8673.16062019
 10
52143.83309893
 20
-8673.15132584
 10
52143.81368157
 20
-8673.13821993
 10
52143.79760308
 20
-8673.12095618
 10
52143.78502915
 20
-8673.09932397
 10
52143.77560809
 20
-8673.07373706
 10
52143.7688395
 20
-8673.04478872
 10
52143.76422294
 20
-8673.01307225
 10
52143.76125798
 20
-8672.97918095
 10
52143.75944421
 20
-8672.9437081
 10
52143.75828119
 20
-8672.90724699
 10
52143.7572685
 20
-8672.87039094
 10
52143.7559057
 20
-8672.83373321
 10
52143.75369237
 20
-8672.79786712
 10
52143.75012808
 20
-8672.76338595
 10
52143.7447124
 20
-8672.730883
 10
52143.73694491
 20
-8672.70095156
 10
52143.72632518
 20
-8672.67418492
 10
52143.71235278
 20
-8672.65117638
 10
52143.69452728
 20
-8672.63251923
 10
52143.67234825
 20
-8672.61880676
 10
52143.6453573
 20
-8672.61063241
 10
52143.61493463
 20
-8672.60859516
 10
52143.5849744
 20
-8672.61330165
 10
52143.55875904
 20
-8672.62506499
 10
52143.53667591
 20
-8672.64312469
 10
52143.51845191
 20
-8672.66647533
 10
52143.5038139
 20
-8672.6941115
 10
52143.49248877
 20
-8672.72502779
 10
52143.48420341
 20
-8672.75821877
 10
52143.47868469
 20
-8672.79267903
 10
52143.47565873
 20
-8672.82740855
 10
52143.47480297
 20
-8672.86175462
 10
52143.47571745
 20
-8672.89561618
 10
52143.47799536
 20
-8672.92894128
 10
52143.48122988
 20
-8672.96167794
 10
52143.48501418
 20
-8672.99377418
 10
52143.48894144
 20
-8673.02517805
 10
52143.49260484
 20
-8673.05583756
 10
52143.49559756
 20
-8673.08570075
 10
52143.49751277
 20
-8673.11471565
 10
52143.49794366
 20
-8673.14283028
 10
52143.4964834
 20
-8673.16999268
 10
52143.49272517
 20
-8673.19615088
 10
52143.48626215
 20
-8673.2212529
 10
52143.47668751
 20
-8673.24524677
 10
52143.46371399
 20
-8673.26810729
 10
52143.44757265
 20
-8673.28992528
 10
52143.42863502
 20
-8673.31082301
 10
52143.40727263
 20
-8673.33092275
 10
52143.383857
 20
-8673.35034677
 10
52143.35875965
 20
-8673.36921734
 10
52143.33235213
 20
-8673.38765673
 10
52143.30500595
 20
-8673.40578721
 10
52143.27709263
 20
-8673.42373104
  0
LWPOLYLINE
  5
779
100
AcDbEntity
  8
Ech.1_5
 62
     7
  6
CONTINUOUS
100
AcDbPolyline
 90
       40
 70
     0
 43
0.0
 10
52144.18752546
 20
-8673.12011099
 42
-0.20099848
 10
52146.11696863
 20
-8673.03168191
 42
0.55145662
 10
52146.25090142
 20
-8672.92837646
 42
-0.1294239
 10
52146.43515857
 20
-8671.8099685
 42
0.54354517
 10
52146.34387822
 20
-8671.66912858
 10
52144.11699605
 20
-8671.66912858
 10
52144.11699605
 20
-8671.66912858
 10
52143.61699605
 20
-8672.16912858
 10
52143.11699605
 20
-8671.66912858
 10
52129.99712328
 20
-8671.66912858
 42
0.41421356
 10
52129.89712328
 20
-8671.76912858
 10
52129.89712328
 20
-8674.96912858
 42
-0.41421356
 10
52129.79712328
 20
-8675.06912858
 10
52129.39712328
 20
-8675.06912858
 42
-0.41421356
 10
52129.29712328
 20
-8674.96912858
 10
52129.29712328
 20
-8672.16912858
 42
0.41421356
 10
52129.19712328
 20
-8672.06912858
 10
52126.7477671
 20
-8672.06912858
 42
0.74863712
 10
52126.69371305
 20
-8672.25326038
 10
52128.65019229
 20
-8673.51028374
 42
-0.41421356
 10
52128.68027003
 20
-8673.64846959
 10
52128.46405381
 20
-8673.98499678
 42
-0.41421356
 10
52128.32586796
 20
-8674.01507452
 10
52125.34306922
 20
-8672.09864851
 42
-0.25526652
 10
52125.29712328
 20
-8672.01451671
 10
52125.29712328
 20
-8671.16912858
 42
-0.41421356
 10
52125.39712328
 20
-8671.06912858
 10
52146.99712328
 20
-8671.06912858
 42
-0.41421356
 10
52147.09712328
 20
-8671.16912858
 10
52147.09712328
 20
-8671.63574704
 42
-0.16012282
 10
52147.07762451
 20
-8671.69507285
 42
0.24300643
 10
52146.82782947
 20
-8673.25956725
 42
0.06909489
 10
52146.83995251
 20
-8673.28425828
 42
-0.7595554
 10
52146.43379911
 20
-8673.76179612
 42
0.27525427
 10
52144.39605657
 20
-8673.57460236
 42
-0.2097
 10
52140.19246762
 20
-8673.64279216
 42
-0.9750995
 10
52140.38588162
 20
-8673.18171621
 42
0.15529906
 10
52143.24508176
 20
-8673.43701082
 42
0.06565638
 10
52143.26964432
 20
-8673.42803897
 42
0.02152095
 10
52143.27709263
 20
-8673.42373104
  0
LINE
  5
77A
100
AcDbEntity
  8
Ech.1_5
 62
     7
  6
CONTINUOUS
100
AcDbLine
 10
52126.29711594
 20
-8706.41886868
 30
0.0
 11
52125.39711594
 21
-8706.41888129
 31
0.0
  0
LINE
  5
77B
100
AcDbEntity
  8
Ech.1_5
 62
     7
  6
CONTINUOUS
100
AcDbLine
 10
52125.39713275
 20
-8707.6188813
 30
0.0
 11
52123.29570324
 21
-8707.61891073
 31
0.0
  0
LINE
  5
77C
100
AcDbEntity
  8
Ech.1_5
 62
     7
  6
CONTINUOUS
100
AcDbLine
 10
52122.43953865
 20
-8706.41892273
 30
0.0
 11
52121.93953865
 21
-8706.41892974
 31
0.0
  0
LINE
  5
77D
100
AcDbEntity
  8
Ech.1_5
 62
     7
  6
CONTINUOUS
100
AcDbLine
 10
52125.39713275
 20
-8707.6188813
 30
0.0
 11
52125.39711594
 21
-8706.41888129
 31
0.0
  0
LINE
  5
77E
100
AcDbEntity
  8
Ech.1_5
 62
     7
  6
CONTINUOUS
100
AcDbLine
 10
52125.39711594
 20
-8706.41888129
 30
0.0
 11
52122.43953865
 21
-8706.41892273
 31
0.0
  0
LINE
  5
77F
100
AcDbEntity
  8
Ech.1_5
 62
     7
  6
CONTINUOUS
100
AcDbLine
 10
52119.27434774
 20
-8707.61896704
 30
0.0
 11
52119.24594812
 21
-8707.61896744
 31
0.0
  0
LINE
  5
780
100
AcDbEntity
  8
Ech.1_5
 62
     7
  6
CONTINUOUS
100
AcDbLine
 10
52118.50356494
 20
-8707.61897784
 30
0.0
 11
52117.59997546
 21
-8707.61899049
 31
0.0
  0
LINE
  5
781
100
AcDbEntity
  8
Ech.1_5
 62
     7
  6
CONTINUOUS
100
AcDbLine
 10
52120.37565494
 20
-8707.61895162
 30
0.0
 11
52119.27434774
 21
-8707.61896704
 31
0.0
  0
ARC
  5
782
100
AcDbEntity
  8
Ech.1_5
 62
     7
  6
CONTINUOUS
100
AcDbCircle
 10
52118.59997591
 20
-8707.65102676
 30
0.0
 40
1.0
100
AcDbArc
 50
180.00080237
 51
210.00084888
  0
ARC
  5
783
100
AcDbEntity
  8
Ech.1_5
 62
     7
  6
CONTINUOUS
100
AcDbCircle
 10
52118.39996986
 20
-8707.21897919
 30
0.0
 40
0.8
100
AcDbArc
 50
90.00765544
 51
180.00080237
  0
LINE
  5
784
100
AcDbEntity
  8
Ech.1_5
 62
     7
  6
CONTINUOUS
100
AcDbLine
 10
52117.59997591
 20
-8707.65104076
 30
0.0
 11
52117.59996986
 21
-8707.2189904
 31
0.0
  0
LINE
  5
785
100
AcDbEntity
  8
Ech.1_5
 62
     7
  6
CONTINUOUS
100
AcDbLine
 10
52118.39986297
 20
-8706.4189792
 30
0.0
 11
52118.59867316
 21
-8706.41897642
 31
0.0
  0
LINE
  5
786
100
AcDbEntity
  8
Ech.1_5
 62
     7
  6
CONTINUOUS
100
AcDbLine
 10
52118.59867316
 20
-8706.41897642
 30
0.0
 11
52118.73842088
 21
-8706.41897446
 31
0.0
  0
LINE
  5
787
100
AcDbEntity
  8
Ech.1_5
 62
     7
  6
CONTINUOUS
100
AcDbLine
 10
52119.24594812
 20
-8707.61896744
 30
0.0
 11
52118.50356494
 21
-8707.61897784
 31
0.0
  0
LINE
  5
788
100
AcDbEntity
  8
Ech.1_5
 62
     7
  6
CONTINUOUS
100
AcDbLine
 10
52123.29570324
 20
-8707.61891073
 30
0.0
 11
52120.37565494
 21
-8707.61895162
 31
0.0
  0
LINE
  5
789
100
AcDbEntity
  8
Ech.1_5
 62
     7
  6
CONTINUOUS
100
AcDbLine
 10
52118.73842088
 20
-8706.41897446
 30
0.0
 11
52121.93953865
 21
-8706.41892974
 31
0.0
  0
HATCH
  5
78A
100
AcDbEntity
  8
Ech.1_5
 62
     7
100
AcDbHatch
 10
0.0
 20
0.0
 30
0.0
210
0.0
220
0.0
230
1.0
  2
_USER_1
 70
     0
 71
     0
 91
        1
 92
        7
 72
     0
 73
     1
 93
       19
 10
52117.59996986
 20
-8707.2189904
 10
52117.60810987
 20
-8707.10514702
 10
52117.63236742
 20
-8706.99362059
 10
52117.67224877
 20
-8706.88668111
 10
52117.72694216
 20
-8706.78650524
 10
52117.79533438
 20
-8706.69513194
 10
52117.87603336
 20
-8706.61442105
 10
52117.96739655
 20
-8706.54601535
 10
52118.06756435
 20
-8706.49130716
 10
52118.17449794
 20
-8706.45141003
 10
52118.28602079
 20
-8706.42713602
 10
52118.39986297
 20
-8706.4189792
 10
52118.59867316
 20
-8706.41897642
 10
52118.73842088
 20
-8706.41897446
 10
52121.93953865
 20
-8706.41892974
 10
52122.43953865
 20
-8706.41892273
 10
52125.39711594
 20
-8706.41888129
 10
52125.39713275
 20
-8707.6188813
 10
52117.59997546
 20
-8707.61899049
 97
        0
 75
     0
 76
     2
 52
0.0
 41
1.0
 77
     0
 78
     1
 53
135.00079346
 43
0.0
 44
0.0
 45
-1.76774247
 46
-1.76779143
 79
     2
 49
50.0
 49
0.0
 47
0.775229
 98
        1
 10
0.0
 20
0.0
  0
ARC
  5
78B
100
AcDbEntity
  8
Ech.1_5
 62
     7
  6
CONTINUOUS
100
AcDbCircle
 10
52123.59572836
 20
-8709.41314238
 30
0.0
 40
0.3
100
AcDbArc
 50
180.00080236
 51
270.00080239
  0
LINE
  5
78C
100
AcDbEntity
  8
Ech.1_5
 62
     7
  6
CONTINUOUS
100
AcDbLine
 10
52125.09716208
 20
-8709.71312136
 30
0.0
 11
52123.59573256
 21
-8709.71314238
 31
0.0
  0
ARC
  5
78D
100
AcDbEntity
  8
Ech.1_5
 62
     7
  6
CONTINUOUS
100
AcDbCircle
 10
52122.64691559
 20
-8710.81315567
 30
0.0
 40
0.3
100
AcDbArc
 50
90.0008024
 51
150.00080234
  0
ARC
  5
78E
100
AcDbEntity
  8
Ech.1_5
 62
     7
  6
CONTINUOUS
100
AcDbCircle
 10
52125.12327991
 20
-8710.81312099
 30
0.0
 40
0.3
100
AcDbArc
 50
8.3370223
 51
90.00080237
  0
ARC
  5
78F
100
AcDbEntity
  8
Ech.1_5
 62
     7
  6
CONTINUOUS
100
AcDbCircle
 10
52125.09715788
 20
-8709.41312136
 30
0.0
 40
0.3
100
AcDbArc
 50
270.00080236
 51
0.00080238
  0
ARC
  5
790
100
AcDbEntity
  8
Ech.1_5
 62
     7
  6
CONTINUOUS
100
AcDbCircle
 10
52121.43112562
 20
-8708.91893674
 30
0.0
 40
1.0
100
AcDbArc
 50
330.00080237
 51
0.00080237
  0
ARC
  5
791
100
AcDbEntity
  8
Ech.1_5
 62
     7
  6
CONTINUOUS
100
AcDbCircle
 10
52121.63864563
 20
-8711.55956268
 30
0.0
 40
0.2
100
AcDbArc
 50
270.00080237
 51
330.00080236
  0
LINE
  5
792
100
AcDbEntity
  8
Ech.1_5
 62
     7
  6
CONTINUOUS
100
AcDbLine
 10
52122.64691139
 20
-8710.51315567
 30
0.0
 11
52125.12327571
 21
-8710.51312099
 31
0.0
  0
LINE
  5
793
100
AcDbEntity
  8
Ech.1_5
 62
     7
  6
CONTINUOUS
100
AcDbLine
 10
52121.81185211
 20
-8711.65956026
 30
0.0
 11
52122.38710587
 21
-8710.66315931
 31
0.0
  0
ARC
  5
794
100
AcDbEntity
  8
Ech.1_5
 62
     7
  6
CONTINUOUS
100
AcDbCircle
 10
52125.58196734
 20
-8712.69611259
 30
0.0
 40
0.71967841
100
AcDbArc
 50
267.84577808
 51
353.63172059
  0
ARC
  5
795
100
AcDbEntity
  8
Ech.1_5
 62
     7
  6
CONTINUOUS
100
AcDbCircle
 10
52125.38281174
 20
-8713.00659994
 30
0.0
 40
0.2
100
AcDbArc
 50
19.76068818
 51
85.24537529
  0
ARC
  5
796
100
AcDbEntity
  8
Ech.1_5
 62
     7
  6
CONTINUOUS
100
AcDbCircle
 10
52122.7932522
 20
-8713.12216587
 30
0.0
 40
0.3
100
AcDbArc
 50
85.24537527
 51
138.37547762
  0
ARC
  5
797
100
AcDbEntity
  8
Ech.1_5
 62
     7
  6
CONTINUOUS
100
AcDbCircle
 10
52125.66802133
 20
-8712.81508772
 30
0.0
 40
0.15734085
100
AcDbArc
 50
231.94531043
 51
79.31145967
  0
ARC
  5
798
100
AcDbEntity
  8
Ech.1_5
 62
     7
  6
CONTINUOUS
100
AcDbCircle
 10
52122.4066323
 20
-8712.84313086
 30
0.0
 40
0.18089908
100
AcDbArc
 50
85.92249745
 51
333.83771125
  0
LINE
  5
799
100
AcDbEntity
  8
Ech.1_5
 62
     7
  6
CONTINUOUS
100
AcDbLine
 10
52125.39938947
 20
-8712.80728818
 30
0.0
 11
52122.81811879
 21
-8712.82319823
 31
0.0
  0
LINE
  5
79A
100
AcDbEntity
  8
Ech.1_5
 62
     7
  6
CONTINUOUS
100
AcDbLine
 10
52125.4201096
 20
-8710.76962232
 30
0.0
 11
52125.69720335
 21
-8712.66047676
 31
0.0
  0
ARC
  5
79B
100
AcDbEntity
  8
Ech.1_5
 62
     7
  6
CONTINUOUS
100
AcDbCircle
 10
52120.73835287
 20
-8712.31894652
 30
0.0
 40
0.1
100
AcDbArc
 50
150.00080238
 51
266.6720651
  0
ARC
  5
79C
100
AcDbEntity
  8
Ech.1_5
 62
     7
  6
CONTINUOUS
100
AcDbCircle
 10
52120.77894994
 20
-8711.62078855
 30
0.0
 40
0.79933731
100
AcDbArc
 50
266.67206513
 51
277.37648123
  0
ARC
  5
79D
100
AcDbEntity
  8
Ech.1_5
 62
     7
  6
CONTINUOUS
100
AcDbCircle
 10
52119.55331398
 20
-8708.62048055
 30
0.0
 40
0.3
100
AcDbArc
 50
246.34437919
 51
56.27897772
  0
LINE
  5
79E
100
AcDbEntity
  8
Ech.1_5
 62
     7
  6
CONTINUOUS
100
AcDbLine
 10
52120.65174963
 20
-8712.26894773
 30
0.0
 11
52122.29715803
 21
-8709.41892461
 31
0.0
  0
ARC
  5
79F
100
AcDbEntity
  8
Ech.1_5
 62
     7
  6
CONTINUOUS
100
AcDbCircle
 10
52121.54973554
 20
-8708.62843826
 30
0.0
 40
0.3
100
AcDbArc
 50
239.48786325
 51
49.4224618
  0
LINE
  5
7A0
100
AcDbEntity
  8
Ech.1_5
 62
     7
  6
CONTINUOUS
100
AcDbLine
 10
52117.73395791
 20
-8708.15103959
 30
0.0
 11
52119.43294246
 21
-8708.89527264
 31
0.0
  0
LINE
  5
7A1
100
AcDbEntity
  8
Ech.1_5
 62
     7
  6
CONTINUOUS
100
AcDbLine
 10
52126.29720497
 20
-8712.77593841
 30
0.0
 11
52126.29711594
 21
-8706.41886868
 31
0.0
  0
LINE
  5
7A2
100
AcDbEntity
  8
Ech.1_5
 62
     7
  6
CONTINUOUS
100
AcDbLine
 10
52123.29570324
 20
-8707.61891073
 30
0.0
 11
52123.29572836
 21
-8709.41314658
 31
0.0
  0
LINE
  5
7A3
100
AcDbEntity
  8
Ech.1_5
 62
     7
  6
CONTINUOUS
100
AcDbLine
 10
52125.39715788
 20
-8709.41311715
 30
0.0
 11
52125.39713275
 21
-8707.6188813
 31
0.0
  0
LINE
  5
7A4
100
AcDbEntity
  8
Ech.1_5
 62
     7
  6
CONTINUOUS
100
AcDbLine
 10
52122.43110742
 20
-8707.61892284
 30
0.0
 11
52122.43112562
 21
-8708.91892273
 31
0.0
  0
LINE
  5
7A5
100
AcDbEntity
  8
Ech.1_5
 62
     7
  6
CONTINUOUS
100
AcDbLine
 10
52118.59320994
 20
-8707.61897658
 30
0.0
 11
52119.71985888
 21
-8708.3709554
 31
0.0
  0
LINE
  5
7A6
100
AcDbEntity
  8
Ech.1_5
 62
     7
  6
CONTINUOUS
100
AcDbLine
 10
52120.83220527
 20
-8707.61894523
 30
0.0
 11
52121.74487849
 21
-8708.40058035
 31
0.0
  0
LINE
  5
7A7
100
AcDbEntity
  8
Ech.1_5
 62
     7
  6
CONTINUOUS
100
AcDbLine
 10
52119.24594812
 20
-8707.61896744
 30
0.0
 11
52121.39741928
 21
-8708.88689475
 31
0.0
  0
ARC
  5
7A8
100
AcDbEntity
  8
Ech.1_5
 62
     7
  6
CONTINUOUS
100
AcDbCircle
 10
52120.89860323
 20
-8713.06814397
 30
0.0
 40
0.35
100
AcDbArc
 50
97.52289347
 51
135.24537524
  0
ARC
  5
7A9
100
AcDbEntity
  8
Ech.1_5
 62
     7
  6
CONTINUOUS
100
AcDbCircle
 10
52120.89860323
 20
-8713.06814397
 30
0.0
 40
0.35
100
AcDbArc
 50
225.24537522
 51
265.2453753
  0
ARC
  5
7AA
100
AcDbEntity
  8
Ech.1_5
 62
     7
  6
CONTINUOUS
100
AcDbCircle
 10
52120.89860323
 20
-8713.06814397
 30
0.0
 40
0.35
100
AcDbArc
 50
135.24537526
 51
225.24537527
  0
LINE
  5
7AB
100
AcDbEntity
  8
Ech.1_5
 62
     7
  6
CONTINUOUS
100
AcDbLine
 10
52125.55491506
 20
-8713.41528238
 30
0.0
 11
52120.86959221
 21
-8713.41693956
 31
0.0
  0
LINE
  5
7AC
100
AcDbEntity
  8
Ech.1_5
 62
     7
  6
CONTINUOUS
100
AcDbLine
 10
52120.85278042
 20
-8712.72115655
 30
0.0
 11
52121.68905952
 21
-8712.48728846
 31
0.0
  0
ARC
  5
7AD
100
AcDbEntity
  8
Ech.1_5
 62
     7
  6
CONTINUOUS
100
AcDbCircle
 10
52121.66890217
 20
-8711.88673582
 30
0.0
 40
0.13072221
100
AcDbArc
 50
103.38158864
 51
4.55989384
  0
LINE
  5
7AE
100
AcDbEntity
  8
Ech.1_5
 62
     7
  6
CONTINUOUS
100
AcDbLine
 10
52120.88157568
 20
-8712.4135105
 30
0.0
 11
52121.85636776
 21
-8712.24745305
 31
0.0
  0
LINE
  5
7AF
100
AcDbEntity
  8
Ech.1_5
 62
     7
  6
CONTINUOUS
100
AcDbLine
 10
52122.41949527
 20
-8712.66268967
 30
0.0
 11
52123.09674893
 21
-8712.56753984
 31
0.0
  0
ARC
  5
7B0
100
AcDbEntity
  8
Ech.1_5
 62
     7
  6
CONTINUOUS
100
AcDbCircle
 10
52123.01718
 20
-8711.71507761
 30
0.0
 40
0.85616766
100
AcDbArc
 50
275.3325452
 51
319.89687469
  0
ARC
  5
7B1
100
AcDbEntity
  8
Ech.1_5
 62
     7
  6
CONTINUOUS
100
AcDbCircle
 10
52123.59556225
 20
-8712.20217462
 30
0.0
 40
0.1
100
AcDbArc
 50
319.89687471
 51
41.05077063
  0
ARC
  5
7B2
100
AcDbEntity
  8
Ech.1_5
 62
     7
  6
CONTINUOUS
100
AcDbCircle
 10
52123.01718
 20
-8711.71507761
 30
0.0
 40
0.85616766
100
AcDbArc
 50
0.65804241
 51
33.90586698
  0
ARC
  5
7B3
100
AcDbEntity
  8
Ech.1_5
 62
     7
  6
CONTINUOUS
100
AcDbCircle
 10
52123.64476525
 20
-8711.29326453
 30
0.0
 40
0.1
100
AcDbArc
 50
33.90586697
 51
114.87273419
  0
ARC
  5
7B4
100
AcDbEntity
  8
Ech.1_5
 62
     7
  6
CONTINUOUS
100
AcDbCircle
 10
52123.01718
 20
-8711.71507761
 30
0.0
 40
0.45616766
100
AcDbArc
 50
275.33254519
 51
71.54778471
  0
ARC
  5
7B5
100
AcDbEntity
  8
Ech.1_5
 62
     7
  6
CONTINUOUS
100
AcDbCircle
 10
52124.7178858
 20
-8722.42802757
 30
0.0
 40
10.39192391
100
AcDbArc
 50
99.1823407
 51
106.94536207
  0
ARC
  5
7B6
100
AcDbEntity
  8
Ech.1_5
 62
     7
  6
CONTINUOUS
100
AcDbCircle
 10
52121.82213873
 20
-8711.84046372
 30
0.0
 40
0.40842618
100
AcDbArc
 50
274.80743485
 51
313.06235652
  0
LINE
  5
7B7
100
AcDbEntity
  8
Ech.1_5
 62
     7
  6
CONTINUOUS
100
AcDbLine
 10
52121.79921061
 20
-8711.87634325
 30
0.0
 11
52122.58455711
 21
-8710.97349478
 31
0.0
  0
LINE
  5
7B8
100
AcDbEntity
  8
Ech.1_5
 62
     7
  6
CONTINUOUS
100
AcDbLine
 10
52122.10100964
 20
-8712.13886439
 30
0.0
 11
52122.82695495
 21
-8711.30430459
 31
0.0
  0
ARC
  5
7B9
100
AcDbEntity
  8
Ech.1_5
 62
     7
  6
CONTINUOUS
100
AcDbCircle
 10
52123.03251761
 20
-8711.87675975
 30
0.0
 40
1.00824413
100
AcDbArc
 50
78.06160285
 51
116.37841191
  0
ARC
  5
7BA
100
AcDbEntity
  8
Ech.1_5
 62
     7
  6
CONTINUOUS
100
AcDbCircle
 10
52123.03251761
 20
-8711.87675975
 30
0.0
 40
0.60824413
100
AcDbArc
 50
77.75097837
 51
109.75268286
  0
ARC
  5
7BB
100
AcDbEntity
  8
Ech.1_5
 62
     7
  6
CONTINUOUS
100
AcDbCircle
 10
52123.82312302
 20
-8712.00400477
 30
0.0
 40
0.20175353
100
AcDbArc
 50
99.50414649
 51
221.05077063
  0
ARC
  5
7BC
100
AcDbEntity
  8
Ech.1_5
 62
     7
  6
CONTINUOUS
100
AcDbCircle
 10
52123.77329779
 20
-8711.70639321
 30
0.0
 40
0.1
100
AcDbArc
 50
279.50414652
 51
0.65804239
  0
ARC
  5
7BD
100
AcDbEntity
  8
Ech.1_5
 62
     7
  6
CONTINUOUS
100
AcDbCircle
 10
52123.51858402
 20
-8711.02109125
 30
0.0
 40
0.2
100
AcDbArc
 50
173.69797489
 51
294.87273423
  0
ARC
  5
7BE
100
AcDbEntity
  8
Ech.1_5
 62
     7
  6
CONTINUOUS
100
AcDbCircle
 10
52123.22039689
 20
-8710.98816042
 30
0.0
 40
0.1
100
AcDbArc
 50
353.69797489
 51
78.06160288
  0
LWPOLYLINE
  5
7BF
100
AcDbEntity
  8
Ech.1_5
 62
     7
  6
CONTINUOUS
100
AcDbPolyline
 90
       99
 70
     0
 43
0.0
 10
52077.57517984
 20
-8671.092329
 10
52080.94579586
 20
-8672.3191329
 10
52085.89932748
 20
-8672.3191329
 10
52086.19932748
 20
-8672.0191329
 10
52086.89932748
 20
-8672.0191329
 42
-0.95548796
 10
52086.93569111
 20
-8672.81747658
 42
0.38779458
 10
52086.79932748
 20
-8672.96685546
 10
52086.79932748
 20
-8676.20201644
 42
0.34415073
 10
52086.91294713
 20
-8676.34753782
 10
52087.48570782
 20
-8676.49072799
 42
-0.34415073
 10
52087.59932748
 20
-8676.63624936
 10
52087.59932748
 20
-8692.00201644
 42
-0.34415073
 10
52087.48570782
 20
-8692.14753782
 10
52086.91294713
 20
-8692.29072799
 42
0.34415073
 10
52086.79932748
 20
-8692.43624936
 10
52086.79932748
 20
-8695.67141035
 42
0.38779458
 10
52086.93569111
 20
-8695.82078923
 42
-0.95548796
 10
52086.89932748
 20
-8696.6191329
 10
52086.19932748
 20
-8696.6191329
 10
52085.89932748
 20
-8696.3191329
 10
52080.94579586
 20
-8696.3191329
 10
52077.60059338
 20
-8697.53668704
 42
-1.10738051
 10
52077.51006403
 20
-8697.28795969
 10
52078.81165365
 20
-8696.9594264
 42
0.93251509
 10
52078.69864764
 20
-8696.32093304
 10
52076.27764533
 20
-8696.64777686
 42
-0.18531675
 10
52075.6237594
 20
-8696.49309771
 42
0.15081813
 10
52075.06014086
 20
-8696.3191329
 10
52074.76887915
 20
-8696.3191329
 10
52073.76887915
 20
-8696.3191329
 42
0.30843151
 10
52073.41326637
 20
-8696.57635708
 42
0.26795044
 10
52075.65482633
 20
-8701.84298857
 42
0.52171267
 10
52075.89726852
 20
-8701.80097693
 42
-0.15565301
 10
52076.99969206
 20
-8700.96991941
 10
52076.79932748
 20
-8699.312519
 42
-0.31529879
 10
52076.93092345
 20
-8699.12458048
 10
52079.60627586
 20
-8698.15083183
 42
-0.87140053
 10
52079.65257118
 20
-8698.23840824
 10
52078.93406776
 20
-8698.75516858
 42
1.00812133
 10
52079.24325762
 20
-8699.27539978
 10
52081.54805692
 20
-8697.79817579
 42
-0.14346618
 10
52081.81786261
 20
-8697.7191329
 10
52083.3990982
 20
-8697.7191329
 42
-0.72472287
 10
52083.4582618
 20
-8697.89975343
 10
52082.56993453
 20
-8698.5516549
 42
0.94855512
 10
52083.03560316
 20
-8699.26129108
 10
52084.98542248
 20
-8697.81732077
 42
-0.16072186
 10
52085.28299097
 20
-8697.7191329
 10
52086.84082789
 20
-8697.7191329
 42
0.08748866
 10
52086.90923192
 20
-8697.70707143
 10
52088.7006305
 20
-8697.05505567
 42
0.31529879
 10
52088.79932748
 20
-8696.91410177
 10
52088.79932748
 20
-8695.53624936
 42
0.34415073
 10
52088.68570782
 20
-8695.39072799
 10
52088.11294713
 20
-8695.24753782
 42
-0.34415073
 10
52087.99932748
 20
-8695.10201644
 10
52087.99932748
 20
-8693.33624936
 42
-0.34415073
 10
52088.11294713
 20
-8693.19072799
 10
52088.68570782
 20
-8693.04753782
 42
0.34415073
 10
52088.79932748
 20
-8692.90201644
 10
52088.79932748
 20
-8675.73624936
 42
0.34415073
 10
52088.68570782
 20
-8675.59072799
 10
52088.11294713
 20
-8675.44753782
 42
-0.34415073
 10
52087.99932748
 20
-8675.30201644
 10
52087.99932748
 20
-8673.53624936
 42
-0.34415073
 10
52088.11294713
 20
-8673.39072799
 10
52088.68570782
 20
-8673.24753782
 42
0.34415073
 10
52088.79932748
 20
-8673.10201644
 10
52088.79932748
 20
-8671.72416403
 42
0.31529879
 10
52088.7006305
 20
-8671.58321014
 10
52086.90923192
 20
-8670.93119438
 42
0.08748866
 10
52086.84082789
 20
-8670.9191329
 10
52085.28299097
 20
-8670.9191329
 42
-0.16072186
 10
52084.98542248
 20
-8670.82094504
 10
52083.03560316
 20
-8669.37697472
 42
0.94855512
 10
52082.56993453
 20
-8670.0866109
 10
52083.4582618
 20
-8670.73851238
 42
-0.72472287
 10
52083.3990982
 20
-8670.9191329
 10
52081.81786261
 20
-8670.9191329
 42
-0.14346618
 10
52081.54805692
 20
-8670.84009002
 10
52079.24325762
 20
-8669.36286602
 42
1.00812133
 10
52078.93406776
 20
-8669.88309723
 10
52079.65257118
 20
-8670.39985757
 42
-0.87140053
 10
52079.60627586
 20
-8670.48743397
 10
52076.93092345
 20
-8669.51368533
 42
-0.31529879
 10
52076.79932748
 20
-8669.32574681
 10
52076.99969206
 20
-8667.66830608
 42
-0.15565608
 10
52075.89728681
 20
-8666.83726961
 42
0.52171267
 10
52075.65484461
 20
-8666.79525797
 42
0.26794928
 10
52073.41326637
 20
-8672.06190873
 42
0.30843151
 10
52073.76887915
 20
-8672.3191329
 10
52074.76887915
 20
-8672.3191329
 10
52075.06014086
 20
-8672.3191329
 42
0.15081813
 10
52075.6237594
 20
-8672.1451681
 42
-0.18531675
 10
52076.27764533
 20
-8671.99048895
 10
52078.69864764
 20
-8672.31733277
 42
0.93251509
 10
52078.81165365
 20
-8671.67883941
 10
52077.51006403
 20
-8671.35030612
 42
-1.10738051
 10
52077.60059338
 20
-8671.10157877
  0
LWPOLYLINE
  5
7C0
100
AcDbEntity
  8
Ech.1_5
 62
     7
  6
CONTINUOUS
100
AcDbPolyline
 90
        4
 70
     0
 43
0.0
 10
52201.73603073
 20
-8674.06986706
 10
52134.29740071
 20
-8674.06944027
 42
0.41421752
 10
52133.29738719
 20
-8675.06944027
 10
52133.29738719
 20
-8685.06992297
  0
LWPOLYLINE
  5
7C1
100
AcDbEntity
  8
Ech.1_5
 62
     7
  6
CONTINUOUS
100
AcDbPolyline
 90
       18
 70
     0
 43
0.0
 10
52133.29738719
 20
-8685.06992297
 10
52133.29738719
 20
-8705.05892598
 42
0.36397023
 10
52134.12373902
 20
-8706.04373373
 10
52136.57859629
 20
-8706.4765913
 42
-0.31529879
 10
52137.38975587
 20
-8707.28775088
 10
52138.29044135
 20
-8712.39579209
 42
-0.46630766
 10
52137.3056336
 20
-8713.56944027
 10
52116.29239634
 20
-8713.56944027
 42
0.44001053
 10
52115.29620164
 20
-8714.65659601
 10
52116.61619689
 20
-8729.74421079
 42
0.38887999
 10
52118.60859505
 20
-8731.56989931
 10
52148.30021799
 20
-8731.56976924
 10
52166.32182177
 20
-8731.5696903
 42
0.40824515
 10
52167.30134913
 20
-8730.56984614
 10
52167.30127927
 20
-8729.26988591
 10
52200.73681037
 20
-8729.26983002
 42
0.41421487
 10
52201.7367964
 20
-8728.26981159
 10
52201.736
 20
-8674.06986706
  0
LINE
  5
7C2
100
AcDbEntity
  8
Ech.1_5
 62
     7
  6
CONTINUOUS
100
AcDbLine
 10
52086.79932748
 20
-8696.31912642
 30
0.0
 11
52040.53297017
 21
-8696.31912642
 31
0.0
  0
LINE
  5
7C3
100
AcDbEntity
  8
Ech.1_5
 62
     7
  6
CONTINUOUS
100
AcDbLine
 10
52086.79932748
 20
-8692.31912642
 30
0.0
 11
52040.53297017
 21
-8692.3191329
 31
0.0
  0
LINE
  5
7C4
100
AcDbEntity
  8
Ech.1_5
 62
     7
  6
CONTINUOUS
100
AcDbLine
 10
52086.79932748
 20
-8676.31912642
 30
0.0
 11
52040.53297017
 21
-8676.3191329
 31
0.0
  0
LINE
  5
7C5
100
AcDbEntity
  8
Ech.1_5
 62
     7
  6
CONTINUOUS
100
AcDbLine
 10
52086.79932748
 20
-8672.31912642
 30
0.0
 11
52040.53297017
 21
-8672.3191329
 31
0.0
  0
LWPOLYLINE
  5
7C6
100
AcDbEntity
  8
Ech.1_5
 62
   190
  6
CONTINUOUS
370
    -3
100
AcDbPolyline
 90
        4
 70
     1
 43
0.0
 10
52203.73393933
 20
-8780.00332772
 10
52194.30127927
 20
-8780.00332772
 10
52194.30039569
 20
-8729.26988591
 10
52203.73305575
 20
-8729.26988591
  0
LWPOLYLINE
  5
7C7
100
AcDbEntity
  8
Ech.1_5
 62
   190
  6
CONTINUOUS
370
    -3
100
AcDbPolyline
 90
        4
 70
     0
 43
0.0
 10
52194.30039569
 20
-8729.26988591
 10
52203.73393933
 20
-8780.00332772
 10
52194.30127927
 20
-8780.00332772
 10
52203.73305575
 20
-8729.26988591
  0
LWPOLYLINE
  5
7C8
100
AcDbEntity
  8
Ech.1_5
 62
   190
  6
CONTINUOUS
370
    -3
100
AcDbPolyline
 90
        4
 70
     1
 43
0.0
 10
52203.73393933
 20
-8825.16983938
 10
52203.73393933
 20
-8800.16983938
 10
52253.73393933
 20
-8800.16983938
 10
52253.73393933
 20
-8825.16983938
  0
LWPOLYLINE
  5
7C9
100
AcDbEntity
  8
Ech.1_5
 62
   190
  6
CONTINUOUS
370
    -3
100
AcDbPolyline
 90
        4
 70
     1
 43
0.0
 10
52203.73393933
 20
-8800.16983938
 10
52253.73393933
 20
-8800.16983938
 10
52253.73393933
 20
-8825.16983938
 10
52203.73393933
 20
-8825.16983938
  0
LWPOLYLINE
  5
7CA
100
AcDbEntity
  8
Ech.1_5
 62
     7
  6
CONTINUOUS
370
    -3
100
AcDbPolyline
 90
        4
 70
     1
 43
0.0
 10
52488.90090756
 20
-8845.16983938
 10
52203.73393933
 20
-8845.16983938
 10
52203.73393933
 20
-8825.16983938
 10
52488.90090756
 20
-8825.16983938
  0
LINE
  5
7CB
100
AcDbEntity
  8
Ech.1_5
 62
   177
  6
DASHEDX2
 48
0.89999998
370
    70
100
AcDbLine
 10
52040.53297017
 20
-8776.37183938
 30
0.0
 11
52195.33621259
 21
-8776.36739918
 31
0.0
  0
LWPOLYLINE
  5
7CC
100
AcDbEntity
  8
Ech.1_5
 62
   177
  6
CONTINUOUS
370
    70
100
AcDbPolyline
 90
        6
 70
     0
 43
0.0
 10
52040.53297017
 20
-8860.16983938
 10
52049.43470656
 20
-8860.16983938
 10
52195.33752364
 20
-8860.16983938
 10
52195.33752364
 20
-8847.17115812
 10
52195.33752364
 20
-8847.17142279
 10
52195.3340368
 20
-8776.36922414
  0
LWPOLYLINE
  5
7CD
100
AcDbEntity
  8
Ech.1_5
 62
     5
  6
CONTINUOUS
370
    -3
100
AcDbPolyline
 90
        5
 70
     0
 43
0.0
 10
52203.73393933
 20
-8800.16983938
 10
52253.73393933
 20
-8800.16983938
 10
52253.73393933
 20
-8825.16983938
 10
52203.73393933
 20
-8825.16983938
 10
52203.73393933
 20
-8800.16983938
  0
LWPOLYLINE
  5
7CE
100
AcDbEntity
  8
Ech.1_5
 62
   150
  6
CADWORK_22
370
    35
100
AcDbPolyline
 90
        3
 70
     0
 43
0.0
 38
2500.0
 10
52488.90090374
 20
-8801.66983938
 10
52203.73393933
 20
-8801.66983938
 10
52203.73393933
 20
-8707.61967346
  0
LWPOLYLINE
  5
7CF
102
{ACAD_REACTORS
330
7D0
102
}
100
AcDbEntity
  8
Ech.1_5
 62
     7
  6
CONTINUOUS
370
     5
100
AcDbPolyline
 90
        4
 70
     1
 43
0.0
 10
52175.92287522
 20
-8729.26988591
 10
52175.92287522
 20
-8739.26988591
 10
52169.29874794
 20
-8739.26988591
 10
52169.29874794
 20
-8729.26988591
  0
HATCH
  5
7D0
100
AcDbEntity
  8
Ech.1_5
 62
     2
  6
CONTINUOUS
100
AcDbHatch
 10
0.0
 20
0.0
 30
0.0
210
0.0
220
0.0
230
1.0
  2
SOLID
 70
     1
 71
     1
 91
        1
 92
        7
 72
     0
 73
     1
 93
        4
 10
52175.92287522
 20
-8729.26988591
 10
52175.92287522
 20
-8739.26988591
 10
52169.29874794
 20
-8739.26988591
 10
52169.29874794
 20
-8729.26988591
 97
        1
330
7CF
 75
     0
 76
     2
 47
0.775229
 98
        1
 10
0.0
 20
0.0
  0
HATCH
  5
7D1
100
AcDbEntity
  8
Ech.1_5
 62
     7
  6
CONTINUOUS
100
AcDbHatch
 10
0.0
 20
0.0
 30
0.0
210
0.0
220
0.0
230
1.0
  2
ANSI31
 70
     0
 71
     1
 91
        1
 92
        7
 72
     0
 73
     1
 93
        4
 10
52175.92287522
 20
-8729.26988591
 10
52175.92287522
 20
-8739.26988591
 10
52169.29874794
 20
-8739.26988591
 10
52169.29874794
 20
-8729.26988591
 97
        1
330
7D0
 75
     0
 76
     2
 52
0.0
 41
0.94488785
 77
     0
 78
     1
 53
45.0
 43
0.0
 44
0.0
 45
2.12132043
 46
-2.12132043
 79
     0
 47
0.775229
 98
        1
 10
0.0
 20
0.0
  0
LWPOLYLINE
  5
7D2
102
{ACAD_REACTORS
330
7D3
102
}
100
AcDbEntity
  8
Ech.1_5
 62
     7
  6
CONTINUOUS
370
     5
100
AcDbPolyline
 90
        4
 70
     1
 43
0.0
 10
52175.92287522
 20
-8739.26988591
 10
52175.92287522
 20
-8729.26988591
 10
52189.30039569
 20
-8729.26988591
 10
52189.30039569
 20
-8739.26988591
  0
HATCH
  5
7D3
100
AcDbEntity
  8
Ech.1_5
 62
     2
  6
CONTINUOUS
100
AcDbHatch
 10
0.0
 20
0.0
 30
0.0
210
0.0
220
0.0
230
1.0
  2
SOLID
 70
     1
 71
     1
 91
        1
 92
        7
 72
     0
 73
     1
 93
        4
 10
52175.92287522
 20
-8739.26988591
 10
52175.92287522
 20
-8729.26988591
 10
52189.30039569
 20
-8729.26988591
 10
52189.30039569
 20
-8739.26988591
 97
        1
330
7D2
 75
     0
 76
     2
 47
0.775229
 98
        1
 10
0.0
 20
0.0
  0
LWPOLYLINE
  5
7D4
100
AcDbEntity
  8
Ech.1_5
 62
     7
  6
CONTINUOUS
370
    -3
100
AcDbPolyline
 90
       12
 70
     1
 43
0.0
 10
52194.30039569
 20
-8729.26988591
 10
52194.30039569
 20
-8855.16983938
 10
52194.30039569
 20
-8839.17142279
 10
52194.30070029
 20
-8855.16983938
 10
52184.79972412
 20
-8855.16983938
 10
52184.79972412
 20
-8855.16983938
 10
52178.79972412
 20
-8855.16983938
 10
52178.79972412
 20
-8855.16983938
 10
52169.29874794
 20
-8855.16983938
 10
52169.29874794
 20
-8739.26988591
 10
52189.30039569
 20
-8739.26988591
 10
52189.30039569
 20
-8729.26988591
  0
LWPOLYLINE
  5
7D5
100
AcDbEntity
  8
Ech.1_5
 62
     5
  6
CONTINUOUS
370
    -3
100
AcDbPolyline
 90
       11
 70
     0
 43
0.0
 10
52194.30039569
 20
-8729.26988591
 10
52194.30070029
 20
-8855.16983938
 10
52184.79972412
 20
-8855.16983938
 10
52184.79972412
 20
-8855.16983938
 10
52178.79972412
 20
-8855.16983938
 10
52178.79972412
 20
-8855.16983938
 10
52169.29874794
 20
-8855.16983938
 10
52169.29874794
 20
-8739.26988591
 10
52189.30039569
 20
-8739.26988591
 10
52189.30039569
 20
-8729.26988591
 10
52194.30039569
 20
-8729.26988591
  0
LWPOLYLINE
  5
7D6
102
{ACAD_REACTORS
330
7D7
102
}
100
AcDbEntity
  8
Ech.1_5
 62
     7
  6
CONTINUOUS
370
     5
100
AcDbPolyline
 90
        4
 70
     1
 43
0.0
 10
52306.47931381
 20
-8977.1485059
 10
52306.47931381
 20
-8967.1485059
 10
52253.47931381
 20
-8967.1485059
 10
52253.47931381
 20
-8977.1485059
  0
HATCH
  5
7D7
100
AcDbEntity
  8
Ech.1_5
 62
     2
  6
CONTINUOUS
100
AcDbHatch
 10
0.0
 20
0.0
 30
0.0
210
0.0
220
0.0
230
1.0
  2
SOLID
 70
     1
 71
     1
 91
        1
 92
        7
 72
     0
 73
     1
 93
        4
 10
52306.47931381
 20
-8977.1485059
 10
52306.47931381
 20
-8967.1485059
 10
52253.47931381
 20
-8967.1485059
 10
52253.47931381
 20
-8977.1485059
 97
        1
330
7D6
 75
     0
 76
     2
 47
0.775229
 98
        1
 10
0.0
 20
0.0
  0
LWPOLYLINE
  5
7D8
100
AcDbEntity
  8
Ech.1_5
 62
   190
  6
CONTINUOUS
370
    -3
100
AcDbPolyline
 90
        4
 70
     0
 43
0.0
 10
52306.47931381
 20
-8977.14938948
 10
52253.47931381
 20
-8967.14762233
 10
52253.47931381
 20
-8977.1485059
 10
52306.47931381
 20
-8967.1485059
  0
LWPOLYLINE
  5
7D9
102
{ACAD_REACTORS
330
7DA
102
}
100
AcDbEntity
  8
Ech.1_5
 62
     9
  6
CONTINUOUS
370
     5
100
AcDbPolyline
 90
        4
 70
     1
 43
0.0
 10
52290.75961427
 20
-8943.15976483
 10
52283.97062308
 20
-8943.15976483
 10
52283.97062308
 20
-8952.59242491
 10
52290.75961427
 20
-8952.59242491
  0
HATCH
  5
7DA
100
AcDbEntity
  8
Ech.1_5
 62
     2
  6
CONTINUOUS
100
AcDbHatch
 10
0.0
 20
0.0
 30
0.0
210
0.0
220
0.0
230
1.0
  2
SOLID
 70
     1
 71
     1
 91
        1
 92
        7
 72
     0
 73
     1
 93
        4
 10
52290.75961427
 20
-8943.15976483
 10
52283.97062308
 20
-8943.15976483
 10
52283.97062308
 20
-8952.59242491
 10
52290.75961427
 20
-8952.59242491
 97
        1
330
7D9
 75
     0
 76
     2
 47
0.775229
 98
        1
 10
0.0
 20
0.0
  0
HATCH
  5
7DB
100
AcDbEntity
  8
Ech.1_5
 62
     9
  6
CONTINUOUS
100
AcDbHatch
 10
0.0
 20
0.0
 30
0.0
210
0.0
220
0.0
230
1.0
  2
ANSI31
 70
     0
 71
     1
 91
        1
 92
        7
 72
     0
 73
     1
 93
        4
 10
52290.75961427
 20
-8943.15976483
 10
52283.97062308
 20
-8943.15976483
 10
52283.97062308
 20
-8952.59242491
 10
52290.75961427
 20
-8952.59242491
 97
        1
330
7DA
 75
     0
 76
     2
 52
0.0
 41
0.94488785
 77
     0
 78
     1
 53
45.0
 43
0.0
 44
0.0
 45
2.12132043
 46
-2.12132043
 79
     0
 47
0.775229
 98
        1
 10
0.0
 20
0.0
  0
LINE
  5
7DC
100
AcDbEntity
  8
Ech.1_5
 62
   150
  6
CADWORK_22
370
    35
100
AcDbLine
 10
52307.22068024
 20
-9124.00363483
 30
2500.0
 11
52229.19595841
 21
-9124.00363483
 31
2500.0
  0
LINE
  5
7DD
100
AcDbEntity
  8
Ech.1_5
 62
     1
  6
CADWORK_22
 48
-5.0
370
    35
100
AcDbLine
 10
52306.47931381
 20
-8999.0905648
 30
0.0
 11
52229.19595841
 21
-8999.0905648
 31
0.0
  0
LWPOLYLINE
  5
7DE
100
AcDbEntity
  8
Ech.1_5
 62
     3
370
    70
100
AcDbPolyline
 90
        4
 70
     0
 43
0.0
 10
52307.32702309
 20
-9177.50061993
 10
52294.33788967
 20
-9177.50061993
 10
52290.40315753
 20
-9171.82000695
 10
52276.92472753
 20
-9171.82000695
  0
LINE
  5
7DF
100
AcDbEntity
  8
Ech.1_5
 62
   106
  6
CADWORK_22
370
    35
100
AcDbLine
 10
52307.98771861
 20
-9046.24385623
 30
0.0
 11
52229.19595841
 21
-9046.24385623
 31
0.0
  0
LWPOLYLINE
  5
7E0
102
{ACAD_REACTORS
330
7E1
102
}
100
AcDbEntity
  8
Ech.1_5
 62
     9
  6
CONTINUOUS
370
    -3
100
AcDbPolyline
 90
        4
 70
     1
 43
0.0
 10
52203.73435225
 20
-8391.16983932
 10
52488.90091322
 20
-8391.16983932
 10
52488.90091322
 20
-8591.17295974
 10
52203.73435225
 20
-8591.16983932
  0
HATCH
  5
7E1
100
AcDbEntity
  8
Ech.1_5
 62
     9
  6
CONTINUOUS
100
AcDbHatch
 10
0.0
 20
0.0
 30
0.0
210
0.0
220
0.0
230
1.0
  2
AR-CONC
 70
     0
 71
     1
 91
        1
 92
        7
 72
     0
 73
     1
 93
        4
 10
52203.73435225
 20
-8391.16983932
 10
52488.90091322
 20
-8391.16983932
 10
52488.90091322
 20
-8591.17295974
 10
52203.73435225
 20
-8591.16983932
 97
        1
330
7E0
 75
     0
 76
     2
 52
0.0
 41
0.11811097
 77
     0
 78
    13
 53
50.0
 43
0.0
 44
0.0
 45
-18.84283637
 46
1.64853443
 79
     2
 49
1.97029307
 49
-21.67322338
 53
355.0
 43
0.0
 44
0.0
 45
-3.64507756
 46
19.76051824
 79
     2
 49
1.57623377
 49
-17.3385787
 53
100.45140076
 43
1.57023568
 44
-0.13737749
 45
-15.19777228
 46
-18.11197244
 79
     2
 49
1.67449124
 49
-18.41940522
 53
46.18420029
 43
0.0
 44
5.25411576
 45
-28.03703353
 46
4.34827878
 79
     2
 49
2.95543872
 49
-32.50983238
 53
96.63559723
 43
2.33641885
 44
4.89175692
 45
-24.55412615
 46
-25.59063404
 79
     2
 49
2.51173697
 49
-27.62910426
 53
351.1842041
 43
0.0
 44
5.25411576
 45
24.55410288
 46
25.59065715
 79
     2
 49
2.36435249
 49
-26.00786805
 53
21.0
 43
2.62705699
 44
3.94058615
 45
-15.68109068
 46
10.57702905
 79
     2
 49
1.97029307
 49
-21.67322338
 53
326.0
 43
2.62705699
 44
3.94058615
 45
6.39203268
 46
19.05010734
 79
     2
 49
1.57623377
 49
-17.3385787
 53
71.45140076
 43
3.93381357
 44
3.05916555
 45
-22.07312962
 46
-8.47306182
 79
     2
 49
1.67449124
 49
-18.41940522
 53
37.5
 43
0.0
 44
0.0
 45
0.31944534
 46
8.74531245
 79
     6
 49
0.01875
 49
-17.12841332
 49
0.01875
 49
-17.60128498
 49
0.01875
 49
-17.40425348
 53
7.5
 43
0.0
 44
0.0
 45
6.91098818
 46
10.3614222
 79
     6
 49
0.01875
 49
-10.03535807
 49
0.01875
 49
-16.7343539
 49
0.01875
 49
-6.6333206
 53
-32.5
 43
-5.85833833
 44
0.0
 45
14.02382061
 46
-0.59253003
 79
     6
 49
0.01875
 49
-6.56764314
 49
0.01875
 49
-20.49104869
 49
0.01875
 49
-27.19004452
 53
-42.5
 43
-8.48539531
 44
0.0
 45
15.32063571
 46
2.62981542
 79
     6
 49
0.01875
 49
-8.53793621
 49
0.01875
 49
-13.60815793
 49
0.01875
 49
-19.30887222
 47
0.775229
 98
        1
 10
0.0
 20
0.0
  0
LWPOLYLINE
  5
7E2
100
AcDbEntity
  8
Ech.1_5
 62
   254
  6
CONTINUOUS
370
    -3
100
AcDbPolyline
 90
        4
 70
     1
 43
0.0
 10
52488.90091322
 20
-8321.16983932
 10
52203.73361727
 20
-8321.16983932
 10
52203.73361727
 20
-8371.16983932
 10
52488.90091322
 20
-8371.16983932
  0
LWPOLYLINE
  5
7E3
102
{ACAD_REACTORS
330
7E4
102
}
100
AcDbEntity
  8
Ech.1_5
 62
     9
  6
CONTINUOUS
370
    -3
100
AcDbPolyline
 90
        4
 70
     1
 43
0.0
 10
52488.90091322
 20
-8321.16983932
 10
52488.90091322
 20
-8308.16983932
 10
52203.73361727
 20
-8308.16983932
 10
52203.73361727
 20
-8321.16983932
  0
HATCH
  5
7E4
100
AcDbEntity
  8
Ech.1_5
 62
     9
  6
CONTINUOUS
100
AcDbHatch
 10
0.0
 20
0.0
 30
0.0
210
0.0
220
0.0
230
1.0
  2
DOTS2
 70
     0
 71
     1
 91
        1
 92
        7
 72
     0
 73
     1
 93
        4
 10
52488.90091322
 20
-8321.16983932
 10
52488.90091322
 20
-8308.16983932
 10
52203.73361727
 20
-8308.16983932
 10
52203.73361727
 20
-8321.16983932
 97
        1
330
7E3
 75
     0
 76
     2
 52
0.0
 41
4.72440952
 77
     0
 78
     1
 53
0.0
 43
0.0
 44
0.0
 45
3.75
 46
3.535
 79
     2
 49
0.0
 49
-3.535
 47
0.775229
 98
        1
 10
0.0
 20
0.0
  0
LWPOLYLINE
  5
7E5
100
AcDbEntity
  8
Ech.1_5
 62
     9
  6
CONTINUOUS
370
    -3
100
AcDbPolyline
 90
       68
 70
     0
 43
0.0
 10
52203.73361727
 20
-8362.83650599
 42
1.14028181
 10
52220.11633119
 20
-8360.67967575
 10
52212.35090335
 20
-8331.66000289
 42
-1.30322619
 10
52228.44966452
 20
-8331.66000289
 10
52220.68423668
 20
-8360.67967575
 42
1.30322619
 10
52236.78299785
 20
-8360.67967575
 10
52229.01757002
 20
-8331.66000289
 42
-1.30322619
 10
52245.11633119
 20
-8331.66000289
 10
52237.35090335
 20
-8360.67967575
 42
1.30322619
 10
52253.44966452
 20
-8360.67967575
 10
52245.68423668
 20
-8331.66000289
 42
-1.30322619
 10
52261.78299785
 20
-8331.66000289
 10
52254.01757002
 20
-8360.67967575
 42
1.30322619
 10
52270.11633119
 20
-8360.67967575
 10
52262.35090335
 20
-8331.66000289
 42
-1.30322619
 10
52278.44966452
 20
-8331.66000289
 10
52270.68423668
 20
-8360.67967575
 42
1.30322619
 10
52286.78299785
 20
-8360.67967575
 10
52279.01757002
 20
-8331.66000289
 42
-1.30322619
 10
52295.11633119
 20
-8331.66000289
 10
52287.35090335
 20
-8360.67967575
 42
1.30322619
 10
52303.44966452
 20
-8360.67967575
 10
52295.68423668
 20
-8331.66000289
 42
-1.30322619
 10
52311.78299785
 20
-8331.66000289
 10
52304.01757002
 20
-8360.67967575
 42
1.30322619
 10
52320.11633119
 20
-8360.67967575
 10
52312.35090335
 20
-8331.66000289
 42
-1.30322619
 10
52328.44966452
 20
-8331.66000289
 10
52320.68423668
 20
-8360.67967575
 42
1.30322619
 10
52336.78299785
 20
-8360.67967575
 10
52329.01757002
 20
-8331.66000289
 42
-1.30322619
 10
52345.11633119
 20
-8331.66000289
 10
52337.35090335
 20
-8360.67967575
 42
1.30322619
 10
52353.44966452
 20
-8360.67967575
 10
52345.68423668
 20
-8331.66000289
 42
-1.30322619
 10
52361.78299785
 20
-8331.66000289
 10
52354.01757002
 20
-8360.67967575
 42
1.30322619
 10
52370.11633119
 20
-8360.67967575
 10
52362.35090335
 20
-8331.66000289
 42
-1.30322619
 10
52378.44966452
 20
-8331.66000289
 10
52370.68423668
 20
-8360.67967575
 42
1.30322619
 10
52386.78299785
 20
-8360.67967575
 10
52379.01757002
 20
-8331.66000289
 42
-1.30322619
 10
52395.11633119
 20
-8331.66000289
 10
52387.35090335
 20
-8360.67967575
 42
1.30322619
 10
52403.44966452
 20
-8360.67967575
 10
52395.68423668
 20
-8331.66000289
 42
-1.30322619
 10
52411.78299785
 20
-8331.66000289
 10
52404.01757002
 20
-8360.67967575
 42
1.30322619
 10
52420.11633119
 20
-8360.67967575
 10
52412.35090335
 20
-8331.66000289
 42
-1.30322619
 10
52428.44966452
 20
-8331.66000289
 10
52420.68423668
 20
-8360.67967575
 42
1.30322619
 10
52436.78299785
 20
-8360.67967575
 10
52429.01757002
 20
-8331.66000289
 42
-1.30322619
 10
52445.11633119
 20
-8331.66000289
 10
52437.35090335
 20
-8360.67967575
 42
1.30322619
 10
52453.44966452
 20
-8360.67967575
 10
52445.68423668
 20
-8331.66000289
 42
-1.30322619
 10
52461.78299785
 20
-8331.66000289
 10
52454.01757002
 20
-8360.67967575
 42
1.30322619
 10
52470.11633119
 20
-8360.67967575
 10
52462.35090335
 20
-8331.66000289
 42
-1.30322619
 10
52478.44966452
 20
-8331.66000289
 10
52470.68423668
 20
-8360.67967575
 42
1.30322619
 10
52486.78299785
 20
-8360.67967575
 10
52479.01757002
 20
-8331.66000289
 42
-0.56412372
 10
52488.90091322
 20
-8321.374149
  0
LWPOLYLINE
  5
7E6
102
{ACAD_REACTORS
330
7E7
102
}
100
AcDbEntity
  8
Ech.1_5
 62
     9
  6
CONTINUOUS
370
    -3
100
AcDbPolyline
 90
        4
 70
     1
 43
0.0
 10
51865.08909831
 20
-8391.16983932
 10
51579.92253733
 20
-8391.16983932
 10
51579.92253733
 20
-8591.17295974
 10
51865.08909831
 20
-8591.16983932
  0
HATCH
  5
7E7
100
AcDbEntity
  8
Ech.1_5
 62
     9
  6
CONTINUOUS
100
AcDbHatch
 10
0.0
 20
0.0
 30
0.0
210
0.0
220
0.0
230
1.0
  2
AR-CONC
 70
     0
 71
     1
 91
        1
 92
        7
 72
     0
 73
     1
 93
        4
 10
51865.08909831
 20
-8391.16983932
 10
51579.92253733
 20
-8391.16983932
 10
51579.92253733
 20
-8591.17295974
 10
51865.08909831
 20
-8591.16983932
 97
        1
330
7E6
 75
     0
 76
     2
 52
0.0
 41
0.11811097
 77
     0
 78
    13
 53
50.0
 43
0.0
 44
0.0
 45
-18.84283637
 46
1.64853443
 79
     2
 49
1.97029307
 49
-21.67322338
 53
355.0
 43
0.0
 44
0.0
 45
-3.64507756
 46
19.76051824
 79
     2
 49
1.57623377
 49
-17.3385787
 53
100.45140076
 43
1.57023568
 44
-0.13737749
 45
-15.19777228
 46
-18.11197244
 79
     2
 49
1.67449124
 49
-18.41940522
 53
46.18420029
 43
0.0
 44
5.25411576
 45
-28.03703353
 46
4.34827878
 79
     2
 49
2.95543872
 49
-32.50983238
 53
96.63559723
 43
2.33641885
 44
4.89175692
 45
-24.55412615
 46
-25.59063404
 79
     2
 49
2.51173697
 49
-27.62910426
 53
351.1842041
 43
0.0
 44
5.25411576
 45
24.55410288
 46
25.59065715
 79
     2
 49
2.36435249
 49
-26.00786805
 53
21.0
 43
2.62705699
 44
3.94058615
 45
-15.68109068
 46
10.57702905
 79
     2
 49
1.97029307
 49
-21.67322338
 53
326.0
 43
2.62705699
 44
3.94058615
 45
6.39203268
 46
19.05010734
 79
     2
 49
1.57623377
 49
-17.3385787
 53
71.45140076
 43
3.93381357
 44
3.05916555
 45
-22.07312962
 46
-8.47306182
 79
     2
 49
1.67449124
 49
-18.41940522
 53
37.5
 43
0.0
 44
0.0
 45
0.31944534
 46
8.74531245
 79
     6
 49
0.01875
 49
-17.12841332
 49
0.01875
 49
-17.60128498
 49
0.01875
 49
-17.40425348
 53
7.5
 43
0.0
 44
0.0
 45
6.91098818
 46
10.3614222
 79
     6
 49
0.01875
 49
-10.03535807
 49
0.01875
 49
-16.7343539
 49
0.01875
 49
-6.6333206
 53
-32.5
 43
-5.85833833
 44
0.0
 45
14.02382061
 46
-0.59253003
 79
     6
 49
0.01875
 49
-6.56764314
 49
0.01875
 49
-20.49104869
 49
0.01875
 49
-27.19004452
 53
-42.5
 43
-8.48539531
 44
0.0
 45
15.32063571
 46
2.62981542
 79
     6
 49
0.01875
 49
-8.53793621
 49
0.01875
 49
-13.60815793
 49
0.01875
 49
-19.30887222
 47
0.775229
 98
        1
 10
0.0
 20
0.0
  0
LWPOLYLINE
  5
7E8
100
AcDbEntity
  8
Ech.1_5
 62
   254
  6
CONTINUOUS
370
    -3
100
AcDbPolyline
 90
        4
 70
     1
 43
0.0
 10
51579.92253733
 20
-8321.16983932
 10
51865.08983329
 20
-8321.16983932
 10
51865.08983329
 20
-8371.16983932
 10
51579.92253733
 20
-8371.16983932
  0
LWPOLYLINE
  5
7E9
102
{ACAD_REACTORS
330
7EA
102
}
100
AcDbEntity
  8
Ech.1_5
 62
     9
  6
CONTINUOUS
370
    -3
100
AcDbPolyline
 90
        4
 70
     1
 43
0.0
 10
51579.92253733
 20
-8321.16983932
 10
51579.92253733
 20
-8308.16983932
 10
51865.08983329
 20
-8308.16983932
 10
51865.08983329
 20
-8321.16983932
  0
HATCH
  5
7EA
100
AcDbEntity
  8
Ech.1_5
 62
     9
  6
CONTINUOUS
100
AcDbHatch
 10
0.0
 20
0.0
 30
0.0
210
0.0
220
0.0
230
1.0
  2
DOTS2
 70
     0
 71
     1
 91
        1
 92
        7
 72
     0
 73
     1
 93
        4
 10
51579.92253733
 20
-8321.16983932
 10
51579.92253733
 20
-8308.16983932
 10
51865.08983329
 20
-8308.16983932
 10
51865.08983329
 20
-8321.16983932
 97
        1
330
7E9
 75
     0
 76
     2
 52
0.0
 41
4.72440952
 77
     0
 78
     1
 53
0.0
 43
0.0
 44
0.0
 45
3.75
 46
3.535
 79
     2
 49
0.0
 49
-3.535
 47
0.775229
 98
        1
 10
0.0
 20
0.0
  0
LWPOLYLINE
  5
7EB
100
AcDbEntity
  8
Ech.1_5
 62
     9
  6
CONTINUOUS
370
    -3
100
AcDbPolyline
 90
       68
 70
     0
 43
0.0
 10
51865.08983329
 20
-8362.83650599
 42
-1.14028181
 10
51848.70711937
 20
-8360.67967575
 10
51856.47254721
 20
-8331.66000289
 42
1.30322619
 10
51840.37378604
 20
-8331.66000289
 10
51848.13921387
 20
-8360.67967575
 42
-1.30322619
 10
51832.0404527
 20
-8360.67967575
 10
51839.80588054
 20
-8331.66000289
 42
1.30322619
 10
51823.70711937
 20
-8331.66000289
 10
51831.47254721
 20
-8360.67967575
 42
-1.30322619
 10
51815.37378604
 20
-8360.67967575
 10
51823.13921387
 20
-8331.66000289
 42
1.30322619
 10
51807.0404527
 20
-8331.66000289
 10
51814.80588054
 20
-8360.67967575
 42
-1.30322619
 10
51798.70711937
 20
-8360.67967575
 10
51806.47254721
 20
-8331.66000289
 42
1.30322619
 10
51790.37378604
 20
-8331.66000289
 10
51798.13921387
 20
-8360.67967575
 42
-1.30322619
 10
51782.0404527
 20
-8360.67967575
 10
51789.80588054
 20
-8331.66000289
 42
1.30322619
 10
51773.70711937
 20
-8331.66000289
 10
51781.47254721
 20
-8360.67967575
 42
-1.30322619
 10
51765.37378604
 20
-8360.67967575
 10
51773.13921387
 20
-8331.66000289
 42
1.30322619
 10
51757.0404527
 20
-8331.66000289
 10
51764.80588054
 20
-8360.67967575
 42
-1.30322619
 10
51748.70711937
 20
-8360.67967575
 10
51756.47254721
 20
-8331.66000289
 42
1.30322619
 10
51740.37378604
 20
-8331.66000289
 10
51748.13921387
 20
-8360.67967575
 42
-1.30322619
 10
51732.0404527
 20
-8360.67967575
 10
51739.80588054
 20
-8331.66000289
 42
1.30322619
 10
51723.70711937
 20
-8331.66000289
 10
51731.47254721
 20
-8360.67967575
 42
-1.30322619
 10
51715.37378604
 20
-8360.67967575
 10
51723.13921387
 20
-8331.66000289
 42
1.30322619
 10
51707.0404527
 20
-8331.66000289
 10
51714.80588054
 20
-8360.67967575
 42
-1.30322619
 10
51698.70711937
 20
-8360.67967575
 10
51706.47254721
 20
-8331.66000289
 42
1.30322619
 10
51690.37378604
 20
-8331.66000289
 10
51698.13921387
 20
-8360.67967575
 42
-1.30322619
 10
51682.0404527
 20
-8360.67967575
 10
51689.80588054
 20
-8331.66000289
 42
1.30322619
 10
51673.70711937
 20
-8331.66000289
 10
51681.47254721
 20
-8360.67967575
 42
-1.30322619
 10
51665.37378604
 20
-8360.67967575
 10
51673.13921387
 20
-8331.66000289
 42
1.30322619
 10
51657.0404527
 20
-8331.66000289
 10
51664.80588054
 20
-8360.67967575
 42
-1.30322619
 10
51648.70711937
 20
-8360.67967575
 10
51656.47254721
 20
-8331.66000289
 42
1.30322619
 10
51640.37378604
 20
-8331.66000289
 10
51648.13921387
 20
-8360.67967575
 42
-1.30322619
 10
51632.0404527
 20
-8360.67967575
 10
51639.80588054
 20
-8331.66000289
 42
1.30322619
 10
51623.70711937
 20
-8331.66000289
 10
51631.47254721
 20
-8360.67967575
 42
-1.30322619
 10
51615.37378604
 20
-8360.67967575
 10
51623.13921387
 20
-8331.66000289
 42
1.30322619
 10
51607.0404527
 20
-8331.66000289
 10
51614.80588054
 20
-8360.67967575
 42
-1.30322619
 10
51598.70711937
 20
-8360.67967575
 10
51606.47254721
 20
-8331.66000289
 42
1.30322619
 10
51590.37378604
 20
-8331.66000289
 10
51598.13921387
 20
-8360.67967575
 42
-1.30322619
 10
51582.0404527
 20
-8360.67967575
 10
51589.80588054
 20
-8331.66000289
 42
0.56412372
 10
51579.92253733
 20
-8321.374149
  0
LWPOLYLINE
  5
7EC
100
AcDbEntity
  8
Ech.1_5
 62
     1
  6
CADWORK_22
 48
-5.0
370
    35
100
AcDbPolyline
 90
        3
 70
     0
 43
0.0
 10
51579.92254534
 20
-8611.16983932
 10
51865.08909831
 20
-8611.16983932
 10
51865.08909831
 20
-8707.61967346
  0
LWPOLYLINE
  5
7ED
100
AcDbEntity
  8
Ech.1_5
 62
     1
  6
CADWORK_22
 48
-5.0
370
    35
100
AcDbPolyline
 90
        3
 70
     0
 43
0.0
 10
52488.90090522
 20
-8611.16983932
 10
52203.73435225
 20
-8611.16983932
 10
52203.73435225
 20
-8707.61967346
  0
LWPOLYLINE
  5
7EE
100
AcDbEntity
  8
Ech.1_5
 62
     3
370
    70
100
AcDbPolyline
 90
        4
 70
     0
 43
0.0
 10
51867.61998237
 20
-8690.14313726
 10
51867.61998237
 20
-8703.13227068
 10
51873.30059534
 20
-8707.06700282
 10
51873.30059534
 20
-8720.54543282
  0
LINE
  5
7EF
100
AcDbEntity
  8
Ech.1_5
 62
   106
  6
CADWORK_22
370
    35
100
AcDbLine
 10
51872.00672749
 20
-8700.53425825
 30
0.0
 11
51872.00672749
 21
-8638.35147469
 31
0.0
  0
LWPOLYLINE
  5
7F0
100
AcDbEntity
  8
Ech.1_5
 62
     3
370
    70
100
AcDbPolyline
 90
        4
 70
     0
 43
0.0
 10
51869.14630225
 20
-8618.05487308
 10
51869.14630225
 20
-8631.0440065
 10
51874.82691522
 20
-8634.97873864
 10
51874.82691522
 20
-8648.45716865
  0
LWPOLYLINE
  5
7F1
100
AcDbEntity
  8
Ech.1_5
 62
     3
370
    70
100
AcDbPolyline
 90
        4
 70
     0
 43
0.0
 10
52201.20346818
 20
-8690.14313726
 10
52201.20346818
 20
-8703.13227068
 10
52195.52285522
 20
-8707.06700282
 10
52195.52285522
 20
-8720.54543282
  0
LINE
  5
7F2
100
AcDbEntity
  8
Ech.1_5
 62
   106
  6
CADWORK_22
370
    35
100
AcDbLine
 10
52196.81672307
 20
-8700.53425825
 30
0.0
 11
52196.81672307
 21
-8638.35147469
 31
0.0
  0
LWPOLYLINE
  5
7F3
100
AcDbEntity
  8
Ech.1_5
 62
     3
370
    70
100
AcDbPolyline
 90
        4
 70
     0
 43
0.0
 10
52199.6771483
 20
-8618.05487308
 10
52199.6771483
 20
-8631.0440065
 10
52193.99653534
 20
-8634.97873864
 10
52193.99653534
 20
-8648.45716865
  0
LWPOLYLINE
  5
7F4
100
AcDbEntity
  8
Ech.1_5
 62
   190
  6
CONTINUOUS
370
    -3
100
AcDbPolyline
 90
        6
 70
     0
 43
0.0
 10
52488.90032657
 20
-8864.7531861
 10
52488.90089407
 20
-8731.36972323
 10
52506.87824248
 20
-8714.88422007
 10
52470.92254247
 20
-8728.99416009
 10
52488.90089407
 20
-8712.50780601
 10
52488.90091322
 20
-8274.90684464
  0
LWPOLYLINE
  5
7F5
100
AcDbEntity
  8
Ech.1_5
 62
   190
  6
CONTINUOUS
370
    -3
100
AcDbPolyline
 90
        6
 70
     0
 43
0.0
 10
51579.92312398
 20
-8864.7531861
 10
51579.92255649
 20
-8731.36972323
 10
51561.94520808
 20
-8714.88422007
 10
51597.90090809
 20
-8728.99416009
 10
51579.92255649
 20
-8712.50780601
 10
51579.92253733
 20
-8274.90684464
  0
TEXT
  5
7F6
100
AcDbEntity
  8
Ech.1_5
 62
   190
100
AcDbText
 10
51782.7820833
 20
-9131.2785783
 30
0.0
 40
8.00000012
  1
Echelle en mm
  7
ARIAL
 50
0.0
 41
1.0
 51
0.0
100
AcDbText
  0
TEXT
  5
7F7
100
AcDbEntity
  8
Ech.1_5
 62
   190
100
AcDbText
 10
51768.80149855
 20
-9159.48841383
 30
0.0
 40
8.00000012
  1
0
  7
ARIAL
 50
0.0
 41
1.0
 51
0.0
100
AcDbText
  0
TEXT
  5
7F8
100
AcDbEntity
  8
Ech.1_5
 62
   190
100
AcDbText
 10
51855.39855644
 20
-9159.48841383
 30
0.0
 40
8.00000012
  1
100
  7
ARIAL
 50
0.0
 41
1.0
 51
0.0
100
AcDbText
  0
TEXT
  5
7F9
100
AcDbEntity
  8
Ech.1_5
 62
   190
100
AcDbText
 10
51816.65812488
 20
-9159.48841383
 30
0.0
 40
8.00000012
  1
50
  7
ARIAL
 50
0.0
 41
1.0
 51
0.0
100
AcDbText
  0
INSERT
  5
7FA
100
AcDbEntity
  8
Ech.1_5
 62
     0
370
    -3
100
AcDbBlockReference
  2
*D34
 10
0.0
 20
0.0
 30
0.0
  0
INSERT
  5
7FB
100
AcDbEntity
  8
Ech.1_5
 62
     0
370
    -3
100
AcDbBlockReference
  2
*D35
 10
0.0
 20
0.0
 30
0.0
  0
ENDSEC
  0
SECTION
  2
OBJECTS
  0
DICTIONARY
  5
1
100
AcDbDictionary
  3
ACAD_GROUP
350
2
  3
ACAD_MLINESTYLE
350
3
  0
DICTIONARY
  5
2
102
{CDWK_REACTORS
330
1
102
}
100
AcDbDictionary
  0
DICTIONARY
  5
3
102
{CDWK_REACTORS
330
1
102
}
100
AcDbDictionary
  3
STANDARD
350
4
  0
MLINESTYLE
  5
4
102
{CDWK_REACTORS
330
3
102
}
100
AcDbMlineStyle
  2
STANDARD
 70
     0
  3

 62
     0
 51
90.0
 52
90.0
 71
     2
 49
0.5
 62
   256
  6
BYLAYER
 49
-0.5
 62
   256
  6
BYLAYER
  0
ENDSEC
  0
EOF
