  0
SECTION
  2
HEADER
  9
$ACADVER
  1
AC1014
  9
$DWGCODEPAGE
  3
ANSI_1252
  9
$INSBASE
 10
0.0
 20
0.0
 30
0.0
  9
$EXTMIN
 10
1033.98771282
 20
-21718.34332712
  9
$EXTMAX
 10
122326.07664696
 20
2240.3362527
  9
$LIMMIN
 10
1033.98771282
 20
-21718.34332712
  9
$LIMMAX
 10
122326.07664696
 20
2240.3362527
  9
$ORTHOMODE
 70
     0
  9
$REGENMODE
 70
     1
  9
$FILLMODE
 70
     1
  9
$QTEXTMODE
 70
     0
  9
$MIRRTEXT
 70
     1
  9
$DRAGMODE
 70
     2
  9
$LTSCALE
 40
5.0
  9
$OSMODE
 70
     0
  9
$ATTMODE
 70
     1
  9
$TEXTSIZE
 40
3.5
  9
$TRACEWID
 40
1.0
  9
$TEXTSTYLE
  7
STANDARD
  9
$CLAYER
  8
0
  9
$CELTYPE
  6
BYLAYER
  9
$CECOLOR
 62
   256
  9
$DIMSCALE
 40
1.0
  9
$DIMASZ
 40
2.0
  9
$DIMEXO
 40
5.0
  9
$DIMDLI
 40
10.0
  9
$DIMRND
 40
0.0
  9
$DIMDLE
 40
2.0
  9
$DIMEXE
 40
2.0
  9
$DIMTP
 40
0.0
  9
$DIMTM
 40
0.0
  9
$DIMTXT
 40
2.5
  9
$DIMCEN
 40
1.5
  9
$DIMTSZ
 40
0.0
  9
$DIMTOL
 70
     0
  9
$DIMLIM
 70
     0
  9
$DIMTIH
 70
     1
  9
$DIMTOH
 70
     0
  9
$DIMSE1
 70
     0
  9
$DIMSE2
 70
     0
  9
$DIMTAD
 70
     1
  9
$DIMZIN
 70
     8
  9
$DIMBLK
  1

  9
$DIMASO
 70
     1
  9
$DIMSHO
 70
     1
  9
$DIMPOST
  1

  9
$DIMAPOST
  1

  9
$DIMALT
 70
     0
  9
$DIMALTD
 70
     2
  9
$DIMALTF
 40
25.4
  9
$DIMLFAC
 40
1.0
  9
$DIMTOFL
 70
     0
  9
$DIMTVP
 40
0.0
  9
$DIMTIX
 70
     0
  9
$DIMSOXD
 70
     0
  9
$DIMSAH
 70
     0
  9
$DIMBLK1
  1

  9
$DIMBLK2
  1

  9
$DIMSTYLE
  2
*UNNAMED
  9
$DIMCLRD
 70
   190
  9
$DIMCLRE
 70
   190
  9
$DIMCLRT
 70
   190
  9
$DIMTFAC
 40
1.0
  9
$DIMGAP
 40
0.09
  9
$DIMUNIT
 70
     2
  9
$LUNITS
 70
     2
  9
$LUPREC
 70
     6
  9
$AXISMODE
 70
     0
  9
$AXISUNIT
 10
0.0
 20
0.0
  9
$SKETCHINC
 40
0.1
  9
$FILLETRAD
 40
0.0
  9
$AUNITS
 70
     0
  9
$AUPREC
 70
     0
  9
$MENU
  1
ACAD
  9
$ELEVATION
 40
0.0
  9
$PELEVATION
 40
0.0
  9
$THICKNESS
 40
0.0
  9
$LIMCHECK
 70
     0
  9
$BLIPMODE
 70
     1
  9
$CHAMFERA
 40
0.0
  9
$CHAMFERB
 40
0.0
  9
$SKPOLY
 70
     1
  9
$TDCREATE
 40
2457808.0000000000
  9
$TDUPDATE
 40
2457808.0000000000
  9
$TDINDWG
 40
0.0
  9
$TDUSRTIMER
 40
0.0
  9
$USRTIMER
 70
     1
  9
$ANGBASE
 50
0.0
  9
$ANGDIR
 70
     0
  9
$PDMODE
 70
     0
  9
$PDSIZE
 40
0.0
  9
$PLINEWID
 40
0.0
  9
$COORDS
 70
     2
  9
$SPLFRAME
 70
     0
  9
$SPLINETYPE
 70
     6
  9
$SPLINESEGS
 70
     8
  9
$ATTDIA
 70
     1
  9
$ATTREQ
 70
     1
  9
$HANDLING
 70
     1
  9
$HANDSEED
  5
     733
  9
$SURFTAB1
 70
     6
  9
$SURFTAB2
 70
     6
  9
$SURFTYPE
 70
     6
  9
$SURFU
 70
     6
  9
$SURFV
 70
     6
  9
$UCSNAME
  2

  9
$UCSORG
 10
0.0
 20
0.0
 30
0.0
  9
$UCSXDIR
 10
1.0
 20
0.0
 30
0.0
  9
$UCSYDIR
 10
0.0
 20
1.0
 30
0.0
  9
$PUCSNAME
  2

  9
$PUCSORG
 10
0.0
 20
0.0
 30
0.0
  9
$PUCSXDIR
 10
1.0
 20
0.0
 30
0.0
  9
$PUCSYDIR
 10
0.0
 20
1.0
 30
0.0
  9
$USERI1
 70
     0
  9
$USERI2
 70
     0
  9
$USERI3
 70
     0
  9
$USERI4
 70
     0
  9
$USERI5
 70
     0
  9
$USERR1
 40
0.0
  9
$USERR2
 40
0.0
  9
$USERR3
 40
0.0
  9
$USERR4
 40
0.0
  9
$USERR5
 40
0.0
  9
$WORLDVIEW
 70
     1
  9
$SHADEDGE
 70
     3
  9
$SHADEDIF
 70
    70
  9
$TILEMODE
 70
     1
  9
$MAXACTVP
 70
    16
  9
$PINSBASE
 10
0.0
 20
0.0
 30
0.0
  9
$PLIMCHECK
 70
     0
  9
$PEXTMIN
 10
1.0000000000000E+20
 20
1.0000000000000E+20
 30
1.0000000000000E+20
  9
$PEXTMAX
 10
-1.0000000000000E+20
 20
-1.0000000000000E+20
 30
-1.0000000000000E+20
  9
$PLIMMIN
 10
0.0
 20
0.0
  9
$UNITMODE
 70
     0
  9
$VISRETAIN
 70
     0
  9
$MEASUREMENT
 70
     1
  0
ENDSEC
  0
SECTION
  2
TABLES
  0
TABLE
  2
VPORT
  5
4A2
100
AcDbSymbolTable
 70
     1
  0
ENDTAB
  0
TABLE
  2
STYLE
  5
4A3
100
AcDbSymbolTable
 70
     3
  0
STYLE
  5
4A4
100
AcDbSymbolTableRecord
100
AcDbTextStyleTableRecord
  2
STANDARD
 70
     0
 40
0.0
 41
1.0
 50
0.0
 71
     0
 42
3.5
  3
MONOTXT
  4

  0
STYLE
  5
4A5
100
AcDbSymbolTableRecord
100
AcDbTextStyleTableRecord
  2
SYMAP
 70
     0
 40
0.0
 41
1.0
 50
0.0
 71
     0
 42
3.5
  3
SYMAP
  4

  0
STYLE
  5
4A6
100
AcDbSymbolTableRecord
100
AcDbTextStyleTableRecord
  2
CADWORK1
 70
     0
 40
0.0
 41
1.0
 50
0.0
 71
     0
 42
3.5
  3
MONOTXT
  4

  0
STYLE
  5
4A7
100
AcDbSymbolTableRecord
100
AcDbTextStyleTableRecord
  2
MONOTXT
 70
     0
 40
0.0
 41
1.0
 50
0.0
 71
     0
 42
3.5
  3
MONOTXT
  4

  0
STYLE
  5
4A8
100
AcDbSymbolTableRecord
100
AcDbTextStyleTableRecord
  2
ARIAL
 70
     0
 40
0.0
 41
1.0
 50
0.0
 71
     0
 42
3.5
  3

  4

1001
ACAD
1000
Arial
1071
        0
  0
ENDTAB
  0
TABLE
  2
LTYPE
  5
4A9
100
AcDbSymbolTable
 70
    15
  0
LTYPE
  5
4AA
100
AcDbSymbolTableRecord
100
AcDbLinetypeTableRecord
  2
BYBLOCK
 70
    64
  3

 72
    65
 73
     0
 40
0.0
  0
LTYPE
  5
4AB
100
AcDbSymbolTableRecord
100
AcDbLinetypeTableRecord
  2
BYLAYER
 70
    64
  3

 72
    65
 73
     0
 40
0.0
  0
LTYPE
  5
4AC
100
AcDbSymbolTableRecord
100
AcDbLinetypeTableRecord
  2
CONTINUOUS
 70
    64
  3
Solid line
 72
    65
 73
     0
 40
0.0
  0
LTYPE
  5
4AD
100
AcDbSymbolTableRecord
100
AcDbLinetypeTableRecord
  2
DOT2
 70
    64
  3
...............................................
 72
    65
 73
     2
 40
1.25
 49
0.0
 74
     0
 49
-1.25
 74
     0
  0
LTYPE
  5
4AE
100
AcDbSymbolTableRecord
100
AcDbLinetypeTableRecord
  2
CADWORK_13
 70
    64
  3
13 =======================================
 72
    65
 73
     2
 40
4.0
 49
2.0
 74
     0
 49
-2.0
 74
     0
  0
LTYPE
  5
4AF
100
AcDbSymbolTableRecord
100
AcDbLinetypeTableRecord
  2
DASHDOT
 70
    64
  3
 __ . __ . __ . __ . __ . __ . __ . __ . __ . __
 72
    65
 73
     4
 40
10.0
 49
5.0
 74
     0
 49
-2.5
 74
     0
 49
0.0
 74
     0
 49
-2.5
 74
     0
  0
LTYPE
  5
4B0
100
AcDbSymbolTableRecord
100
AcDbLinetypeTableRecord
  2
CENTER
 70
    64
  3
 ____ _ ____ _ ____ _ ____ _ ____ _ ____ _ ____
 72
    65
 73
     4
 40
20.0
 49
12.5
 74
     0
 49
-2.5
 74
     0
 49
2.5
 74
     0
 49
-2.5
 74
     0
  0
LTYPE
  5
4B1
100
AcDbSymbolTableRecord
100
AcDbLinetypeTableRecord
  2
DASHEDX2
 70
    64
  3
____  ____  ____  ____  ____  ____  ____  ____
 72
    65
 73
     2
 40
3.75
 49
2.5
 74
     0
 49
-1.25
 74
     0
  0
LTYPE
  5
4B2
100
AcDbSymbolTableRecord
100
AcDbLinetypeTableRecord
  2
CADWORK_22
 70
    64
  3
22 =======================================
 72
    65
 73
     0
 40
0.0
  0
LTYPE
  5
4B3
100
AcDbSymbolTableRecord
100
AcDbLinetypeTableRecord
  2
DAL
 70
    64
  3
Solid line (for MAPS)
 72
    65
 73
     0
 40
0.0
  0
LTYPE
  5
4B4
100
AcDbSymbolTableRecord
100
AcDbLinetypeTableRecord
  2
MUR
 70
    64
  3
Solid line (for MAPS)
 72
    65
 73
     0
 40
0.0
  0
LTYPE
  5
4B5
100
AcDbSymbolTableRecord
100
AcDbLinetypeTableRecord
  2
SOM
 70
    64
  3
Solid line (for MAPS)
 72
    65
 73
     0
 40
0.0
  0
LTYPE
  5
4B6
100
AcDbSymbolTableRecord
100
AcDbLinetypeTableRecord
  2
COL
 70
    64
  3
Solid line (for MAPS)
 72
    65
 73
     0
 40
0.0
  0
LTYPE
  5
4B7
100
AcDbSymbolTableRecord
100
AcDbLinetypeTableRecord
  2
LGN
 70
    64
  3
Solid line (for MAPS)
 72
    65
 73
     0
 40
0.0
  0
LTYPE
  5
4B8
100
AcDbSymbolTableRecord
100
AcDbLinetypeTableRecord
  2
PNT
 70
    64
  3
Solid line (for MAPS)
 72
    65
 73
     0
 40
0.0
  0
ENDTAB
  0
TABLE
  2
LAYER
  5
4B9
100
AcDbSymbolTable
 70
    32
  0
LAYER
  5
4BA
100
AcDbSymbolTableRecord
100
AcDbLayerTableRecord
  2
Standard
 70
     0
 62
     7
  6
CONTINUOUS
370
    -3
  0
LAYER
  5
4BB
100
AcDbSymbolTableRecord
100
AcDbLayerTableRecord
  2
Ech.1_1
 70
     0
 62
     7
  6
CONTINUOUS
370
    -3
  0
LAYER
  5
4BC
100
AcDbSymbolTableRecord
100
AcDbLayerTableRecord
  2
Ech.1_2
 70
     0
 62
     7
  6
CONTINUOUS
370
    -3
  0
LAYER
  5
4BD
100
AcDbSymbolTableRecord
100
AcDbLayerTableRecord
  2
Ech.1_5
 70
     0
 62
     7
  6
CONTINUOUS
370
    -3
  0
LAYER
  5
4BE
100
AcDbSymbolTableRecord
100
AcDbLayerTableRecord
  2
Ech.1_10
 70
     0
 62
     7
  6
CONTINUOUS
370
    -3
  0
LAYER
  5
4BF
100
AcDbSymbolTableRecord
100
AcDbLayerTableRecord
  2
Ech.1_20
 70
     0
 62
     7
  6
CONTINUOUS
370
    -3
  0
LAYER
  5
4C0
100
AcDbSymbolTableRecord
100
AcDbLayerTableRecord
  2
Ech.1_25
 70
     0
 62
     7
  6
CONTINUOUS
370
    -3
  0
LAYER
  5
4C1
100
AcDbSymbolTableRecord
100
AcDbLayerTableRecord
  2
Ech.1_33
 70
     0
 62
     7
  6
CONTINUOUS
370
    -3
  0
LAYER
  5
4C2
100
AcDbSymbolTableRecord
100
AcDbLayerTableRecord
  2
Ech.1_50
 70
     0
 62
     7
  6
CONTINUOUS
370
    -3
  0
LAYER
  5
4C3
100
AcDbSymbolTableRecord
100
AcDbLayerTableRecord
  2
Ech.1_75
 70
     0
 62
     7
  6
CONTINUOUS
370
    -3
  0
LAYER
  5
4C4
100
AcDbSymbolTableRecord
100
AcDbLayerTableRecord
  2
Ech.1_100
 70
     0
 62
     7
  6
CONTINUOUS
370
    -3
  0
LAYER
  5
4C5
100
AcDbSymbolTableRecord
100
AcDbLayerTableRecord
  2
Ech.1_200
 70
     0
 62
     7
  6
CONTINUOUS
370
    -3
  0
LAYER
  5
4C6
100
AcDbSymbolTableRecord
100
AcDbLayerTableRecord
  2
Ech.1_500
 70
     0
 62
     7
  6
CONTINUOUS
370
    -3
  0
LAYER
  5
4C7
100
AcDbSymbolTableRecord
100
AcDbLayerTableRecord
  2
Ech.1_1000
 70
     0
 62
     7
  6
CONTINUOUS
370
    -3
  0
LAYER
  5
4C8
100
AcDbSymbolTableRecord
100
AcDbLayerTableRecord
  2
Cadres traceur
 70
     0
 62
     7
  6
CONTINUOUS
370
    18
  0
LAYER
  5
4C9
100
AcDbSymbolTableRecord
100
AcDbLayerTableRecord
  2
Cadres laser
 70
     0
 62
     7
  6
CONTINUOUS
370
    18
  0
LAYER
  5
4CA
100
AcDbSymbolTableRecord
100
AcDbLayerTableRecord
  2
Légende d_aide
 70
     0
 62
     7
  6
CONTINUOUS
370
    18
  0
LAYER
  5
4CB
100
AcDbSymbolTableRecord
100
AcDbLayerTableRecord
  2
hachures ok
 70
     0
 62
     7
  6
CONTINUOUS
370
    18
  0
LAYER
  5
4CC
100
AcDbSymbolTableRecord
100
AcDbLayerTableRecord
  2
ossature bois
 70
     0
 62
     7
  6
CONTINUOUS
370
    18
  0
LAYER
  5
4CD
100
AcDbSymbolTableRecord
100
AcDbLayerTableRecord
  2
VR
 70
     0
 62
     7
  6
CONTINUOUS
370
    25
  0
LAYER
  5
4CE
100
AcDbSymbolTableRecord
100
AcDbLayerTableRecord
  2
Calque1
 70
     0
 62
     7
  6
CONTINUOUS
370
     9
  0
LAYER
  5
4CF
100
AcDbSymbolTableRecord
100
AcDbLayerTableRecord
  2
0
 70
     0
 62
     7
  6
CONTINUOUS
370
    -3
  0
LAYER
  5
4D0
100
AcDbSymbolTableRecord
100
AcDbLayerTableRecord
  2
menuiserie
 70
     0
 62
     7
  6
CONTINUOUS
370
    -3
  0
LAYER
  5
4D1
100
AcDbSymbolTableRecord
100
AcDbLayerTableRecord
  2
cotation
 70
     0
 62
   250
  6
CONTINUOUS
370
     9
  0
LAYER
  5
4D2
100
AcDbSymbolTableRecord
100
AcDbLayerTableRecord
  2
Defpoints
 70
     0
 62
    10
  6
CONTINUOUS
370
    -3
  0
LAYER
  5
4D3
100
AcDbSymbolTableRecord
100
AcDbLayerTableRecord
  2
HACHURE
 70
     0
 62
   254
  6
CONTINUOUS
370
    25
  0
LAYER
  5
4D4
100
AcDbSymbolTableRecord
100
AcDbLayerTableRecord
  2
mat1
 70
     0
 62
     7
  6
CONTINUOUS
370
    30
  0
LAYER
  5
4D5
100
AcDbSymbolTableRecord
100
AcDbLayerTableRecord
  2
mat2
 70
     0
 62
     7
  6
CONTINUOUS
370
     5
  0
LAYER
  5
4D6
100
AcDbSymbolTableRecord
100
AcDbLayerTableRecord
  2
hach
 70
     0
 62
     8
  6
CONTINUOUS
370
     5
  0
LAYER
  5
4D7
100
AcDbSymbolTableRecord
100
AcDbLayerTableRecord
  2
menuiseries
 70
     0
 62
     7
  6
CONTINUOUS
370
     9
  0
LAYER
  5
4D8
100
AcDbSymbolTableRecord
100
AcDbLayerTableRecord
  2
BétonMétal
 70
     0
 62
     7
  6
CONTINUOUS
370
    80
  0
LAYER
  5
4D9
100
AcDbSymbolTableRecord
100
AcDbLayerTableRecord
  2
bois
 70
     0
 62
     7
  6
CONTINUOUS
370
    60
  0
ENDTAB
  0
TABLE
  2
VIEW
  5
4DA
100
AcDbSymbolTable
 70
     0
  0
ENDTAB
  0
TABLE
  2
UCS
  5
4DB
100
AcDbSymbolTable
 70
     0
  0
ENDTAB
  0
TABLE
  2
APPID
  5
4DC
100
AcDbSymbolTable
 70
     1
  0
APPID
  5
4DD
100
AcDbSymbolTableRecord
100
AcDbRegAppTableRecord
  2
ACAD
 70
     0
  0
ENDTAB
  0
TABLE
  2
DIMSTYLE
  5
4DE
100
AcDbSymbolTable
 70
     0
  0
ENDTAB
  0
TABLE
  2
BLOCK_RECORD
  5
4DF
100
AcDbSymbolTable
 70
     0
  0
BLOCK_RECORD
  5
4E0
100
AcDbSymbolTableRecord
100
AcDbBlockTableRecord
  2
*MODEL_SPACE
  0
BLOCK_RECORD
  5
4E1
100
AcDbSymbolTableRecord
100
AcDbBlockTableRecord
  2
*PAPER_SPACE
  0
BLOCK_RECORD
  5
4E2
100
AcDbSymbolTableRecord
100
AcDbBlockTableRecord
  2
CDWK_EXTR_0
  0
BLOCK_RECORD
  5
4E3
100
AcDbSymbolTableRecord
100
AcDbBlockTableRecord
  2
CDWK_EXTR_1D
  0
BLOCK_RECORD
  5
4E4
100
AcDbSymbolTableRecord
100
AcDbBlockTableRecord
  2
CDWK_EXTR_1G
  0
BLOCK_RECORD
  5
4E5
100
AcDbSymbolTableRecord
100
AcDbBlockTableRecord
  2
CDWK_EXTR_2
  0
BLOCK_RECORD
  5
4E6
100
AcDbSymbolTableRecord
100
AcDbBlockTableRecord
  2
CDWK_EXTR_3
  0
BLOCK_RECORD
  5
4E7
100
AcDbSymbolTableRecord
100
AcDbBlockTableRecord
  2
CDWK_EXTR_4
  0
BLOCK_RECORD
  5
4E8
100
AcDbSymbolTableRecord
100
AcDbBlockTableRecord
  2
CDWK_PTTYP0
  0
BLOCK_RECORD
  5
4E9
100
AcDbSymbolTableRecord
100
AcDbBlockTableRecord
  2
CDWK_PTTYP1
  0
BLOCK_RECORD
  5
4EA
100
AcDbSymbolTableRecord
100
AcDbBlockTableRecord
  2
CDWK_PTTYP2
  0
BLOCK_RECORD
  5
4EB
100
AcDbSymbolTableRecord
100
AcDbBlockTableRecord
  2
CDWK_PTTYP3
  0
BLOCK_RECORD
  5
4EC
100
AcDbSymbolTableRecord
100
AcDbBlockTableRecord
  2
CDWK_PTTYP4
  0
BLOCK_RECORD
  5
4ED
100
AcDbSymbolTableRecord
100
AcDbBlockTableRecord
  2
CDWK_PTTYP5
  0
BLOCK_RECORD
  5
4EE
100
AcDbSymbolTableRecord
100
AcDbBlockTableRecord
  2
CDWK_PTTYP6
  0
BLOCK_RECORD
  5
4EF
100
AcDbSymbolTableRecord
100
AcDbBlockTableRecord
  2
CDWK_PTTYP7
  0
BLOCK_RECORD
  5
4F0
100
AcDbSymbolTableRecord
100
AcDbBlockTableRecord
  2
CDWK_PTTYP8
  0
BLOCK_RECORD
  5
4F1
100
AcDbSymbolTableRecord
100
AcDbBlockTableRecord
  2
CDWK_PTTYP9
  0
BLOCK_RECORD
  5
4F2
100
AcDbSymbolTableRecord
100
AcDbBlockTableRecord
  2
CDWK_PTTYP10
  0
BLOCK_RECORD
  5
4F3
100
AcDbSymbolTableRecord
100
AcDbBlockTableRecord
  2
CDWK_PTTYP11
  0
BLOCK_RECORD
  5
4F4
100
AcDbSymbolTableRecord
100
AcDbBlockTableRecord
  2
CDWK_PTTYP12
  0
BLOCK_RECORD
  5
4F5
100
AcDbSymbolTableRecord
100
AcDbBlockTableRecord
  2
CDWK_PTTYP13
  0
BLOCK_RECORD
  5
4F6
100
AcDbSymbolTableRecord
100
AcDbBlockTableRecord
  2
CDWK_PTTYP14
  0
BLOCK_RECORD
  5
4F7
100
AcDbSymbolTableRecord
100
AcDbBlockTableRecord
  2
CDWK_PTTYP15
  0
BLOCK_RECORD
  5
4F8
100
AcDbSymbolTableRecord
100
AcDbBlockTableRecord
  2
CDWK_PTTYP16
  0
BLOCK_RECORD
  5
4F9
100
AcDbSymbolTableRecord
100
AcDbBlockTableRecord
  2
CDWK_PTTYP17
  0
BLOCK_RECORD
  5
4FA
100
AcDbSymbolTableRecord
100
AcDbBlockTableRecord
  2
CDWK_PTTYP18
  0
BLOCK_RECORD
  5
4FB
100
AcDbSymbolTableRecord
100
AcDbBlockTableRecord
  2
CDWK_PTTYP19
  0
BLOCK_RECORD
  5
4FC
100
AcDbSymbolTableRecord
100
AcDbBlockTableRecord
  2
CDWK_PTTYP20
  0
BLOCK_RECORD
  5
4FD
100
AcDbSymbolTableRecord
100
AcDbBlockTableRecord
  2
CDWK_PTTYP21
  0
BLOCK_RECORD
  5
4FE
100
AcDbSymbolTableRecord
100
AcDbBlockTableRecord
  2
CDWK_PTTYP22
  0
BLOCK_RECORD
  5
4FF
100
AcDbSymbolTableRecord
100
AcDbBlockTableRecord
  2
CDWK_PTTYP23
  0
BLOCK_RECORD
  5
500
100
AcDbSymbolTableRecord
100
AcDbBlockTableRecord
  2
CDWK_PTTYP24
  0
BLOCK_RECORD
  5
501
100
AcDbSymbolTableRecord
100
AcDbBlockTableRecord
  2
CDWK_PTTYP25
  0
BLOCK_RECORD
  5
502
100
AcDbSymbolTableRecord
100
AcDbBlockTableRecord
  2
CDWK_PTTYP26
  0
BLOCK_RECORD
  5
503
100
AcDbSymbolTableRecord
100
AcDbBlockTableRecord
  2
CDWK_PTTYP27
  0
BLOCK_RECORD
  5
504
100
AcDbSymbolTableRecord
100
AcDbBlockTableRecord
  2
CDWK_PTTYP28
  0
BLOCK_RECORD
  5
505
100
AcDbSymbolTableRecord
100
AcDbBlockTableRecord
  2
CDWK_PTTYP29
  0
BLOCK_RECORD
  5
506
100
AcDbSymbolTableRecord
100
AcDbBlockTableRecord
  2
CDWK_PTTYP30
  0
BLOCK_RECORD
  5
507
100
AcDbSymbolTableRecord
100
AcDbBlockTableRecord
  2
CDWK_PTTYP31
  0
BLOCK_RECORD
  5
508
100
AcDbSymbolTableRecord
100
AcDbBlockTableRecord
  2
CDWK_PTTYP32
  0
BLOCK_RECORD
  5
509
100
AcDbSymbolTableRecord
100
AcDbBlockTableRecord
  2
CDWK_PTTYP33
  0
BLOCK_RECORD
  5
50A
100
AcDbSymbolTableRecord
100
AcDbBlockTableRecord
  2
CDWK_PTTYP34
  0
BLOCK_RECORD
  5
50B
100
AcDbSymbolTableRecord
100
AcDbBlockTableRecord
  2
CDWK_PTTYP35
  0
BLOCK_RECORD
  5
50C
100
AcDbSymbolTableRecord
100
AcDbBlockTableRecord
  2
CDWK_PTTYP36
  0
BLOCK_RECORD
  5
50D
100
AcDbSymbolTableRecord
100
AcDbBlockTableRecord
  2
CDWK_PTTYP37
  0
BLOCK_RECORD
  5
50E
100
AcDbSymbolTableRecord
100
AcDbBlockTableRecord
  2
CDWK_PTTYP38
  0
BLOCK_RECORD
  5
50F
100
AcDbSymbolTableRecord
100
AcDbBlockTableRecord
  2
*D23
  0
BLOCK_RECORD
  5
510
100
AcDbSymbolTableRecord
100
AcDbBlockTableRecord
  2
*D24
  0
BLOCK_RECORD
  5
511
100
AcDbSymbolTableRecord
100
AcDbBlockTableRecord
  2
*D25
  0
BLOCK_RECORD
  5
512
100
AcDbSymbolTableRecord
100
AcDbBlockTableRecord
  2
*D26
  0
BLOCK_RECORD
  5
513
100
AcDbSymbolTableRecord
100
AcDbBlockTableRecord
  2
*D27
  0
BLOCK_RECORD
  5
514
100
AcDbSymbolTableRecord
100
AcDbBlockTableRecord
  2
*D32
  0
BLOCK_RECORD
  5
515
100
AcDbSymbolTableRecord
100
AcDbBlockTableRecord
  2
*D33
  0
ENDTAB
  0
ENDSEC
  0
SECTION
  2
BLOCKS
  0
BLOCK
  5
516
100
AcDbEntity
  8
0
100
AcDbBlockBegin
  2
*MODEL_SPACE
 70
     0
 10
0.0
 20
0.0
 30
0.0
  3
*MODEL_SPACE
  1

  0
ENDBLK
  5
517
100
AcDbEntity
100
AcDbBlockEnd
  0
BLOCK
  5
518
100
AcDbEntity
  8
0
100
AcDbBlockBegin
  2
*PAPER_SPACE
 70
     0
 10
0.0
 20
0.0
 30
0.0
  3
*PAPER_SPACE
  1

  0
ENDBLK
  5
519
100
AcDbEntity
100
AcDbBlockEnd
  0
BLOCK
  5
51A
100
AcDbEntity
  8
0
100
AcDbBlockBegin
  2
CDWK_EXTR_0
 70
     0
 10
0.0
 20
0.0
 30
0.0
  3
CDWK_EXTR_0
  1

  4
Cadwork line-extremity
  0
LINE
  5
51B
100
AcDbEntity
  8
0
 62
     0
370
    -2
100
AcDbLine
 10
0.0
 20
0.0
 30
0.0
 11
2.0
 21
0.5
 31
0.0
  0
LINE
  5
51C
100
AcDbEntity
  8
0
 62
     0
370
    -2
100
AcDbLine
 10
0.0
 20
0.0
 30
0.0
 11
2.0
 21
-0.5
 31
0.0
  0
LINE
  5
51D
100
AcDbEntity
  8
0
 62
     0
370
    -2
100
AcDbLine
 10
2.0
 20
0.5
 30
0.0
 11
2.0
 21
-0.5
 31
0.0
  0
ENDBLK
  5
51E
100
AcDbEntity
100
AcDbBlockEnd
  0
BLOCK
  5
51F
100
AcDbEntity
  8
0
100
AcDbBlockBegin
  2
CDWK_EXTR_1D
 70
     0
 10
0.0
 20
0.0
 30
0.0
  3
CDWK_EXTR_1D
  1

  4
Cadwork line-extremity
  0
LINE
  5
520
100
AcDbEntity
  8
0
 62
     0
370
    -2
100
AcDbLine
 10
0.0
 20
0.0
 30
0.0
 11
0.0
 21
1.0
 31
0.0
  0
LINE
  5
521
100
AcDbEntity
  8
0
 62
     0
370
    -2
100
AcDbLine
 10
0.0
 20
1.0
 30
0.0
 11
0.5
 21
1.5
 31
0.0
  0
LINE
  5
522
100
AcDbEntity
  8
0
 62
     0
370
    -2
100
AcDbLine
 10
0.5
 20
1.5
 30
0.0
 11
1.5
 21
1.5
 31
0.0
  0
ENDBLK
  5
523
100
AcDbEntity
100
AcDbBlockEnd
  0
BLOCK
  5
524
100
AcDbEntity
  8
0
100
AcDbBlockBegin
  2
CDWK_EXTR_1G
 70
     0
 10
0.0
 20
0.0
 30
0.0
  3
CDWK_EXTR_1G
  1

  4
Cadwork line-extremity
  0
LINE
  5
525
100
AcDbEntity
  8
0
 62
     0
370
    -2
100
AcDbLine
 10
0.0
 20
0.0
 30
0.0
 11
0.0
 21
-1.0
 31
0.0
  0
LINE
  5
526
100
AcDbEntity
  8
0
 62
     0
370
    -2
100
AcDbLine
 10
0.0
 20
-1.0
 30
0.0
 11
0.5
 21
-1.5
 31
0.0
  0
LINE
  5
527
100
AcDbEntity
  8
0
 62
     0
370
    -2
100
AcDbLine
 10
0.5
 20
-1.5
 30
0.0
 11
1.5
 21
-1.5
 31
0.0
  0
ENDBLK
  5
528
100
AcDbEntity
100
AcDbBlockEnd
  0
BLOCK
  5
529
100
AcDbEntity
  8
0
100
AcDbBlockBegin
  2
CDWK_EXTR_2
 70
     0
 10
0.0
 20
0.0
 30
0.0
  3
CDWK_EXTR_2
  1

  4
Cadwork line-extremity
  0
SOLID
  5
52A
100
AcDbEntity
  8
0
 62
     0
100
AcDbTrace
 10
0.0
 20
0.0
 11
2.0
 21
0.5
 12
2.0
 22
-0.5
 13
2.0
 23
-0.5
  0
ENDBLK
  5
52B
100
AcDbEntity
100
AcDbBlockEnd
  0
BLOCK
  5
52C
100
AcDbEntity
  8
0
100
AcDbBlockBegin
  2
CDWK_EXTR_3
 70
     0
 10
0.0
 20
0.0
 30
0.0
  3
CDWK_EXTR_3
  1

  4
Cadwork line-extremity
  0
SOLID
  5
52D
100
AcDbEntity
  8
0
 62
     0
100
AcDbTrace
 10
0.0
 20
0.0
 11
2.0
 21
0.5
 12
2.0
 22
-0.5
 13
2.0
 23
-0.5
  0
LINE
  5
52E
100
AcDbEntity
  8
0
 62
     0
370
    -2
100
AcDbLine
 10
0.0
 20
1.0
 30
0.0
 11
0.0
 21
-1.0
 31
0.0
  0
ENDBLK
  5
52F
100
AcDbEntity
100
AcDbBlockEnd
  0
BLOCK
  5
530
100
AcDbEntity
  8
0
100
AcDbBlockBegin
  2
CDWK_EXTR_4
 70
     0
 10
0.0
 20
0.0
 30
0.0
  3
CDWK_EXTR_4
  1

  4
Cadwork line-extremity
  0
HATCH
  5
531
100
AcDbEntity
  8
0
 62
     0
370
    -2
100
AcDbHatch
 10
0.0
 20
0.0
 30
0.0
210
0.0
220
0.0
230
1.0
  2
SOLID
 70
     1
 71
     0
 91
        1
 92
        1
 93
        1
 72
     2
 10
0.0
 20
0.0
 40
0.5
 50
0.0
 51
360.0
 73
     1
 97
        0
 75
     0
 76
     1
 98
        1
 10
0.0
 20
0.0
  0
ENDBLK
  5
532
100
AcDbEntity
100
AcDbBlockEnd
  0
BLOCK
  5
533
100
AcDbEntity
  8
0
100
AcDbBlockBegin
  2
CDWK_PTTYP0
 70
     0
 10
0.0
 20
0.0
 30
0.0
  3
CDWK_PTTYP0
  1

  4
Cadwork point
  0
POINT
  5
534
100
AcDbEntity
  8
0
 62
     0
100
AcDbPoint
 10
0.0
 20
0.0
 30
0.0
  0
ENDBLK
  5
535
100
AcDbEntity
100
AcDbBlockEnd
  0
BLOCK
  5
536
100
AcDbEntity
  8
0
100
AcDbBlockBegin
  2
CDWK_PTTYP1
 70
     0
 10
0.0
 20
0.0
 30
0.0
  3
CDWK_PTTYP1
  1

  4
Cadwork node
  0
LINE
  5
537
100
AcDbEntity
  8
0
 62
     0
370
    -2
100
AcDbLine
 10
-0.5
 20
0.5
 30
0.0
 11
0.5
 21
0.5
 31
0.0
  0
LINE
  5
538
100
AcDbEntity
  8
0
 62
     0
370
    -2
100
AcDbLine
 10
0.5
 20
0.5
 30
0.0
 11
0.5
 21
-0.5
 31
0.0
  0
LINE
  5
539
100
AcDbEntity
  8
0
 62
     0
370
    -2
100
AcDbLine
 10
0.5
 20
-0.5
 30
0.0
 11
-0.5
 21
-0.5
 31
0.0
  0
LINE
  5
53A
100
AcDbEntity
  8
0
 62
     0
370
    -2
100
AcDbLine
 10
-0.5
 20
-0.5
 30
0.0
 11
-0.5
 21
0.5
 31
0.0
  0
ENDBLK
  5
53B
100
AcDbEntity
100
AcDbBlockEnd
  0
BLOCK
  5
53C
100
AcDbEntity
  8
0
100
AcDbBlockBegin
  2
CDWK_PTTYP2
 70
     0
 10
0.0
 20
0.0
 30
0.0
  3
CDWK_PTTYP2
  1

  4
Cadwork node
  0
LINE
  5
53D
100
AcDbEntity
  8
0
 62
     0
370
    -2
100
AcDbLine
 10
0.0
 20
0.5
 30
0.0
 11
0.0
 21
-0.5
 31
0.0
  0
LINE
  5
53E
100
AcDbEntity
  8
0
 62
     0
370
    -2
100
AcDbLine
 10
-0.5
 20
0.0
 30
0.0
 11
0.5
 21
0.0
 31
0.0
  0
ENDBLK
  5
53F
100
AcDbEntity
100
AcDbBlockEnd
  0
BLOCK
  5
540
100
AcDbEntity
  8
0
100
AcDbBlockBegin
  2
CDWK_PTTYP3
 70
     0
 10
0.0
 20
0.0
 30
0.0
  3
CDWK_PTTYP3
  1

  4
Cadwork node
  0
CIRCLE
  5
541
100
AcDbEntity
  8
0
 62
     0
370
    -2
100
AcDbCircle
 10
0.0
 20
0.0
 30
0.0
 40
0.5
  0
ENDBLK
  5
542
100
AcDbEntity
100
AcDbBlockEnd
  0
BLOCK
  5
543
100
AcDbEntity
  8
0
100
AcDbBlockBegin
  2
CDWK_PTTYP4
 70
     0
 10
0.0
 20
0.0
 30
0.0
  3
CDWK_PTTYP4
  1

  4
Cadwork node
  0
HATCH
  5
544
100
AcDbEntity
  8
0
 62
     0
370
    -2
100
AcDbHatch
 10
0.0
 20
0.0
 30
0.0
210
0.0
220
0.0
230
1.0
  2
SOLID
 70
     1
 71
     0
 91
        1
 92
        1
 93
        1
 72
     2
 10
0.0
 20
0.0
 40
0.5
 50
0.0
 51
360.0
 73
     1
 97
        0
 75
     0
 76
     1
 98
        1
 10
0.0
 20
0.0
  0
ENDBLK
  5
545
100
AcDbEntity
100
AcDbBlockEnd
  0
BLOCK
  5
546
100
AcDbEntity
  8
0
100
AcDbBlockBegin
  2
CDWK_PTTYP5
 70
     0
 10
0.0
 20
0.0
 30
0.0
  3
CDWK_PTTYP5
  1

  4
Cadwork node
  0
LINE
  5
547
100
AcDbEntity
  8
0
 62
     0
370
    -2
100
AcDbLine
 10
-0.5
 20
0.5
 30
0.0
 11
0.5
 21
0.5
 31
0.0
  0
LINE
  5
548
100
AcDbEntity
  8
0
 62
     0
370
    -2
100
AcDbLine
 10
0.5
 20
0.5
 30
0.0
 11
0.5
 21
-0.5
 31
0.0
  0
LINE
  5
549
100
AcDbEntity
  8
0
 62
     0
370
    -2
100
AcDbLine
 10
0.5
 20
-0.5
 30
0.0
 11
-0.5
 21
-0.5
 31
0.0
  0
LINE
  5
54A
100
AcDbEntity
  8
0
 62
     0
370
    -2
100
AcDbLine
 10
-0.5
 20
-0.5
 30
0.0
 11
-0.5
 21
0.5
 31
0.0
  0
SOLID
  5
54B
100
AcDbEntity
  8
0
 62
     0
100
AcDbTrace
 10
-0.5
 20
-0.5
 11
-0.5
 21
0.0
 12
0.0
 22
-0.5
 13
0.0
 23
0.0
  0
SOLID
  5
54C
100
AcDbEntity
  8
0
 62
     0
100
AcDbTrace
 10
0.0
 20
0.0
 11
0.0
 21
0.5
 12
0.5
 22
0.0
 13
0.5
 23
0.5
  0
ENDBLK
  5
54D
100
AcDbEntity
100
AcDbBlockEnd
  0
BLOCK
  5
54E
100
AcDbEntity
  8
0
100
AcDbBlockBegin
  2
CDWK_PTTYP6
 70
     0
 10
0.0
 20
0.0
 30
0.0
  3
CDWK_PTTYP6
  1

  4
Cadwork node
  0
LINE
  5
54F
100
AcDbEntity
  8
0
 62
     0
370
    -2
100
AcDbLine
 10
-0.5
 20
0.5
 30
0.0
 11
0.5
 21
0.5
 31
0.0
  0
LINE
  5
550
100
AcDbEntity
  8
0
 62
     0
370
    -2
100
AcDbLine
 10
0.5
 20
0.5
 30
0.0
 11
0.5
 21
-0.5
 31
0.0
  0
LINE
  5
551
100
AcDbEntity
  8
0
 62
     0
370
    -2
100
AcDbLine
 10
0.5
 20
-0.5
 30
0.0
 11
-0.5
 21
-0.5
 31
0.0
  0
LINE
  5
552
100
AcDbEntity
  8
0
 62
     0
370
    -2
100
AcDbLine
 10
-0.5
 20
-0.5
 30
0.0
 11
-0.5
 21
0.5
 31
0.0
  0
SOLID
  5
553
100
AcDbEntity
  8
0
 62
     0
100
AcDbTrace
 10
-0.5
 20
-0.5
 11
-0.5
 21
0.5
 12
0.5
 22
0.5
 13
0.5
 23
0.5
  0
ENDBLK
  5
554
100
AcDbEntity
100
AcDbBlockEnd
  0
BLOCK
  5
555
100
AcDbEntity
  8
0
100
AcDbBlockBegin
  2
CDWK_PTTYP7
 70
     0
 10
0.0
 20
0.0
 30
0.0
  3
CDWK_PTTYP7
  1

  4
Cadwork node
  0
LINE
  5
556
100
AcDbEntity
  8
0
 62
     0
370
    -2
100
AcDbLine
 10
-0.5
 20
0.5
 30
0.0
 11
0.5
 21
0.5
 31
0.0
  0
LINE
  5
557
100
AcDbEntity
  8
0
 62
     0
370
    -2
100
AcDbLine
 10
0.5
 20
0.5
 30
0.0
 11
0.5
 21
-0.5
 31
0.0
  0
LINE
  5
558
100
AcDbEntity
  8
0
 62
     0
370
    -2
100
AcDbLine
 10
0.5
 20
-0.5
 30
0.0
 11
-0.5
 21
-0.5
 31
0.0
  0
LINE
  5
559
100
AcDbEntity
  8
0
 62
     0
370
    -2
100
AcDbLine
 10
-0.5
 20
-0.5
 30
0.0
 11
-0.5
 21
0.5
 31
0.0
  0
LINE
  5
55A
100
AcDbEntity
  8
0
 62
     0
370
    -2
100
AcDbLine
 10
0.0
 20
0.5
 30
0.0
 11
0.0
 21
-0.5
 31
0.0
  0
LINE
  5
55B
100
AcDbEntity
  8
0
 62
     0
370
    -2
100
AcDbLine
 10
-0.5
 20
0.0
 30
0.0
 11
0.5
 21
0.0
 31
0.0
  0
ENDBLK
  5
55C
100
AcDbEntity
100
AcDbBlockEnd
  0
BLOCK
  5
55D
100
AcDbEntity
  8
0
100
AcDbBlockBegin
  2
CDWK_PTTYP8
 70
     0
 10
0.0
 20
0.0
 30
0.0
  3
CDWK_PTTYP8
  1

  4
Cadwork node
  0
SOLID
  5
55E
100
AcDbEntity
  8
0
 62
     0
100
AcDbTrace
 10
-0.5
 20
0.5
 11
0.5
 21
0.5
 12
-0.5
 22
-0.5
 13
0.5
 23
-0.5
  0
ENDBLK
  5
55F
100
AcDbEntity
100
AcDbBlockEnd
  0
BLOCK
  5
560
100
AcDbEntity
  8
0
100
AcDbBlockBegin
  2
CDWK_PTTYP9
 70
     0
 10
0.0
 20
0.0
 30
0.0
  3
CDWK_PTTYP9
  1

  4
Cadwork node
  0
CIRCLE
  5
561
100
AcDbEntity
  8
0
 62
     0
370
    -2
100
AcDbCircle
 10
0.0
 20
0.0
 30
0.0
 40
0.5
  0
CIRCLE
  5
562
100
AcDbEntity
  8
0
 62
     0
370
    -2
100
AcDbCircle
 10
0.0
 20
0.0
 30
0.0
 40
0.16666667
  0
ENDBLK
  5
563
100
AcDbEntity
100
AcDbBlockEnd
  0
BLOCK
  5
564
100
AcDbEntity
  8
0
100
AcDbBlockBegin
  2
CDWK_PTTYP10
 70
     0
 10
0.0
 20
0.0
 30
0.0
  3
CDWK_PTTYP10
  1

  4
Cadwork node
  0
CIRCLE
  5
565
100
AcDbEntity
  8
0
 62
     0
370
    -2
100
AcDbCircle
 10
0.0
 20
0.0
 30
0.0
 40
0.5
  0
ENDBLK
  5
566
100
AcDbEntity
100
AcDbBlockEnd
  0
BLOCK
  5
567
100
AcDbEntity
  8
0
100
AcDbBlockBegin
  2
CDWK_PTTYP11
 70
     0
 10
0.0
 20
0.0
 30
0.0
  3
CDWK_PTTYP11
  1

  4
Cadwork node
  0
CIRCLE
  5
568
100
AcDbEntity
  8
0
 62
     0
370
    -2
100
AcDbCircle
 10
0.0
 20
0.0
 30
0.0
 40
0.5
  0
CIRCLE
  5
569
100
AcDbEntity
  8
0
 62
     0
370
    -2
100
AcDbCircle
 10
0.0
 20
0.0
 30
0.0
 40
0.25
  0
ENDBLK
  5
56A
100
AcDbEntity
100
AcDbBlockEnd
  0
BLOCK
  5
56B
100
AcDbEntity
  8
0
100
AcDbBlockBegin
  2
CDWK_PTTYP12
 70
     0
 10
0.0
 20
0.0
 30
0.0
  3
CDWK_PTTYP12
  1

  4
Cadwork node
  0
CIRCLE
  5
56C
100
AcDbEntity
  8
0
 62
     0
370
    -2
100
AcDbCircle
 10
0.0
 20
0.0
 30
0.0
 40
0.5
  0
CIRCLE
  5
56D
100
AcDbEntity
  8
0
 62
     0
370
    -2
100
AcDbCircle
 10
0.25
 20
0.0
 30
0.0
 40
0.25
  0
ENDBLK
  5
56E
100
AcDbEntity
100
AcDbBlockEnd
  0
BLOCK
  5
56F
100
AcDbEntity
  8
0
100
AcDbBlockBegin
  2
CDWK_PTTYP13
 70
     0
 10
0.0
 20
0.0
 30
0.0
  3
CDWK_PTTYP13
  1

  4
Cadwork node
  0
CIRCLE
  5
570
100
AcDbEntity
  8
0
 62
     0
370
    -2
100
AcDbCircle
 10
0.0
 20
0.0
 30
0.0
 40
0.5
  0
CIRCLE
  5
571
100
AcDbEntity
  8
0
 62
     0
370
    -2
100
AcDbCircle
 10
0.25
 20
0.0
 30
0.0
 40
0.25
  0
CIRCLE
  5
572
100
AcDbEntity
  8
0
 62
     0
370
    -2
100
AcDbCircle
 10
-0.25
 20
0.0
 30
0.0
 40
0.25
  0
ENDBLK
  5
573
100
AcDbEntity
100
AcDbBlockEnd
  0
BLOCK
  5
574
100
AcDbEntity
  8
0
100
AcDbBlockBegin
  2
CDWK_PTTYP14
 70
     0
 10
0.0
 20
0.0
 30
0.0
  3
CDWK_PTTYP14
  1

  4
Cadwork node
  0
POINT
  5
575
100
AcDbEntity
  8
0
 62
     0
100
AcDbPoint
 10
0.0
 20
0.0
 30
0.0
  0
ENDBLK
  5
576
100
AcDbEntity
100
AcDbBlockEnd
  0
BLOCK
  5
577
100
AcDbEntity
  8
0
100
AcDbBlockBegin
  2
CDWK_PTTYP15
 70
     0
 10
0.0
 20
0.0
 30
0.0
  3
CDWK_PTTYP15
  1

  4
Cadwork node
  0
POINT
  5
578
100
AcDbEntity
  8
0
 62
     0
100
AcDbPoint
 10
0.0
 20
0.0
 30
0.0
  0
ENDBLK
  5
579
100
AcDbEntity
100
AcDbBlockEnd
  0
BLOCK
  5
57A
100
AcDbEntity
  8
0
100
AcDbBlockBegin
  2
CDWK_PTTYP16
 70
     0
 10
0.0
 20
0.0
 30
0.0
  3
CDWK_PTTYP16
  1

  4
Cadwork node
  0
LINE
  5
57B
100
AcDbEntity
  8
0
 62
     0
370
    -2
100
AcDbLine
 10
-0.5
 20
-0.28867513
 30
0.0
 11
0.5
 21
-0.28867513
 31
0.0
  0
LINE
  5
57C
100
AcDbEntity
  8
0
 62
     0
370
    -2
100
AcDbLine
 10
0.5
 20
-0.28867513
 30
0.0
 11
0.0
 21
0.57735027
 31
0.0
  0
LINE
  5
57D
100
AcDbEntity
  8
0
 62
     0
370
    -2
100
AcDbLine
 10
0.0
 20
0.57735027
 30
0.0
 11
-0.5
 21
-0.28867513
 31
0.0
  0
CIRCLE
  5
57E
100
AcDbEntity
  8
0
 62
     0
370
    -2
100
AcDbCircle
 10
0.0
 20
0.0
 30
0.0
 40
0.28867513
  0
ENDBLK
  5
57F
100
AcDbEntity
100
AcDbBlockEnd
  0
BLOCK
  5
580
100
AcDbEntity
  8
0
100
AcDbBlockBegin
  2
CDWK_PTTYP17
 70
     0
 10
0.0
 20
0.0
 30
0.0
  3
CDWK_PTTYP17
  1

  4
Cadwork node
  0
CIRCLE
  5
581
100
AcDbEntity
  8
0
 62
     0
370
    -2
100
AcDbCircle
 10
0.0
 20
0.0
 30
0.0
 40
0.5
  0
HATCH
  5
582
100
AcDbEntity
  8
0
 62
     0
370
    -2
100
AcDbHatch
 10
0.0
 20
0.0
 30
0.0
210
0.0
220
0.0
230
1.0
  2
SOLID
 70
     1
 71
     0
 91
        1
 92
        1
 93
        1
 72
     2
 10
0.0
 20
0.0
 40
0.25
 50
0.0
 51
360.0
 73
     1
 97
        0
 75
     0
 76
     1
 98
        1
 10
0.0
 20
0.0
  0
ENDBLK
  5
583
100
AcDbEntity
100
AcDbBlockEnd
  0
BLOCK
  5
584
100
AcDbEntity
  8
0
100
AcDbBlockBegin
  2
CDWK_PTTYP18
 70
     0
 10
0.0
 20
0.0
 30
0.0
  3
CDWK_PTTYP18
  1

  4
Cadwork node
  0
CIRCLE
  5
585
100
AcDbEntity
  8
0
 62
     0
370
    -2
100
AcDbCircle
 10
0.0
 20
0.0
 30
0.0
 40
0.5
  0
CIRCLE
  5
586
100
AcDbEntity
  8
0
 62
     0
370
    -2
100
AcDbCircle
 10
0.0
 20
0.0
 30
0.0
 40
0.2
  0
ENDBLK
  5
587
100
AcDbEntity
100
AcDbBlockEnd
  0
BLOCK
  5
588
100
AcDbEntity
  8
0
100
AcDbBlockBegin
  2
CDWK_PTTYP19
 70
     0
 10
0.0
 20
0.0
 30
0.0
  3
CDWK_PTTYP19
  1

  4
Cadwork node
  0
CIRCLE
  5
589
100
AcDbEntity
  8
0
 62
     0
370
    -2
100
AcDbCircle
 10
0.0
 20
0.0
 30
0.0
 40
0.4
  0
CIRCLE
  5
58A
100
AcDbEntity
  8
0
 62
     0
370
    -2
100
AcDbCircle
 10
0.0
 20
0.0
 30
0.0
 40
0.25
  0
LINE
  5
58B
100
AcDbEntity
  8
0
 62
     0
370
    -2
100
AcDbLine
 10
-0.25
 20
0.0
 30
0.0
 11
0.25
 21
0.0
 31
0.0
  0
ENDBLK
  5
58C
100
AcDbEntity
100
AcDbBlockEnd
  0
BLOCK
  5
58D
100
AcDbEntity
  8
0
100
AcDbBlockBegin
  2
CDWK_PTTYP20
 70
     0
 10
0.0
 20
0.0
 30
0.0
  3
CDWK_PTTYP20
  1

  4
Cadwork node
  0
CIRCLE
  5
58E
100
AcDbEntity
  8
0
 62
     0
370
    -2
100
AcDbCircle
 10
0.0
 20
0.0
 30
0.0
 40
0.5
  0
CIRCLE
  5
58F
100
AcDbEntity
  8
0
 62
     0
370
    -2
100
AcDbCircle
 10
0.0
 20
0.0
 30
0.0
 40
0.3
  0
ENDBLK
  5
590
100
AcDbEntity
100
AcDbBlockEnd
  0
BLOCK
  5
591
100
AcDbEntity
  8
0
100
AcDbBlockBegin
  2
CDWK_PTTYP21
 70
     0
 10
0.0
 20
0.0
 30
0.0
  3
CDWK_PTTYP21
  1

  4
Cadwork node
  0
CIRCLE
  5
592
100
AcDbEntity
  8
0
 62
     0
370
    -2
100
AcDbCircle
 10
0.0
 20
0.0
 30
0.0
 40
0.5
  0
LINE
  5
593
100
AcDbEntity
  8
0
 62
     0
370
    -2
100
AcDbLine
 10
-0.5
 20
0.0
 30
0.0
 11
0.5
 21
0.0
 31
0.0
  0
ENDBLK
  5
594
100
AcDbEntity
100
AcDbBlockEnd
  0
BLOCK
  5
595
100
AcDbEntity
  8
0
100
AcDbBlockBegin
  2
CDWK_PTTYP22
 70
     0
 10
0.0
 20
0.0
 30
0.0
  3
CDWK_PTTYP22
  1

  4
Cadwork node
  0
POINT
  5
596
100
AcDbEntity
  8
0
 62
     0
100
AcDbPoint
 10
0.0
 20
0.0
 30
0.0
  0
ENDBLK
  5
597
100
AcDbEntity
100
AcDbBlockEnd
  0
BLOCK
  5
598
100
AcDbEntity
  8
0
100
AcDbBlockBegin
  2
CDWK_PTTYP23
 70
     0
 10
0.0
 20
0.0
 30
0.0
  3
CDWK_PTTYP23
  1

  4
Cadwork node
  0
POINT
  5
599
100
AcDbEntity
  8
0
 62
     0
100
AcDbPoint
 10
0.0
 20
0.0
 30
0.0
  0
ENDBLK
  5
59A
100
AcDbEntity
100
AcDbBlockEnd
  0
BLOCK
  5
59B
100
AcDbEntity
  8
0
100
AcDbBlockBegin
  2
CDWK_PTTYP24
 70
     0
 10
0.0
 20
0.0
 30
0.0
  3
CDWK_PTTYP24
  1

  4
Cadwork node
  0
POINT
  5
59C
100
AcDbEntity
  8
0
 62
     0
100
AcDbPoint
 10
0.0
 20
0.0
 30
0.0
  0
ENDBLK
  5
59D
100
AcDbEntity
100
AcDbBlockEnd
  0
BLOCK
  5
59E
100
AcDbEntity
  8
0
100
AcDbBlockBegin
  2
CDWK_PTTYP25
 70
     0
 10
0.0
 20
0.0
 30
0.0
  3
CDWK_PTTYP25
  1

  4
Cadwork node
  0
LINE
  5
59F
100
AcDbEntity
  8
0
 62
     0
370
    -2
100
AcDbLine
 10
-0.43290044
 20
-0.25
 30
0.0
 11
0.43290044
 21
-0.25
 31
0.0
  0
LINE
  5
5A0
100
AcDbEntity
  8
0
 62
     0
370
    -2
100
AcDbLine
 10
-0.43290044
 20
-0.25
 30
0.0
 11
0.0
 21
0.5
 31
0.0
  0
LINE
  5
5A1
100
AcDbEntity
  8
0
 62
     0
370
    -2
100
AcDbLine
 10
0.43290044
 20
-0.25
 30
0.0
 11
0.0
 21
0.5
 31
0.0
  0
CIRCLE
  5
5A2
100
AcDbEntity
  8
0
 62
     0
370
    -2
100
AcDbCircle
 10
0.0
 20
0.0
 30
0.0
 40
0.5
  0
ENDBLK
  5
5A3
100
AcDbEntity
100
AcDbBlockEnd
  0
BLOCK
  5
5A4
100
AcDbEntity
  8
0
100
AcDbBlockBegin
  2
CDWK_PTTYP26
 70
     0
 10
0.0
 20
0.0
 30
0.0
  3
CDWK_PTTYP26
  1

  4
Cadwork node
  0
LINE
  5
5A5
100
AcDbEntity
  8
0
 62
     0
370
    -2
100
AcDbLine
 10
-0.5
 20
-0.28850001
 30
0.0
 11
0.5
 21
-0.28850001
 31
0.0
  0
LINE
  5
5A6
100
AcDbEntity
  8
0
 62
     0
370
    -2
100
AcDbLine
 10
-0.5
 20
-0.28850001
 30
0.0
 11
0.0
 21
0.57736721
 31
0.0
  0
LINE
  5
5A7
100
AcDbEntity
  8
0
 62
     0
370
    -2
100
AcDbLine
 10
0.5
 20
-0.28850001
 30
0.0
 11
0.0
 21
0.57736721
 31
0.0
  0
CIRCLE
  5
5A8
100
AcDbEntity
  8
0
 62
     0
370
    -2
100
AcDbCircle
 10
0.0
 20
0.0
 30
0.0
 40
0.1312336
  0
ENDBLK
  5
5A9
100
AcDbEntity
100
AcDbBlockEnd
  0
BLOCK
  5
5AA
100
AcDbEntity
  8
0
100
AcDbBlockBegin
  2
CDWK_PTTYP27
 70
     0
 10
0.0
 20
0.0
 30
0.0
  3
CDWK_PTTYP27
  1

  4
Cadwork node
  0
LINE
  5
5AB
100
AcDbEntity
  8
0
 62
     0
370
    -2
100
AcDbLine
 10
-0.43290044
 20
-0.25
 30
0.0
 11
0.43290044
 21
-0.25
 31
0.0
  0
LINE
  5
5AC
100
AcDbEntity
  8
0
 62
     0
370
    -2
100
AcDbLine
 10
-0.43290044
 20
-0.25
 30
0.0
 11
0.0
 21
0.5
 31
0.0
  0
LINE
  5
5AD
100
AcDbEntity
  8
0
 62
     0
370
    -2
100
AcDbLine
 10
0.43290044
 20
-0.25
 30
0.0
 11
0.0
 21
0.5
 31
0.0
  0
CIRCLE
  5
5AE
100
AcDbEntity
  8
0
 62
     0
370
    -2
100
AcDbCircle
 10
0.0
 20
0.0
 30
0.0
 40
0.5
  0
CIRCLE
  5
5AF
100
AcDbEntity
  8
0
 62
     0
370
    -2
100
AcDbCircle
 10
0.0
 20
0.0
 30
0.0
 40
0.1312336
  0
ENDBLK
  5
5B0
100
AcDbEntity
100
AcDbBlockEnd
  0
BLOCK
  5
5B1
100
AcDbEntity
  8
0
100
AcDbBlockBegin
  2
CDWK_PTTYP28
 70
     0
 10
0.0
 20
0.0
 30
0.0
  3
CDWK_PTTYP28
  1

  4
Cadwork node
  0
POINT
  5
5B2
100
AcDbEntity
  8
0
 62
     0
100
AcDbPoint
 10
0.0
 20
0.0
 30
0.0
  0
ENDBLK
  5
5B3
100
AcDbEntity
100
AcDbBlockEnd
  0
BLOCK
  5
5B4
100
AcDbEntity
  8
0
100
AcDbBlockBegin
  2
CDWK_PTTYP29
 70
     0
 10
0.0
 20
0.0
 30
0.0
  3
CDWK_PTTYP29
  1

  4
Cadwork node
  0
CIRCLE
  5
5B5
100
AcDbEntity
  8
0
 62
     0
370
    -2
100
AcDbCircle
 10
0.0
 20
0.0
 30
0.0
 40
0.5
  0
CIRCLE
  5
5B6
100
AcDbEntity
  8
0
 62
     0
370
    -2
100
AcDbCircle
 10
0.0
 20
0.0
 30
0.0
 40
0.375
  0
CIRCLE
  5
5B7
100
AcDbEntity
  8
0
 62
     0
370
    -2
100
AcDbCircle
 10
0.0
 20
0.0
 30
0.0
 40
0.21875
  0
ENDBLK
  5
5B8
100
AcDbEntity
100
AcDbBlockEnd
  0
BLOCK
  5
5B9
100
AcDbEntity
  8
0
100
AcDbBlockBegin
  2
CDWK_PTTYP30
 70
     0
 10
0.0
 20
0.0
 30
0.0
  3
CDWK_PTTYP30
  1

  4
Cadwork node
  0
LINE
  5
5BA
100
AcDbEntity
  8
0
 62
     0
370
    -2
100
AcDbLine
 10
0.17680339
 20
0.17680339
 30
0.0
 11
0.5
 21
0.5
 31
0.0
  0
LINE
  5
5BB
100
AcDbEntity
  8
0
 62
     0
370
    -2
100
AcDbLine
 10
-0.17680339
 20
0.17680339
 30
0.0
 11
-0.5
 21
0.5
 31
0.0
  0
LINE
  5
5BC
100
AcDbEntity
  8
0
 62
     0
370
    -2
100
AcDbLine
 10
0.17680339
 20
-0.17680339
 30
0.0
 11
0.5
 21
-0.5
 31
0.0
  0
LINE
  5
5BD
100
AcDbEntity
  8
0
 62
     0
370
    -2
100
AcDbLine
 10
-0.17680339
 20
-0.17680339
 30
0.0
 11
-0.5
 21
-0.5
 31
0.0
  0
ENDBLK
  5
5BE
100
AcDbEntity
100
AcDbBlockEnd
  0
BLOCK
  5
5BF
100
AcDbEntity
  8
0
100
AcDbBlockBegin
  2
CDWK_PTTYP31
 70
     0
 10
0.0
 20
0.0
 30
0.0
  3
CDWK_PTTYP31
  1

  4
Cadwork node
  0
CIRCLE
  5
5C0
100
AcDbEntity
  8
0
 62
     0
370
    -2
100
AcDbCircle
 10
0.0
 20
0.0
 30
0.0
 40
0.075
  0
LINE
  5
5C1
100
AcDbEntity
  8
0
 62
     0
370
    -2
100
AcDbLine
 10
0.075
 20
0.0
 30
0.0
 11
0.5
 21
0.0
 31
0.0
  0
LINE
  5
5C2
100
AcDbEntity
  8
0
 62
     0
370
    -2
100
AcDbLine
 10
-0.075
 20
0.0
 30
0.0
 11
-0.5
 21
0.0
 31
0.0
  0
LINE
  5
5C3
100
AcDbEntity
  8
0
 62
     0
370
    -2
100
AcDbLine
 10
0.0
 20
0.075
 30
0.0
 11
0.0
 21
0.5
 31
0.0
  0
LINE
  5
5C4
100
AcDbEntity
  8
0
 62
     0
370
    -2
100
AcDbLine
 10
0.0
 20
-0.075
 30
0.0
 11
0.0
 21
-0.5
 31
0.0
  0
ENDBLK
  5
5C5
100
AcDbEntity
100
AcDbBlockEnd
  0
BLOCK
  5
5C6
100
AcDbEntity
  8
0
100
AcDbBlockBegin
  2
CDWK_PTTYP32
 70
     0
 10
0.0
 20
0.0
 30
0.0
  3
CDWK_PTTYP32
  1

  4
Cadwork node
  0
CIRCLE
  5
5C7
100
AcDbEntity
  8
0
 62
     0
370
    -2
100
AcDbCircle
 10
0.0
 20
0.0
 30
0.0
 40
0.5
  0
CIRCLE
  5
5C8
100
AcDbEntity
  8
0
 62
     0
370
    -2
100
AcDbCircle
 10
0.0
 20
0.0
 30
0.0
 40
0.16666667
  0
LINE
  5
5C9
100
AcDbEntity
  8
0
 62
     0
370
    -2
100
AcDbLine
 10
0.11786893
 20
0.11786893
 30
0.0
 11
0.35360678
 21
0.35360678
 31
0.0
  0
LINE
  5
5CA
100
AcDbEntity
  8
0
 62
     0
370
    -2
100
AcDbLine
 10
-0.11786893
 20
0.11786893
 30
0.0
 11
-0.35360678
 21
0.35360678
 31
0.0
  0
LINE
  5
5CB
100
AcDbEntity
  8
0
 62
     0
370
    -2
100
AcDbLine
 10
0.11786893
 20
-0.11786893
 30
0.0
 11
0.35360678
 21
-0.35360678
 31
0.0
  0
LINE
  5
5CC
100
AcDbEntity
  8
0
 62
     0
370
    -2
100
AcDbLine
 10
-0.11786893
 20
-0.11786893
 30
0.0
 11
-0.35360678
 21
-0.35360678
 31
0.0
  0
ENDBLK
  5
5CD
100
AcDbEntity
100
AcDbBlockEnd
  0
BLOCK
  5
5CE
100
AcDbEntity
  8
0
100
AcDbBlockBegin
  2
CDWK_PTTYP33
 70
     0
 10
0.0
 20
0.0
 30
0.0
  3
CDWK_PTTYP33
  1

  4
Cadwork node
  0
CIRCLE
  5
5CF
100
AcDbEntity
  8
0
 62
     0
370
    -2
100
AcDbCircle
 10
0.0
 20
0.0
 30
0.0
 40
0.5
  0
LINE
  5
5D0
100
AcDbEntity
  8
0
 62
     0
370
    -2
100
AcDbLine
 10
0.0
 20
0.5
 30
0.0
 11
0.0
 21
-0.5
 31
0.0
  0
LINE
  5
5D1
100
AcDbEntity
  8
0
 62
     0
370
    -2
100
AcDbLine
 10
-0.5
 20
0.0
 30
0.0
 11
0.5
 21
0.0
 31
0.0
  0
ENDBLK
  5
5D2
100
AcDbEntity
100
AcDbBlockEnd
  0
BLOCK
  5
5D3
100
AcDbEntity
  8
0
100
AcDbBlockBegin
  2
CDWK_PTTYP34
 70
     0
 10
0.0
 20
0.0
 30
0.0
  3
CDWK_PTTYP34
  1

  4
Cadwork node
  0
CIRCLE
  5
5D4
100
AcDbEntity
  8
0
 62
     0
370
    -2
100
AcDbCircle
 10
0.0
 20
0.0
 30
0.0
 40
0.5
  0
LINE
  5
5D5
100
AcDbEntity
  8
0
 62
     0
370
    -2
100
AcDbLine
 10
-0.30360678
 20
-0.40360678
 30
0.0
 11
0.40360678
 21
0.30360678
 31
0.0
  0
LINE
  5
5D6
100
AcDbEntity
  8
0
 62
     0
370
    -2
100
AcDbLine
 10
-0.40360678
 20
-0.30360678
 30
0.0
 11
0.30360678
 21
0.40360678
 31
0.0
  0
ENDBLK
  5
5D7
100
AcDbEntity
100
AcDbBlockEnd
  0
BLOCK
  5
5D8
100
AcDbEntity
  8
0
100
AcDbBlockBegin
  2
CDWK_PTTYP35
 70
     0
 10
0.0
 20
0.0
 30
0.0
  3
CDWK_PTTYP35
  1

  4
Cadwork node
  0
CIRCLE
  5
5D9
100
AcDbEntity
  8
0
 62
     0
370
    -2
100
AcDbCircle
 10
0.0
 20
0.0
 30
0.0
 40
0.21431634
  0
LINE
  5
5DA
100
AcDbEntity
  8
0
 62
     0
370
    -2
100
AcDbLine
 10
0.0
 20
0.21431634
 30
0.0
 11
0.0
 21
0.5
 31
0.0
  0
LINE
  5
5DB
100
AcDbEntity
  8
0
 62
     0
370
    -2
100
AcDbLine
 10
0.0
 20
-0.21431634
 30
0.0
 11
0.0
 21
-0.5
 31
0.0
  0
ENDBLK
  5
5DC
100
AcDbEntity
100
AcDbBlockEnd
  0
BLOCK
  5
5DD
100
AcDbEntity
  8
0
100
AcDbBlockBegin
  2
CDWK_PTTYP36
 70
     0
 10
0.0
 20
0.0
 30
0.0
  3
CDWK_PTTYP36
  1

  4
Cadwork node
  0
LINE
  5
5DE
100
AcDbEntity
  8
0
 62
     0
370
    -2
100
AcDbLine
 10
-0.5
 20
-0.16666667
 30
0.0
 11
0.5
 21
-0.16666667
 31
0.0
  0
LINE
  5
5DF
100
AcDbEntity
  8
0
 62
     0
370
    -2
100
AcDbLine
 10
0.5
 20
-0.16666667
 30
0.0
 11
0.5
 21
0.16666667
 31
0.0
  0
LINE
  5
5E0
100
AcDbEntity
  8
0
 62
     0
370
    -2
100
AcDbLine
 10
0.5
 20
0.16666667
 30
0.0
 11
-0.5
 21
0.16666667
 31
0.0
  0
LINE
  5
5E1
100
AcDbEntity
  8
0
 62
     0
370
    -2
100
AcDbLine
 10
-0.5
 20
0.16666667
 30
0.0
 11
-0.5
 21
-0.16666667
 31
0.0
  0
SOLID
  5
5E2
100
AcDbEntity
  8
0
 62
     0
100
AcDbTrace
 10
-0.5
 20
-0.16666667
 11
0.5
 21
0.16666667
 12
0.5
 22
-0.16666667
 13
0.5
 23
-0.16666667
  0
ENDBLK
  5
5E3
100
AcDbEntity
100
AcDbBlockEnd
  0
BLOCK
  5
5E4
100
AcDbEntity
  8
0
100
AcDbBlockBegin
  2
CDWK_PTTYP37
 70
     0
 10
0.0
 20
0.0
 30
0.0
  3
CDWK_PTTYP37
  1

  4
Cadwork node
  0
CIRCLE
  5
5E5
100
AcDbEntity
  8
0
 62
     0
370
    -2
100
AcDbCircle
 10
0.0
 20
0.0
 30
0.0
 40
0.5
  0
SOLID
  5
5E6
100
AcDbEntity
  8
0
 62
     0
100
AcDbTrace
 10
0.0
 20
0.0
 11
0.35350001
 21
0.35350001
 12
0.5
 22
0.0
 13
0.46200001
 23
0.19149999
  0
SOLID
  5
5E7
100
AcDbEntity
  8
0
 62
     0
100
AcDbTrace
 10
0.0
 20
0.0
 11
0.35350001
 21
-0.35350001
 12
0.5
 22
0.0
 13
0.46200001
 23
-0.19149999
  0
SOLID
  5
5E8
100
AcDbEntity
  8
0
 62
     0
100
AcDbTrace
 10
0.0
 20
0.0
 11
0.0
 21
-0.5
 12
0.35350001
 22
-0.35350001
 13
0.19149999
 23
-0.46200001
  0
SOLID
  5
5E9
100
AcDbEntity
  8
0
 62
     0
100
AcDbTrace
 10
0.0
 20
0.0
 11
0.0
 21
-0.5
 12
-0.35350001
 22
-0.35350001
 13
-0.19149999
 23
-0.46200001
  0
ENDBLK
  5
5EA
100
AcDbEntity
100
AcDbBlockEnd
  0
BLOCK
  5
5EB
100
AcDbEntity
  8
0
100
AcDbBlockBegin
  2
CDWK_PTTYP38
 70
     0
 10
0.0
 20
0.0
 30
0.0
  3
CDWK_PTTYP38
  1

  4
Cadwork node
  0
CIRCLE
  5
5EC
100
AcDbEntity
  8
0
 62
     0
370
    -2
100
AcDbCircle
 10
0.0
 20
0.0
 30
0.0
 40
0.5
  0
SOLID
  5
5ED
100
AcDbEntity
  8
0
 62
     0
100
AcDbTrace
 10
0.0
 20
0.0
 11
0.35350001
 21
0.35350001
 12
0.0
 22
0.5
 13
0.19149999
 23
0.46200001
  0
SOLID
  5
5EE
100
AcDbEntity
  8
0
 62
     0
100
AcDbTrace
 10
0.0
 20
0.0
 11
0.5
 21
0.0
 12
0.35350001
 22
0.35350001
 13
0.46200001
 23
0.19149999
  0
SOLID
  5
5EF
100
AcDbEntity
  8
0
 62
     0
100
AcDbTrace
 10
0.0
 20
0.0
 11
0.0
 21
-0.5
 12
-0.35350001
 22
-0.35350001
 13
-0.19149999
 23
-0.46200001
  0
SOLID
  5
5F0
100
AcDbEntity
  8
0
 62
     0
100
AcDbTrace
 10
0.0
 20
0.0
 11
-0.5
 21
0.0
 12
-0.35350001
 22
-0.35350001
 13
-0.46200001
 23
-0.19149999
  0
ENDBLK
  5
5F1
100
AcDbEntity
100
AcDbBlockEnd
  0
BLOCK
  5
5F2
100
AcDbEntity
  8
Ech.1_5
100
AcDbBlockBegin
  2
*D23
 70
     1
 10
0.0
 20
0.0
 30
0.0
  3
*D23
  1

  4
Cadwork dimension
  0
TEXT
  5
5F3
100
AcDbEntity
  8
Ech.1_5
 62
   190
370
    18
100
AcDbText
 10
50455.40734702
 20
-8977.88651467
 30
0.0
 40
12.5
  1
50
  7
ARIAL
 50
95.67495628
 41
1.0
 51
0.0
100
AcDbText
  0
LINE
  5
5F4
100
AcDbEntity
  8
Ech.1_5
 62
   190
370
    -2
100
AcDbLine
 10
50460.22591907
 20
-8943.55514342
 30
0.0
 11
50445.9884176
 21
-8944.96995078
 31
0.0
  0
LINE
  5
5F5
100
AcDbEntity
  8
Ech.1_5
 62
   190
370
    -2
100
AcDbLine
 10
50465.17454671
 20
-8993.35421503
 30
0.0
 11
50450.9106494
 21
-8994.7716454
 31
0.0
  0
LINE
  5
5F6
100
AcDbEntity
  8
Ech.1_5
 62
   190
370
    -2
100
AcDbLine
 10
50454.75600039
 20
-8939.07407327
 30
0.0
 11
50460.69347656
 21
-8998.8241337
 31
0.0
  0
LINE
  5
5F7
100
AcDbEntity
  8
Ech.1_5
 62
   190
370
    -2
100
AcDbLine
 10
50452.51546532
 20
-8941.8090326
 30
0.0
 11
50457.98538399
 21
-8946.29010276
 31
0.0
  0
LINE
  5
5F8
100
AcDbEntity
  8
Ech.1_5
 62
   190
370
    -2
100
AcDbLine
 10
50457.46409296
 20
-8991.60810422
 30
0.0
 11
50462.93401164
 21
-8996.08917437
 31
0.0
  0
ENDBLK
  5
5F9
100
AcDbEntity
100
AcDbBlockEnd
  0
BLOCK
  5
5FA
100
AcDbEntity
  8
Ech.1_5
100
AcDbBlockBegin
  2
*D24
 70
     1
 10
0.0
 20
0.0
 30
0.0
  3
*D24
  1

  4
Cadwork dimension
  0
TEXT
  5
5FB
100
AcDbEntity
  8
Ech.1_5
 62
   190
370
    18
100
AcDbText
 10
50341.48679668
 20
-9005.21727729
 30
0.0
 40
12.5
  1
20
  7
ARIAL
 50
95.67495628
 41
1.0
 51
0.0
100
AcDbText
  0
LINE
  5
5FC
100
AcDbEntity
  8
Ech.1_5
 62
   190
370
    -2
100
AcDbLine
 10
50337.73983605
 20
-8985.82912611
 30
0.0
 11
50396.93565479
 21
-8979.94672598
 31
0.0
  0
LINE
  5
5FD
100
AcDbEntity
  8
Ech.1_5
 62
   190
370
    -2
100
AcDbLine
 10
50339.72072854
 20
-9005.76326021
 30
0.0
 11
50398.91654728
 21
-8999.88086008
 31
0.0
  0
LINE
  5
5FE
100
AcDbEntity
  8
Ech.1_5
 62
   190
370
    -2
100
AcDbLine
 10
50342.2209062
 20
-8980.35920744
 30
0.0
 11
50345.19064721
 21
-9010.24433036
 31
0.0
  0
LINE
  5
5FF
100
AcDbEntity
  8
Ech.1_5
 62
   190
370
    -2
100
AcDbLine
 10
50339.98037112
 20
-8983.09416677
 30
0.0
 11
50345.45028979
 21
-8987.57523692
 31
0.0
  0
LINE
  5
600
100
AcDbEntity
  8
Ech.1_5
 62
   190
370
    -2
100
AcDbLine
 10
50341.96126361
 20
-9003.02830087
 30
0.0
 11
50347.43118229
 21
-9007.50937102
 31
0.0
  0
ENDBLK
  5
601
100
AcDbEntity
100
AcDbBlockEnd
  0
BLOCK
  5
602
100
AcDbEntity
  8
Ech.1_5
100
AcDbBlockBegin
  2
*D25
 70
     1
 10
0.0
 20
0.0
 30
0.0
  3
*D25
  1

  4
Cadwork dimension
  0
TEXT
  5
603
100
AcDbEntity
  8
Ech.1_5
 62
   190
370
    18
100
AcDbText
 10
50398.22749154
 20
-9063.61970414
 30
0.0
 40
12.5
  1
30
  7
ARIAL
 50
89.9999975
 41
1.0
 51
0.0
100
AcDbText
  0
LINE
  5
604
100
AcDbEntity
  8
Ech.1_5
 62
   190
370
    -2
100
AcDbLine
 10
50398.22749154
 20
-9039.11628369
 30
0.0
 11
50428.87399741
 21
-9039.11628369
 31
0.0
  0
LINE
  5
605
100
AcDbEntity
  8
Ech.1_5
 62
   190
370
    -2
100
AcDbLine
 10
50398.22749154
 20
-9069.1162753
 30
0.0
 11
50428.87399741
 21
-9069.1162753
 31
0.0
  0
LINE
  5
606
100
AcDbEntity
  8
Ech.1_5
 62
   190
370
    -2
100
AcDbLine
 10
50403.22749154
 20
-9034.11628369
 30
0.0
 11
50403.22749154
 21
-9074.1162753
 31
0.0
  0
LINE
  5
607
100
AcDbEntity
  8
Ech.1_5
 62
   190
370
    -2
100
AcDbLine
 10
50400.72749154
 20
-9036.61628369
 30
0.0
 11
50405.72749154
 21
-9041.61628369
 31
0.0
  0
LINE
  5
608
100
AcDbEntity
  8
Ech.1_5
 62
   190
370
    -2
100
AcDbLine
 10
50400.72749154
 20
-9066.6162753
 30
0.0
 11
50405.72749154
 21
-9071.6162753
 31
0.0
  0
ENDBLK
  5
609
100
AcDbEntity
100
AcDbBlockEnd
  0
BLOCK
  5
60A
100
AcDbEntity
  8
Ech.1_5
100
AcDbBlockBegin
  2
*D26
 70
     1
 10
0.0
 20
0.0
 30
0.0
  3
*D26
  1

  4
Cadwork dimension
  0
TEXT
  5
60B
100
AcDbEntity
  8
Ech.1_5
 62
   190
370
    18
100
AcDbText
 10
50411.90245847
 20
-9087.74870784
 30
0.0
 40
12.5
  1
15
  7
ARIAL
 50
0.0
 41
1.0
 51
0.0
100
AcDbText
  0
LINE
  5
60C
100
AcDbEntity
  8
Ech.1_5
 62
   190
370
    -2
100
AcDbLine
 10
50413.87399741
 20
-9097.74870784
 30
0.0
 11
50413.87399741
 21
-9084.1162753
 31
0.0
  0
LINE
  5
60D
100
AcDbEntity
  8
Ech.1_5
 62
   190
370
    -2
100
AcDbLine
 10
50428.93776881
 20
-9097.74870784
 30
0.0
 11
50428.93776881
 21
-9053.62117907
 31
0.0
  0
LINE
  5
60E
100
AcDbEntity
  8
Ech.1_5
 62
   190
370
    -2
100
AcDbLine
 10
50408.87399741
 20
-9092.74870784
 30
0.0
 11
50433.93776881
 21
-9092.74870784
 31
0.0
  0
LINE
  5
60F
100
AcDbEntity
  8
Ech.1_5
 62
   190
370
    -2
100
AcDbLine
 10
50411.37399741
 20
-9095.24870784
 30
0.0
 11
50416.37399741
 21
-9090.24870784
 31
0.0
  0
LINE
  5
610
100
AcDbEntity
  8
Ech.1_5
 62
   190
370
    -2
100
AcDbLine
 10
50426.43776881
 20
-9095.24870784
 30
0.0
 11
50431.43776881
 21
-9090.24870784
 31
0.0
  0
ENDBLK
  5
611
100
AcDbEntity
100
AcDbBlockEnd
  0
BLOCK
  5
612
100
AcDbEntity
  8
Ech.1_5
100
AcDbBlockBegin
  2
*D27
 70
     1
 10
0.0
 20
0.0
 30
0.0
  3
*D27
  1

  4
Cadwork dimension
  0
TEXT
  5
613
100
AcDbEntity
  8
Ech.1_5
 62
   190
370
    18
100
AcDbText
 10
50484.26075679
 20
-8987.15206548
 30
0.0
 40
12.5
  1
25
  7
ARIAL
 50
89.9999975
 41
1.0
 51
0.0
100
AcDbText
  0
LINE
  5
614
100
AcDbEntity
  8
Ech.1_5
 62
   190
370
    -2
100
AcDbLine
 10
50494.26075679
 20
-8990.14864083
 30
0.0
 11
50482.64092218
 21
-8990.14864083
 31
0.0
  0
LINE
  5
615
100
AcDbEntity
  8
Ech.1_5
 62
   190
370
    -2
100
AcDbLine
 10
50494.26075679
 20
-8965.14864083
 30
0.0
 11
50482.64092218
 21
-8965.14864083
 31
0.0
  0
LINE
  5
616
100
AcDbEntity
  8
Ech.1_5
 62
   190
370
    -2
100
AcDbLine
 10
50489.26075679
 20
-8995.14864083
 30
0.0
 11
50489.26075679
 21
-8960.14864083
 31
0.0
  0
LINE
  5
617
100
AcDbEntity
  8
Ech.1_5
 62
   190
370
    -2
100
AcDbLine
 10
50491.76075679
 20
-8992.64864083
 30
0.0
 11
50486.76075679
 21
-8987.64864083
 31
0.0
  0
LINE
  5
618
100
AcDbEntity
  8
Ech.1_5
 62
   190
370
    -2
100
AcDbLine
 10
50491.76075679
 20
-8967.64864083
 30
0.0
 11
50486.76075679
 21
-8962.64864083
 31
0.0
  0
ENDBLK
  5
619
100
AcDbEntity
100
AcDbBlockEnd
  0
BLOCK
  5
61A
100
AcDbEntity
  8
Ech.1_5
100
AcDbBlockBegin
  2
*D32
 70
     1
 10
0.0
 20
0.0
 30
0.0
  3
*D32
  1

  4
Cadwork dimension
  0
TEXT
  5
61B
100
AcDbEntity
  8
Ech.1_5
 62
   190
370
    18
100
AcDbText
 10
50704.39933775
 20
-8490.51796806
 30
0.0
 40
12.5
  1
200mm min
  7
ARIAL
 50
89.9999975
 41
1.0
 51
0.0
100
AcDbText
  0
LINE
  5
61C
100
AcDbEntity
  8
Ech.1_5
 62
   190
370
    -2
100
AcDbLine
 10
50714.39933775
 20
-8576.26283063
 30
0.0
 11
50697.88282605
 21
-8576.26283063
 31
0.0
  0
LINE
  5
61D
100
AcDbEntity
  8
Ech.1_5
 62
   190
370
    -2
100
AcDbLine
 10
50714.39933775
 20
-8376.26283061
 30
0.0
 11
50696.12427198
 21
-8376.26283061
 31
0.0
  0
LINE
  5
61E
100
AcDbEntity
  8
Ech.1_5
 62
   190
370
    -2
100
AcDbLine
 10
50709.39933775
 20
-8581.26283063
 30
0.0
 11
50709.39933775
 21
-8371.26283061
 31
0.0
  0
LINE
  5
61F
100
AcDbEntity
  8
Ech.1_5
 62
   190
370
    -2
100
AcDbLine
 10
50711.89933775
 20
-8578.76283063
 30
0.0
 11
50706.89933775
 21
-8573.76283063
 31
0.0
  0
LINE
  5
620
100
AcDbEntity
  8
Ech.1_5
 62
   190
370
    -2
100
AcDbLine
 10
50711.89933775
 20
-8378.76283061
 30
0.0
 11
50706.89933775
 21
-8373.76283061
 31
0.0
  0
ENDBLK
  5
621
100
AcDbEntity
100
AcDbBlockEnd
  0
BLOCK
  5
622
100
AcDbEntity
  8
Ech.1_5
100
AcDbBlockBegin
  2
*D33
 70
     1
 10
0.0
 20
0.0
 30
0.0
  3
*D33
  1

  4
Cadwork dimension
  0
TEXT
  5
623
100
AcDbEntity
  8
Ech.1_5
 62
   190
370
    18
100
AcDbText
 10
50704.39933775
 20
-9079.40377829
 30
0.0
 40
12.5
  1
200mm min
  7
ARIAL
 50
89.9999975
 41
1.0
 51
0.0
100
AcDbText
  0
LINE
  5
624
100
AcDbEntity
  8
Ech.1_5
 62
   190
370
    -2
100
AcDbLine
 10
50714.39933775
 20
-9165.14864086
 30
0.0
 11
50697.88282605
 21
-9165.14864086
 31
0.0
  0
LINE
  5
625
100
AcDbEntity
  8
Ech.1_5
 62
   190
370
    -2
100
AcDbLine
 10
50714.39933775
 20
-8965.14864083
 30
0.0
 11
50696.12427198
 21
-8965.14864083
 31
0.0
  0
LINE
  5
626
100
AcDbEntity
  8
Ech.1_5
 62
   190
370
    -2
100
AcDbLine
 10
50709.39933775
 20
-9170.14864086
 30
0.0
 11
50709.39933775
 21
-8960.14864083
 31
0.0
  0
LINE
  5
627
100
AcDbEntity
  8
Ech.1_5
 62
   190
370
    -2
100
AcDbLine
 10
50711.89933775
 20
-9167.64864086
 30
0.0
 11
50706.89933775
 21
-9162.64864086
 31
0.0
  0
LINE
  5
628
100
AcDbEntity
  8
Ech.1_5
 62
   190
370
    -2
100
AcDbLine
 10
50711.89933775
 20
-8967.64864083
 30
0.0
 11
50706.89933775
 21
-8962.64864083
 31
0.0
  0
ENDBLK
  5
629
100
AcDbEntity
100
AcDbBlockEnd
  0
ENDSEC
  0
SECTION
  2
ENTITIES
  0
LWPOLYLINE
  5
62A
100
AcDbEntity
  8
Ech.1_5
 62
   190
  6
CONTINUOUS
370
    -3
100
AcDbPolyline
 90
      118
 70
     0
 43
0.0
 10
50679.54285751
 20
-9165.14864086
 42
1.14028181
 10
50678.6784081
 20
-9158.58251097
 10
50667.04743277
 20
-9161.69486513
 42
-1.30322619
 10
50667.04743277
 20
-9155.24254243
 10
50678.6784081
 20
-9158.35489659
 42
1.30322619
 10
50678.6784081
 20
-9151.90257389
 10
50667.04743277
 20
-9155.01492805
 42
-1.30322619
 10
50667.04743277
 20
-9148.56260535
 10
50678.6784081
 20
-9151.67495951
 42
1.30322619
 10
50678.6784081
 20
-9145.22263681
 10
50667.04743277
 20
-9148.33499097
 42
-1.30322619
 10
50667.04743277
 20
-9141.88266827
 10
50678.6784081
 20
-9144.99502243
 42
1.30322619
 10
50678.6784081
 20
-9138.54269974
 10
50667.04743277
 20
-9141.65505389
 42
-1.30322619
 10
50667.04743277
 20
-9135.2027312
 10
50678.6784081
 20
-9138.31508536
 42
1.30322619
 10
50678.6784081
 20
-9131.86276266
 10
50667.04743277
 20
-9134.97511682
 42
-1.30322619
 10
50667.04743277
 20
-9128.52279412
 10
50678.6784081
 20
-9131.63514828
 42
1.30322619
 10
50678.6784081
 20
-9125.18282558
 10
50667.04743277
 20
-9128.29517974
 42
-1.30322619
 10
50667.04743277
 20
-9121.84285704
 10
50678.6784081
 20
-9124.9552112
 42
1.30322619
 10
50678.6784081
 20
-9118.5028885
 10
50667.04743277
 20
-9121.61524266
 42
-1.30322619
 10
50667.04743277
 20
-9115.16291996
 10
50678.6784081
 20
-9118.27527412
 42
1.30322619
 10
50678.6784081
 20
-9111.82295143
 10
50667.04743277
 20
-9114.93530559
 42
-1.30322619
 10
50667.04743277
 20
-9108.48298289
 10
50678.6784081
 20
-9111.59533705
 42
1.30322619
 10
50678.6784081
 20
-9105.14301435
 10
50667.04743277
 20
-9108.25536851
 42
-1.30322619
 10
50667.04743277
 20
-9101.80304581
 10
50678.6784081
 20
-9104.91539997
 42
1.30322619
 10
50678.6784081
 20
-9098.46307727
 10
50667.04743277
 20
-9101.57543143
 42
-1.30322619
 10
50667.04743277
 20
-9095.12310873
 10
50678.6784081
 20
-9098.23546289
 42
1.30322619
 10
50678.6784081
 20
-9091.78314019
 10
50667.04743277
 20
-9094.89549435
 42
-1.30322619
 10
50667.04743277
 20
-9088.44317165
 10
50678.6784081
 20
-9091.55552581
 42
1.30322619
 10
50678.6784081
 20
-9085.10320312
 10
50667.04743277
 20
-9088.21555728
 42
-1.30322619
 10
50667.04743277
 20
-9081.76323458
 10
50678.6784081
 20
-9084.87558874
 42
1.30322619
 10
50678.6784081
 20
-9078.42326604
 10
50667.04743277
 20
-9081.5356202
 42
-1.30322619
 10
50667.04743277
 20
-9075.0832975
 10
50678.6784081
 20
-9078.19565166
 42
1.30322619
 10
50678.6784081
 20
-9071.74332896
 10
50667.04743277
 20
-9074.85568312
 42
-1.30322619
 10
50667.04743277
 20
-9068.40336042
 10
50678.6784081
 20
-9071.51571458
 42
1.30322619
 10
50678.6784081
 20
-9065.06339188
 10
50667.04743277
 20
-9068.17574604
 42
-1.30322619
 10
50667.04743277
 20
-9061.72342335
 10
50678.6784081
 20
-9064.8357775
 42
1.30322619
 10
50678.6784081
 20
-9058.38345481
 10
50667.04743277
 20
-9061.49580897
 42
-1.30322619
 10
50667.04743277
 20
-9055.04348627
 10
50678.6784081
 20
-9058.15584043
 42
1.30322619
 10
50678.6784081
 20
-9051.70351773
 10
50667.04743277
 20
-9054.81587189
 42
-1.30322619
 10
50667.04743277
 20
-9048.36354919
 10
50678.6784081
 20
-9051.47590335
 42
1.30322619
 10
50678.6784081
 20
-9045.02358065
 10
50667.04743277
 20
-9048.13593481
 42
-1.30322619
 10
50667.04743277
 20
-9041.68361211
 10
50678.6784081
 20
-9044.79596627
 42
1.30322619
 10
50678.6784081
 20
-9038.34364357
 10
50667.04743277
 20
-9041.45599773
 42
-1.30322619
 10
50667.04743277
 20
-9035.00367504
 10
50678.6784081
 20
-9038.11602919
 42
1.30322619
 10
50678.6784081
 20
-9031.6637065
 10
50667.04743277
 20
-9034.77606066
 42
-1.30322619
 10
50667.04743277
 20
-9028.32373796
 10
50678.6784081
 20
-9031.43609212
 42
1.30322619
 10
50678.6784081
 20
-9024.98376942
 10
50667.04743277
 20
-9028.09612358
 42
-1.30322619
 10
50667.04743277
 20
-9021.64380088
 10
50678.6784081
 20
-9024.75615504
 42
1.30322619
 10
50678.6784081
 20
-9018.30383234
 10
50667.04743277
 20
-9021.4161865
 42
-1.30322619
 10
50667.04743277
 20
-9014.9638638
 10
50678.6784081
 20
-9018.07621796
 42
1.30322619
 10
50678.6784081
 20
-9011.62389526
 10
50667.04743277
 20
-9014.73624942
 42
-1.30322619
 10
50667.04743277
 20
-9008.28392673
 10
50678.6784081
 20
-9011.39628088
 42
1.30322619
 10
50678.6784081
 20
-9004.94395819
 10
50667.04743277
 20
-9008.05631235
 42
-1.30322619
 10
50667.04743277
 20
-9001.60398965
 10
50678.6784081
 20
-9004.71634381
 42
1.30322619
 10
50678.6784081
 20
-8998.26402111
 10
50667.04743277
 20
-9001.37637527
 42
-1.30322619
 10
50667.04743277
 20
-8994.92405257
 10
50678.6784081
 20
-8998.03640673
 42
1.30322619
 10
50678.6784081
 20
-8991.58408403
 10
50667.04743277
 20
-8994.69643819
 42
-1.30322619
 10
50667.04743277
 20
-8988.24411549
 10
50678.6784081
 20
-8991.35646965
 42
1.30322619
 10
50678.6784081
 20
-8984.90414695
 10
50667.04743277
 20
-8988.01650111
 42
-1.30322619
 10
50667.04743277
 20
-8981.56417842
 10
50678.6784081
 20
-8984.67653258
 42
1.30322619
 10
50678.6784081
 20
-8978.22420988
 10
50667.04743277
 20
-8981.33656404
 42
-1.30322619
 10
50667.04743277
 20
-8974.88424134
 10
50678.6784081
 20
-8977.9965955
 42
1.30322619
 10
50678.6784081
 20
-8971.5442728
 10
50667.04743277
 20
-8974.65662696
 42
-1.30322619
 10
50667.04743277
 20
-8968.20430426
 10
50678.6784081
 20
-8971.31665842
 42
0.89049396
 10
50681.12427198
 20
-8965.14864083
  0
LWPOLYLINE
  5
62B
102
{ACAD_REACTORS
330
62C
102
}
100
AcDbEntity
  8
Ech.1_5
 62
     9
  6
CONTINUOUS
370
    -3
100
AcDbPolyline
 90
        4
 70
     1
 43
0.0
 10
50600.91084032
 20
-8965.14864083
 10
50600.91084032
 20
-8952.14864083
 10
50965.88282605
 20
-8952.14864083
 10
50965.88282605
 20
-8965.14864083
  0
HATCH
  5
62C
100
AcDbEntity
  8
Ech.1_5
 62
     9
  6
CONTINUOUS
100
AcDbHatch
 10
0.0
 20
0.0
 30
0.0
210
0.0
220
0.0
230
1.0
  2
DOTS2
 70
     0
 71
     1
 91
        1
 92
        7
 72
     0
 73
     1
 93
        4
 10
50600.91084032
 20
-8965.14864083
 10
50600.91084032
 20
-8952.14864083
 10
50965.88282605
 20
-8952.14864083
 10
50965.88282605
 20
-8965.14864083
 97
        1
330
62B
 75
     0
 76
     2
 52
0.0
 41
4.72440952
 77
     0
 78
     1
 53
0.0
 43
0.0
 44
0.0
 45
3.75
 46
3.535
 79
     2
 49
0.0
 49
-3.535
 47
0.775229
 98
        1
 10
0.0
 20
0.0
  0
LWPOLYLINE
  5
62D
102
{ACAD_REACTORS
330
62E
102
}
100
AcDbEntity
  8
Ech.1_5
 62
     9
  6
CONTINUOUS
370
    -3
100
AcDbPolyline
 90
        4
 70
     1
 43
0.0
 10
50600.91084032
 20
-8589.26637544
 10
50600.91084032
 20
-8576.26637544
 10
50965.88282605
 20
-8576.26637544
 10
50965.88282605
 20
-8589.26637544
  0
HATCH
  5
62E
100
AcDbEntity
  8
Ech.1_5
 62
     9
  6
CONTINUOUS
100
AcDbHatch
 10
0.0
 20
0.0
 30
0.0
210
0.0
220
0.0
230
1.0
  2
DOTS2
 70
     0
 71
     1
 91
        1
 92
        7
 72
     0
 73
     1
 93
        4
 10
50600.91084032
 20
-8589.26637544
 10
50600.91084032
 20
-8576.26637544
 10
50965.88282605
 20
-8576.26637544
 10
50965.88282605
 20
-8589.26637544
 97
        1
330
62D
 75
     0
 76
     2
 52
0.0
 41
4.72440952
 77
     0
 78
     1
 53
0.0
 43
0.0
 44
0.0
 45
3.75
 46
3.535
 79
     2
 49
0.0
 49
-3.535
 47
0.775229
 98
        1
 10
0.0
 20
0.0
  0
LWPOLYLINE
  5
62F
100
AcDbEntity
  8
Ech.1_5
 62
     7
  6
CONTINUOUS
370
    -3
100
AcDbPolyline
 90
        7
 70
     1
 43
0.0
 10
50535.31075004
 20
-8599.00454348
 10
50544.74296831
 20
-8599.00454348
 10
50544.74296831
 20
-8585.69423964
 10
50468.15173331
 20
-8585.71208554
 10
50418.84123285
 20
-8603.86537897
 10
50418.84124853
 20
-8618.86559285
 10
50535.31075004
 20
-8618.8709785
  0
LWPOLYLINE
  5
630
100
AcDbEntity
  8
Ech.1_5
 62
    25
  6
DASHEDX2
 48
0.60000002
370
    -3
100
AcDbPolyline
 90
        7
 70
     0
 43
0.0
 10
50544.74298399
 20
-8618.8709785
 10
50544.74832519
 20
-8955.71598077
 10
50502.64092308
 20
-8955.71598077
 10
50502.64092308
 20
-8969.55977984
 10
50418.84303052
 20
-8977.80872639
 10
50418.84303052
 20
-8618.86559285
 10
50544.74519209
 20
-8618.87090807
  0
POLYLINE
  5
631
100
AcDbEntity
  8
Ech.1_5
 62
     5
  6
CONTINUOUS
370
    -3
100
AcDb3dPolyline
 66
     1
 70
     8
  0
VERTEX
  5
632
100
AcDbEntity
  8
Ech.1_5
100
AcDbVertex
100
AcDb3dPolylineVertex
 10
50544.74296831
 20
-8599.00454348
 30
-168.4961947
 70
    32
  0
VERTEX
  5
633
100
AcDbEntity
  8
Ech.1_5
100
AcDbVertex
100
AcDb3dPolylineVertex
 10
50544.74296831
 20
-8585.69423964
 30
-168.4961947
 70
    32
  0
VERTEX
  5
634
100
AcDbEntity
  8
Ech.1_5
100
AcDbVertex
100
AcDb3dPolylineVertex
 10
50468.15173331
 20
-8585.71208554
 30
-46.5038053
 70
    32
  0
VERTEX
  5
635
100
AcDbEntity
  8
Ech.1_5
100
AcDbVertex
100
AcDb3dPolylineVertex
 10
50418.84123285
 20
-8603.86537897
 30
48.9961947
 70
    32
  0
VERTEX
  5
636
100
AcDbEntity
  8
Ech.1_5
100
AcDbVertex
100
AcDb3dPolylineVertex
 10
50418.84124853
 20
-8618.86559285
 30
48.9961947
 70
    32
  0
VERTEX
  5
637
100
AcDbEntity
  8
Ech.1_5
100
AcDbVertex
100
AcDb3dPolylineVertex
 10
50535.31075004
 20
-8618.8709785
 30
-163.4961947
 70
    32
  0
VERTEX
  5
638
100
AcDbEntity
  8
Ech.1_5
100
AcDbVertex
100
AcDb3dPolylineVertex
 10
50535.31075004
 20
-8599.00454348
 30
-163.4961947
 70
    32
  0
VERTEX
  5
639
100
AcDbEntity
  8
Ech.1_5
100
AcDbVertex
100
AcDb3dPolylineVertex
 10
50544.74296831
 20
-8599.00454348
 30
-168.4961947
 70
    32
  0
SEQEND
  5
63A
100
AcDbEntity
  8
Ech.1_5
  0
LWPOLYLINE
  5
63B
100
AcDbEntity
  8
Ech.1_5
 62
   190
  6
CONTINUOUS
370
    -3
100
AcDbPolyline
 90
        4
 70
     1
 43
0.0
 10
50494.0095265
 20
-8585.69512322
 10
50544.74296831
 20
-8585.69423964
 10
50544.74296831
 20
-8576.26157958
 10
50494.0095265
 20
-8576.26246316
  0
LWPOLYLINE
  5
63C
100
AcDbEntity
  8
Ech.1_5
 62
   190
  6
CONTINUOUS
370
    -3
100
AcDbPolyline
 90
        8
 70
     1
 43
0.0
 10
50544.12723427
 20
-8293.2957617
 10
50558.23717428
 20
-8257.34006169
 10
50541.75167113
 20
-8275.31741009
 10
50482.84301484
 20
-8275.31741009
 10
50482.84301491
 20
-8531.26246316
 10
50662.84301489
 20
-8531.26246316
 10
50662.84301482
 20
-8275.31741009
 10
50560.61358835
 20
-8275.31741009
  0
LWPOLYLINE
  5
63D
100
AcDbEntity
  8
Ech.1_5
 62
   190
  6
CONTINUOUS
370
    -3
100
AcDbPolyline
 90
       16
 70
     0
 43
0.0
 10
50512.84301484
 20
-8275.31741008
 42
1.14028181
 10
50520.60760369
 20
-8334.29518018
 10
50625.078426
 20
-8306.33963995
 42
-1.30322619
 10
50625.07842601
 20
-8364.29518015
 10
50520.60760369
 20
-8336.33963997
 42
1.30322619
 10
50520.6076037
 20
-8394.29518017
 10
50625.07842601
 20
-8366.33963994
 42
-1.30322619
 10
50625.07842603
 20
-8424.29518014
 10
50520.6076037
 20
-8396.33963996
 42
1.30322619
 10
50520.60760372
 20
-8454.29518016
 10
50625.07842603
 20
-8426.33963993
 42
-1.30322619
 10
50625.07842604
 20
-8484.29518013
 10
50520.60760372
 20
-8456.33963996
 42
1.30322619
 10
50520.60760374
 20
-8514.29518016
 10
50625.07842604
 20
-8486.33963993
 42
-0.68155939
 10
50658.25473033
 20
-8531.26246311
  0
LWPOLYLINE
  5
63E
100
AcDbEntity
  8
Ech.1_5
 62
     7
  6
CONTINUOUS
370
    -3
100
AcDbPolyline
 90
        6
 70
     1
 43
0.0
 10
50418.84303052
 20
-9003.12657227
 10
50418.84303052
 20
-9028.1265937
 10
50662.84301486
 20
-9028.12657227
 10
50662.84301486
 20
-8965.14864083
 10
50502.64092308
 20
-8965.14864083
 10
50502.64092308
 20
-8994.87762571
  0
LWPOLYLINE
  5
63F
100
AcDbEntity
  8
Ech.1_5
 62
   190
  6
CONTINUOUS
370
    -3
100
AcDbPolyline
 90
        4
 70
     0
 43
0.0
 10
50544.74296831
 20
-8576.26157958
 10
50494.0095265
 20
-8585.69512322
 10
50494.0095265
 20
-8576.26246316
 10
50544.74296831
 20
-8585.69423964
  0
LWPOLYLINE
  5
640
100
AcDbEntity
  8
Ech.1_5
 62
   190
100
AcDbPolyline
 90
        5
 70
     0
 43
0.0
 10
50172.18877439
 20
-9190.5836231
 10
50306.61755337
 20
-9190.5836231
 10
50306.61755337
 20
-9247.30658191
 10
50172.18877439
 20
-9247.30658191
 10
50172.18877439
 20
-9190.5836231
  0
HATCH
  5
641
100
AcDbEntity
  8
Ech.1_5
 62
   190
100
AcDbHatch
 10
0.0
 20
0.0
 30
0.0
210
0.0
220
0.0
230
1.0
  2
SOLID
 70
     1
 71
     0
 91
        1
 92
        7
 72
     0
 73
     1
 93
        4
 10
50190.46882017
 20
-9224.24043423
 10
50240.46882017
 20
-9224.24043423
 10
50240.46882017
 20
-9216.8252967
 10
50190.46882017
 20
-9216.8252967
 97
        0
 75
     0
 76
     2
 47
0.775229
 98
        1
 10
0.0
 20
0.0
  0
LWPOLYLINE
  5
642
100
AcDbEntity
  8
Ech.1_5
 62
   190
100
AcDbPolyline
 90
        5
 70
     0
 43
0.0
 10
50190.46882017
 20
-9224.24043423
 10
50240.46882017
 20
-9224.24043423
 10
50240.46882017
 20
-9216.8252967
 10
50190.46882017
 20
-9216.8252967
 10
50190.46882017
 20
-9224.24043423
  0
LWPOLYLINE
  5
643
100
AcDbEntity
  8
Ech.1_5
 62
   190
100
AcDbPolyline
 90
        5
 70
     0
 43
0.0
 10
50240.46882017
 20
-9224.24043423
 10
50290.46882017
 20
-9224.24043423
 10
50290.46882017
 20
-9216.8252967
 10
50240.46882017
 20
-9216.8252967
 10
50240.46882017
 20
-9224.24043423
  0
LWPOLYLINE
  5
644
100
AcDbEntity
  8
Ech.1_5
 62
     7
  6
CONTINUOUS
370
    -3
100
AcDbPolyline
 90
        4
 70
     1
 43
0.0
 10
50482.84301484
 20
-9038.05389534
 10
50482.84301484
 20
-9083.05389534
 10
50662.84301484
 20
-9083.05389534
 10
50662.84301484
 20
-9038.05389534
  0
LWPOLYLINE
  5
645
100
AcDbEntity
  8
Ech.1_5
 62
     7
  6
CONTINUOUS
370
    -3
100
AcDbPolyline
 90
       19
 70
     1
 43
0.0
 10
50428.84303052
 20
-9157.93664195
 10
50429.80335292
 20
-9159.56651059
 10
50434.53947378
 20
-9162.53786052
 10
50434.95147514
 20
-9162.77882972
 10
50435.26529263
 20
-9162.77882972
 10
50435.7164134
 20
-9162.49676761
 10
50435.84303052
 20
-9162.16229381
 10
50435.84303052
 20
-9134.77882972
 10
50442.84303052
 20
-9134.77882972
 10
50442.84303052
 20
-9143.77882972
 10
50448.84303052
 20
-9143.77882972
 10
50448.84303052
 20
-9116.77882972
 10
50444.84303052
 20
-9112.77882972
 10
50448.84303052
 20
-9108.77882972
 10
50448.84303052
 20
-9044.77882972
 10
50444.84303052
 20
-9040.77882972
 10
50447.00068117
 20
-9038.62117907
 10
50428.93776881
 20
-9038.62117907
 10
50428.84303052
 20
-9038.84989753
  0
LWPOLYLINE
  5
646
100
AcDbEntity
  8
Ech.1_5
 62
     7
  6
CONTINUOUS
370
    -3
100
AcDbPolyline
 90
       14
 70
     1
 43
0.0
 10
50428.84303052
 20
-9232.92444131
 10
50448.84303052
 20
-9232.92444131
 10
50448.84303052
 20
-9189.77882972
 10
50444.84303052
 20
-9185.77882972
 10
50448.84303052
 20
-9181.77882972
 10
50448.84303052
 20
-9146.77882972
 10
50441.84303052
 20
-9146.77882972
 10
50441.84303052
 20
-9140.77882972
 10
50439.34303052
 20
-9135.77882972
 10
50436.84303052
 20
-9140.77882972
 10
50436.84303052
 20
-9171.70776191
 10
50436.46242818
 20
-9173.62117907
 10
50430.30749662
 20
-9180.31436363
 10
50428.84303052
 20
-9183.84989753
  0
LWPOLYLINE
  5
647
100
AcDbEntity
  8
Ech.1_5
 62
   190
  6
CONTINUOUS
370
    -3
100
AcDbPolyline
 90
        8
 70
     1
 43
0.0
 10
50600.58442432
 20
-9214.9470929
 10
50586.4744843
 20
-9250.90279291
 10
50602.96083838
 20
-9232.92444131
 10
50662.88282571
 20
-9232.92470748
 10
50662.83605501
 20
-9083.05389534
 10
50482.83605501
 20
-9083.05389534
 10
50482.88282571
 20
-9232.92444131
 10
50584.09892116
 20
-9232.92444131
  0
LWPOLYLINE
  5
648
100
AcDbEntity
  8
Ech.1_5
 62
     7
  6
CONTINUOUS
370
    -3
100
AcDbPolyline
 90
        4
 70
     1
 43
0.0
 10
50482.84301491
 20
-8576.26246316
 10
50662.84301489
 20
-8576.26246316
 10
50662.84301489
 20
-8531.26246316
 10
50482.84301491
 20
-8531.26246316
  0
LWPOLYLINE
  5
649
100
AcDbEntity
  8
Ech.1_5
 62
   190
  6
CONTINUOUS
370
    -3
100
AcDbPolyline
 90
        4
 70
     1
 43
0.0
 10
50448.84301484
 20
-8572.19378856
 10
50473.84301484
 20
-8572.19378856
 10
50473.84301484
 20
-8275.31741009
 10
50448.84301484
 20
-8275.31741009
  0
LWPOLYLINE
  5
64A
100
AcDbEntity
  8
Ech.1_5
 62
     7
  6
CONTINUOUS
370
    -3
100
AcDbPolyline
 90
        4
 70
     1
 43
0.0
 10
50527.84301489
 20
-8531.26246316
 10
50527.84301489
 20
-8386.26246316
 10
50482.84301489
 20
-8386.26246316
 10
50482.84301489
 20
-8531.26246316
  0
LWPOLYLINE
  5
64B
100
AcDbEntity
  8
Ech.1_5
 62
     7
  6
CONTINUOUS
370
    -3
100
AcDbPolyline
 90
       26
 70
     1
 43
0.0
 10
50435.71639772
 20
-8486.02202713
 10
50435.84301484
 20
-8485.68755334
 10
50435.84301484
 20
-8458.30408924
 10
50442.84301484
 20
-8458.30408924
 10
50442.84301484
 20
-8467.30408924
 10
50448.84301484
 20
-8467.30408924
 10
50448.84301484
 20
-8440.30408924
 10
50444.84301484
 20
-8436.30408924
 10
50448.84301484
 20
-8432.30408924
 10
50448.84301484
 20
-8368.30408924
 10
50444.84301484
 20
-8364.30408924
 10
50448.84301484
 20
-8360.30408924
 10
50448.84301484
 20
-8325.30408924
 10
50441.84301484
 20
-8325.30408924
 10
50441.84301484
 20
-8319.30408924
 10
50439.34301484
 20
-8314.30408924
 10
50436.84301484
 20
-8319.30408924
 10
50436.84301484
 20
-8350.23302143
 10
50436.4624125
 20
-8352.14643859
 10
50430.30748094
 20
-8358.83962315
 10
50428.84301484
 20
-8362.37515705
 10
50428.84301484
 20
-8481.46190147
 10
50429.80333724
 20
-8483.09177011
 10
50434.5394581
 20
-8486.06312004
 10
50434.95145946
 20
-8486.30408924
 10
50435.26527695
 20
-8486.30408924
  0
LWPOLYLINE
  5
64C
100
AcDbEntity
  8
Ech.1_5
 62
     7
  6
CONTINUOUS
370
    -3
100
AcDbPolyline
 90
       16
 70
     1
 43
0.0
 10
50435.84301484
 20
-8340.68755334
 10
50435.84301484
 20
-8313.30408924
 10
50442.84301484
 20
-8313.30408924
 10
50442.84301484
 20
-8322.30408924
 10
50448.84301484
 20
-8322.30408924
 10
50448.84301484
 20
-8295.30408924
 10
50444.84301484
 20
-8291.30408924
 10
50448.84301484
 20
-8287.30408924
 10
50448.84301484
 20
-8275.31741009
 10
50428.84301484
 20
-8275.31741009
 10
50428.84301484
 20
-8336.46190147
 10
50429.80333724
 20
-8338.09177011
 10
50434.5394581
 20
-8341.06312004
 10
50434.95145946
 20
-8341.30408924
 10
50435.26527695
 20
-8341.30408924
 10
50435.71639772
 20
-8341.02202713
  0
LWPOLYLINE
  5
64D
100
AcDbEntity
  8
Ech.1_5
 62
     7
  6
CONTINUOUS
370
    -3
100
AcDbPolyline
 90
       14
 70
     1
 43
0.0
 10
50448.84301484
 20
-8513.30408924
 10
50444.84301484
 20
-8509.30408924
 10
50448.84301484
 20
-8505.30408924
 10
50448.84301484
 20
-8470.30408924
 10
50441.84301484
 20
-8470.30408924
 10
50441.84301484
 20
-8464.30408924
 10
50439.34301484
 20
-8459.30408924
 10
50436.84301484
 20
-8464.30408924
 10
50436.84301484
 20
-8495.23302143
 10
50436.4624125
 20
-8497.14643859
 10
50430.30748094
 20
-8503.83962315
 10
50428.84301484
 20
-8507.37515705
 10
50428.84301484
 20
-8581.77296698
 10
50448.84301484
 20
-8574.40837303
  0
LWPOLYLINE
  5
64E
100
AcDbEntity
  8
Ech.1_5
 62
   190
  6
CONTINUOUS
370
    -3
100
AcDbPolyline
 90
        4
 70
     0
 43
0.0
 10
50482.84301491
 20
-8531.26246316
 10
50662.84301489
 20
-8576.26246316
 10
50662.84301489
 20
-8531.26246316
 10
50482.84301491
 20
-8576.26246316
  0
LWPOLYLINE
  5
64F
100
AcDbEntity
  8
Ech.1_5
 62
   190
  6
CONTINUOUS
370
    -3
100
AcDbPolyline
 90
        6
 70
     0
 43
0.0
 10
50408.75167113
 20
-8275.31741009
 10
50541.75167113
 20
-8275.31741009
 10
50558.23717428
 20
-8257.34006169
 10
50544.12723427
 20
-8293.2957617
 10
50560.61358835
 20
-8275.31741009
 10
51015.12494212
 20
-8275.31741009
  0
LWPOLYLINE
  5
650
100
AcDbEntity
  8
Ech.1_5
 62
   190
  6
CONTINUOUS
370
    -3
100
AcDbPolyline
 90
        4
 70
     0
 43
0.0
 10
50482.84301489
 20
-8531.26246316
 10
50527.84301489
 20
-8386.26246316
 10
50482.84301489
 20
-8386.26246316
 10
50527.84301489
 20
-8531.26246316
  0
LWPOLYLINE
  5
651
100
AcDbEntity
  8
Ech.1_5
 62
     5
  6
CONTINUOUS
370
    -3
100
AcDbPolyline
 90
        5
 70
     0
 43
0.0
 10
50527.84301489
 20
-8531.26246316
 10
50527.84301489
 20
-8386.26246316
 10
50482.84301489
 20
-8386.26246316
 10
50482.84301489
 20
-8531.26246316
 10
50527.84301489
 20
-8531.26246316
  0
LWPOLYLINE
  5
652
100
AcDbEntity
  8
Ech.1_5
 62
     5
  6
CONTINUOUS
370
    -3
100
AcDbPolyline
 90
        5
 70
     0
 43
0.0
 10
50482.84301491
 20
-8576.26246316
 10
50662.84301489
 20
-8576.26246316
 10
50662.84301489
 20
-8531.26246316
 10
50482.84301491
 20
-8531.26246316
 10
50482.84301491
 20
-8576.26246316
  0
LWPOLYLINE
  5
653
100
AcDbEntity
  8
Ech.1_5
 62
   190
  6
CONTINUOUS
370
    -3
100
AcDbPolyline
 90
        4
 70
     1
 43
0.0
 10
50448.84303052
 20
-9232.89120868
 10
50473.84303052
 20
-9232.89120868
 10
50473.84303052
 20
-9053.01105257
 10
50448.84303052
 20
-9053.01105257
  0
LWPOLYLINE
  5
654
100
AcDbEntity
  8
Ech.1_5
 62
     5
  6
CONTINUOUS
370
    -3
100
AcDbPolyline
 90
        5
 70
     0
 43
0.0
 10
50482.84301484
 20
-9038.05389534
 10
50662.84301484
 20
-9038.05389534
 10
50662.84301484
 20
-9083.05389534
 10
50482.84301484
 20
-9083.05389534
 10
50482.84301484
 20
-9038.05389534
  0
LWPOLYLINE
  5
655
100
AcDbEntity
  8
Ech.1_5
 62
   190
  6
CONTINUOUS
370
    -3
100
AcDbPolyline
 90
        4
 70
     0
 43
0.0
 10
50482.84301489
 20
-9038.05163412
 10
50662.84301486
 20
-9083.05163412
 10
50662.84301486
 20
-9038.05163412
 10
50482.84301489
 20
-9083.05163412
  0
HATCH
  5
656
100
AcDbEntity
  8
Ech.1_5
 62
     7
100
AcDbHatch
 10
0.0
 20
0.0
 30
0.0
210
0.0
220
0.0
230
1.0
  2
SOLID
 70
     1
 71
     0
 91
        1
 92
        7
 72
     0
 73
     1
 93
        4
 10
50457.1949241
 20
-8589.74307279
 10
50455.48477247
 20
-8585.04459085
 10
50422.75354959
 20
-8597.09768407
 10
50424.47358207
 20
-8601.79252758
 97
        0
 75
     0
 76
     2
 47
0.775229
 98
        1
 10
0.0
 20
0.0
  0
LWPOLYLINE
  5
657
100
AcDbEntity
  8
Ech.1_5
 62
   177
  6
CONTINUOUS
370
    70
100
AcDbPolyline
 90
        5
 70
     0
 43
0.0
 10
50469.20755638
 20
-8529.99132819
 10
50469.20755638
 20
-8579.99132819
 10
50413.84303052
 20
-8600.37673627
 10
50413.83817167
 20
-8628.86516488
 10
50417.29238764
 20
-8622.94764451
  0
HATCH
  5
658
100
AcDbEntity
  8
Ech.1_5
 62
     7
100
AcDbHatch
 10
0.0
 20
0.0
 30
0.0
210
0.0
220
0.0
230
1.0
  2
SOLID
 70
     1
 71
     0
 91
        1
 92
        7
 72
     0
 73
     1
 93
        4
 10
50421.75508112
 20
-8997.74702216
 10
50422.78482914
 20
-9002.58698881
 10
50489.31128711
 20
-8995.97653968
 10
50489.03216119
 20
-8991.01028364
 97
        0
 75
     0
 76
     2
 47
0.775229
 98
        1
 10
0.0
 20
0.0
  0
LWPOLYLINE
  5
659
100
AcDbEntity
  8
Ech.1_5
 62
   177
  6
CONTINUOUS
370
    70
100
AcDbPolyline
 90
        5
 70
     0
 43
0.0
 10
50497.64092218
 20
-8965.14864083
 10
50497.64092218
 20
-8990.14864083
 10
50413.84303052
 20
-8998.3975873
 10
50413.84303052
 20
-9068.61941588
 10
50421.05437706
 20
-9055.46660321
  0
LINE
  5
65A
100
AcDbEntity
  8
Ech.1_5
 62
   177
  6
CONTINUOUS
370
    70
100
AcDbLine
 10
50413.84303052
 20
-8978.30091935
 30
0.0
 11
50413.84303052
 21
-8998.3975873
 31
0.0
  0
LWPOLYLINE
  5
65B
100
AcDbEntity
  8
Ech.1_5
 62
   190
  6
CONTINUOUS
370
    -3
100
AcDbPolyline
 90
        4
 70
     1
 43
0.0
 10
50522.80743474
 20
-8965.14952441
 10
50560.84110493
 20
-8965.14864083
 10
50560.84110493
 20
-8955.71598077
 10
50522.80743474
 20
-8955.71686435
  0
LWPOLYLINE
  5
65C
100
AcDbEntity
  8
Ech.1_5
 62
   190
  6
CONTINUOUS
370
    -3
100
AcDbPolyline
 90
        4
 70
     0
 43
0.0
 10
50560.84110493
 20
-8955.71598077
 10
50522.80743474
 20
-8965.14952441
 10
50522.80743474
 20
-8955.71686435
 10
50560.84110493
 20
-8965.14864083
  0
LWPOLYLINE
  5
65D
100
AcDbEntity
  8
Ech.1_5
 62
   190
  6
CONTINUOUS
370
    -3
100
AcDbPolyline
 90
        4
 70
     1
 43
0.0
 10
50494.01394757
 20
-9038.05163411
 10
50534.08575323
 20
-9038.05119232
 10
50534.08575323
 20
-9028.61853226
 10
50494.01394757
 20
-9028.61897405
  0
LWPOLYLINE
  5
65E
100
AcDbEntity
  8
Ech.1_5
 62
   190
  6
CONTINUOUS
370
    -3
100
AcDbPolyline
 90
        4
 70
     0
 43
0.0
 10
50534.08575323
 20
-9028.61853226
 10
50494.01394757
 20
-9038.05163411
 10
50494.01394757
 20
-9028.61897405
 10
50534.08575323
 20
-9038.05119232
  0
LWPOLYLINE
  5
65F
102
{ACAD_REACTORS
330
660
102
}
100
AcDbEntity
  8
Ech.1_5
 62
     7
  6
CONTINUOUS
370
     5
100
AcDbPolyline
 90
        4
 70
     1
 43
0.0
 10
50480.63200603
 20
-8585.69512322
 10
50494.0095265
 20
-8585.69512322
 10
50494.0095265
 20
-8576.26246316
 10
50480.63200603
 20
-8576.26246316
  0
HATCH
  5
660
100
AcDbEntity
  8
Ech.1_5
 62
     2
  6
CONTINUOUS
100
AcDbHatch
 10
0.0
 20
0.0
 30
0.0
210
0.0
220
0.0
230
1.0
  2
SOLID
 70
     1
 71
     1
 91
        1
 92
        7
 72
     0
 73
     1
 93
        4
 10
50480.63200603
 20
-8585.69512322
 10
50494.0095265
 20
-8585.69512322
 10
50494.0095265
 20
-8576.26246316
 10
50480.63200603
 20
-8576.26246316
 97
        1
330
65F
 75
     0
 76
     2
 47
0.775229
 98
        1
 10
0.0
 20
0.0
  0
LWPOLYLINE
  5
661
102
{ACAD_REACTORS
330
662
102
}
100
AcDbEntity
  8
Ech.1_5
 62
     7
  6
CONTINUOUS
370
     5
100
AcDbPolyline
 90
        4
 70
     1
 43
0.0
 10
50480.63200603
 20
-8576.26246316
 10
50473.84301484
 20
-8576.26246316
 10
50473.84301484
 20
-8585.69512322
 10
50480.63200603
 20
-8585.69512322
  0
HATCH
  5
662
100
AcDbEntity
  8
Ech.1_5
 62
     2
  6
CONTINUOUS
100
AcDbHatch
 10
0.0
 20
0.0
 30
0.0
210
0.0
220
0.0
230
1.0
  2
SOLID
 70
     1
 71
     1
 91
        1
 92
        7
 72
     0
 73
     1
 93
        4
 10
50480.63200603
 20
-8576.26246316
 10
50473.84301484
 20
-8576.26246316
 10
50473.84301484
 20
-8585.69512322
 10
50480.63200603
 20
-8585.69512322
 97
        1
330
661
 75
     0
 76
     2
 47
0.775229
 98
        1
 10
0.0
 20
0.0
  0
HATCH
  5
663
100
AcDbEntity
  8
Ech.1_5
 62
     7
  6
CONTINUOUS
100
AcDbHatch
 10
0.0
 20
0.0
 30
0.0
210
0.0
220
0.0
230
1.0
  2
ANSI31
 70
     0
 71
     1
 91
        1
 92
        7
 72
     0
 73
     1
 93
        4
 10
50480.63200603
 20
-8576.26246316
 10
50473.84301484
 20
-8576.26246316
 10
50473.84301484
 20
-8585.69512322
 10
50480.63200603
 20
-8585.69512322
 97
        1
330
662
 75
     0
 76
     2
 52
0.0
 41
0.94488785
 77
     0
 78
     1
 53
45.0
 43
0.0
 44
0.0
 45
2.12132043
 46
-2.12132043
 79
     0
 47
0.775229
 98
        1
 10
0.0
 20
0.0
  0
LWPOLYLINE
  5
664
102
{ACAD_REACTORS
330
665
102
}
100
AcDbEntity
  8
Ech.1_5
 62
     7
  6
CONTINUOUS
370
     5
100
AcDbPolyline
 90
        4
 70
     1
 43
0.0
 10
50509.42991427
 20
-8965.14864083
 10
50522.80743474
 20
-8965.14864083
 10
50522.80743474
 20
-8955.71598077
 10
50509.42991427
 20
-8955.71598077
  0
HATCH
  5
665
100
AcDbEntity
  8
Ech.1_5
 62
     2
  6
CONTINUOUS
100
AcDbHatch
 10
0.0
 20
0.0
 30
0.0
210
0.0
220
0.0
230
1.0
  2
SOLID
 70
     1
 71
     1
 91
        1
 92
        7
 72
     0
 73
     1
 93
        4
 10
50509.42991427
 20
-8965.14864083
 10
50522.80743474
 20
-8965.14864083
 10
50522.80743474
 20
-8955.71598077
 10
50509.42991427
 20
-8955.71598077
 97
        1
330
664
 75
     0
 76
     2
 47
0.775229
 98
        1
 10
0.0
 20
0.0
  0
LWPOLYLINE
  5
666
102
{ACAD_REACTORS
330
667
102
}
100
AcDbEntity
  8
Ech.1_5
 62
     7
  6
CONTINUOUS
370
     5
100
AcDbPolyline
 90
        4
 70
     1
 43
0.0
 10
50509.42991427
 20
-8955.71598077
 10
50502.64092308
 20
-8955.71598077
 10
50502.64092308
 20
-8965.14864083
 10
50509.42991427
 20
-8965.14864083
  0
HATCH
  5
667
100
AcDbEntity
  8
Ech.1_5
 62
     2
  6
CONTINUOUS
100
AcDbHatch
 10
0.0
 20
0.0
 30
0.0
210
0.0
220
0.0
230
1.0
  2
SOLID
 70
     1
 71
     1
 91
        1
 92
        7
 72
     0
 73
     1
 93
        4
 10
50509.42991427
 20
-8955.71598077
 10
50502.64092308
 20
-8955.71598077
 10
50502.64092308
 20
-8965.14864083
 10
50509.42991427
 20
-8965.14864083
 97
        1
330
666
 75
     0
 76
     2
 47
0.775229
 98
        1
 10
0.0
 20
0.0
  0
HATCH
  5
668
100
AcDbEntity
  8
Ech.1_5
 62
     7
  6
CONTINUOUS
100
AcDbHatch
 10
0.0
 20
0.0
 30
0.0
210
0.0
220
0.0
230
1.0
  2
ANSI31
 70
     0
 71
     1
 91
        1
 92
        7
 72
     0
 73
     1
 93
        4
 10
50509.42991427
 20
-8955.71598077
 10
50502.64092308
 20
-8955.71598077
 10
50502.64092308
 20
-8965.14864083
 10
50509.42991427
 20
-8965.14864083
 97
        1
330
667
 75
     0
 76
     2
 52
0.0
 41
0.94488785
 77
     0
 78
     1
 53
45.0
 43
0.0
 44
0.0
 45
2.12132043
 46
-2.12132043
 79
     0
 47
0.775229
 98
        1
 10
0.0
 20
0.0
  0
LWPOLYLINE
  5
669
102
{ACAD_REACTORS
330
66A
102
}
100
AcDbEntity
  8
Ech.1_5
 62
     7
  6
CONTINUOUS
370
     5
100
AcDbPolyline
 90
        4
 70
     1
 43
0.0
 10
50480.6364271
 20
-9038.05163411
 10
50494.01394757
 20
-9038.05163411
 10
50494.01394757
 20
-9028.61897405
 10
50480.6364271
 20
-9028.61897405
  0
HATCH
  5
66A
100
AcDbEntity
  8
Ech.1_5
 62
     2
  6
CONTINUOUS
100
AcDbHatch
 10
0.0
 20
0.0
 30
0.0
210
0.0
220
0.0
230
1.0
  2
SOLID
 70
     1
 71
     1
 91
        1
 92
        7
 72
     0
 73
     1
 93
        4
 10
50480.6364271
 20
-9038.05163411
 10
50494.01394757
 20
-9038.05163411
 10
50494.01394757
 20
-9028.61897405
 10
50480.6364271
 20
-9028.61897405
 97
        1
330
669
 75
     0
 76
     2
 47
0.775229
 98
        1
 10
0.0
 20
0.0
  0
LWPOLYLINE
  5
66B
102
{ACAD_REACTORS
330
66C
102
}
100
AcDbEntity
  8
Ech.1_5
 62
     7
  6
CONTINUOUS
370
     5
100
AcDbPolyline
 90
        4
 70
     1
 43
0.0
 10
50480.6364271
 20
-9028.61897405
 10
50473.84743591
 20
-9028.61897405
 10
50473.84743591
 20
-9038.05163411
 10
50480.6364271
 20
-9038.05163411
  0
HATCH
  5
66C
100
AcDbEntity
  8
Ech.1_5
 62
     2
  6
CONTINUOUS
100
AcDbHatch
 10
0.0
 20
0.0
 30
0.0
210
0.0
220
0.0
230
1.0
  2
SOLID
 70
     1
 71
     1
 91
        1
 92
        7
 72
     0
 73
     1
 93
        4
 10
50480.6364271
 20
-9028.61897405
 10
50473.84743591
 20
-9028.61897405
 10
50473.84743591
 20
-9038.05163411
 10
50480.6364271
 20
-9038.05163411
 97
        1
330
66B
 75
     0
 76
     2
 47
0.775229
 98
        1
 10
0.0
 20
0.0
  0
HATCH
  5
66D
100
AcDbEntity
  8
Ech.1_5
 62
     7
  6
CONTINUOUS
100
AcDbHatch
 10
0.0
 20
0.0
 30
0.0
210
0.0
220
0.0
230
1.0
  2
ANSI31
 70
     0
 71
     1
 91
        1
 92
        7
 72
     0
 73
     1
 93
        4
 10
50480.6364271
 20
-9028.61897405
 10
50473.84743591
 20
-9028.61897405
 10
50473.84743591
 20
-9038.05163411
 10
50480.6364271
 20
-9038.05163411
 97
        1
330
66C
 75
     0
 76
     2
 52
0.0
 41
0.94488785
 77
     0
 78
     1
 53
45.0
 43
0.0
 44
0.0
 45
2.12132043
 46
-2.12132043
 79
     0
 47
0.775229
 98
        1
 10
0.0
 20
0.0
  0
LWPOLYLINE
  5
66E
100
AcDbEntity
  8
Ech.1_5
 62
   150
  6
CADWORK_22
370
    35
100
AcDbPolyline
 90
        3
 70
     0
 43
0.0
 38
2500.0
 10
50472.34303054
 20
-9232.89120868
 10
50472.34303054
 20
-9038.05163411
 10
50571.52456752
 20
-9038.05163411
  0
LWPOLYLINE
  5
66F
100
AcDbEntity
  8
Ech.1_5
 62
   190
  6
CONTINUOUS
370
    -3
100
AcDbPolyline
 90
        8
 70
     0
 43
0.0
 10
50512.84301276
 20
-9083.0436652
 42
1.14028181
 10
50520.62326735
 20
-9142.0193686
 10
50625.08665642
 20
-9114.03607972
 42
-1.30322619
 10
50625.10205119
 20
-9171.99161581
 10
50520.62381042
 20
-9144.06382825
 42
1.30322619
 10
50520.63920519
 20
-9202.01936434
 10
50625.10259426
 20
-9174.03607546
 42
-1.08865769
 10
50635.6422995
 20
-9232.88386369
  0
LWPOLYLINE
  5
670
100
AcDbEntity
  8
Ech.1_5
 62
     7
  6
CONTINUOUS
100
AcDbPolyline
 90
       43
 70
     0
 43
0.0
 10
50600.91084032
 20
-8955.28618713
 10
50600.91122862
 20
-8922.79924276
 42
0.4142193
 10
50599.91122862
 20
-8921.79922318
 10
50589.91080446
 20
-8921.79922318
 10
50580.39902558
 20
-8921.79922318
 42
0.33945426
 10
50579.43309976
 20
-8922.54040414
 10
50577.79680216
 20
-8928.6471499
 42
-0.29147239
 10
50576.21225432
 20
-8930.099126
 10
50567.04412207
 20
-8931.71575084
 42
-0.41421467
 10
50562.41028344
 20
-8928.47111517
 10
50561.44152259
 20
-8922.97699938
 42
-0.04364748
 10
50561.4111381
 20
-8922.62981052
 10
50561.41017884
 20
-8904.78348548
 42
0.43999449
 10
50560.3230231
 20
-8903.78734453
 10
50545.23640733
 20
-8905.10725238
 42
0.38646911
 10
50543.41078903
 20
-8907.08288362
 42
-0.40037838
 10
50542.46243072
 20
-8908.0857394
 42
0.14311568
 10
50529.222135
 20
-8912.70917292
 42
-0.10897752
 10
50519.3157475
 20
-8916.93446677
 10
50479.53478282
 20
-8923.98303232
 42
0.36373606
 10
50475.40711736
 20
-8928.90636865
 10
50475.40725007
 20
-8960.28612091
 42
0.41421195
 10
50476.40725007
 20
-8961.28611541
 10
50484.40725007
 20
-8961.28611541
 42
0.41421618
 10
50485.40725007
 20
-8960.28610646
 10
50485.40724829
 20
-8960.08732311
 42
-0.36397277
 10
50488.71265558
 20
-8956.14805629
 10
50504.92195063
 20
-8953.28992024
 10
50506.59675563
 20
-8955.88431124
 10
50509.37788363
 20
-8953.28992024
 10
50511.05232263
 20
-8955.88371624
 10
50513.83381663
 20
-8953.28992024
 10
50515.50875431
 20
-8955.88427963
 10
50518.28889463
 20
-8953.28992024
 10
50519.96418763
 20
-8955.88487624
 10
50522.74592563
 20
-8953.28992024
 10
50524.41950963
 20
-8955.88547124
 10
50527.20088563
 20
-8953.28992024
 10
50528.87581263
 20
-8955.88431124
 10
50531.65681863
 20
-8953.28992024
 10
50532.65012502
 20
-8954.82850179
 42
0.25468196
 10
50533.49025419
 20
-8955.28611541
 10
50600.91084032
 20
-8955.28611541
  0
LINE
  5
671
100
AcDbEntity
  8
Ech.1_5
 62
     7
  6
CONTINUOUS
100
AcDbLine
 10
50598.66144533
 20
-8853.54922751
 30
0.0
 11
50582.66144533
 21
-8853.54922751
 31
0.0
  0
LINE
  5
672
100
AcDbEntity
  8
Ech.1_5
 62
     7
  6
CONTINUOUS
100
AcDbLine
 10
50602.66144533
 20
-8863.79922751
 30
0.0
 11
50578.66144533
 21
-8863.79922751
 31
0.0
  0
LINE
  5
673
100
AcDbEntity
  8
Ech.1_5
 62
     7
  6
CONTINUOUS
100
AcDbLine
 10
50596.66144533
 20
-8865.79922751
 30
0.0
 11
50596.66144533
 21
-8864.59922751
 31
0.0
  0
LINE
  5
674
100
AcDbEntity
  8
Ech.1_5
 62
     7
  6
CONTINUOUS
100
AcDbLine
 10
50584.66144533
 20
-8865.79922751
 30
0.0
 11
50584.66144533
 21
-8864.59922751
 31
0.0
  0
LINE
  5
675
100
AcDbEntity
  8
Ech.1_5
 62
     7
  6
CONTINUOUS
100
AcDbLine
 10
50578.66144533
 20
-8865.79922751
 30
0.0
 11
50602.66144965
 21
-8868.79921886
 31
0.0
  0
LINE
  5
676
100
AcDbEntity
  8
Ech.1_5
 62
     7
  6
CONTINUOUS
100
AcDbLine
 10
50602.66144533
 20
-8865.79922751
 30
0.0
 11
50578.66144533
 21
-8868.79921886
 31
0.0
  0
LINE
  5
677
100
AcDbEntity
  8
Ech.1_5
 62
     7
  6
CONTINUOUS
100
AcDbLine
 10
50578.66144533
 20
-8868.79921886
 30
0.0
 11
50602.66144533
 21
-8868.79922751
 31
0.0
  0
LINE
  5
678
100
AcDbEntity
  8
Ech.1_5
 62
     7
  6
CONTINUOUS
100
AcDbLine
 10
50602.66144533
 20
-8868.79922751
 30
0.0
 11
50602.66144533
 21
-8865.79922751
 31
0.0
  0
LINE
  5
679
100
AcDbEntity
  8
Ech.1_5
 62
     7
  6
CONTINUOUS
100
AcDbLine
 10
50602.66144533
 20
-8865.79922751
 30
0.0
 11
50578.66144533
 21
-8865.79922751
 31
0.0
  0
LINE
  5
67A
100
AcDbEntity
  8
Ech.1_5
 62
     7
  6
CONTINUOUS
100
AcDbLine
 10
50578.66144533
 20
-8865.79922751
 30
0.0
 11
50578.66144533
 21
-8868.79922751
 31
0.0
  0
ARC
  5
67B
100
AcDbEntity
  8
Ech.1_5
 62
     7
  6
CONTINUOUS
100
AcDbCircle
 10
50560.41017885
 20
-8904.78353923
 30
0.0
 40
1.0
100
AcDbArc
 50
0.00307969
 51
95.0
  0
LINE
  5
67C
100
AcDbEntity
  8
Ech.1_5
 62
     7
  6
CONTINUOUS
100
AcDbLine
 10
50599.91122862
 20
-8921.79922318
 30
0.0
 11
50580.39902558
 21
-8921.79922318
 31
0.0
  0
LWPOLYLINE
  5
67D
100
AcDbEntity
  8
Ech.1_5
 62
     7
  6
CONTINUOUS
100
AcDbPolyline
 90
        5
 70
     0
 43
0.0
 10
50603.31146923
 20
-8932.61909961
 42
0.73157417
 10
50601.85717179
 20
-8932.68266091
 42
-0.1352145
 10
50602.09066088
 20
-8933.98950991
 42
0.92591457
 10
50603.31146923
 20
-8933.98950991
 10
50603.31146923
 20
-8932.61909961
  0
LWPOLYLINE
  5
67E
100
AcDbEntity
  8
Ech.1_5
 62
     7
  6
CONTINUOUS
100
AcDbPolyline
 90
       65
 70
     0
 43
0.0
 10
50601.86048683
 20
-8932.68962902
 10
50601.85071133
 20
-8932.65183717
 10
50601.84128453
 20
-8932.61432533
 10
50601.83255272
 20
-8932.57737159
 10
50601.82486218
 20
-8932.54125403
 10
50601.8185592
 20
-8932.50625071
 10
50601.81399006
 20
-8932.47263973
 10
50601.81150104
 20
-8932.44069915
 10
50601.81143844
 20
-8932.41070706
 10
50601.81414854
 20
-8932.38294153
 10
50601.81997762
 20
-8932.35768065
 10
50601.82927197
 20
-8932.33520249
 10
50601.84237788
 20
-8932.31578513
 10
50601.85964163
 20
-8932.29970664
 10
50601.88127384
 20
-8932.28713271
 10
50601.90686075
 20
-8932.27771165
 10
50601.93580909
 20
-8932.27094305
 10
50601.96752556
 20
-8932.26632649
 10
50602.00141686
 20
-8932.26336154
 10
50602.03688971
 20
-8932.26154777
 10
50602.07335082
 20
-8932.26038475
 10
50602.11020688
 20
-8932.25937205
 10
50602.1468646
 20
-8932.25800925
 10
50602.18273069
 20
-8932.25579592
 10
50602.21721186
 20
-8932.25223163
 10
50602.24971481
 20
-8932.24681596
 10
50602.27964625
 20
-8932.23904847
 10
50602.30641289
 20
-8932.22842874
 10
50602.32942143
 20
-8932.21445633
 10
50602.34807858
 20
-8932.19663083
 10
50602.36179105
 20
-8932.17445181
 10
50602.36996541
 20
-8932.14746086
 10
50602.37200265
 20
-8932.11703819
 10
50602.36729616
 20
-8932.08707796
 10
50602.35553282
 20
-8932.0608626
 10
50602.33747312
 20
-8932.03877947
 10
50602.31412248
 20
-8932.02055546
 10
50602.28648631
 20
-8932.00591746
 10
50602.25557002
 20
-8931.99459233
 10
50602.22237904
 20
-8931.98630697
 10
50602.18791879
 20
-8931.98078824
 10
50602.15318926
 20
-8931.97776229
 10
50602.11884319
 20
-8931.97690652
 10
50602.08498163
 20
-8931.97782101
 10
50602.05165653
 20
-8931.98009892
 10
50602.01891987
 20
-8931.98333344
 10
50601.98682363
 20
-8931.98711774
 10
50601.95541976
 20
-8931.991045
 10
50601.92476025
 20
-8931.9947084
 10
50601.89489706
 20
-8931.99770112
 10
50601.86588216
 20
-8931.99961633
 10
50601.83776753
 20
-8932.00004722
 10
50601.81060513
 20
-8931.99858696
 10
50601.78444693
 20
-8931.99482873
 10
50601.75934491
 20
-8931.98836571
 10
50601.73535104
 20
-8931.97879107
 10
50601.71249052
 20
-8931.96581755
 10
50601.69067253
 20
-8931.94967621
 10
50601.6697748
 20
-8931.93073858
 10
50601.64967506
 20
-8931.90937618
 10
50601.63025104
 20
-8931.88596055
 10
50601.61138047
 20
-8931.86086321
 10
50601.59294108
 20
-8931.83445569
 10
50601.5748106
 20
-8931.8071095
 10
50601.55686677
 20
-8931.77919619
  0
LWPOLYLINE
  5
67F
100
AcDbEntity
  8
Ech.1_5
 62
     7
  6
CONTINUOUS
100
AcDbPolyline
 90
       40
 70
     0
 43
0.0
 10
50601.86048683
 20
-8932.68962902
 42
-0.20099848
 10
50601.9489159
 20
-8934.61907219
 42
0.55145662
 10
50602.05222135
 20
-8934.75300498
 42
-0.1294239
 10
50603.17062932
 20
-8934.93726213
 42
0.54354517
 10
50603.31146923
 20
-8934.84598178
 10
50603.31146923
 20
-8932.61909961
 10
50603.31146923
 20
-8932.61909961
 10
50602.81146923
 20
-8932.11909961
 10
50603.31146923
 20
-8931.61909961
 10
50603.31146923
 20
-8918.49922683
 42
0.41421356
 10
50603.21146923
 20
-8918.39922683
 10
50600.01146923
 20
-8918.39922683
 42
-0.41421356
 10
50599.91146923
 20
-8918.29922683
 10
50599.91146923
 20
-8917.89922683
 42
-0.41421356
 10
50600.01146923
 20
-8917.79922683
 10
50602.81146923
 20
-8917.79922683
 42
0.41421356
 10
50602.91146923
 20
-8917.69922683
 10
50602.91146923
 20
-8915.24987066
 42
0.74863712
 10
50602.72733744
 20
-8915.1958166
 10
50601.47031407
 20
-8917.15229585
 42
-0.41421356
 10
50601.33212822
 20
-8917.18237359
 10
50600.99560103
 20
-8916.96615737
 42
-0.41421356
 10
50600.96552329
 20
-8916.82797152
 10
50602.8819493
 20
-8913.84517278
 42
-0.25526652
 10
50602.9660811
 20
-8913.79922683
 10
50603.81146923
 20
-8913.79922683
 42
-0.41421356
 10
50603.91146923
 20
-8913.89922683
 10
50603.91146923
 20
-8935.49922683
 42
-0.41421356
 10
50603.81146923
 20
-8935.59922683
 10
50603.34485077
 20
-8935.59922683
 42
-0.16012282
 10
50603.28552497
 20
-8935.57972807
 42
0.24300643
 10
50601.72103056
 20
-8935.32993303
 42
0.06909489
 10
50601.69633953
 20
-8935.34205607
 42
-0.7595554
 10
50601.21880169
 20
-8934.93590267
 42
0.27525427
 10
50601.40599545
 20
-8932.89816013
 42
-0.2097
 10
50601.33780566
 20
-8928.69457117
 42
-0.9750995
 10
50601.7988816
 20
-8928.88798517
 42
0.15529906
 10
50601.543587
 20
-8931.74718532
 42
0.06565639
 10
50601.55255884
 20
-8931.77174788
 42
0.02152094
 10
50601.55686677
 20
-8931.77919619
  0
LINE
  5
680
100
AcDbEntity
  8
Ech.1_5
 62
     7
  6
DASHEDX2
100
AcDbLine
 10
50595.08128855
 20
-8872.02686206
 30
0.0
 11
50561.91207847
 21
-8907.70320912
 31
0.0
  0
LINE
  5
681
100
AcDbEntity
  8
Ech.1_5
 62
     7
  6
DASHEDX2
100
AcDbLine
 10
50585.10865486
 20
-8871.00421796
 30
0.0
 11
50561.91588694
 21
-8895.95004076
 31
0.0
  0
LWPOLYLINE
  5
682
100
AcDbEntity
  8
Ech.1_5
 62
     7
  6
CONTINUOUS
100
AcDbPolyline
 90
       63
 70
     0
 43
0.0
 10
50619.41146373
 20
-8863.23777893
 10
50618.41146923
 20
-8862.23778443
 10
50616.41146923
 20
-8862.23778443
 10
50616.41146923
 20
-8861.73778443
 42
0.24172474
 10
50611.40434403
 20
-8851.98587682
 42
0.15679011
 10
50610.82160446
 20
-8851.79853578
 10
50608.87753649
 20
-8851.79853578
 42
0.28963385
 10
50607.70910048
 20
-8852.89641806
 42
-0.29368695
 10
50607.31227589
 20
-8853.26373808
 42
0.36369756
 10
50605.66146923
 20
-8855.23301815
 10
50605.66146923
 20
-8865.28029107
 42
-0.37995788
 10
50603.0157074
 20
-8868.25930354
 10
50597.88126746
 20
-8868.86984634
 42
0.22830633
 10
50597.16408903
 20
-8869.35877292
 10
50595.91860515
 20
-8871.51643233
 42
-0.22171667
 10
50595.22618598
 20
-8872.00131274
 10
50587.25533497
 20
-8873.40678884
 42
-0.31532185
 10
50586.21561945
 20
-8872.92190842
 10
50584.15884078
 20
-8869.35877292
 42
0.22830633
 10
50583.44166235
 20
-8868.86984634
 10
50578.30723106
 20
-8868.25930457
 42
-0.37995788
 10
50575.66146923
 20
-8865.28029209
 10
50575.66146923
 20
-8855.23301815
 42
0.36369756
 10
50574.01066257
 20
-8853.26373808
 42
-0.29368695
 10
50573.61383799
 20
-8852.89641806
 42
0.28963385
 10
50572.44540198
 20
-8851.79853578
 10
50570.501334
 20
-8851.79853578
 42
0.15679011
 10
50569.91859443
 20
-8851.98587682
 42
0.24172474
 10
50564.91146923
 20
-8861.73778443
 10
50564.91146923
 20
-8862.23778443
 10
50562.91146923
 20
-8862.23778443
 10
50561.91146923
 20
-8863.23778443
 10
50561.91250542
 20
-8867.83868147
 10
50567.21683419
 20
-8867.83868147
 10
50567.21683419
 20
-8880.31210284
 10
50562.41499959
 20
-8880.73220893
 10
50561.9168601
 20
-8881.23218293
 10
50561.9119193
 20
-8908.58437685
 10
50565.6617291
 20
-8910.74933055
 10
50565.6617291
 20
-8905.33319416
 10
50568.56172913
 20
-8905.33319416
 10
50568.56172913
 20
-8914.7992195
 42
0.41421356
 10
50569.56172911
 20
-8915.7992195
 10
50571.90085327
 20
-8915.79921954
 10
50576.10087166
 20
-8909.79921922
 10
50580.30085333
 20
-8909.79921922
 10
50581.71146923
 20
-8917.79921954
 10
50583.71146707
 20
-8917.79922062
 10
50583.71146707
 20
-8915.59923548
 10
50585.71146707
 20
-8915.59923548
 10
50585.71146707
 20
-8906.29923548
 10
50597.91146707
 20
-8906.29923548
 10
50597.91146707
 20
-8915.59923548
 10
50599.91146707
 20
-8915.59923548
 10
50599.91146707
 20
-8917.79922651
 10
50600.91146923
 20
-8917.79922683
 10
50600.91146923
 20
-8912.29922683
 10
50603.91146923
 20
-8912.29922683
 10
50603.91146923
 20
-8933.79922683
 42
0.41421356
 10
50605.91146923
 20
-8935.79922683
 10
50614.41146914
 20
-8935.79922683
 42
0.41421359
 10
50619.41146914
 20
-8930.79922643
 10
50619.41146373
 20
-8863.23777893
  0
LINE
  5
683
100
AcDbEntity
  8
Ech.1_5
 62
     7
  6
CONTINUOUS
100
AcDbLine
 10
50561.41039771
 20
-8897.32134475
 30
0.0
 11
50561.41039771
 21
-8904.78348548
 31
0.0
  0
LWPOLYLINE
  5
684
100
AcDbEntity
  8
Ech.1_5
 62
     7
  6
CONTINUOUS
100
AcDbPolyline
 90
       99
 70
     0
 43
0.0
 10
50577.43464143
 20
-8854.57507988
 10
50578.66144533
 20
-8857.9456959
 10
50578.66144533
 20
-8862.89922751
 10
50578.36144533
 20
-8863.19922751
 10
50578.36144533
 20
-8863.89922751
 42
0.95548796
 10
50579.15978901
 20
-8863.93559115
 42
-0.38779458
 10
50579.30916789
 20
-8863.79922751
 10
50582.54432887
 20
-8863.79922751
 42
-0.34415073
 10
50582.68985024
 20
-8863.91284717
 10
50582.83304041
 20
-8864.48560785
 42
0.34415073
 10
50582.97856179
 20
-8864.59922751
 10
50598.34432887
 20
-8864.59922751
 42
0.34415073
 10
50598.48985024
 20
-8864.48560785
 10
50598.63304041
 20
-8863.91284717
 42
-0.34415073
 10
50598.77856179
 20
-8863.79922751
 10
50602.01372277
 20
-8863.79922751
 42
-0.38779458
 10
50602.16310165
 20
-8863.93559115
 42
0.95548796
 10
50602.96144533
 20
-8863.89922751
 10
50602.96144533
 20
-8863.19922751
 10
50602.66144533
 20
-8862.89922751
 10
50602.66144533
 20
-8857.9456959
 10
50603.87899946
 20
-8854.60049341
 42
1.10738051
 10
50603.63027211
 20
-8854.50996406
 10
50603.30173882
 20
-8855.81155369
 42
-0.93251509
 10
50602.66324546
 20
-8855.69854767
 10
50602.99008929
 20
-8853.27754537
 42
0.18531675
 10
50602.83541013
 20
-8852.62365944
 42
-0.15081813
 10
50602.66144533
 20
-8852.0600409
 10
50602.66144533
 20
-8851.76877919
 10
50602.66144533
 20
-8850.76877919
 42
-0.30843151
 10
50602.9186695
 20
-8850.4131664
 42
-0.26795044
 10
50608.185301
 20
-8852.65472636
 42
-0.52171267
 10
50608.14328936
 20
-8852.89716856
 42
0.15565301
 10
50607.31223183
 20
-8853.9995921
 10
50605.65483143
 20
-8853.79922751
 42
0.31529879
 10
50605.4668929
 20
-8853.93082348
 10
50604.49314426
 20
-8856.60617589
 42
0.87140053
 10
50604.58072066
 20
-8856.65247122
 10
50605.097481
 20
-8855.93396779
 42
-1.00812133
 10
50605.61771221
 20
-8856.24315765
 10
50604.14048821
 20
-8858.54795696
 42
0.14346618
 10
50604.06144533
 20
-8858.81776264
 10
50604.06144533
 20
-8860.39899824
 42
0.72472287
 10
50604.24206585
 20
-8860.45816183
 10
50604.89396733
 20
-8859.56983456
 42
-0.94855512
 10
50605.60360351
 20
-8860.03550319
 10
50604.15963319
 20
-8861.98532251
 42
0.16072186
 10
50604.06144533
 20
-8862.282891
 10
50604.06144533
 20
-8863.84072792
 42
-0.08748866
 10
50604.04938385
 20
-8863.90913195
 10
50603.39736809
 20
-8865.70053053
 42
-0.31529879
 10
50603.2564142
 20
-8865.79922751
 10
50601.87856179
 20
-8865.79922751
 42
-0.34415073
 10
50601.73304041
 20
-8865.68560785
 10
50601.58985024
 20
-8865.11284717
 42
0.34415073
 10
50601.44432887
 20
-8864.99922751
 10
50599.67856179
 20
-8864.99922751
 42
0.34415073
 10
50599.53304041
 20
-8865.11284717
 10
50599.38985024
 20
-8865.68560785
 42
-0.34415073
 10
50599.24432887
 20
-8865.79922751
 10
50582.07856179
 20
-8865.79922751
 42
-0.34415073
 10
50581.93304041
 20
-8865.68560785
 10
50581.78985024
 20
-8865.11284717
 42
0.34415073
 10
50581.64432887
 20
-8864.99922751
 10
50579.87856179
 20
-8864.99922751
 42
0.34415073
 10
50579.73304041
 20
-8865.11284717
 10
50579.58985024
 20
-8865.68560785
 42
-0.34415073
 10
50579.44432887
 20
-8865.79922751
 10
50578.06647646
 20
-8865.79922751
 42
-0.31529879
 10
50577.92552257
 20
-8865.70053053
 10
50577.2735068
 20
-8863.90913195
 42
-0.08748866
 10
50577.26144533
 20
-8863.84072792
 10
50577.26144533
 20
-8862.282891
 42
0.16072186
 10
50577.16325746
 20
-8861.98532251
 10
50575.71928715
 20
-8860.03550319
 42
-0.94855512
 10
50576.42892333
 20
-8859.56983456
 10
50577.08082481
 20
-8860.45816183
 42
0.72472287
 10
50577.26144533
 20
-8860.39899824
 10
50577.26144533
 20
-8858.81776264
 42
0.14346618
 10
50577.18240244
 20
-8858.54795696
 10
50575.70517845
 20
-8856.24315765
 42
-1.00812133
 10
50576.22540965
 20
-8855.93396779
 10
50576.74217
 20
-8856.65247122
 42
0.87140053
 10
50576.8297464
 20
-8856.60617589
 10
50575.85599775
 20
-8853.93082348
 42
0.31529879
 10
50575.66805923
 20
-8853.79922751
 10
50574.01061851
 20
-8853.9995921
 42
0.15565608
 10
50573.17958204
 20
-8852.89718684
 42
-0.52171267
 10
50573.1375704
 20
-8852.65474465
 42
-0.26794928
 10
50578.40422115
 20
-8850.4131664
 42
-0.30843151
 10
50578.66144533
 20
-8850.76877919
 10
50578.66144533
 20
-8851.76877919
 10
50578.66144533
 20
-8852.0600409
 42
-0.15081813
 10
50578.48748052
 20
-8852.62365944
 42
0.18531675
 10
50578.33280137
 20
-8853.27754537
 10
50578.65964519
 20
-8855.69854767
 42
-0.93251509
 10
50578.02115183
 20
-8855.81155369
 10
50577.69261855
 20
-8854.50996406
 42
1.10738051
 10
50577.4438912
 20
-8854.60049341
  0
LINE
  5
685
100
AcDbEntity
  8
Ech.1_5
 62
     7
  6
DASHEDX2
100
AcDbLine
 10
50475.40717376
 20
-8942.24217683
 30
0.0
 11
50562.21651722
 21
-8927.37221235
 31
0.0
  0
LINE
  5
686
100
AcDbEntity
  8
Ech.1_5
 62
     7
  6
DASHEDX2
100
AcDbLine
 10
50475.40720814
 20
-8950.37114315
 30
0.0
 11
50571.72850588
 21
-8933.7660505
 31
0.0
  0
LWPOLYLINE
  5
687
100
AcDbEntity
  8
Ech.1_5
 62
     7
  6
CONTINUOUS
100
AcDbPolyline
 90
       15
 70
     0
 43
0.0
 10
50561.91542156
 20
-8880.77579276
 10
50566.91542156
 20
-8880.33838378
 10
50566.91542156
 20
-8867.83868147
 10
50562.34037801
 20
-8867.83772599
 42
0.25018491
 10
50560.67851797
 20
-8868.72434849
 42
-0.22001772
 10
50549.16007032
 20
-8878.51935484
 42
0.32911577
 10
50530.91542156
 20
-8898.83442814
 10
50531.91542156
 20
-8899.83442814
 10
50544.00218056
 20
-8899.83442814
 10
50550.77798277
 20
-8894.16970789
 42
-0.46575727
 10
50552.28540917
 20
-8894.4369137
 10
50555.40166559
 20
-8899.83442814
 10
50558.41542156
 20
-8899.83442814
 10
50561.91542156
 20
-8896.89757943
 10
50561.91542156
 20
-8880.77579276
  0
LWPOLYLINE
  5
688
100
AcDbEntity
  8
Ech.1_5
 62
     7
  6
CONTINUOUS
100
AcDbPolyline
 90
        5
 70
     0
 43
0.0
 10
50603.31146923
 20
-8932.61909961
 42
0.73157417
 10
50601.85717179
 20
-8932.68266091
 42
-0.1352145
 10
50602.09066088
 20
-8933.98950991
 42
0.92591457
 10
50603.31146923
 20
-8933.98950991
 10
50603.31146923
 20
-8932.61909961
  0
LWPOLYLINE
  5
689
100
AcDbEntity
  8
Ech.1_5
 62
     7
  6
CONTINUOUS
100
AcDbPolyline
 90
       65
 70
     0
 43
0.0
 10
50601.86048683
 20
-8932.68962902
 10
50601.85071133
 20
-8932.65183717
 10
50601.84128453
 20
-8932.61432533
 10
50601.83255272
 20
-8932.57737159
 10
50601.82486218
 20
-8932.54125403
 10
50601.8185592
 20
-8932.50625071
 10
50601.81399006
 20
-8932.47263973
 10
50601.81150104
 20
-8932.44069915
 10
50601.81143844
 20
-8932.41070706
 10
50601.81414854
 20
-8932.38294153
 10
50601.81997762
 20
-8932.35768065
 10
50601.82927197
 20
-8932.33520249
 10
50601.84237788
 20
-8932.31578513
 10
50601.85964163
 20
-8932.29970664
 10
50601.88127384
 20
-8932.28713271
 10
50601.90686075
 20
-8932.27771165
 10
50601.93580909
 20
-8932.27094305
 10
50601.96752556
 20
-8932.26632649
 10
50602.00141686
 20
-8932.26336154
 10
50602.03688971
 20
-8932.26154777
 10
50602.07335082
 20
-8932.26038475
 10
50602.11020688
 20
-8932.25937205
 10
50602.1468646
 20
-8932.25800925
 10
50602.18273069
 20
-8932.25579592
 10
50602.21721186
 20
-8932.25223163
 10
50602.24971481
 20
-8932.24681596
 10
50602.27964625
 20
-8932.23904847
 10
50602.30641289
 20
-8932.22842874
 10
50602.32942143
 20
-8932.21445633
 10
50602.34807858
 20
-8932.19663083
 10
50602.36179105
 20
-8932.17445181
 10
50602.36996541
 20
-8932.14746086
 10
50602.37200265
 20
-8932.11703819
 10
50602.36729616
 20
-8932.08707796
 10
50602.35553282
 20
-8932.0608626
 10
50602.33747312
 20
-8932.03877947
 10
50602.31412248
 20
-8932.02055546
 10
50602.28648631
 20
-8932.00591746
 10
50602.25557002
 20
-8931.99459233
 10
50602.22237904
 20
-8931.98630697
 10
50602.18791879
 20
-8931.98078824
 10
50602.15318926
 20
-8931.97776229
 10
50602.11884319
 20
-8931.97690652
 10
50602.08498163
 20
-8931.97782101
 10
50602.05165653
 20
-8931.98009892
 10
50602.01891987
 20
-8931.98333344
 10
50601.98682363
 20
-8931.98711774
 10
50601.95541976
 20
-8931.991045
 10
50601.92476025
 20
-8931.9947084
 10
50601.89489706
 20
-8931.99770112
 10
50601.86588216
 20
-8931.99961633
 10
50601.83776753
 20
-8932.00004722
 10
50601.81060513
 20
-8931.99858696
 10
50601.78444693
 20
-8931.99482873
 10
50601.75934491
 20
-8931.98836571
 10
50601.73535104
 20
-8931.97879107
 10
50601.71249052
 20
-8931.96581755
 10
50601.69067253
 20
-8931.94967621
 10
50601.6697748
 20
-8931.93073858
 10
50601.64967506
 20
-8931.90937618
 10
50601.63025104
 20
-8931.88596055
 10
50601.61138047
 20
-8931.86086321
 10
50601.59294108
 20
-8931.83445569
 10
50601.5748106
 20
-8931.8071095
 10
50601.55686677
 20
-8931.77919619
  0
LWPOLYLINE
  5
68A
100
AcDbEntity
  8
Ech.1_5
 62
     7
  6
CONTINUOUS
100
AcDbPolyline
 90
       40
 70
     0
 43
0.0
 10
50601.86048683
 20
-8932.68962902
 42
-0.20099848
 10
50601.9489159
 20
-8934.61907219
 42
0.55145662
 10
50602.05222135
 20
-8934.75300498
 42
-0.1294239
 10
50603.17062932
 20
-8934.93726213
 42
0.54354517
 10
50603.31146923
 20
-8934.84598178
 10
50603.31146923
 20
-8932.61909961
 10
50603.31146923
 20
-8932.61909961
 10
50602.81146923
 20
-8932.11909961
 10
50603.31146923
 20
-8931.61909961
 10
50603.31146923
 20
-8918.49922683
 42
0.41421356
 10
50603.21146923
 20
-8918.39922683
 10
50600.01146923
 20
-8918.39922683
 42
-0.41421356
 10
50599.91146923
 20
-8918.29922683
 10
50599.91146923
 20
-8917.89922683
 42
-0.41421356
 10
50600.01146923
 20
-8917.79922683
 10
50602.81146923
 20
-8917.79922683
 42
0.41421356
 10
50602.91146923
 20
-8917.69922683
 10
50602.91146923
 20
-8915.24987066
 42
0.74863712
 10
50602.72733744
 20
-8915.1958166
 10
50601.47031407
 20
-8917.15229585
 42
-0.41421356
 10
50601.33212822
 20
-8917.18237359
 10
50600.99560103
 20
-8916.96615737
 42
-0.41421356
 10
50600.96552329
 20
-8916.82797152
 10
50602.8819493
 20
-8913.84517278
 42
-0.25526652
 10
50602.9660811
 20
-8913.79922683
 10
50603.81146923
 20
-8913.79922683
 42
-0.41421356
 10
50603.91146923
 20
-8913.89922683
 10
50603.91146923
 20
-8935.49922683
 42
-0.41421356
 10
50603.81146923
 20
-8935.59922683
 10
50603.34485077
 20
-8935.59922683
 42
-0.16012282
 10
50603.28552497
 20
-8935.57972807
 42
0.24300643
 10
50601.72103056
 20
-8935.32993303
 42
0.06909489
 10
50601.69633953
 20
-8935.34205607
 42
-0.7595554
 10
50601.21880169
 20
-8934.93590267
 42
0.27525427
 10
50601.40599545
 20
-8932.89816013
 42
-0.2097
 10
50601.33780566
 20
-8928.69457117
 42
-0.9750995
 10
50601.7988816
 20
-8928.88798517
 42
0.15529906
 10
50601.543587
 20
-8931.74718532
 42
0.06565639
 10
50601.55255884
 20
-8931.77174788
 42
0.02152094
 10
50601.55686677
 20
-8931.77919619
  0
LINE
  5
68B
100
AcDbEntity
  8
Ech.1_5
 62
     7
  6
CENTER
370
    18
100
AcDbLine
 10
50622.43082479
 20
-8805.04251485
 30
0.0
 11
50370.09965683
 21
-8805.04251485
 31
0.0
  0
LINE
  5
68C
100
AcDbEntity
  8
Ech.1_5
 62
     7
  6
CONTINUOUS
100
AcDbLine
 10
50578.66144533
 20
-8863.79922751
 30
0.0
 11
50578.66144533
 21
-8800.61011658
 31
0.0
  0
LINE
  5
68D
100
AcDbEntity
  8
Ech.1_5
 62
     7
  6
CONTINUOUS
100
AcDbLine
 10
50582.66144533
 20
-8863.79922751
 30
0.0
 11
50582.66144533
 21
-8800.61011658
 31
0.0
  0
LINE
  5
68E
100
AcDbEntity
  8
Ech.1_5
 62
     7
  6
CONTINUOUS
100
AcDbLine
 10
50598.66144533
 20
-8863.79922751
 30
0.0
 11
50598.66144533
 21
-8800.61011658
 31
0.0
  0
LINE
  5
68F
100
AcDbEntity
  8
Ech.1_5
 62
     7
  6
CONTINUOUS
100
AcDbLine
 10
50602.66144533
 20
-8863.79922751
 30
0.0
 11
50602.66144533
 21
-8800.61011658
 31
0.0
  0
HATCH
  5
690
100
AcDbEntity
  8
Ech.1_5
 62
     7
100
AcDbHatch
 10
0.0
 20
0.0
 30
0.0
210
0.0
220
0.0
230
1.0
  2
_USER_1
 70
     0
 71
     0
 91
        1
 92
        7
 72
     0
 73
     1
 93
       19
 10
50567.76189736
 20
-8665.01336978
 10
50567.87574073
 20
-8665.00522977
 10
50567.98726717
 20
-8664.98097222
 10
50568.09420664
 20
-8664.94109087
 10
50568.19438252
 20
-8664.88639747
 10
50568.28575581
 20
-8664.81800526
 10
50568.3664667
 20
-8664.73730628
 10
50568.43487241
 20
-8664.64594308
 10
50568.48958059
 20
-8664.54577528
 10
50568.52947772
 20
-8664.43884169
 10
50568.55375174
 20
-8664.32731884
 10
50568.56190856
 20
-8664.21347667
 10
50568.56191134
 20
-8664.01466647
 10
50568.56191329
 20
-8663.87491875
 10
50568.56195802
 20
-8660.67380098
 10
50568.56196502
 20
-8660.17380098
 10
50568.56200646
 20
-8657.2162237
 10
50567.36200646
 20
-8657.21620689
 10
50567.36189726
 20
-8665.01336418
 97
        0
 75
     0
 76
     2
 52
0.0
 41
1.0
 77
     0
 78
     1
 53
135.00079346
 43
0.0
 44
0.0
 45
-1.76774247
 46
-1.76779143
 79
     2
 49
50.0
 49
0.0
 47
0.775229
 98
        1
 10
0.0
 20
0.0
  0
HATCH
  5
691
100
AcDbEntity
  8
Ech.1_5
 62
     7
100
AcDbHatch
 10
0.0
 20
0.0
 30
0.0
210
0.0
220
0.0
230
1.0
  2
ANSI31
 70
     0
 71
     0
 91
        1
 92
        7
 72
     1
 73
     1
 93
       25
 10
50600.91290992
 20
-8639.74424761
 42
-0.22235481
 10
50601.21766665
 20
-8640.59851766
 42
-0.22946848
 10
50601.01715458
 20
-8641.08174448
 42
0.18586263
 10
50599.91160846
 20
-8643.58045603
 42
0.0
 10
50599.91160846
 20
-8645.56626638
 42
0.99930427
 10
50600.61160846
 20
-8645.56674843
 42
0.0
 10
50600.61160846
 20
-8643.51544087
 42
-0.05691082
 10
50600.61933157
 20
-8643.44780789
 42
-0.02418259
 10
50600.71057887
 20
-8643.06469669
 42
-0.02455226
 10
50600.82823055
 20
-8642.71796827
 42
-0.07971411
 10
50601.48205468
 20
-8641.60506837
 42
0.19863002
 10
50601.93828081
 20
-8640.62108712
 42
0.33183283
 10
50600.71816046
 20
-8638.81977967
 42
-0.79190458
 10
50600.91284562
 20
-8638.42699546
 42
0.0
 10
50602.79777578
 20
-8638.83769019
 42
-0.3398043
 10
50603.0124655
 20
-8639.13356043
 42
0.0
 10
50603.01123769
 20
-8639.17834196
 42
0.0
 10
50603.9115425
 20
-8639.20302624
 42
0.0
 10
50603.91160846
 20
-8639.20062422
 42
0.0
 10
50603.91160846
 20
-8638.40483469
 42
0.35710574
 10
50603.79123717
 20
-8638.25779
 42
-0.12383971
 10
50600.26571361
 20
-8637.33892353
 42
0.54640022
 10
50599.91160846
 20
-8637.56621655
 42
0.0
 10
50599.91988282
 20
-8639.13871461
 42
0.10888682
 10
50599.94414768
 20
-8639.24355417
 42
-0.05887459
 97
        0
 75
     0
 76
     2
 52
0.0
 41
0.25000001
 77
     0
 78
     1
 53
45.0
 43
0.0
 44
0.0
 45
0.56126252
 46
-0.56126252
 79
     0
 47
0.775229
 98
        1
 10
0.0
 20
0.0
  0
HATCH
  5
692
100
AcDbEntity
  8
Ech.1_5
 62
     7
100
AcDbHatch
 10
0.0
 20
0.0
 30
0.0
210
0.0
220
0.0
230
1.0
  2
HONEY
 70
     0
 71
     0
 91
        1
 92
        7
 72
     0
 73
     1
 93
      102
 10
50600.61441375
 20
-8643.47451039
 10
50600.61160846
 20
-8643.49020809
 10
50600.61160846
 20
-8645.56674843
 10
50600.60828549
 20
-8645.61438363
 10
50600.59850965
 20
-8645.6611232
 10
50600.58246291
 20
-8645.70609716
 10
50600.56044395
 20
-8645.74846838
 10
50600.53286262
 20
-8645.78744818
 10
50600.50023231
 20
-8645.82231101
 10
50600.46316038
 20
-8645.85240796
 10
50600.42233687
 20
-8645.87717882
 10
50600.37852164
 20
-8645.89616252
 10
50600.33253026
 20
-8645.90900569
 10
50600.28521878
 20
-8645.9154693
 10
50600.23746783
 20
-8645.91543301
 10
50600.19016622
 20
-8645.90889752
 10
50600.14419441
 20
-8645.89598447
 10
50600.10040809
 20
-8645.87693421
 10
50600.05962226
 20
-8645.85210134
 10
50600.02259612
 20
-8645.82194809
 10
50599.99001882
 20
-8645.78703571
 10
50599.96249676
 20
-8645.74801403
 10
50599.94054222
 20
-8645.70560941
 10
50599.92456384
 20
-8645.66061112
 10
50599.91485904
 20
-8645.61385675
 10
50599.91160846
 20
-8645.56621655
 10
50599.91485904
 20
-8645.61385675
 10
50599.92456384
 20
-8645.66061112
 10
50599.94054222
 20
-8645.70560941
 10
50599.96249676
 20
-8645.74801403
 10
50599.99001882
 20
-8645.78703571
 10
50600.02259612
 20
-8645.82194809
 10
50600.05962226
 20
-8645.85210134
 10
50600.10040809
 20
-8645.87693421
 10
50600.14419441
 20
-8645.89598447
 10
50600.19016622
 20
-8645.90889752
 10
50600.23746783
 20
-8645.91543301
 10
50600.28521878
 20
-8645.9154693
 10
50600.33253026
 20
-8645.90900569
 10
50600.37852164
 20
-8645.89616252
 10
50600.42233687
 20
-8645.87717882
 10
50600.46316038
 20
-8645.85240796
 10
50600.50023231
 20
-8645.82231101
 10
50600.53286262
 20
-8645.78744818
 10
50600.56044395
 20
-8645.74846838
 10
50600.58246291
 20
-8645.70609716
 10
50600.59850965
 20
-8645.6611232
 10
50600.60828549
 20
-8645.61438363
 10
50600.61160846
 20
-8645.56674843
 10
50600.61160846
 20
-8645.99639087
 10
50600.61702636
 20
-8646.07941473
 10
50600.63382773
 20
-8646.16090111
 10
50600.66169231
 20
-8646.23929677
 10
50600.70008897
 20
-8646.31310742
 10
50600.74828583
 20
-8646.38092614
 10
50600.80536421
 20
-8646.44146022
 10
50600.87023612
 20
-8646.49355581
 10
50600.94166503
 20
-8646.53621992
 10
50601.01828942
 20
-8646.56863932
 10
50601.09864876
 20
-8646.59019606
 10
50601.18121129
 20
-8646.60047924
 10
50601.26440329
 20
-8646.59929285
 10
50601.34663901
 20
-8646.58665951
 10
50601.42635096
 20
-8646.56282003
 10
50601.50201973
 20
-8646.5282288
 10
50601.57220299
 20
-8646.48354518
 10
50601.63556296
 20
-8646.4296209
 10
50601.69089195
 20
-8646.3674838
 10
50601.7371353
 20
-8646.29831828
 10
50601.77341158
 20
-8646.22344274
 10
50601.7990293
 20
-8646.14428437
 10
50601.81350018
 20
-8646.06235202
 10
50601.81654838
 20
-8645.97920742
 10
50601.8081158
 20
-8645.89643541
 10
50601.76410379
 20
-8645.48274332
 10
50601.73458551
 20
-8645.06776516
 10
50601.71959707
 20
-8644.65200856
 10
50601.7191568
 20
-8644.23598211
 10
50601.73326524
 20
-8643.82019472
 10
50601.83895419
 20
-8643.53359558
 10
50601.98691328
 20
-8643.26635536
 10
50602.173715
 20
-8643.02466477
 10
50602.39503204
 20
-8642.81412263
 10
50602.64573752
 20
-8642.6396062
 10
50602.92002379
 20
-8642.5051582
 10
50602.949039
 20
-8641.44689563
 10
50602.58611978
 20
-8641.48647926
 10
50602.23243832
 20
-8641.57695939
 10
50601.89509545
 20
-8641.71651945
 10
50601.58086395
 20
-8641.90235751
 10
50601.2960526
 20
-8642.13074254
 10
50601.04637953
 20
-8642.39708927
 10
50600.83685738
 20
-8642.6960503
 10
50600.78183979
 20
-8642.84282913
 10
50600.73250965
 20
-8642.99161588
 10
50600.68894
 20
-8643.14219026
 10
50600.65119534
 20
-8643.29432935
 10
50600.61933157
 20
-8643.44780789
 10
50600.61815491
 20
-8643.45311101
 10
50600.61707445
 20
-8643.45843457
 10
50600.61609057
 20
-8643.46377682
 10
50600.61520357
 20
-8643.46913601
 97
        0
 75
     0
 76
     2
 52
0.0
 41
1.0
 77
     0
 78
     3
 53
0.0
 43
0.0
 44
0.0
 45
34.64099884
 46
20.0
 79
     2
 49
23.09400082
 49
-46.18800163
 53
120.0
 43
0.0
 44
0.0
 45
-34.6410075
 46
19.99998501
 79
     2
 49
23.09400082
 49
-46.18800163
 53
60.0
 43
0.0
 44
0.0
 45
-8.6555227518659E-06
 46
39.99998501
 79
     4
 49
0.0
 49
-46.18800163
 49
23.09400082
 49
0.0
 47
0.775229
 98
        1
 10
0.0
 20
0.0
  0
HATCH
  5
693
100
AcDbEntity
  8
Ech.1_5
 62
     7
100
AcDbHatch
 10
0.0
 20
0.0
 30
0.0
210
0.0
220
0.0
230
1.0
  2
ANSI31
 70
     0
 71
     0
 91
        1
 92
        7
 72
     0
 73
     1
 93
       34
 10
50601.76539415
 20
-8655.28183776
 10
50601.70481637
 20
-8655.09633138
 10
50601.65492155
 20
-8654.90767085
 10
50601.61587225
 20
-8654.71647085
 10
50601.58779568
 20
-8654.52335433
 10
50601.57078333
 20
-8654.32895045
 10
50601.56446835
 20
-8654.28357764
 10
50601.55193081
 20
-8654.23951653
 10
50601.53341232
 20
-8654.19761622
 10
50601.50926975
 20
-8654.15868413
 10
50601.47996833
 20
-8654.12347053
 10
50601.44607272
 20
-8654.092654
 10
50601.40823612
 20
-8654.06682839
 10
50601.36718765
 20
-8654.04649137
 10
50601.32371835
 20
-8654.03203486
 10
50601.27866589
 20
-8654.02373744
 10
50601.23289847
 20
-8654.02175901
 10
50601.18729805
 20
-8654.02613769
 10
50601.14274339
 20
-8654.0367891
 10
50601.10009307
 20
-8654.05350799
 10
50601.06016899
 20
-8654.07597217
 10
50601.02374053
 20
-8654.10374873
 10
50600.99150966
 20
-8654.13630242
 10
50600.96409752
 20
-8654.1730059
 10
50600.94203234
 20
-8654.21315187
 10
50600.92573933
 20
-8654.25596669
 10
50600.91553247
 20
-8654.30062529
 10
50600.91160846
 20
-8654.34626708
 10
50600.91160846
 20
-8654.45537002
 10
50600.92592031
 20
-8654.73412143
 10
50600.96073716
 20
-8655.01105999
 10
50601.01586963
 20
-8655.28467942
 10
50601.09101785
 20
-8655.55349147
 10
50601.1857731
 20
-8655.81603409
 97
        0
 75
     0
 76
     2
 52
0.0
 41
0.25000001
 77
     0
 78
     1
 53
45.0
 43
0.0
 44
0.0
 45
0.56126252
 46
-0.56126252
 79
     0
 47
0.775229
 98
        1
 10
0.0
 20
0.0
  0
LWPOLYLINE
  5
694
100
AcDbEntity
  8
Ech.1_5
 62
     5
  6
CONTINUOUS
370
    -3
100
AcDbPolyline
 90
        7
 70
     0
 43
0.0
 10
50502.64092308
 20
-8965.14864083
 10
50502.64092308
 20
-8994.87762571
 10
50418.84303052
 20
-9003.12657227
 10
50418.84303052
 20
-9028.1265937
 10
50662.84301486
 20
-9028.12657227
 10
50662.84301486
 20
-8965.14864083
 10
50502.64092308
 20
-8965.14864083
  0
LWPOLYLINE
  5
695
100
AcDbEntity
  8
Ech.1_5
 62
   190
  6
CONTINUOUS
370
    -3
100
AcDbPolyline
 90
       28
 70
     0
 43
0.0
 10
50375.71425206
 20
-8592.38892428
 10
50380.56770123
 20
-8592.24401911
 10
50385.43207814
 20
-8592.08636237
 10
50390.31831054
 20
-8591.90320246
 10
50395.23732617
 20
-8591.68178782
 10
50400.20005277
 20
-8591.40936685
 10
50405.21741808
 20
-8591.073188
 10
50410.30034985
 20
-8590.66049966
 10
50415.45977582
 20
-8590.15855027
 10
50420.70622263
 20
-8589.55434093
 10
50426.00702393
 20
-8588.80824139
 10
50431.24835539
 20
-8587.83058202
 10
50436.3074381
 20
-8586.52617211
 10
50441.06149312
 20
-8584.79982092
 10
50445.38774153
 20
-8582.55633774
 10
50449.16340441
 20
-8579.70053183
 10
50452.2810408
 20
-8576.15510531
 10
50454.75773729
 20
-8571.98803038
 10
50456.6710858
 20
-8567.33786299
 10
50458.09907992
 20
-8562.3436277
 10
50459.11971328
 20
-8557.14434905
 10
50459.81097946
 20
-8551.87905159
 10
50460.24955403
 20
-8546.68045956
 10
50460.49337576
 20
-8541.59173536
 10
50460.58644765
 20
-8536.58942838
 10
50460.57244129
 20
-8531.64850389
 10
50460.49502829
 20
-8526.74392721
 10
50460.45095398
 20
-8524.53277803
  0
LINE
  5
696
100
AcDbEntity
  8
Ech.1_5
 62
   190
  6
CONTINUOUS
370
    -3
100
AcDbLine
 10
50460.45095398
 20
-8524.53277803
 30
0.0
 11
50456.36907632
 21
-8534.16721546
 31
0.0
  0
LINE
  5
697
100
AcDbEntity
  8
Ech.1_5
 62
   190
  6
CONTINUOUS
370
    -3
100
AcDbLine
 10
50460.45095398
 20
-8524.53277803
 30
0.0
 11
50464.53283165
 21
-8534.16721546
 31
0.0
  0
LWPOLYLINE
  5
698
100
AcDbEntity
  8
Ech.1_5
 62
   190
  6
CONTINUOUS
370
    -3
100
AcDbPolyline
 90
       39
 70
     0
 43
0.0
 10
50460.36018489
 20
-9097.89586591
 10
50460.84170306
 20
-9093.00999315
 10
50461.29245718
 20
-9088.11803824
 10
50461.68168319
 20
-9083.21391902
 10
50461.97861704
 20
-9078.29155333
 10
50462.15249468
 20
-9073.34485902
 10
50462.17255205
 20
-9068.36775392
 10
50462.00802511
 20
-9063.3541559
 10
50461.62814979
 20
-9058.29798279
 10
50461.00216204
 20
-9053.19315243
 10
50460.09929782
 20
-9048.03358267
 10
50458.88455322
 20
-9042.82092032
 10
50457.13817468
 20
-9037.89359979
 10
50454.38822285
 20
-9034.04978318
 10
50450.32601553
 20
-9031.86451071
 10
50445.26714942
 20
-9031.03114078
 10
50439.66141441
 20
-9031.05350803
 10
50433.96620374
 20
-9031.54392715
 10
50428.67381117
 20
-9032.61265538
 10
50424.28653816
 20
-9034.51273438
 10
50421.29986037
 20
-9037.49317019
 10
50419.84411251
 20
-9041.58646979
 10
50419.50784375
 20
-9046.50390516
 10
50419.83571423
 20
-9051.93072561
 10
50420.37238404
 20
-9057.55218044
 10
50420.66260296
 20
-9063.05358078
 10
50420.39346833
 20
-9068.21839092
 10
50419.68296277
 20
-9073.12718426
 10
50418.7302853
 20
-9077.91653547
 10
50417.71265112
 20
-9082.70738929
 10
50416.67867625
 20
-9087.52925974
 10
50415.63035388
 20
-9092.3785132
 10
50414.5696121
 20
-9097.25146978
 10
50413.49837903
 20
-9102.14444958
 10
50412.41858276
 20
-9107.05377271
 10
50411.33215141
 20
-9111.97575929
 10
50410.24101306
 20
-9116.9067294
 10
50409.14709584
 20
-9121.84300317
 10
50408.66401796
 20
-9124.02187811
  0
LINE
  5
699
100
AcDbEntity
  8
Ech.1_5
 62
   190
  6
CONTINUOUS
370
    -3
100
AcDbLine
 10
50408.66401796
 20
-9124.02187811
 30
0.0
 11
50413.99395729
 21
-9118.42279274
 31
0.0
  0
LINE
  5
69A
100
AcDbEntity
  8
Ech.1_5
 62
   190
  6
CONTINUOUS
370
    -3
100
AcDbLine
 10
50408.66401796
 20
-9124.02187811
 30
0.0
 11
50406.7382436
 21
-9117.09010991
 31
0.0
  0
LWPOLYLINE
  5
69B
100
AcDbEntity
  8
Ech.1_5
 62
   190
  6
CONTINUOUS
370
    -3
100
AcDbPolyline
 90
        5
 70
     0
 43
0.0
 10
51127.30989976
 20
-8157.40601397
 10
50142.30989976
 20
-8157.40601397
 10
50142.30989976
 20
-9512.40601397
 10
51127.30989976
 20
-9512.40601397
 10
51127.30989976
 20
-8157.40601397
  0
LWPOLYLINE
  5
69C
100
AcDbEntity
  8
Ech.1_5
 62
     7
  6
CONTINUOUS
100
AcDbPolyline
 90
       42
 70
     0
 43
0.0
 10
50578.66175701
 20
-8693.81402513
 42
0.41421335
 10
50575.66175918
 20
-8696.81402513
 10
50575.66175918
 20
-8706.88242504
 42
-0.36369756
 10
50574.01095252
 20
-8708.85170512
 42
0.29368695
 10
50573.61412793
 20
-8709.21902513
 42
-0.28963385
 10
50572.44569192
 20
-8710.31690741
 10
50570.50162395
 20
-8710.31690741
 42
-0.15679011
 10
50569.91888438
 20
-8710.12956638
 42
-0.24172474
 10
50564.91175918
 20
-8700.37765877
 10
50564.91175918
 20
-8699.87765877
 10
50562.91175918
 20
-8699.87765877
 10
50561.91175918
 20
-8698.87765877
 10
50561.91202512
 20
-8662.53117265
 10
50565.66201905
 20
-8660.36611265
 10
50565.66201905
 20
-8665.78224904
 10
50568.56201907
 20
-8665.78224904
 10
50568.56201907
 20
-8656.31622369
 42
-0.41421356
 10
50569.56201906
 20
-8655.31622369
 10
50571.90114322
 20
-8655.31622366
 10
50576.10116161
 20
-8661.31622398
 10
50580.30114328
 20
-8661.31622398
 10
50581.71175918
 20
-8653.31622366
 10
50600.91175918
 20
-8653.31621636
 10
50600.91175918
 20
-8658.81621636
 10
50603.91175918
 20
-8658.81621636
 10
50603.91175918
 20
-8640.31621636
 42
-0.41421356
 10
50605.91175918
 20
-8638.31621636
 10
50614.41175908
 20
-8638.31621636
 42
-0.41421359
 10
50619.41175908
 20
-8643.31621685
 10
50619.41175367
 20
-8698.87766427
 10
50618.41175918
 20
-8699.87765877
 10
50616.41175918
 20
-8699.87765877
 10
50616.41175918
 20
-8700.37765877
 42
-0.24172474
 10
50611.40463398
 20
-8710.12956638
 42
-0.15679011
 10
50610.82189441
 20
-8710.31690741
 10
50608.87782643
 20
-8710.31690741
 42
-0.28963385
 10
50607.70939042
 20
-8709.21902513
 42
0.29368695
 10
50607.31256584
 20
-8708.85170512
 42
-0.36369756
 10
50605.66175918
 20
-8706.88242504
 10
50605.66175918
 20
-8696.81400784
 42
0.41421377
 10
50602.66175701
 20
-8693.81400784
 10
50578.66175701
 20
-8693.81402513
  0
LWPOLYLINE
  5
69D
100
AcDbEntity
  8
Ech.1_5
 62
     7
  6
CONTINUOUS
100
AcDbPolyline
 90
       27
 70
     0
 43
0.0
 10
50567.36196492
 20
-8660.18223222
 10
50566.06196502
 20
-8660.18221401
 42
0.1316525
 10
50565.56196315
 20
-8660.31618161
 10
50562.71194003
 20
-8661.96159001
 42
-0.55814417
 10
50562.56210988
 20
-8661.88079184
 42
-0.04674082
 10
50562.56737726
 20
-8661.73176396
 10
50562.73343471
 20
-8660.75697187
 42
-0.16848628
 10
50562.84202337
 20
-8660.51233
 10
50563.49316953
 20
-8659.71110972
 42
0.14054842
 10
50563.46382773
 20
-8659.37706892
 42
0.52260001
 10
50562.72138495
 20
-8659.27809955
 42
0.03740887
 10
50561.51955536
 20
-8660.88510983
 10
50561.08999255
 20
-8661.63978381
 42
-0.16609805
 10
50560.94329979
 20
-8661.81209246
 42
-0.41421356
 10
50560.46359801
 20
-8661.69008344
 42
-0.17632698
 10
50560.41902457
 20
-8661.45485522
 10
50561.57193293
 20
-8656.84625521
 42
-0.34411134
 10
50562.25101618
 20
-8656.31613531
 10
50568.56201907
 20
-8656.31622369
 10
50568.56200646
 20
-8657.2162237
 10
50567.36200646
 20
-8657.21620689
 10
50565.5677706
 20
-8657.21618176
 42
0.41421356
 10
50565.2677664
 20
-8657.51617756
 10
50565.26774537
 20
-8659.01760707
 42
0.41421356
 10
50565.56774117
 20
-8659.31761127
 10
50567.36197703
 20
-8659.3176364
 10
50567.36200646
 20
-8657.21620689
  0
LWPOLYLINE
  5
69E
100
AcDbEntity
  8
Ech.1_5
 62
     7
  6
CONTINUOUS
370
    -3
100
AcDbPolyline
 90
       20
 70
     0
 43
0.0
 10
50599.94305291
 20
-8610.69758209
 10
50599.94341394
 20
-8643.69067408
 42
-0.4142193
 10
50598.94341394
 20
-8644.69069366
 10
50579.4312109
 20
-8644.69069366
 42
-0.33945426
 10
50578.46528507
 20
-8643.94951271
 10
50576.82898748
 20
-8637.84276695
 42
0.29147239
 10
50575.24443963
 20
-8636.39079085
 10
50566.07630738
 20
-8634.77416601
 42
0.41421467
 10
50561.44246876
 20
-8638.01880168
 10
50560.47370791
 20
-8643.51291747
 42
0.04364748
 10
50560.44332342
 20
-8643.86010632
 10
50560.44236416
 20
-8661.70643137
 42
-0.43999449
 10
50559.35520842
 20
-8662.70257231
 10
50544.26859265
 20
-8661.38266446
 42
-0.39093107
 10
50542.44295491
 20
-8659.37602319
 10
50542.44316373
 20
-8619.89137252
 42
-0.4202363
 10
50543.44300806
 20
-8618.87090864
 10
50544.74296829
 20
-8618.8709785
 10
50544.7430062
 20
-8575.71208554
 10
50599.94298716
 20
-8576.26246316
  0
LINE
  5
69F
100
AcDbEntity
  8
Ech.1_5
 62
     7
  6
CONTINUOUS
100
AcDbLine
 10
50598.66144533
 20
-8709.06374035
 30
0.0
 11
50582.66144533
 21
-8709.06374035
 31
0.0
  0
LWPOLYLINE
  5
6A0
100
AcDbEntity
  8
Ech.1_5
 62
     7
  6
CONTINUOUS
100
AcDbPolyline
 90
        4
 70
     0
 43
0.0
 10
50578.66144533
 20
-8821.4666942
 10
50578.66144533
 20
-8698.81374035
 10
50602.66144533
 20
-8698.81374035
 10
50602.66144533
 20
-8821.4666942
  0
LINE
  5
6A1
100
AcDbEntity
  8
Ech.1_5
 62
     7
  6
CONTINUOUS
100
AcDbLine
 10
50596.66144533
 20
-8696.81374035
 30
0.0
 11
50596.66144533
 21
-8698.01374035
 31
0.0
  0
LINE
  5
6A2
100
AcDbEntity
  8
Ech.1_5
 62
     7
  6
CONTINUOUS
100
AcDbLine
 10
50584.66144533
 20
-8696.81374035
 30
0.0
 11
50584.66144533
 21
-8698.01374035
 31
0.0
  0
LWPOLYLINE
  5
6A3
100
AcDbEntity
  8
Ech.1_5
 62
     7
  6
CONTINUOUS
100
AcDbPolyline
 90
        6
 70
     0
 43
0.0
 10
50578.66144533
 20
-8696.81374035
 10
50578.66144533
 20
-8693.81374035
 10
50602.66144533
 20
-8693.81374035
 10
50578.66144533
 20
-8696.81374035
 10
50602.66144533
 20
-8696.81374035
 10
50578.66144533
 20
-8693.813749
  0
LINE
  5
6A4
100
AcDbEntity
  8
Ech.1_5
 62
     7
  6
CONTINUOUS
100
AcDbLine
 10
50602.66144533
 20
-8693.81374035
 30
0.0
 11
50602.66144533
 21
-8696.81374035
 31
0.0
  0
LWPOLYLINE
  5
6A5
100
AcDbEntity
  8
Ech.1_5
 62
     7
  6
CONTINUOUS
100
AcDbPolyline
 90
       99
 70
     0
 43
0.0
 10
50577.43464143
 20
-8708.03788798
 10
50578.66144533
 20
-8704.66727196
 10
50578.66144533
 20
-8699.71374035
 10
50578.36144533
 20
-8699.41374035
 10
50578.36144533
 20
-8698.71374035
 42
-0.95548796
 10
50579.15978901
 20
-8698.67737671
 42
0.38779458
 10
50579.30916789
 20
-8698.81374035
 10
50582.54432887
 20
-8698.81374035
 42
0.34415073
 10
50582.68985024
 20
-8698.70012069
 10
50582.83304041
 20
-8698.12736
 42
-0.34415073
 10
50582.97856179
 20
-8698.01374035
 10
50598.34432887
 20
-8698.01374035
 42
-0.34415073
 10
50598.48985024
 20
-8698.12736
 10
50598.63304041
 20
-8698.70012069
 42
0.34415073
 10
50598.77856179
 20
-8698.81374035
 10
50602.01372277
 20
-8698.81374035
 42
0.38779458
 10
50602.16310165
 20
-8698.67737671
 42
-0.95548796
 10
50602.96144533
 20
-8698.71374035
 10
50602.96144533
 20
-8699.41374035
 10
50602.66144533
 20
-8699.71374035
 10
50602.66144533
 20
-8704.66727196
 10
50603.87899946
 20
-8708.01247444
 42
-1.10738051
 10
50603.63027211
 20
-8708.1030038
 10
50603.30173882
 20
-8706.80141417
 42
0.93251509
 10
50602.66324546
 20
-8706.91442019
 10
50602.99008929
 20
-8709.33542249
 42
-0.18531675
 10
50602.83541013
 20
-8709.98930842
 42
0.15081813
 10
50602.66144533
 20
-8710.55292696
 10
50602.66144533
 20
-8710.84418867
 10
50602.66144533
 20
-8711.84418867
 42
0.30843151
 10
50602.9186695
 20
-8712.19980146
 42
0.26795044
 10
50608.185301
 20
-8709.95824149
 42
0.52171267
 10
50608.14328936
 20
-8709.7157993
 42
-0.15565301
 10
50607.31223183
 20
-8708.61337576
 10
50605.65483143
 20
-8708.81374035
 42
-0.31529879
 10
50605.4668929
 20
-8708.68214438
 10
50604.49314426
 20
-8706.00679197
 42
-0.87140053
 10
50604.58072066
 20
-8705.96049664
 10
50605.097481
 20
-8706.67900007
 42
1.00812133
 10
50605.61771221
 20
-8706.36981021
 10
50604.14048821
 20
-8704.0650109
 42
-0.14346618
 10
50604.06144533
 20
-8703.79520522
 10
50604.06144533
 20
-8702.21396962
 42
-0.72472287
 10
50604.24206585
 20
-8702.15480602
 10
50604.89396733
 20
-8703.0431333
 42
0.94855512
 10
50605.60360351
 20
-8702.57746467
 10
50604.15963319
 20
-8700.62764535
 42
-0.16072186
 10
50604.06144533
 20
-8700.33007685
 10
50604.06144533
 20
-8698.77223994
 42
0.08748866
 10
50604.04938385
 20
-8698.70383591
 10
50603.39736809
 20
-8696.91243733
 42
0.31529879
 10
50603.2564142
 20
-8696.81374035
 10
50601.87856179
 20
-8696.81374035
 42
0.34415073
 10
50601.73304041
 20
-8696.92736
 10
50601.58985024
 20
-8697.50012069
 42
-0.34415073
 10
50601.44432887
 20
-8697.61374035
 10
50599.67856179
 20
-8697.61374035
 42
-0.34415073
 10
50599.53304041
 20
-8697.50012069
 10
50599.38985024
 20
-8696.92736
 42
0.34415073
 10
50599.24432887
 20
-8696.81374035
 10
50582.07856179
 20
-8696.81374035
 42
0.34415073
 10
50581.93304041
 20
-8696.92736
 10
50581.78985024
 20
-8697.50012069
 42
-0.34415073
 10
50581.64432887
 20
-8697.61374035
 10
50579.87856179
 20
-8697.61374035
 42
-0.34415073
 10
50579.73304041
 20
-8697.50012069
 10
50579.58985024
 20
-8696.92736
 42
0.34415073
 10
50579.44432887
 20
-8696.81374035
 10
50578.06647646
 20
-8696.81374035
 42
0.31529879
 10
50577.92552257
 20
-8696.91243733
 10
50577.2735068
 20
-8698.70383591
 42
0.08748866
 10
50577.26144533
 20
-8698.77223994
 10
50577.26144533
 20
-8700.33007685
 42
-0.16072186
 10
50577.16325746
 20
-8700.62764535
 10
50575.71928715
 20
-8702.57746467
 42
0.94855512
 10
50576.42892333
 20
-8703.0431333
 10
50577.08082481
 20
-8702.15480602
 42
-0.72472287
 10
50577.26144533
 20
-8702.21396962
 10
50577.26144533
 20
-8703.79520522
 42
-0.14346618
 10
50577.18240244
 20
-8704.0650109
 10
50575.70517845
 20
-8706.36981021
 42
1.00812133
 10
50576.22540965
 20
-8706.67900007
 10
50576.74217
 20
-8705.96049664
 42
-0.87140053
 10
50576.8297464
 20
-8706.00679197
 10
50575.85599775
 20
-8708.68214438
 42
-0.31529879
 10
50575.66805923
 20
-8708.81374035
 10
50574.01061851
 20
-8708.61337576
 42
-0.15565608
 10
50573.17958204
 20
-8709.71578102
 42
0.52171267
 10
50573.1375704
 20
-8709.95822321
 42
0.26794928
 10
50578.40422115
 20
-8712.19980146
 42
0.30843151
 10
50578.66144533
 20
-8711.84418867
 10
50578.66144533
 20
-8710.84418867
 10
50578.66144533
 20
-8710.55292696
 42
0.15081813
 10
50578.48748052
 20
-8709.98930842
 42
-0.18531675
 10
50578.33280137
 20
-8709.33542249
 10
50578.65964519
 20
-8706.91442019
 42
0.93251509
 10
50578.02115183
 20
-8706.80141417
 10
50577.69261855
 20
-8708.1030038
 42
-1.10738051
 10
50577.4438912
 20
-8708.01247444
  0
LWPOLYLINE
  5
6A6
100
AcDbEntity
  8
Ech.1_5
 62
     7
  6
CONTINUOUS
100
AcDbPolyline
 90
       14
 70
     0
 43
0.0
 10
50599.94344987
 20
-8643.69067408
 42
-0.4142193
 10
50598.94344987
 20
-8644.69069366
 10
50579.43124683
 20
-8644.69069366
 42
-0.33945426
 10
50578.46532101
 20
-8643.94951271
 10
50576.82902341
 20
-8637.84276695
 42
0.29147239
 10
50575.24447557
 20
-8636.39079085
 10
50566.07634331
 20
-8634.77416601
 42
0.41421467
 10
50561.44250469
 20
-8638.01880168
 10
50560.47374384
 20
-8643.51291747
 42
0.04364748
 10
50560.44335935
 20
-8643.86010632
 10
50560.44240009
 20
-8661.70643137
 42
-0.43999449
 10
50559.35524435
 20
-8662.70257231
 10
50544.26862858
 20
-8661.38266446
 42
-0.39093107
 10
50542.44299085
 20
-8659.37602319
  0
LWPOLYLINE
  5
6A7
100
AcDbEntity
  8
Ech.1_5
 62
     7
  6
CONTINUOUS
100
AcDbPolyline
 90
       13
 70
     0
 43
0.0
 10
50567.36189726
 20
-8665.01336418
 10
50567.36190982
 20
-8664.11697186
 10
50566.17232011
 20
-8662.99263255
 42
0.91580633
 10
50565.72525019
 20
-8663.38931641
 10
50566.82984817
 20
-8664.87938173
 42
0.1316527
 10
50567.329847
 20
-8665.01336373
 10
50567.76189736
 20
-8665.01336978
 42
0.41417853
 10
50568.56190856
 20
-8664.21347667
 10
50568.56191134
 20
-8664.01466647
 10
50568.56191329
 20
-8663.87491875
 10
50568.56195802
 20
-8660.67380098
 10
50568.56196502
 20
-8660.17380098
 10
50568.56200646
 20
-8657.21622369
  0
LWPOLYLINE
  5
6A8
100
AcDbEntity
  8
Ech.1_5
 62
     7
  6
CONTINUOUS
100
AcDbPolyline
 90
        7
 70
     0
 43
0.0
 10
50567.36192031
 20
-8663.36739152
 10
50565.73757772
 20
-8661.47055759
 42
-0.91580633
 10
50566.15570064
 20
-8661.04347115
 10
50567.361939
 20
-8662.03286631
 10
50567.36192071
 20
-8663.33899189
 10
50567.36192031
 20
-8663.36739152
 10
50567.36190992
 20
-8664.10977469
  0
LWPOLYLINE
  5
6A9
100
AcDbEntity
  8
Ech.1_5
 62
     7
  6
CONTINUOUS
100
AcDbPolyline
 90
       23
 70
     0
 43
0.0
 10
50561.43694063
 20
-8659.89528608
 10
50562.11114159
 20
-8657.20025613
 42
0.18145137
 10
50562.04190627
 20
-8657.0423053
 42
-1.27267075
 10
50562.320411
 20
-8656.91613628
 10
50564.21126544
 20
-8657.19323003
 42
-0.37221348
 10
50564.46776677
 20
-8657.49006392
 10
50564.46773209
 20
-8659.96642825
 42
-0.26794919
 10
50564.31772845
 20
-8660.22623377
 10
50563.3213275
 20
-8660.80148752
 42
0.26794919
 10
50563.22132507
 20
-8660.9746912
 42
-1.97124746
 10
50563.0845511
 20
-8660.8140683
 10
50563.8570754
 20
-8659.90022439
 42
0.16876399
 10
50563.8391548
 20
-8659.23869402
 42
0.38568556
 10
50563.71961041
 20
-8659.17749889
 42
-0.58420509
 10
50563.47544302
 20
-8658.92891429
 42
0.36875524
 10
50563.42183945
 20
-8658.81064957
 42
0.14609734
 10
50562.93735416
 20
-8658.73815452
 42
0.36968256
 10
50562.85147613
 20
-8658.83587527
 42
-0.5863835
 10
50562.54199405
 20
-8659.00387039
 42
0.36968256
 10
50562.41326227
 20
-8659.02264557
 42
0.0588644
 10
50561.55096553
 20
-8660.23896024
 42
-1.5024158
 10
50561.21055952
 20
-8660.09653078
 42
0.17735748
 10
50561.43694063
 20
-8659.89528608
  0
LINE
  5
6AA
100
AcDbEntity
  8
Ech.1_5
 62
     7
  6
CONTINUOUS
100
AcDbLine
 10
50567.36197703
 20
-8659.3176364
 30
0.0
 11
50567.36196492
 21
-8662.03283471
 31
0.0
  0
LINE
  5
6AB
100
AcDbEntity
  8
Ech.1_5
 62
     7
  6
CONTINUOUS
370
    15
100
AcDbLine
 10
50603.01123769
 20
-8639.17834196
 30
0.0
 11
50603.9115425
 21
-8639.20302624
 31
0.0
  0
LWPOLYLINE
  5
6AC
100
AcDbEntity
  8
Ech.1_5
 62
     7
  6
CONTINUOUS
100
AcDbPolyline
 90
       47
 70
     0
 43
0.0
 10
50603.91160846
 20
-8639.20062422
 10
50603.51160825
 20
-8653.76621653
 10
50603.76160875
 20
-8653.76621653
 42
-0.52681168
 10
50603.90152991
 20
-8653.97027256
 10
50603.51676498
 20
-8654.96621635
 10
50603.7616087
 20
-8654.96621635
 42
-0.52681163
 10
50603.90152991
 20
-8655.17027237
 10
50603.51676498
 20
-8656.16621664
 10
50603.76160852
 20
-8656.16621664
 42
-0.52681148
 10
50603.90152976
 20
-8656.37027259
 10
50603.57314818
 20
-8657.22027263
 42
-0.30991942
 10
50603.43322699
 20
-8657.31621655
 10
50602.79226663
 20
-8657.31621655
 42
-0.19738267
 10
50602.61653379
 20
-8657.24403097
 42
-0.0024604
 10
50601.18577322
 20
-8655.81603437
 42
-0.09974433
 10
50600.91160846
 20
-8654.34626708
 42
-0.95831856
 10
50601.57078333
 20
-8654.32895045
 42
0.07148022
 10
50601.76539401
 20
-8655.28183737
 42
-0.01635879
 10
50602.36373793
 20
-8655.89876471
 42
0.68567924
 10
50602.71160867
 20
-8655.76435982
 10
50602.71160845
 20
-8654.01621627
 42
0.41421353
 10
50602.01160845
 20
-8653.31621636
 10
50599.98713505
 20
-8653.31621636
 42
-1.00055426
 10
50599.98713505
 20
-8652.36621704
 10
50601.87128909
 20
-8652.36621704
 42
0.40620768
 10
50602.67098856
 20
-8651.58814307
 10
50603.0124655
 20
-8639.13356043
 42
0.3398043
 10
50602.79777578
 20
-8638.83769019
 10
50600.90650536
 20
-8638.42561403
 42
0.78024864
 10
50600.71816046
 20
-8638.81977967
 42
-0.33183283
 10
50601.93828081
 20
-8640.62108712
 42
-0.19863002
 10
50601.48205468
 20
-8641.60506837
 42
0.12687529
 10
50600.61933157
 20
-8643.44780789
 42
0.05691082
 10
50600.61160846
 20
-8643.51544087
 10
50600.61160846
 20
-8645.56578432
 42
-1.00076012
 10
50599.91160846
 20
-8645.56621655
 10
50599.91160846
 20
-8643.58045603
 42
-0.18586263
 10
50601.01715458
 20
-8641.08174448
 42
0.22946848
 10
50601.21766665
 20
-8640.59851766
 42
0.22235481
 10
50600.91290992
 20
-8639.74424761
 42
0.05887459
 10
50599.94414768
 20
-8639.24355417
 42
-0.11154972
 10
50599.91986897
 20
-8639.13608372
 10
50599.91160846
 20
-8637.56621655
 42
-0.59245366
 10
50600.29622434
 20
-8637.35555435
 42
0.12265873
 10
50603.79123717
 20
-8638.25779
 42
-0.35710574
 10
50603.91160846
 20
-8638.40483469
 10
50603.91160846
 20
-8639.20062422
  0
LINE
  5
6AD
100
AcDbEntity
  8
Ech.1_5
 62
     7
  6
CONTINUOUS
370
    15
100
AcDbLine
 10
50601.18577308
 20
-8655.8160341
 30
0.0
 11
50601.76539411
 21
-8655.2818378
 31
0.0
  0
LWPOLYLINE
  5
6AE
100
AcDbEntity
  8
Ech.1_5
 62
     7
  6
CONTINUOUS
370
    15
100
AcDbPolyline
 90
        7
 70
     0
 43
0.0
 10
50602.92002379
 20
-8642.5051582
 42
0.23258596
 10
50601.73326524
 20
-8643.82019472
 42
0.04374928
 10
50601.8081158
 20
-8645.89643541
 42
-1.08702271
 10
50600.61160846
 20
-8646.00111697
 10
50600.61160846
 20
-8643.51544087
 42
-0.0555506
 10
50600.82823055
 20
-8642.71796827
 42
-0.25732504
 10
50602.949039
 20
-8641.44689563
  0
LINE
  5
6AF
100
AcDbEntity
  8
Ech.1_5
 62
     7
  6
CONTINUOUS
100
AcDbLine
 10
50582.66144533
 20
-8698.81374035
 30
0.0
 11
50582.66144533
 21
-8821.37641247
 31
0.0
  0
LINE
  5
6B0
100
AcDbEntity
  8
Ech.1_5
 62
     7
  6
CONTINUOUS
100
AcDbLine
 10
50598.66144533
 20
-8698.81374035
 30
0.0
 11
50598.66144533
 21
-8821.4666942
 31
0.0
  0
LWPOLYLINE
  5
6B1
100
AcDbEntity
  8
Ech.1_5
 62
     7
  6
CONTINUOUS
100
AcDbPolyline
 90
        4
 70
     0
 43
0.0
 10
50599.94298716
 20
-8576.26283063
 10
50599.94341395
 20
-8643.70146065
 42
-0.41421752
 10
50598.94341395
 20
-8644.70147416
 10
50588.94293125
 20
-8644.70147416
  0
LINE
  5
6B2
100
AcDbEntity
  8
Ech.1_5
 62
     7
  6
CENTER
370
    18
100
AcDbLine
 10
50622.41463769
 20
-8821.4666942
 30
0.0
 11
50370.08346973
 21
-8821.4666942
 31
0.0
  0
LWPOLYLINE
  5
6B3
100
AcDbEntity
  8
Ech.1_5
 62
   190
  6
CONTINUOUS
370
    -3
100
AcDbPolyline
 90
        4
 70
     1
 43
0.0
 10
50606.21411873
 20
-9038.05163411
 10
50646.28592439
 20
-9038.05119232
 10
50646.28592439
 20
-9028.61853226
 10
50606.21411873
 20
-9028.61897405
  0
LWPOLYLINE
  5
6B4
100
AcDbEntity
  8
Ech.1_5
 62
   190
  6
CONTINUOUS
370
    -3
100
AcDbPolyline
 90
        4
 70
     0
 43
0.0
 10
50646.28592439
 20
-9028.61853226
 10
50606.21411873
 20
-9038.05163411
 10
50606.21411873
 20
-9028.61897405
 10
50646.28592439
 20
-9038.05119232
  0
LWPOLYLINE
  5
6B5
100
AcDbEntity
  8
Ech.1_5
 62
   177
  6
CADWORK_13
370
    70
100
AcDbPolyline
 90
        7
 70
     0
 43
0.0
 10
50413.84303052
 20
-8978.30091935
 10
50413.84303052
 20
-8968.11362935
 10
50416.02143876
 20
-8959.11417887
 10
50419.71780938
 20
-8951.8145436
 10
50423.9839589
 20
-8947.34609726
 10
50497.64092218
 20
-8939.90237842
 10
50497.64092218
 20
-8965.14864083
  0
LWPOLYLINE
  5
6B6
100
AcDbEntity
  8
Ech.1_5
 62
   150
  6
CADWORK_22
370
    35
100
AcDbPolyline
 90
        4
 70
     0
 43
0.0
 38
2500.0
 10
50472.34301484
 20
-8275.31741009
 10
50472.34301484
 20
-8558.52316379
 10
50472.34301484
 20
-8576.26246316
 10
50525.74981304
 20
-8576.26246316
  0
LWPOLYLINE
  5
6B7
100
AcDbEntity
  8
Ech.1_5
 62
     3
370
    70
100
AcDbPolyline
 90
        4
 70
     0
 43
0.0
 10
50470.4369762
 20
-8513.66607625
 10
50470.4369762
 20
-8526.65520967
 10
50466.1618352
 20
-8529.45109822
 10
50466.1618352
 20
-8542.92952822
  0
LWPOLYLINE
  5
6B8
102
{ACAD_REACTORS
330
6B9
102
}
100
AcDbEntity
  8
Ech.1_5
 62
     7
  6
CONTINUOUS
370
     5
100
AcDbPolyline
 90
        4
 70
     1
 43
0.0
 10
50544.74519209
 20
-8612.38206395
 10
50544.74519209
 20
-8599.00454348
 10
50535.31253203
 20
-8599.00454348
 10
50535.31253203
 20
-8612.38206395
  0
HATCH
  5
6B9
100
AcDbEntity
  8
Ech.1_5
 62
     2
  6
CONTINUOUS
100
AcDbHatch
 10
0.0
 20
0.0
 30
0.0
210
0.0
220
0.0
230
1.0
  2
SOLID
 70
     1
 71
     1
 91
        1
 92
        7
 72
     0
 73
     1
 93
        4
 10
50544.74519209
 20
-8612.38206395
 10
50544.74519209
 20
-8599.00454348
 10
50535.31253203
 20
-8599.00454348
 10
50535.31253203
 20
-8612.38206395
 97
        1
330
6B8
 75
     0
 76
     2
 47
0.775229
 98
        1
 10
0.0
 20
0.0
  0
LWPOLYLINE
  5
6BA
102
{ACAD_REACTORS
330
6BB
102
}
100
AcDbEntity
  8
Ech.1_5
 62
     7
  6
CONTINUOUS
370
     5
100
AcDbPolyline
 90
        4
 70
     1
 43
0.0
 10
50535.31253203
 20
-8612.38206395
 10
50535.31253203
 20
-8619.17105514
 10
50544.74519209
 20
-8619.17105514
 10
50544.74519209
 20
-8612.38206395
  0
HATCH
  5
6BB
100
AcDbEntity
  8
Ech.1_5
 62
     2
  6
CONTINUOUS
100
AcDbHatch
 10
0.0
 20
0.0
 30
0.0
210
0.0
220
0.0
230
1.0
  2
SOLID
 70
     1
 71
     1
 91
        1
 92
        7
 72
     0
 73
     1
 93
        4
 10
50535.31253203
 20
-8612.38206395
 10
50535.31253203
 20
-8619.17105514
 10
50544.74519209
 20
-8619.17105514
 10
50544.74519209
 20
-8612.38206395
 97
        1
330
6BA
 75
     0
 76
     2
 47
0.775229
 98
        1
 10
0.0
 20
0.0
  0
HATCH
  5
6BC
100
AcDbEntity
  8
Ech.1_5
 62
     7
  6
CONTINUOUS
100
AcDbHatch
 10
0.0
 20
0.0
 30
0.0
210
0.0
220
0.0
230
1.0
  2
ANSI31
 70
     0
 71
     1
 91
        1
 92
        7
 72
     0
 73
     1
 93
        4
 10
50535.31253203
 20
-8612.38206395
 10
50535.31253203
 20
-8619.17105514
 10
50544.74519209
 20
-8619.17105514
 10
50544.74519209
 20
-8612.38206395
 97
        1
330
6BB
 75
     0
 76
     2
 52
0.0
 41
0.94488785
 77
     0
 78
     1
 53
45.0
 43
0.0
 44
0.0
 45
2.12132043
 46
-2.12132043
 79
     0
 47
0.775229
 98
        1
 10
0.0
 20
0.0
  0
LWPOLYLINE
  5
6BD
102
{ACAD_REACTORS
330
6BE
102
}
100
AcDbEntity
  8
Ech.1_5
 62
     7
  6
CONTINUOUS
370
     5
100
AcDbPolyline
 90
        4
 70
     1
 43
0.0
 10
50947.13328263
 20
-8698.13273975
 10
50947.13328263
 20
-8688.13273975
 10
50894.13328263
 20
-8688.13273975
 10
50894.13328263
 20
-8698.13273975
  0
HATCH
  5
6BE
100
AcDbEntity
  8
Ech.1_5
 62
     2
  6
CONTINUOUS
100
AcDbHatch
 10
0.0
 20
0.0
 30
0.0
210
0.0
220
0.0
230
1.0
  2
SOLID
 70
     1
 71
     1
 91
        1
 92
        7
 72
     0
 73
     1
 93
        4
 10
50947.13328263
 20
-8698.13273975
 10
50947.13328263
 20
-8688.13273975
 10
50894.13328263
 20
-8688.13273975
 10
50894.13328263
 20
-8698.13273975
 97
        1
330
6BD
 75
     0
 76
     2
 47
0.775229
 98
        1
 10
0.0
 20
0.0
  0
LWPOLYLINE
  5
6BF
100
AcDbEntity
  8
Ech.1_5
 62
   190
  6
CONTINUOUS
370
    -3
100
AcDbPolyline
 90
        4
 70
     0
 43
0.0
 10
50947.13328263
 20
-8698.13362333
 10
50894.13328263
 20
-8688.13185617
 10
50894.13328263
 20
-8698.13273975
 10
50947.13328263
 20
-8688.13273975
  0
LWPOLYLINE
  5
6C0
102
{ACAD_REACTORS
330
6C1
102
}
100
AcDbEntity
  8
Ech.1_5
 62
     9
  6
CONTINUOUS
370
     5
100
AcDbPolyline
 90
        4
 70
     1
 43
0.0
 10
50931.4135831
 20
-8664.14399868
 10
50924.62459191
 20
-8664.14399868
 10
50924.62459191
 20
-8673.57665875
 10
50931.4135831
 20
-8673.57665875
  0
HATCH
  5
6C1
100
AcDbEntity
  8
Ech.1_5
 62
     2
  6
CONTINUOUS
100
AcDbHatch
 10
0.0
 20
0.0
 30
0.0
210
0.0
220
0.0
230
1.0
  2
SOLID
 70
     1
 71
     1
 91
        1
 92
        7
 72
     0
 73
     1
 93
        4
 10
50931.4135831
 20
-8664.14399868
 10
50924.62459191
 20
-8664.14399868
 10
50924.62459191
 20
-8673.57665875
 10
50931.4135831
 20
-8673.57665875
 97
        1
330
6C0
 75
     0
 76
     2
 47
0.775229
 98
        1
 10
0.0
 20
0.0
  0
HATCH
  5
6C2
100
AcDbEntity
  8
Ech.1_5
 62
     9
  6
CONTINUOUS
100
AcDbHatch
 10
0.0
 20
0.0
 30
0.0
210
0.0
220
0.0
230
1.0
  2
ANSI31
 70
     0
 71
     1
 91
        1
 92
        7
 72
     0
 73
     1
 93
        4
 10
50931.4135831
 20
-8664.14399868
 10
50924.62459191
 20
-8664.14399868
 10
50924.62459191
 20
-8673.57665875
 10
50931.4135831
 20
-8673.57665875
 97
        1
330
6C1
 75
     0
 76
     2
 52
0.0
 41
0.94488785
 77
     0
 78
     1
 53
45.0
 43
0.0
 44
0.0
 45
2.12132043
 46
-2.12132043
 79
     0
 47
0.775229
 98
        1
 10
0.0
 20
0.0
  0
LINE
  5
6C3
100
AcDbEntity
  8
Ech.1_5
 62
   150
  6
CADWORK_22
370
    35
100
AcDbLine
 10
50947.87464907
 20
-8844.98786867
 30
2500.0
 11
50869.84992723
 21
-8844.98786867
 31
2500.0
  0
LINE
  5
6C4
100
AcDbEntity
  8
Ech.1_5
 62
     1
  6
CADWORK_22
 48
-5.0
370
    35
100
AcDbLine
 10
50947.13328263
 20
-8720.07479864
 30
0.0
 11
50869.84992723
 21
-8720.07479864
 31
0.0
  0
LWPOLYLINE
  5
6C5
100
AcDbEntity
  8
Ech.1_5
 62
     3
370
    70
100
AcDbPolyline
 90
        4
 70
     0
 43
0.0
 10
50947.98099191
 20
-8898.48485377
 10
50934.99185849
 20
-8898.48485377
 10
50931.05712635
 20
-8892.80424079
 10
50917.57869635
 20
-8892.80424079
  0
LINE
  5
6C6
100
AcDbEntity
  8
Ech.1_5
 62
   106
  6
CADWORK_22
370
    35
100
AcDbLine
 10
50948.64168744
 20
-8767.22809007
 30
0.0
 11
50869.84992723
 21
-8767.22809007
 31
0.0
  0
3DFACE
  5
6C7
102
{ACAD_REACTORS
330
6C8
102
}
100
AcDbEntity
  8
Ech.1_5
 62
     9
  6
CONTINUOUS
370
    -3
100
AcDbFace
 70
     0
 10
50682.88282605
 20
-8965.14864083
 30
2500.0
 11
50882.88282605
 21
-8965.14864083
 31
2500.0
 12
50882.88282605
 22
-9232.92814807
 32
2500.0
 13
50682.88282605
 23
-9232.92502765
 33
2500.0
  0
HATCH
  5
6C8
100
AcDbEntity
  8
Ech.1_5
 62
     9
  6
CONTINUOUS
100
AcDbHatch
 10
0.0
 20
0.0
 30
0.0
210
0.0
220
0.0
230
1.0
  2
AR-CONC
 70
     0
 71
     1
 91
        1
 92
        7
 72
     0
 73
     1
 93
        4
 10
50682.88282605
 20
-8965.14864083
 10
50882.88282605
 20
-8965.14864083
 10
50882.88282605
 20
-9232.92814807
 10
50682.88282605
 20
-9232.92502765
 97
        1
330
6C7
 75
     0
 76
     2
 52
0.0
 41
0.11811097
 77
     0
 78
    13
 53
50.0
 43
0.0
 44
0.0
 45
-18.84283637
 46
1.64853443
 79
     2
 49
1.97029307
 49
-21.67322338
 53
355.0
 43
0.0
 44
0.0
 45
-3.64507756
 46
19.76051824
 79
     2
 49
1.57623377
 49
-17.3385787
 53
100.45140076
 43
1.57023568
 44
-0.13737749
 45
-15.19777228
 46
-18.11197244
 79
     2
 49
1.67449124
 49
-18.41940522
 53
46.18420029
 43
0.0
 44
5.25411576
 45
-28.03703353
 46
4.34827878
 79
     2
 49
2.95543872
 49
-32.50983238
 53
96.63559723
 43
2.33641885
 44
4.89175692
 45
-24.55412615
 46
-25.59063404
 79
     2
 49
2.51173697
 49
-27.62910426
 53
351.1842041
 43
0.0
 44
5.25411576
 45
24.55410288
 46
25.59065715
 79
     2
 49
2.36435249
 49
-26.00786805
 53
21.0
 43
2.62705699
 44
3.94058615
 45
-15.68109068
 46
10.57702905
 79
     2
 49
1.97029307
 49
-21.67322338
 53
326.0
 43
2.62705699
 44
3.94058615
 45
6.39203268
 46
19.05010734
 79
     2
 49
1.57623377
 49
-17.3385787
 53
71.45140076
 43
3.93381357
 44
3.05916555
 45
-22.07312962
 46
-8.47306182
 79
     2
 49
1.67449124
 49
-18.41940522
 53
37.5
 43
0.0
 44
0.0
 45
0.31944534
 46
8.74531245
 79
     6
 49
0.01875
 49
-17.12841332
 49
0.01875
 49
-17.60128498
 49
0.01875
 49
-17.40425348
 53
7.5
 43
0.0
 44
0.0
 45
6.91098818
 46
10.3614222
 79
     6
 49
0.01875
 49
-10.03535807
 49
0.01875
 49
-16.7343539
 49
0.01875
 49
-6.6333206
 53
-32.5
 43
-5.85833833
 44
0.0
 45
14.02382061
 46
-0.59253003
 79
     6
 49
0.01875
 49
-6.56764314
 49
0.01875
 49
-20.49104869
 49
0.01875
 49
-27.19004452
 53
-42.5
 43
-8.48539531
 44
0.0
 45
15.32063571
 46
2.62981542
 79
     6
 49
0.01875
 49
-8.53793621
 49
0.01875
 49
-13.60815793
 49
0.01875
 49
-19.30887222
 47
0.775229
 98
        1
 10
0.0
 20
0.0
  0
LWPOLYLINE
  5
6C9
100
AcDbEntity
  8
Ech.1_5
 62
   254
  6
CONTINUOUS
370
    -3
100
AcDbPolyline
 90
        7
 70
     1
 43
0.0
 10
50952.88282605
 20
-8965.14935323
 10
50902.88282605
 20
-8965.14935323
 10
50902.88282605
 20
-8965.14935323
 42
-0.53823114
 10
50904.6244943
 20
-8966.29859753
 42
-0.53823195
 10
50902.88282605
 20
-8967.44784184
 10
50902.88282605
 20
-9232.92857246
 10
50952.88282605
 20
-9232.92857246
  0
LWPOLYLINE
  5
6CA
102
{ACAD_REACTORS
330
6CB
102
}
100
AcDbEntity
  8
Ech.1_5
 62
     9
  6
CONTINUOUS
370
    -3
100
AcDbPolyline
 90
        4
 70
     1
 43
0.0
 10
50952.88282605
 20
-8965.14935323
 10
50965.88282605
 20
-8965.14935323
 10
50965.88282605
 20
-9232.92857246
 10
50952.88282605
 20
-9232.92857246
  0
HATCH
  5
6CB
100
AcDbEntity
  8
Ech.1_5
 62
     9
  6
CONTINUOUS
100
AcDbHatch
 10
0.0
 20
0.0
 30
0.0
210
0.0
220
0.0
230
1.0
  2
DOTS2
 70
     0
 71
     1
 91
        1
 92
        7
 72
     0
 73
     1
 93
        4
 10
50952.88282605
 20
-8965.14935323
 10
50965.88282605
 20
-8965.14935323
 10
50965.88282605
 20
-9232.92857246
 10
50952.88282605
 20
-9232.92857246
 97
        1
330
6CA
 75
     0
 76
     2
 52
0.0
 41
4.72440952
 77
     0
 78
     1
 53
0.0
 43
0.0
 44
0.0
 45
3.75
 46
3.535
 79
     2
 49
0.0
 49
-3.535
 47
0.775229
 98
        1
 10
0.0
 20
0.0
  0
LWPOLYLINE
  5
6CC
100
AcDbEntity
  8
Ech.1_5
 62
     9
  6
CONTINUOUS
370
    -3
100
AcDbPolyline
 90
        4
 70
     0
 43
0.0
 10
50952.87889807
 20
-8965.14935323
 42
-0.4836384
 10
50942.39266249
 20
-8972.9429
 10
50913.37298962
 20
-8965.17747216
 42
0.00334281
 10
50913.26517034
 20
-8965.14935323
  0
LWPOLYLINE
  5
6CD
100
AcDbEntity
  8
Ech.1_5
 62
     9
  6
CONTINUOUS
370
    -3
100
AcDbPolyline
 90
       64
 70
     0
 43
0.0
 10
50909.16714843
 20
-8965.14935323
 42
1.00670804
 10
50913.37298962
 20
-8981.27623333
 10
50942.39266249
 20
-8973.5108055
 42
-1.30322619
 10
50942.39266249
 20
-8989.60956667
 10
50913.37298962
 20
-8981.84413883
 42
1.30322619
 10
50913.37298962
 20
-8997.9429
 10
50942.39266249
 20
-8990.17747216
 42
-1.30322619
 10
50942.39266249
 20
-9006.27623333
 10
50913.37298962
 20
-8998.5108055
 42
1.30322619
 10
50913.37298962
 20
-9014.60956667
 10
50942.39266249
 20
-9006.84413883
 42
-1.30322619
 10
50942.39266249
 20
-9022.9429
 10
50913.37298962
 20
-9015.17747216
 42
1.30322619
 10
50913.37298962
 20
-9031.27623333
 10
50942.39266249
 20
-9023.5108055
 42
-1.30322619
 10
50942.39266249
 20
-9039.60956667
 10
50913.37298962
 20
-9031.84413883
 42
1.30322619
 10
50913.37298962
 20
-9047.9429
 10
50942.39266249
 20
-9040.17747216
 42
-1.30322619
 10
50942.39266249
 20
-9056.27623333
 10
50913.37298962
 20
-9048.5108055
 42
1.30322619
 10
50913.37298962
 20
-9064.60956667
 10
50942.39266249
 20
-9056.84413883
 42
-1.30322619
 10
50942.39266249
 20
-9072.9429
 10
50913.37298962
 20
-9065.17747216
 42
1.30322619
 10
50913.37298962
 20
-9081.27623333
 10
50942.39266249
 20
-9073.5108055
 42
-1.30322619
 10
50942.39266249
 20
-9089.60956667
 10
50913.37298962
 20
-9081.84413883
 42
1.30322619
 10
50913.37298962
 20
-9097.9429
 10
50942.39266249
 20
-9090.17747216
 42
-1.30322619
 10
50942.39266249
 20
-9106.27623333
 10
50913.37298962
 20
-9098.5108055
 42
1.30322619
 10
50913.37298962
 20
-9114.60956667
 10
50942.39266249
 20
-9106.84413883
 42
-1.30322619
 10
50942.39266249
 20
-9122.9429
 10
50913.37298962
 20
-9115.17747216
 42
1.30322619
 10
50913.37298962
 20
-9131.27623333
 10
50942.39266249
 20
-9123.5108055
 42
-1.30322619
 10
50942.39266249
 20
-9139.60956667
 10
50913.37298962
 20
-9131.84413883
 42
1.30322619
 10
50913.37298962
 20
-9147.9429
 10
50942.39266249
 20
-9140.17747216
 42
-1.30322619
 10
50942.39266249
 20
-9156.27623333
 10
50913.37298962
 20
-9148.5108055
 42
1.30322619
 10
50913.37298962
 20
-9164.60956667
 10
50942.39266249
 20
-9156.84413883
 42
-1.30322619
 10
50942.39266249
 20
-9172.9429
 10
50913.37298962
 20
-9165.17747216
 42
1.30322619
 10
50913.37298962
 20
-9181.27623333
 10
50942.39266249
 20
-9173.5108055
 42
-1.30322619
 10
50942.39266249
 20
-9189.60956667
 10
50913.37298962
 20
-9181.84413883
 42
1.30322619
 10
50913.37298962
 20
-9197.9429
 10
50942.39266249
 20
-9190.17747216
 42
-1.30322619
 10
50942.39266249
 20
-9206.27623333
 10
50913.37298962
 20
-9198.5108055
 42
1.30322619
 10
50913.37298962
 20
-9214.60956667
 10
50942.39266249
 20
-9206.84413883
 42
-1.30322619
 10
50942.39266249
 20
-9222.9429
 10
50913.37298962
 20
-9215.17747216
 42
1.30322619
 10
50913.37298962
 20
-9231.27623333
 10
50942.39266249
 20
-9223.5108055
 42
-0.54550737
 10
50952.76970945
 20
-9232.92857246
  0
ARC
  5
6CE
100
AcDbEntity
  8
Ech.1_5
 62
     9
  6
CONTINUOUS
370
    -3
100
AcDbCircle
 10
50911.21615939
 20
-8973.22685275
 30
0.0
 40
8.33333333
100
AcDbArc
 50
75.76607732
 51
104.23392268
  0
3DFACE
  5
6CF
102
{ACAD_REACTORS
330
6D0
102
}
100
AcDbEntity
  8
Ech.1_5
 62
     9
  6
CONTINUOUS
370
    -3
100
AcDbFace
 70
     0
 10
50682.88282605
 20
-8275.31741009
 30
2500.0
 11
50882.88282605
 21
-8275.31741009
 31
2500.0
 12
50882.88282605
 22
-8576.26595105
 32
2500.0
 13
50682.88282605
 23
-8576.26283063
 33
2500.0
  0
HATCH
  5
6D0
100
AcDbEntity
  8
Ech.1_5
 62
     9
  6
CONTINUOUS
100
AcDbHatch
 10
0.0
 20
0.0
 30
0.0
210
0.0
220
0.0
230
1.0
  2
AR-CONC
 70
     0
 71
     1
 91
        1
 92
        7
 72
     0
 73
     1
 93
        4
 10
50682.88282605
 20
-8275.31741009
 10
50882.88282605
 20
-8275.31741009
 10
50882.88282605
 20
-8576.26595105
 10
50682.88282605
 20
-8576.26283063
 97
        1
330
6CF
 75
     0
 76
     2
 52
0.0
 41
0.11811097
 77
     0
 78
    13
 53
50.0
 43
0.0
 44
0.0
 45
-18.84283637
 46
1.64853443
 79
     2
 49
1.97029307
 49
-21.67322338
 53
355.0
 43
0.0
 44
0.0
 45
-3.64507756
 46
19.76051824
 79
     2
 49
1.57623377
 49
-17.3385787
 53
100.45140076
 43
1.57023568
 44
-0.13737749
 45
-15.19777228
 46
-18.11197244
 79
     2
 49
1.67449124
 49
-18.41940522
 53
46.18420029
 43
0.0
 44
5.25411576
 45
-28.03703353
 46
4.34827878
 79
     2
 49
2.95543872
 49
-32.50983238
 53
96.63559723
 43
2.33641885
 44
4.89175692
 45
-24.55412615
 46
-25.59063404
 79
     2
 49
2.51173697
 49
-27.62910426
 53
351.1842041
 43
0.0
 44
5.25411576
 45
24.55410288
 46
25.59065715
 79
     2
 49
2.36435249
 49
-26.00786805
 53
21.0
 43
2.62705699
 44
3.94058615
 45
-15.68109068
 46
10.57702905
 79
     2
 49
1.97029307
 49
-21.67322338
 53
326.0
 43
2.62705699
 44
3.94058615
 45
6.39203268
 46
19.05010734
 79
     2
 49
1.57623377
 49
-17.3385787
 53
71.45140076
 43
3.93381357
 44
3.05916555
 45
-22.07312962
 46
-8.47306182
 79
     2
 49
1.67449124
 49
-18.41940522
 53
37.5
 43
0.0
 44
0.0
 45
0.31944534
 46
8.74531245
 79
     6
 49
0.01875
 49
-17.12841332
 49
0.01875
 49
-17.60128498
 49
0.01875
 49
-17.40425348
 53
7.5
 43
0.0
 44
0.0
 45
6.91098818
 46
10.3614222
 79
     6
 49
0.01875
 49
-10.03535807
 49
0.01875
 49
-16.7343539
 49
0.01875
 49
-6.6333206
 53
-32.5
 43
-5.85833833
 44
0.0
 45
14.02382061
 46
-0.59253003
 79
     6
 49
0.01875
 49
-6.56764314
 49
0.01875
 49
-20.49104869
 49
0.01875
 49
-27.19004452
 53
-42.5
 43
-8.48539531
 44
0.0
 45
15.32063571
 46
2.62981542
 79
     6
 49
0.01875
 49
-8.53793621
 49
0.01875
 49
-13.60815793
 49
0.01875
 49
-19.30887222
 47
0.775229
 98
        1
 10
0.0
 20
0.0
  0
LWPOLYLINE
  5
6D1
100
AcDbEntity
  8
Ech.1_5
 62
   254
  6
CONTINUOUS
370
    -3
100
AcDbPolyline
 90
        7
 70
     1
 43
0.0
 10
50952.88282605
 20
-8275.31812249
 10
50902.88282605
 20
-8275.31812249
 10
50902.88282605
 20
-8275.31812249
 42
-0.53823114
 10
50904.6244943
 20
-8276.4673668
 42
-0.53823195
 10
50902.88282605
 20
-8277.6166111
 10
50902.88282605
 20
-8576.26637544
 10
50952.88282605
 20
-8576.26637544
  0
LWPOLYLINE
  5
6D2
102
{ACAD_REACTORS
330
6D3
102
}
100
AcDbEntity
  8
Ech.1_5
 62
     9
  6
CONTINUOUS
370
    -3
100
AcDbPolyline
 90
        4
 70
     1
 43
0.0
 10
50952.88282605
 20
-8275.31812249
 10
50965.88282605
 20
-8275.31812249
 10
50965.88282605
 20
-8576.26637544
 10
50952.88282605
 20
-8576.26637544
  0
HATCH
  5
6D3
100
AcDbEntity
  8
Ech.1_5
 62
     9
  6
CONTINUOUS
100
AcDbHatch
 10
0.0
 20
0.0
 30
0.0
210
0.0
220
0.0
230
1.0
  2
DOTS2
 70
     0
 71
     1
 91
        1
 92
        7
 72
     0
 73
     1
 93
        4
 10
50952.88282605
 20
-8275.31812249
 10
50965.88282605
 20
-8275.31812249
 10
50965.88282605
 20
-8576.26637544
 10
50952.88282605
 20
-8576.26637544
 97
        1
330
6D2
 75
     0
 76
     2
 52
0.0
 41
4.72440952
 77
     0
 78
     1
 53
0.0
 43
0.0
 44
0.0
 45
3.75
 46
3.535
 79
     2
 49
0.0
 49
-3.535
 47
0.775229
 98
        1
 10
0.0
 20
0.0
  0
LWPOLYLINE
  5
6D4
100
AcDbEntity
  8
Ech.1_5
 62
     9
  6
CONTINUOUS
370
    -3
100
AcDbPolyline
 90
       72
 70
     0
 43
0.0
 10
50911.21615939
 20
-8275.31812249
 42
1.14028181
 10
50913.37298962
 20
-8291.7008364
 10
50942.39266249
 20
-8283.93540857
 42
-1.30322619
 10
50942.39266249
 20
-8300.03416974
 10
50913.37298962
 20
-8292.2687419
 42
1.30322619
 10
50913.37298962
 20
-8308.36750307
 10
50942.39266249
 20
-8300.60207524
 42
-1.30322619
 10
50942.39266249
 20
-8316.7008364
 10
50913.37298962
 20
-8308.93540857
 42
1.30322619
 10
50913.37298962
 20
-8325.03416974
 10
50942.39266249
 20
-8317.2687419
 42
-1.30322619
 10
50942.39266249
 20
-8333.36750307
 10
50913.37298962
 20
-8325.60207524
 42
1.30322619
 10
50913.37298962
 20
-8341.7008364
 10
50942.39266249
 20
-8333.93540857
 42
-1.30322619
 10
50942.39266249
 20
-8350.03416974
 10
50913.37298962
 20
-8342.2687419
 42
1.30322619
 10
50913.37298962
 20
-8358.36750307
 10
50942.39266249
 20
-8350.60207524
 42
-1.30322619
 10
50942.39266249
 20
-8366.7008364
 10
50913.37298962
 20
-8358.93540857
 42
1.30322619
 10
50913.37298962
 20
-8375.03416974
 10
50942.39266249
 20
-8367.2687419
 42
-1.30322619
 10
50942.39266249
 20
-8383.36750307
 10
50913.37298962
 20
-8375.60207524
 42
1.30322619
 10
50913.37298962
 20
-8391.7008364
 10
50942.39266249
 20
-8383.93540857
 42
-1.30322619
 10
50942.39266249
 20
-8400.03416974
 10
50913.37298962
 20
-8392.2687419
 42
1.30322619
 10
50913.37298962
 20
-8408.36750307
 10
50942.39266249
 20
-8400.60207524
 42
-1.30322619
 10
50942.39266249
 20
-8416.7008364
 10
50913.37298962
 20
-8408.93540857
 42
1.30322619
 10
50913.37298962
 20
-8425.03416974
 10
50942.39266249
 20
-8417.2687419
 42
-1.30322619
 10
50942.39266249
 20
-8433.36750307
 10
50913.37298962
 20
-8425.60207524
 42
1.30322619
 10
50913.37298962
 20
-8441.7008364
 10
50942.39266249
 20
-8433.93540857
 42
-1.30322619
 10
50942.39266249
 20
-8450.03416974
 10
50913.37298962
 20
-8442.2687419
 42
1.30322619
 10
50913.37298962
 20
-8458.36750307
 10
50942.39266249
 20
-8450.60207524
 42
-1.30322619
 10
50942.39266249
 20
-8466.7008364
 10
50913.37298962
 20
-8458.93540857
 42
1.30322619
 10
50913.37298962
 20
-8475.03416974
 10
50942.39266249
 20
-8467.2687419
 42
-1.30322619
 10
50942.39266249
 20
-8483.36750307
 10
50913.37298962
 20
-8475.60207524
 42
1.30322619
 10
50913.37298962
 20
-8491.7008364
 10
50942.39266249
 20
-8483.93540857
 42
-1.30322619
 10
50942.39266249
 20
-8500.03416974
 10
50913.37298962
 20
-8492.2687419
 42
1.30322619
 10
50913.37298962
 20
-8508.36750307
 10
50942.39266249
 20
-8500.60207524
 42
-1.30322619
 10
50942.39266249
 20
-8516.7008364
 10
50913.37298962
 20
-8508.93540857
 42
1.30322619
 10
50913.37298962
 20
-8525.03416974
 10
50942.39266249
 20
-8517.2687419
 42
-1.30322619
 10
50942.39266249
 20
-8533.36750307
 10
50913.37298962
 20
-8525.60207524
 42
1.30322619
 10
50913.37298962
 20
-8541.7008364
 10
50942.39266249
 20
-8533.93540857
 42
-1.30322619
 10
50942.39266249
 20
-8550.03416974
 10
50913.37298962
 20
-8542.2687419
 42
1.30322619
 10
50913.37298962
 20
-8558.36750307
 10
50942.39266249
 20
-8550.60207524
 42
-1.30322619
 10
50942.39266249
 20
-8566.7008364
 10
50913.37298962
 20
-8558.93540857
 42
1.30322619
 10
50913.37298962
 20
-8575.03416974
 10
50942.39266249
 20
-8567.2687419
 42
-0.5291035
 10
50952.82869925
 20
-8576.26637544
  0
LWPOLYLINE
  5
6D5
100
AcDbEntity
  8
Ech.1_5
 62
     1
  6
CADWORK_22
 48
-5.0
370
    35
100
AcDbPolyline
 90
        3
 70
     0
 43
0.0
 10
50662.84301482
 20
-8275.31741009
 10
50662.84301482
 20
-8576.26246316
 10
50533.56133139
 20
-8576.26246316
  0
LWPOLYLINE
  5
6D6
100
AcDbEntity
  8
Ech.1_5
 62
     3
370
    70
100
AcDbPolyline
 90
        4
 70
     0
 43
0.0
 10
50603.12540157
 20
-8575.76794575
 10
50590.13626815
 20
-8575.76794575
 10
50586.20153601
 20
-8581.44855871
 10
50572.72310601
 20
-8581.44855871
  0
LINE
  5
6D7
100
AcDbEntity
  8
Ech.1_5
 62
   106
  6
CADWORK_22
370
    35
100
AcDbLine
 10
50592.73428058
 20
-8580.15469086
 30
0.0
 11
50643.57607789
 21
-8580.15469086
 31
0.0
  0
LWPOLYLINE
  5
6D8
100
AcDbEntity
  8
Ech.1_5
 62
     3
370
    70
100
AcDbPolyline
 90
        4
 70
     0
 43
0.0
 10
50663.8726795
 20
-8577.29426563
 10
50650.88354607
 20
-8577.29426563
 10
50646.94881393
 20
-8582.97487859
 10
50633.47038393
 20
-8582.97487859
  0
LWPOLYLINE
  5
6D9
100
AcDbEntity
  8
Ech.1_5
 62
     3
370
    70
100
AcDbPolyline
 90
        4
 70
     0
 43
0.0
 10
50543.66756321
 20
-8960.33816088
 10
50530.67842979
 20
-8960.33816088
 10
50526.74369765
 20
-8954.65754792
 10
50513.26526765
 20
-8954.65754792
  0
LWPOLYLINE
  5
6DA
100
AcDbEntity
  8
Ech.1_5
 62
     1
  6
CADWORK_22
 48
-5.0
370
    35
100
AcDbPolyline
 90
        3
 70
     0
 43
0.0
 10
50662.88282571
 20
-9232.92470748
 10
50662.88282571
 20
-8965.14864083
 10
50546.13252364
 20
-8965.14864083
  0
LWPOLYLINE
  5
6DB
100
AcDbEntity
  8
Ech.1_5
 62
   106
  6
CADWORK_22
370
    35
100
AcDbPolyline
 90
        4
 70
     0
 43
0.0
 38
2500.0
 10
50627.91806844
 20
-8962.76560223
 10
50579.26976355
 20
-8962.76560223
 10
50567.98900236
 20
-8956.77268933
 10
50532.73661055
 20
-8956.77268933
  0
LWPOLYLINE
  5
6DC
100
AcDbEntity
  8
Ech.1_5
 62
   190
  6
CONTINUOUS
370
    -3
100
AcDbPolyline
 90
      118
 70
     0
 43
0.0
 10
50679.54285751
 20
-8576.26283063
 42
1.14028181
 10
50678.6784081
 20
-8569.69670074
 10
50667.04743277
 20
-8572.8090549
 42
-1.30322619
 10
50667.04743277
 20
-8566.3567322
 10
50678.6784081
 20
-8569.46908636
 42
1.30322619
 10
50678.6784081
 20
-8563.01676366
 10
50667.04743277
 20
-8566.12911782
 42
-1.30322619
 10
50667.04743277
 20
-8559.67679513
 10
50678.6784081
 20
-8562.78914928
 42
1.30322619
 10
50678.6784081
 20
-8556.33682659
 10
50667.04743277
 20
-8559.44918075
 42
-1.30322619
 10
50667.04743277
 20
-8552.99685805
 10
50678.6784081
 20
-8556.10921221
 42
1.30322619
 10
50678.6784081
 20
-8549.65688951
 10
50667.04743277
 20
-8552.76924367
 42
-1.30322619
 10
50667.04743277
 20
-8546.31692097
 10
50678.6784081
 20
-8549.42927513
 42
1.30322619
 10
50678.6784081
 20
-8542.97695243
 10
50667.04743277
 20
-8546.08930659
 42
-1.30322619
 10
50667.04743277
 20
-8539.63698389
 10
50678.6784081
 20
-8542.74933805
 42
1.30322619
 10
50678.6784081
 20
-8536.29701535
 10
50667.04743277
 20
-8539.40936951
 42
-1.30322619
 10
50667.04743277
 20
-8532.95704682
 10
50678.6784081
 20
-8536.06940098
 42
1.30322619
 10
50678.6784081
 20
-8529.61707828
 10
50667.04743277
 20
-8532.72943244
 42
-1.30322619
 10
50667.04743277
 20
-8526.27710974
 10
50678.6784081
 20
-8529.3894639
 42
1.30322619
 10
50678.6784081
 20
-8522.9371412
 10
50667.04743277
 20
-8526.04949536
 42
-1.30322619
 10
50667.04743277
 20
-8519.59717266
 10
50678.6784081
 20
-8522.70952682
 42
1.30322619
 10
50678.6784081
 20
-8516.25720412
 10
50667.04743277
 20
-8519.36955828
 42
-1.30322619
 10
50667.04743277
 20
-8512.91723558
 10
50678.6784081
 20
-8516.02958974
 42
1.30322619
 10
50678.6784081
 20
-8509.57726704
 10
50667.04743277
 20
-8512.6896212
 42
-1.30322619
 10
50667.04743277
 20
-8506.23729851
 10
50678.6784081
 20
-8509.34965267
 42
1.30322619
 10
50678.6784081
 20
-8502.89732997
 10
50667.04743277
 20
-8506.00968413
 42
-1.30322619
 10
50667.04743277
 20
-8499.55736143
 10
50678.6784081
 20
-8502.66971559
 42
1.30322619
 10
50678.6784081
 20
-8496.21739289
 10
50667.04743277
 20
-8499.32974705
 42
-1.30322619
 10
50667.04743277
 20
-8492.87742435
 10
50678.6784081
 20
-8495.98977851
 42
1.30322619
 10
50678.6784081
 20
-8489.53745581
 10
50667.04743277
 20
-8492.64980997
 42
-1.30322619
 10
50667.04743277
 20
-8486.19748727
 10
50678.6784081
 20
-8489.30984143
 42
1.30322619
 10
50678.6784081
 20
-8482.85751874
 10
50667.04743277
 20
-8485.96987289
 42
-1.30322619
 10
50667.04743277
 20
-8479.5175502
 10
50678.6784081
 20
-8482.62990436
 42
1.30322619
 10
50678.6784081
 20
-8476.17758166
 10
50667.04743277
 20
-8479.28993582
 42
-1.30322619
 10
50667.04743277
 20
-8472.83761312
 10
50678.6784081
 20
-8475.94996728
 42
1.30322619
 10
50678.6784081
 20
-8469.49764458
 10
50667.04743277
 20
-8472.60999874
 42
-1.30322619
 10
50667.04743277
 20
-8466.15767604
 10
50678.6784081
 20
-8469.2700302
 42
1.30322619
 10
50678.6784081
 20
-8462.8177075
 10
50667.04743277
 20
-8465.93006166
 42
-1.30322619
 10
50667.04743277
 20
-8459.47773896
 10
50678.6784081
 20
-8462.59009312
 42
1.30322619
 10
50678.6784081
 20
-8456.13777043
 10
50667.04743277
 20
-8459.25012458
 42
-1.30322619
 10
50667.04743277
 20
-8452.79780189
 10
50678.6784081
 20
-8455.91015605
 42
1.30322619
 10
50678.6784081
 20
-8449.45783335
 10
50667.04743277
 20
-8452.57018751
 42
-1.30322619
 10
50667.04743277
 20
-8446.11786481
 10
50678.6784081
 20
-8449.23021897
 42
1.30322619
 10
50678.6784081
 20
-8442.77789627
 10
50667.04743277
 20
-8445.89025043
 42
-1.30322619
 10
50667.04743277
 20
-8439.43792773
 10
50678.6784081
 20
-8442.55028189
 42
1.30322619
 10
50678.6784081
 20
-8436.09795919
 10
50667.04743277
 20
-8439.21031335
 42
-1.30322619
 10
50667.04743277
 20
-8432.75799065
 10
50678.6784081
 20
-8435.87034481
 42
1.30322619
 10
50678.6784081
 20
-8429.41802212
 10
50667.04743277
 20
-8432.53037627
 42
-1.30322619
 10
50667.04743277
 20
-8426.07805358
 10
50678.6784081
 20
-8429.19040774
 42
1.30322619
 10
50678.6784081
 20
-8422.73808504
 10
50667.04743277
 20
-8425.8504392
 42
-1.30322619
 10
50667.04743277
 20
-8419.3981165
 10
50678.6784081
 20
-8422.51047066
 42
1.30322619
 10
50678.6784081
 20
-8416.05814796
 10
50667.04743277
 20
-8419.17050212
 42
-1.30322619
 10
50667.04743277
 20
-8412.71817942
 10
50678.6784081
 20
-8415.83053358
 42
1.30322619
 10
50678.6784081
 20
-8409.37821088
 10
50667.04743277
 20
-8412.49056504
 42
-1.30322619
 10
50667.04743277
 20
-8406.03824234
 10
50678.6784081
 20
-8409.1505965
 42
1.30322619
 10
50678.6784081
 20
-8402.69827381
 10
50667.04743277
 20
-8405.81062797
 42
-1.30322619
 10
50667.04743277
 20
-8399.35830527
 10
50678.6784081
 20
-8402.47065943
 42
1.30322619
 10
50678.6784081
 20
-8396.01833673
 10
50667.04743277
 20
-8399.13069089
 42
-1.30322619
 10
50667.04743277
 20
-8392.67836819
 10
50678.6784081
 20
-8395.79072235
 42
1.30322619
 10
50678.6784081
 20
-8389.33839965
 10
50667.04743277
 20
-8392.45075381
 42
-1.30322619
 10
50667.04743277
 20
-8385.99843111
 10
50678.6784081
 20
-8389.11078527
 42
1.30322619
 10
50678.6784081
 20
-8382.65846257
 10
50667.04743277
 20
-8385.77081673
 42
-1.30322619
 10
50667.04743277
 20
-8379.31849403
 10
50678.6784081
 20
-8382.43084819
 42
0.89049396
 10
50681.12427198
 20
-8376.26283061
  0
CIRCLE
  5
6DD
100
AcDbEntity
  8
Ech.1_5
 62
   190
  6
CONTINUOUS
100
AcDbCircle
 10
50622.5320068
 20
-8607.57532381
 30
0.0
 40
122.81935961
  0
CIRCLE
  5
6DE
100
AcDbEntity
  8
Ech.1_5
 62
   190
  6
CONTINUOUS
100
AcDbCircle
 10
50987.32448533
 20
-8293.62371936
 30
0.0
 40
122.81935961
  0
LWPOLYLINE
  5
6DF
102
{ACAD_REACTORS
330
6E0
102
}
100
AcDbEntity
  8
Ech.1_5
 62
     9
  6
CONTINUOUS
370
    -3
100
AcDbPolyline
 90
        4
 70
     1
 43
0.0
 10
50965.70331885
 20
-8262.31477099
 10
50965.70331885
 20
-8275.31477099
 10
51108.77150055
 20
-8275.31477099
 42
0.02704001
 10
51106.0861999
 20
-8262.31477099
  0
HATCH
  5
6E0
100
AcDbEntity
  8
Ech.1_5
 62
     9
  6
CONTINUOUS
100
AcDbHatch
 10
0.0
 20
0.0
 30
0.0
210
0.0
220
0.0
230
1.0
  2
DOTS2
 70
     0
 71
     1
 91
        1
 92
        7
 72
     1
 73
     1
 93
        4
 10
50965.70331885
 20
-8262.31477099
 42
0.0
 10
50965.70331885
 20
-8275.31477099
 42
0.0
 10
51108.77150055
 20
-8275.31477099
 42
0.02704001
 10
51106.0861999
 20
-8262.31477099
 42
0.0
 97
        1
330
6DF
 75
     0
 76
     2
 52
0.0
 41
4.72440952
 77
     0
 78
     1
 53
0.0
 43
0.0
 44
0.0
 45
3.75
 46
3.535
 79
     2
 49
0.0
 49
-3.535
 47
0.775229
 98
        1
 10
0.0
 20
0.0
  0
LWPOLYLINE
  5
6E1
100
AcDbEntity
  8
Ech.1_5
 62
     7
  6
CONTINUOUS
370
    -3
100
AcDbPolyline
 90
        6
 70
     1
 43
0.0
 10
50909.53544684
 20
-8285.05293903
 10
50909.53544684
 20
-8271.7426352
 10
50866.46815619
 20
-8271.75266995
 42
0.06788306
 10
50865.02550773
 20
-8304.91775203
 10
50900.10322857
 20
-8304.91937406
 10
50900.10322857
 20
-8285.05293903
  0
POLYLINE
  5
6E2
100
AcDbEntity
  8
Ech.1_5
 62
     5
  6
CONTINUOUS
370
    -3
100
AcDb3dPolyline
 66
     1
 70
     8
  0
VERTEX
  5
6E3
100
AcDbEntity
  8
Ech.1_5
100
AcDbVertex
100
AcDb3dPolylineVertex
 10
50865.02550773
 20
-8304.91775203
 30
-99.49876516
 70
    32
  0
VERTEX
  5
6E4
100
AcDbEntity
  8
Ech.1_5
100
AcDbVertex
100
AcDb3dPolylineVertex
 10
50900.10322857
 20
-8304.91937406
 30
-163.4961947
 70
    32
  0
VERTEX
  5
6E5
100
AcDbEntity
  8
Ech.1_5
100
AcDbVertex
100
AcDb3dPolylineVertex
 10
50900.10322857
 20
-8285.05293903
 30
-163.4961947
 70
    32
  0
VERTEX
  5
6E6
100
AcDbEntity
  8
Ech.1_5
100
AcDbVertex
100
AcDb3dPolylineVertex
 10
50909.53544684
 20
-8285.05293903
 30
-168.4961947
 70
    32
  0
VERTEX
  5
6E7
100
AcDbEntity
  8
Ech.1_5
100
AcDbVertex
100
AcDb3dPolylineVertex
 10
50909.53544684
 20
-8271.7426352
 30
-168.4961947
 70
    32
  0
VERTEX
  5
6E8
100
AcDbEntity
  8
Ech.1_5
100
AcDbVertex
100
AcDb3dPolylineVertex
 10
50866.46815619
 20
-8271.75266995
 30
-99.89981169
 70
    32
  0
SEQEND
  5
6E9
100
AcDbEntity
  8
Ech.1_5
  0
LWPOLYLINE
  5
6EA
100
AcDbEntity
  8
Ech.1_5
 62
   190
  6
CONTINUOUS
370
    -3
100
AcDbPolyline
 90
        4
 70
     1
 43
0.0
 10
50909.53544684
 20
-8271.7426352
 10
50909.53544684
 20
-8262.30997514
 10
50868.56384704
 20
-8262.3106887
 42
0.01967538
 10
50866.46983679
 20
-8271.74338523
  0
LWPOLYLINE
  5
6EB
100
AcDbEntity
  8
Ech.1_5
 62
   190
  6
CONTINUOUS
370
    -3
100
AcDbPolyline
 90
        4
 70
     1
 43
0.0
 10
51027.63549342
 20
-8217.31085871
 10
51027.63549341
 20
-8177.60812678
 42
0.08379832
 10
50987.32448533
 20
-8170.80435975
 42
0.22896527
 10
50891.09069503
 20
-8217.31085871
  0
ARC
  5
6EC
100
AcDbEntity
  8
Ech.1_5
 62
   190
  6
CONTINUOUS
370
    -3
100
AcDbCircle
 10
50997.6354934
 20
-8141.36580559
 30
0.0
 40
29.99999999
100
AcDbArc
 50
260.00459885
 51
272.24701437
  0
LWPOLYLINE
  5
6ED
100
AcDbEntity
  8
Ech.1_5
 62
   190
  6
CONTINUOUS
370
    -3
100
AcDbPolyline
 90
        3
 70
     0
 43
0.0
 10
50919.52908562
 20
-8191.21093269
 10
50989.87090458
 20
-8172.38803548
 42
-0.08502626
 10
50999.95783696
 20
-8171.45582865
  0
ARC
  5
6EE
100
AcDbEntity
  8
Ech.1_5
 62
   190
  6
CONTINUOUS
370
    -3
100
AcDbCircle
 10
50997.63549342
 20
-8201.36580558
 30
0.0
 40
30.0
100
AcDbArc
 50
327.89302039
 51
81.68563919
  0
LWPOLYLINE
  5
6EF
100
AcDbEntity
  8
Ech.1_5
 62
   190
  6
CONTINUOUS
370
    -3
100
AcDbPolyline
 90
        3
 70
     0
 43
0.0
 10
50909.53544684
 20
-8262.30997514
 10
50884.16872594
 20
-8267.02674696
 10
50909.53544684
 20
-8271.7426352
  0
LWPOLYLINE
  5
6F0
100
AcDbEntity
  8
Ech.1_5
 62
   190
  6
CONTINUOUS
370
    -3
100
AcDbPolyline
 90
        3
 70
     0
 43
0.0
 10
50868.12049774
 20
-8264.04324542
 10
50884.16872594
 20
-8267.02674696
 10
50866.74660672
 20
-8270.26627331
  0
LWPOLYLINE
  5
6F1
100
AcDbEntity
  8
Ech.1_5
 62
     7
  6
CONTINUOUS
370
    -3
100
AcDbPolyline
 90
        4
 70
     1
 43
0.0
 10
51027.63549342
 20
-8262.31085871
 10
51027.63549342
 20
-8217.31085871
 10
50891.09069503
 20
-8217.31085871
 42
0.10353208
 10
50868.56380222
 20
-8262.31085871
  0
LWPOLYLINE
  5
6F2
100
AcDbEntity
  8
Ech.1_5
 62
     7
  6
CONTINUOUS
370
    -3
100
AcDbPolyline
 90
        3
 70
     1
 43
0.0
 10
50892.63549342
 20
-8217.31085871
 10
50892.63549342
 20
-8215.40230345
 42
0.00499811
 10
50891.09069503
 20
-8217.31085871
  0
LWPOLYLINE
  5
6F3
100
AcDbEntity
  8
Ech.1_5
 62
   190
  6
CONTINUOUS
370
    -3
100
AcDbPolyline
 90
        3
 70
     0
 43
0.0
 10
50884.45925192
 20
-8226.51679833
 10
50937.63549343
 20
-8239.81085871
 10
50870.1960475
 20
-8256.6707202
  0
LWPOLYLINE
  5
6F4
100
AcDbEntity
  8
Ech.1_5
 62
   190
  6
CONTINUOUS
370
    -3
100
AcDbPolyline
 90
        3
 70
     0
 43
0.0
 10
51027.63549342
 20
-8262.31085871
 10
51027.63549342
 20
-8217.31085871
 10
50937.63549343
 20
-8239.81085871
  0
LINE
  5
6F5
100
AcDbEntity
  8
Ech.1_5
 62
   190
  6
CONTINUOUS
370
    -3
100
AcDbLine
 10
50937.63549343
 20
-8239.81085871
 30
0.0
 11
51027.63549342
 21
-8262.31085871
 31
0.0
  0
LINE
  5
6F6
100
AcDbEntity
  8
Ech.1_5
 62
   190
  6
CONTINUOUS
370
    -3
100
AcDbLine
 10
50892.20559677
 20
-8215.92563616
 30
0.0
 11
50892.63549342
 21
-8217.31085871
 31
0.0
  0
LWPOLYLINE
  5
6F7
100
AcDbEntity
  8
Ech.1_5
 62
     5
  6
CONTINUOUS
370
    -3
100
AcDbPolyline
 90
        3
 70
     0
 43
0.0
 10
50891.09069503
 20
-8217.31085871
 10
50892.63549342
 20
-8217.31085871
 10
50892.63549342
 20
-8215.40230345
  0
LWPOLYLINE
  5
6F8
100
AcDbEntity
  8
Ech.1_5
 62
     5
  6
CONTINUOUS
370
    -3
100
AcDbPolyline
 90
        4
 70
     0
 43
0.0
 10
50868.56380222
 20
-8262.31085871
 10
51027.63549342
 20
-8262.31085871
 10
51027.63549342
 20
-8217.31085871
 10
50891.09069503
 20
-8217.31085871
  0
HATCH
  5
6F9
100
AcDbEntity
  8
Ech.1_5
 62
     7
100
AcDbHatch
 10
0.0
 20
0.0
 30
0.0
210
0.0
220
0.0
230
1.0
  2
_USER_1
 70
     0
 71
     0
 91
        1
 92
        7
 72
     0
 73
     1
 93
       19
 10
50932.55437589
 20
-8351.06176534
 10
50932.66821927
 20
-8351.05362532
 10
50932.7797457
 20
-8351.02936777
 10
50932.88668518
 20
-8350.98948643
 10
50932.98686105
 20
-8350.93479303
 10
50933.07823435
 20
-8350.86640082
 10
50933.15894524
 20
-8350.78570183
 10
50933.22735094
 20
-8350.69433864
 10
50933.28205913
 20
-8350.59417084
 10
50933.32195626
 20
-8350.48723725
 10
50933.34623027
 20
-8350.3757144
 10
50933.35438709
 20
-8350.26187223
 10
50933.35438987
 20
-8350.06306203
 10
50933.35439183
 20
-8349.92331431
 10
50933.35443655
 20
-8346.72219654
 10
50933.35444356
 20
-8346.22219654
 10
50933.354485
 20
-8343.26461926
 10
50932.15448499
 20
-8343.26460244
 10
50932.1543758
 20
-8351.06175974
 97
        0
 75
     0
 76
     2
 52
0.0
 41
1.0
 77
     0
 78
     1
 53
135.00079346
 43
0.0
 44
0.0
 45
-1.76774247
 46
-1.76779143
 79
     2
 49
50.0
 49
0.0
 47
0.775229
 98
        1
 10
0.0
 20
0.0
  0
HATCH
  5
6FA
100
AcDbEntity
  8
Ech.1_5
 62
     7
100
AcDbHatch
 10
0.0
 20
0.0
 30
0.0
210
0.0
220
0.0
230
1.0
  2
ANSI31
 70
     0
 71
     0
 91
        1
 92
        7
 72
     1
 73
     1
 93
       25
 10
50965.70538846
 20
-8325.79264317
 42
-0.22235481
 10
50966.01014518
 20
-8326.64691322
 42
-0.22946848
 10
50965.80963312
 20
-8327.13014004
 42
0.18586263
 10
50964.704087
 20
-8329.62885159
 42
0.0
 10
50964.704087
 20
-8331.61466193
 42
0.99930427
 10
50965.404087
 20
-8331.61514399
 42
0.0
 10
50965.404087
 20
-8329.56383642
 42
-0.05691082
 10
50965.41181011
 20
-8329.49620344
 42
-0.02418259
 10
50965.5030574
 20
-8329.11309225
 42
-0.02455226
 10
50965.62070909
 20
-8328.76636382
 42
-0.07971411
 10
50966.27453322
 20
-8327.65346393
 42
0.19863002
 10
50966.73075935
 20
-8326.66948268
 42
0.33183283
 10
50965.51063899
 20
-8324.86817523
 42
-0.79190458
 10
50965.70532416
 20
-8324.47539102
 42
0.0
 10
50967.59025432
 20
-8324.88608574
 42
-0.3398043
 10
50967.80494403
 20
-8325.18195599
 42
0.0
 10
50967.80371622
 20
-8325.22673752
 42
0.0
 10
50968.70402103
 20
-8325.2514218
 42
0.0
 10
50968.704087
 20
-8325.24901978
 42
0.0
 10
50968.704087
 20
-8324.45323025
 42
0.35710574
 10
50968.5837157
 20
-8324.30618556
 42
-0.12383971
 10
50965.05819214
 20
-8323.38731908
 42
0.54640022
 10
50964.704087
 20
-8323.61461211
 42
0.0
 10
50964.71236135
 20
-8325.18711016
 42
0.10888682
 10
50964.73662621
 20
-8325.29194972
 42
-0.05887459
 97
        0
 75
     0
 76
     2
 52
0.0
 41
0.25000001
 77
     0
 78
     1
 53
45.0
 43
0.0
 44
0.0
 45
0.56126252
 46
-0.56126252
 79
     0
 47
0.775229
 98
        1
 10
0.0
 20
0.0
  0
HATCH
  5
6FB
100
AcDbEntity
  8
Ech.1_5
 62
     7
100
AcDbHatch
 10
0.0
 20
0.0
 30
0.0
210
0.0
220
0.0
230
1.0
  2
HONEY
 70
     0
 71
     0
 91
        1
 92
        7
 72
     0
 73
     1
 93
      102
 10
50965.40689229
 20
-8329.52290594
 10
50965.404087
 20
-8329.53860365
 10
50965.404087
 20
-8331.61514399
 10
50965.40076402
 20
-8331.66277919
 10
50965.39098818
 20
-8331.70951876
 10
50965.37494144
 20
-8331.75449272
 10
50965.35292248
 20
-8331.79686393
 10
50965.32534115
 20
-8331.83584373
 10
50965.29271084
 20
-8331.87070657
 10
50965.25563891
 20
-8331.90080352
 10
50965.2148154
 20
-8331.92557438
 10
50965.17100018
 20
-8331.94455807
 10
50965.12500879
 20
-8331.95740125
 10
50965.07769731
 20
-8331.96386485
 10
50965.02994636
 20
-8331.96382857
 10
50964.98264476
 20
-8331.95729308
 10
50964.93667294
 20
-8331.94438003
 10
50964.89288662
 20
-8331.92532977
 10
50964.8521008
 20
-8331.9004969
 10
50964.81507465
 20
-8331.87034365
 10
50964.78249736
 20
-8331.83543126
 10
50964.7549753
 20
-8331.79640959
 10
50964.73302075
 20
-8331.75400496
 10
50964.71704237
 20
-8331.70900668
 10
50964.70733758
 20
-8331.6622523
 10
50964.704087
 20
-8331.61461211
 10
50964.70733758
 20
-8331.6622523
 10
50964.71704237
 20
-8331.70900668
 10
50964.73302075
 20
-8331.75400496
 10
50964.7549753
 20
-8331.79640959
 10
50964.78249736
 20
-8331.83543126
 10
50964.81507465
 20
-8331.87034365
 10
50964.8521008
 20
-8331.9004969
 10
50964.89288662
 20
-8331.92532977
 10
50964.93667294
 20
-8331.94438003
 10
50964.98264476
 20
-8331.95729308
 10
50965.02994636
 20
-8331.96382857
 10
50965.07769731
 20
-8331.96386485
 10
50965.12500879
 20
-8331.95740125
 10
50965.17100018
 20
-8331.94455807
 10
50965.2148154
 20
-8331.92557438
 10
50965.25563891
 20
-8331.90080352
 10
50965.29271084
 20
-8331.87070657
 10
50965.32534115
 20
-8331.83584373
 10
50965.35292248
 20
-8331.79686393
 10
50965.37494144
 20
-8331.75449272
 10
50965.39098818
 20
-8331.70951876
 10
50965.40076402
 20
-8331.66277919
 10
50965.404087
 20
-8331.61514399
 10
50965.404087
 20
-8332.04478642
 10
50965.40950489
 20
-8332.12781029
 10
50965.42630626
 20
-8332.20929666
 10
50965.45417084
 20
-8332.28769233
 10
50965.4925675
 20
-8332.36150298
 10
50965.54076437
 20
-8332.4293217
 10
50965.59784274
 20
-8332.48985577
 10
50965.66271465
 20
-8332.54195137
 10
50965.73414356
 20
-8332.58461548
 10
50965.81076796
 20
-8332.61703488
 10
50965.89112729
 20
-8332.63859162
 10
50965.97368982
 20
-8332.6488748
 10
50966.05688182
 20
-8332.64768841
 10
50966.13911754
 20
-8332.63505507
 10
50966.21882949
 20
-8332.61121558
 10
50966.29449826
 20
-8332.57662436
 10
50966.36468152
 20
-8332.53194074
 10
50966.4280415
 20
-8332.47801645
 10
50966.48337048
 20
-8332.41587935
 10
50966.52961383
 20
-8332.34671384
 10
50966.56589011
 20
-8332.2718383
 10
50966.59150784
 20
-8332.19267992
 10
50966.60597872
 20
-8332.11074758
 10
50966.60902692
 20
-8332.02760298
 10
50966.60059433
 20
-8331.94483096
 10
50966.55658233
 20
-8331.53113887
 10
50966.52706405
 20
-8331.11616071
 10
50966.5120756
 20
-8330.70040412
 10
50966.51163533
 20
-8330.28437767
 10
50966.52574377
 20
-8329.86859028
 10
50966.63143272
 20
-8329.58199113
 10
50966.77939182
 20
-8329.31475092
 10
50966.96619354
 20
-8329.07306033
 10
50967.18751057
 20
-8328.86251819
 10
50967.43821605
 20
-8328.68800176
 10
50967.71250233
 20
-8328.55355376
 10
50967.74151753
 20
-8327.49529119
 10
50967.37859831
 20
-8327.53487482
 10
50967.02491686
 20
-8327.62535495
 10
50966.68757398
 20
-8327.764915
 10
50966.37334248
 20
-8327.95075307
 10
50966.08853113
 20
-8328.1791381
 10
50965.83885806
 20
-8328.44548483
 10
50965.62933592
 20
-8328.74444585
 10
50965.57431832
 20
-8328.89122468
 10
50965.52498818
 20
-8329.04001143
 10
50965.48141853
 20
-8329.19058582
 10
50965.44367388
 20
-8329.34272491
 10
50965.41181011
 20
-8329.49620344
 10
50965.41063344
 20
-8329.50150657
 10
50965.40955299
 20
-8329.50683013
 10
50965.4085691
 20
-8329.51217238
 10
50965.4076821
 20
-8329.51753157
 97
        0
 75
     0
 76
     2
 52
0.0
 41
1.0
 77
     0
 78
     3
 53
0.0
 43
0.0
 44
0.0
 45
34.64099884
 46
20.0
 79
     2
 49
23.09400082
 49
-46.18800163
 53
120.0
 43
0.0
 44
0.0
 45
-34.6410075
 46
19.99998501
 79
     2
 49
23.09400082
 49
-46.18800163
 53
60.0
 43
0.0
 44
0.0
 45
-8.6555227518659E-06
 46
39.99998501
 79
     4
 49
0.0
 49
-46.18800163
 49
23.09400082
 49
0.0
 47
0.775229
 98
        1
 10
0.0
 20
0.0
  0
HATCH
  5
6FC
100
AcDbEntity
  8
Ech.1_5
 62
     7
100
AcDbHatch
 10
0.0
 20
0.0
 30
0.0
210
0.0
220
0.0
230
1.0
  2
ANSI31
 70
     0
 71
     0
 91
        1
 92
        7
 72
     0
 73
     1
 93
       34
 10
50966.55787268
 20
-8341.33023332
 10
50966.49729491
 20
-8341.14472693
 10
50966.44740009
 20
-8340.95606641
 10
50966.40835078
 20
-8340.76486641
 10
50966.38027421
 20
-8340.57174988
 10
50966.36326186
 20
-8340.37734601
 10
50966.35694688
 20
-8340.3319732
 10
50966.34440934
 20
-8340.28791209
 10
50966.32589086
 20
-8340.24601177
 10
50966.30174828
 20
-8340.20707969
 10
50966.27244686
 20
-8340.17186609
 10
50966.23855126
 20
-8340.14104956
 10
50966.20071465
 20
-8340.11522394
 10
50966.15966618
 20
-8340.09488693
 10
50966.11619688
 20
-8340.08043042
 10
50966.07114442
 20
-8340.072133
 10
50966.025377
 20
-8340.07015457
 10
50965.97977659
 20
-8340.07453325
 10
50965.93522192
 20
-8340.08518466
 10
50965.8925716
 20
-8340.10190355
 10
50965.85264753
 20
-8340.12436772
 10
50965.81621906
 20
-8340.15214429
 10
50965.7839882
 20
-8340.18469798
 10
50965.75657605
 20
-8340.22140145
 10
50965.73451087
 20
-8340.26154742
 10
50965.71821787
 20
-8340.30436224
 10
50965.70801101
 20
-8340.34902085
 10
50965.704087
 20
-8340.39466264
 10
50965.704087
 20
-8340.50376557
 10
50965.71839885
 20
-8340.78251699
 10
50965.75321569
 20
-8341.05945555
 10
50965.80834816
 20
-8341.33307497
 10
50965.88349639
 20
-8341.60188703
 10
50965.97825164
 20
-8341.86442964
 97
        0
 75
     0
 76
     2
 52
0.0
 41
0.25000001
 77
     0
 78
     1
 53
45.0
 43
0.0
 44
0.0
 45
0.56126252
 46
-0.56126252
 79
     0
 47
0.775229
 98
        1
 10
0.0
 20
0.0
  0
LWPOLYLINE
  5
6FD
100
AcDbEntity
  8
Ech.1_5
 62
     7
  6
CONTINUOUS
100
AcDbPolyline
 90
       42
 70
     0
 43
0.0
 10
50943.45423555
 20
-8379.86242069
 42
0.41421335
 10
50940.45423771
 20
-8382.86242069
 10
50940.45423771
 20
-8392.9308206
 42
-0.36369756
 10
50938.80343105
 20
-8394.90010067
 42
0.29368695
 10
50938.40660647
 20
-8395.26742069
 42
-0.28963385
 10
50937.23817046
 20
-8396.36530297
 10
50935.29410248
 20
-8396.36530297
 42
-0.15679011
 10
50934.71136291
 20
-8396.17796193
 42
-0.24172474
 10
50929.70423771
 20
-8386.42605432
 10
50929.70423771
 20
-8385.92605432
 10
50927.70423771
 20
-8385.92605432
 10
50926.70423771
 20
-8384.92605432
 10
50926.70450366
 20
-8348.5795682
 10
50930.45449758
 20
-8346.4145082
 10
50930.45449758
 20
-8351.83064459
 10
50933.35449761
 20
-8351.83064459
 10
50933.35449761
 20
-8342.36461925
 42
-0.41421356
 10
50934.35449759
 20
-8341.36461925
 10
50936.69362175
 20
-8341.36461922
 10
50940.89364014
 20
-8347.36461954
 10
50945.09362181
 20
-8347.36461954
 10
50946.50423771
 20
-8339.36461922
 10
50965.70423771
 20
-8339.36461192
 10
50965.70423771
 20
-8344.86461192
 10
50968.70423771
 20
-8344.86461192
 10
50968.70423771
 20
-8326.36461192
 42
-0.41421356
 10
50970.70423771
 20
-8324.36461192
 10
50979.20423762
 20
-8324.36461192
 42
-0.41421359
 10
50984.20423762
 20
-8329.3646124
 10
50984.20423221
 20
-8384.92605983
 10
50983.20423771
 20
-8385.92605432
 10
50981.20423771
 20
-8385.92605432
 10
50981.20423771
 20
-8386.42605432
 42
-0.24172474
 10
50976.19711251
 20
-8396.17796193
 42
-0.15679011
 10
50975.61437294
 20
-8396.36530297
 10
50973.67030497
 20
-8396.36530297
 42
-0.28963385
 10
50972.50186896
 20
-8395.26742069
 42
0.29368695
 10
50972.10504437
 20
-8394.90010067
 42
-0.36369756
 10
50970.45423771
 20
-8392.9308206
 10
50970.45423771
 20
-8382.86240339
 42
0.41421377
 10
50967.45423555
 20
-8379.86240339
 10
50943.45423555
 20
-8379.86242069
  0
LWPOLYLINE
  5
6FE
100
AcDbEntity
  8
Ech.1_5
 62
     7
  6
CONTINUOUS
100
AcDbPolyline
 90
       27
 70
     0
 43
0.0
 10
50932.15444345
 20
-8346.23062777
 10
50930.85444356
 20
-8346.23060957
 42
0.1316525
 10
50930.35444168
 20
-8346.36457716
 10
50927.50441856
 20
-8348.00998556
 42
-0.55814417
 10
50927.35458841
 20
-8347.9291874
 42
-0.04674082
 10
50927.35985579
 20
-8347.78015952
 10
50927.52591324
 20
-8346.80536743
 42
-0.16848628
 10
50927.6345019
 20
-8346.56072555
 10
50928.28564806
 20
-8345.75950527
 42
0.14054842
 10
50928.25630627
 20
-8345.42546448
 42
0.52260001
 10
50927.51386349
 20
-8345.32649511
 42
0.03740887
 10
50926.31203389
 20
-8346.93350539
 10
50925.88247109
 20
-8347.68817937
 42
-0.16609805
 10
50925.73577833
 20
-8347.86048802
 42
-0.41421356
 10
50925.25607655
 20
-8347.738479
 42
-0.17632698
 10
50925.2115031
 20
-8347.50325077
 10
50926.36441147
 20
-8342.89465076
 42
-0.34411134
 10
50927.04349472
 20
-8342.36453087
 10
50933.35449761
 20
-8342.36461925
 10
50933.354485
 20
-8343.26461926
 10
50932.15448499
 20
-8343.26460244
 10
50930.36024914
 20
-8343.26457732
 42
0.41421356
 10
50930.06024494
 20
-8343.56457312
 10
50930.06022391
 20
-8345.06600263
 42
0.41421356
 10
50930.36021971
 20
-8345.36600683
 10
50932.15445556
 20
-8345.36603196
 10
50932.15448499
 20
-8343.26460244
  0
LWPOLYLINE
  5
6FF
100
AcDbEntity
  8
Ech.1_5
 62
     7
  6
CONTINUOUS
370
    -3
100
AcDbPolyline
 90
       20
 70
     0
 43
0.0
 10
50964.73553145
 20
-8296.74597764
 10
50964.73589247
 20
-8329.73906964
 42
-0.4142193
 10
50963.73589247
 20
-8330.73908922
 10
50944.22368943
 20
-8330.73908922
 42
-0.33945426
 10
50943.25776361
 20
-8329.99790826
 10
50941.62146601
 20
-8323.89116251
 42
0.29147239
 10
50940.03691817
 20
-8322.4391864
 10
50930.86878591
 20
-8320.82256156
 42
0.41421467
 10
50926.23494729
 20
-8324.06719724
 10
50925.26618644
 20
-8329.56131302
 42
0.04364748
 10
50925.23580195
 20
-8329.90850188
 10
50925.23484269
 20
-8347.75482692
 42
-0.43999449
 10
50924.14768695
 20
-8348.75096787
 10
50909.06107118
 20
-8347.43106002
 42
-0.39093107
 10
50907.23543345
 20
-8345.42441875
 10
50907.23564226
 20
-8305.93976808
 42
-0.4202363
 10
50908.23548659
 20
-8304.9193042
 10
50909.53544683
 20
-8304.91937406
 10
50909.53548474
 20
-8271.7426352
 10
50964.7354657
 20
-8271.74226772
  0
LINE
  5
700
100
AcDbEntity
  8
Ech.1_5
 62
     7
  6
CONTINUOUS
100
AcDbLine
 10
50963.45392386
 20
-8395.11213591
 30
0.0
 11
50947.45392386
 21
-8395.11213591
 31
0.0
  0
LWPOLYLINE
  5
701
100
AcDbEntity
  8
Ech.1_5
 62
     7
  6
CONTINUOUS
100
AcDbPolyline
 90
        4
 70
     0
 43
0.0
 10
50943.45392386
 20
-8408.34062715
 10
50943.45392386
 20
-8384.86213591
 10
50967.45392386
 20
-8384.86213591
 10
50967.45392386
 20
-8414.8250225
  0
LINE
  5
702
100
AcDbEntity
  8
Ech.1_5
 62
     7
  6
CONTINUOUS
100
AcDbLine
 10
50961.45392386
 20
-8382.86213591
 30
0.0
 11
50961.45392386
 21
-8384.06213591
 31
0.0
  0
LINE
  5
703
100
AcDbEntity
  8
Ech.1_5
 62
     7
  6
CONTINUOUS
100
AcDbLine
 10
50949.45392386
 20
-8382.86213591
 30
0.0
 11
50949.45392386
 21
-8384.06213591
 31
0.0
  0
LWPOLYLINE
  5
704
100
AcDbEntity
  8
Ech.1_5
 62
     7
  6
CONTINUOUS
100
AcDbPolyline
 90
        6
 70
     0
 43
0.0
 10
50943.45392386
 20
-8382.86213591
 10
50943.45392386
 20
-8379.86213591
 10
50967.45392386
 20
-8379.86213591
 10
50943.45392386
 20
-8382.86213591
 10
50967.45392386
 20
-8382.86213591
 10
50943.45392386
 20
-8379.86214456
  0
LINE
  5
705
100
AcDbEntity
  8
Ech.1_5
 62
     7
  6
CONTINUOUS
100
AcDbLine
 10
50967.45392386
 20
-8379.86213591
 30
0.0
 11
50967.45392386
 21
-8382.86213591
 31
0.0
  0
LWPOLYLINE
  5
706
100
AcDbEntity
  8
Ech.1_5
 62
     7
  6
CONTINUOUS
100
AcDbPolyline
 90
       99
 70
     0
 43
0.0
 10
50942.22711996
 20
-8394.08628354
 10
50943.45392386
 20
-8390.71566752
 10
50943.45392386
 20
-8385.76213591
 10
50943.15392386
 20
-8385.46213591
 10
50943.15392386
 20
-8384.76213591
 42
-0.95548796
 10
50943.95226754
 20
-8384.72577227
 42
0.38779458
 10
50944.10164642
 20
-8384.86213591
 10
50947.3368074
 20
-8384.86213591
 42
0.34415073
 10
50947.48232878
 20
-8384.74851625
 10
50947.62551895
 20
-8384.17575556
 42
-0.34415073
 10
50947.77104032
 20
-8384.06213591
 10
50963.1368074
 20
-8384.06213591
 42
-0.34415073
 10
50963.28232878
 20
-8384.17575556
 10
50963.42551895
 20
-8384.74851625
 42
0.34415073
 10
50963.57104032
 20
-8384.86213591
 10
50966.8062013
 20
-8384.86213591
 42
0.38779458
 10
50966.95558018
 20
-8384.72577227
 42
-0.95548796
 10
50967.75392386
 20
-8384.76213591
 10
50967.75392386
 20
-8385.46213591
 10
50967.45392386
 20
-8385.76213591
 10
50967.45392386
 20
-8390.71566752
 10
50968.67147799
 20
-8394.06087
 42
-1.10738051
 10
50968.42275064
 20
-8394.15139935
 10
50968.09421736
 20
-8392.84980973
 42
0.93251509
 10
50967.455724
 20
-8392.96281574
 10
50967.78256782
 20
-8395.38381805
 42
-0.18531675
 10
50967.62788867
 20
-8396.03770398
 42
0.15081813
 10
50967.45392386
 20
-8396.60132252
 10
50967.45392386
 20
-8396.89258423
 10
50967.45392386
 20
-8397.89258423
 42
0.30843151
 10
50967.71114804
 20
-8398.24819701
 42
0.26795044
 10
50972.97777953
 20
-8396.00663705
 42
0.52171267
 10
50972.93576789
 20
-8395.76419486
 42
-0.15565301
 10
50972.10471036
 20
-8394.66177132
 10
50970.44730996
 20
-8394.86213591
 42
-0.31529879
 10
50970.25937144
 20
-8394.73053993
 10
50969.28562279
 20
-8392.05518752
 42
-0.87140053
 10
50969.37319919
 20
-8392.0088922
 10
50969.88995954
 20
-8392.72739562
 42
1.00812133
 10
50970.41019074
 20
-8392.41820577
 10
50968.93296675
 20
-8390.11340646
 42
-0.14346618
 10
50968.85392386
 20
-8389.84360077
 10
50968.85392386
 20
-8388.26236518
 42
-0.72472287
 10
50969.03454438
 20
-8388.20320158
 10
50969.68644586
 20
-8389.09152886
 42
0.94855512
 10
50970.39608204
 20
-8388.62586023
 10
50968.95211173
 20
-8386.6760409
 42
-0.16072186
 10
50968.85392386
 20
-8386.37847241
 10
50968.85392386
 20
-8384.8206355
 42
0.08748866
 10
50968.84186239
 20
-8384.75223147
 10
50968.18984662
 20
-8382.96083288
 42
0.31529879
 10
50968.04889273
 20
-8382.86213591
 10
50966.67104032
 20
-8382.86213591
 42
0.34415073
 10
50966.52551895
 20
-8382.97575556
 10
50966.38232878
 20
-8383.54851625
 42
-0.34415073
 10
50966.2368074
 20
-8383.66213591
 10
50964.47104032
 20
-8383.66213591
 42
-0.34415073
 10
50964.32551895
 20
-8383.54851625
 10
50964.18232878
 20
-8382.97575556
 42
0.34415073
 10
50964.0368074
 20
-8382.86213591
 10
50946.87104032
 20
-8382.86213591
 42
0.34415073
 10
50946.72551895
 20
-8382.97575556
 10
50946.58232878
 20
-8383.54851625
 42
-0.34415073
 10
50946.4368074
 20
-8383.66213591
 10
50944.67104032
 20
-8383.66213591
 42
-0.34415073
 10
50944.52551895
 20
-8383.54851625
 10
50944.38232878
 20
-8382.97575556
 42
0.34415073
 10
50944.2368074
 20
-8382.86213591
 10
50942.85895499
 20
-8382.86213591
 42
0.31529879
 10
50942.7180011
 20
-8382.96083288
 10
50942.06598534
 20
-8384.75223147
 42
0.08748866
 10
50942.05392386
 20
-8384.8206355
 10
50942.05392386
 20
-8386.37847241
 42
-0.16072186
 10
50941.955736
 20
-8386.6760409
 10
50940.51176568
 20
-8388.62586023
 42
0.94855512
 10
50941.22140186
 20
-8389.09152886
 10
50941.87330334
 20
-8388.20320158
 42
-0.72472287
 10
50942.05392386
 20
-8388.26236518
 10
50942.05392386
 20
-8389.84360077
 42
-0.14346618
 10
50941.97488098
 20
-8390.11340646
 10
50940.49765698
 20
-8392.41820577
 42
1.00812133
 10
50941.01788819
 20
-8392.72739562
 10
50941.53464853
 20
-8392.0088922
 42
-0.87140053
 10
50941.62222493
 20
-8392.05518752
 10
50940.64847629
 20
-8394.73053993
 42
-0.31529879
 10
50940.46053776
 20
-8394.86213591
 10
50938.80309704
 20
-8394.66177132
 42
-0.15565608
 10
50937.97206057
 20
-8395.76417658
 42
0.52171267
 10
50937.93004893
 20
-8396.00661877
 42
0.26794928
 10
50943.19669969
 20
-8398.24819701
 42
0.30843151
 10
50943.45392386
 20
-8397.89258423
 10
50943.45392386
 20
-8396.89258423
 10
50943.45392386
 20
-8396.60132252
 42
0.15081813
 10
50943.27995906
 20
-8396.03770398
 42
-0.18531675
 10
50943.1252799
 20
-8395.38381805
 10
50943.45212373
 20
-8392.96281574
 42
0.93251509
 10
50942.81363037
 20
-8392.84980973
 10
50942.48509708
 20
-8394.15139935
 42
-1.10738051
 10
50942.23636973
 20
-8394.06087
  0
LWPOLYLINE
  5
707
100
AcDbEntity
  8
Ech.1_5
 62
     7
  6
CONTINUOUS
100
AcDbPolyline
 90
       14
 70
     0
 43
0.0
 10
50964.73592841
 20
-8329.73906964
 42
-0.4142193
 10
50963.73592841
 20
-8330.73908922
 10
50944.22372537
 20
-8330.73908922
 42
-0.33945426
 10
50943.25779954
 20
-8329.99790826
 10
50941.62150195
 20
-8323.89116251
 42
0.29147239
 10
50940.0369541
 20
-8322.4391864
 10
50930.86882185
 20
-8320.82256156
 42
0.41421467
 10
50926.23498322
 20
-8324.06719724
 10
50925.26622237
 20
-8329.56131302
 42
0.04364748
 10
50925.23583788
 20
-8329.90850188
 10
50925.23487863
 20
-8347.75482692
 42
-0.43999449
 10
50924.14772289
 20
-8348.75096787
 10
50909.06110711
 20
-8347.43106002
 42
-0.39093107
 10
50907.23546938
 20
-8345.42441875
  0
LWPOLYLINE
  5
708
100
AcDbEntity
  8
Ech.1_5
 62
     7
  6
CONTINUOUS
100
AcDbPolyline
 90
       13
 70
     0
 43
0.0
 10
50932.1543758
 20
-8351.06175974
 10
50932.15438835
 20
-8350.16536742
 10
50930.96479864
 20
-8349.04102811
 42
0.91580633
 10
50930.51772872
 20
-8349.43771197
 10
50931.6223267
 20
-8350.92777728
 42
0.1316527
 10
50932.12232553
 20
-8351.06175929
 10
50932.55437589
 20
-8351.06176534
 42
0.41417853
 10
50933.35438709
 20
-8350.26187223
 10
50933.35438987
 20
-8350.06306203
 10
50933.35439183
 20
-8349.92331431
 10
50933.35443655
 20
-8346.72219654
 10
50933.35444356
 20
-8346.22219654
 10
50933.354485
 20
-8343.26461925
  0
LWPOLYLINE
  5
709
100
AcDbEntity
  8
Ech.1_5
 62
     7
  6
CONTINUOUS
100
AcDbPolyline
 90
        7
 70
     0
 43
0.0
 10
50932.15439885
 20
-8349.41578708
 10
50930.53005626
 20
-8347.51895314
 42
-0.91580633
 10
50930.94817918
 20
-8347.09186671
 10
50932.15441754
 20
-8348.08126187
 10
50932.15439925
 20
-8349.38738745
 10
50932.15439885
 20
-8349.41578708
 10
50932.15438845
 20
-8350.15817025
  0
LWPOLYLINE
  5
70A
100
AcDbEntity
  8
Ech.1_5
 62
     7
  6
CONTINUOUS
100
AcDbPolyline
 90
       23
 70
     0
 43
0.0
 10
50926.22941916
 20
-8345.94368164
 10
50926.90362013
 20
-8343.24865169
 42
0.18145137
 10
50926.83438481
 20
-8343.09070086
 42
-1.27267075
 10
50927.11288954
 20
-8342.96453184
 10
50929.00374397
 20
-8343.24162559
 42
-0.37221348
 10
50929.2602453
 20
-8343.53845948
 10
50929.26021062
 20
-8346.01482381
 42
-0.26794919
 10
50929.11020698
 20
-8346.27462933
 10
50928.11380603
 20
-8346.84988308
 42
0.26794919
 10
50928.01380361
 20
-8347.02308676
 42
-1.97124746
 10
50927.87702964
 20
-8346.86246386
 10
50928.64955394
 20
-8345.94861995
 42
0.16876399
 10
50928.63163334
 20
-8345.28708957
 42
0.38568556
 10
50928.51208894
 20
-8345.22589444
 42
-0.58420509
 10
50928.26792156
 20
-8344.97730985
 42
0.36875524
 10
50928.21431798
 20
-8344.85904513
 42
0.14609734
 10
50927.72983269
 20
-8344.78655008
 42
0.36968256
 10
50927.64395466
 20
-8344.88427083
 42
-0.5863835
 10
50927.33447259
 20
-8345.05226595
 42
0.36968256
 10
50927.2057408
 20
-8345.07104113
 42
0.0588644
 10
50926.34344407
 20
-8346.2873558
 42
-1.5024158
 10
50926.00303806
 20
-8346.14492634
 42
0.17735748
 10
50926.22941916
 20
-8345.94368164
  0
LINE
  5
70B
100
AcDbEntity
  8
Ech.1_5
 62
     7
  6
CONTINUOUS
100
AcDbLine
 10
50932.15445556
 20
-8345.36603196
 30
0.0
 11
50932.15444345
 21
-8348.08123027
 31
0.0
  0
LINE
  5
70C
100
AcDbEntity
  8
Ech.1_5
 62
     7
  6
CONTINUOUS
370
    15
100
AcDbLine
 10
50967.80371623
 20
-8325.22673752
 30
0.0
 11
50968.70402103
 21
-8325.2514218
 31
0.0
  0
LWPOLYLINE
  5
70D
100
AcDbEntity
  8
Ech.1_5
 62
     7
  6
CONTINUOUS
100
AcDbPolyline
 90
       47
 70
     0
 43
0.0
 10
50968.704087
 20
-8325.24901978
 10
50968.30408678
 20
-8339.81461208
 10
50968.55408729
 20
-8339.81461208
 42
-0.52681168
 10
50968.69400844
 20
-8340.01866812
 10
50968.30924351
 20
-8341.01461191
 10
50968.55408723
 20
-8341.01461191
 42
-0.52681163
 10
50968.69400845
 20
-8341.21866792
 10
50968.30924351
 20
-8342.2146122
 10
50968.55408705
 20
-8342.2146122
 42
-0.52681148
 10
50968.69400829
 20
-8342.41866815
 10
50968.36562671
 20
-8343.26866819
 42
-0.30991942
 10
50968.22570552
 20
-8343.36461211
 10
50967.58474517
 20
-8343.36461211
 42
-0.19738267
 10
50967.40901233
 20
-8343.29242653
 42
-0.0024604
 10
50965.97825175
 20
-8341.86442992
 42
-0.09974433
 10
50965.704087
 20
-8340.39466264
 42
-0.95831856
 10
50966.36326186
 20
-8340.37734601
 42
0.07148022
 10
50966.55787254
 20
-8341.33023293
 42
-0.01635879
 10
50967.15621646
 20
-8341.94716027
 42
0.68567924
 10
50967.50408721
 20
-8341.81275538
 10
50967.50408699
 20
-8340.06461183
 42
0.41421353
 10
50966.80408699
 20
-8339.36461192
 10
50964.77961358
 20
-8339.36461192
 42
-1.00055426
 10
50964.77961358
 20
-8338.4146126
 10
50966.66376762
 20
-8338.4146126
 42
0.40620768
 10
50967.4634671
 20
-8337.63653862
 10
50967.80494403
 20
-8325.18195599
 42
0.3398043
 10
50967.59025432
 20
-8324.88608574
 10
50965.6989839
 20
-8324.47400959
 42
0.78024864
 10
50965.51063899
 20
-8324.86817523
 42
-0.33183283
 10
50966.73075935
 20
-8326.66948268
 42
-0.19863002
 10
50966.27453322
 20
-8327.65346393
 42
0.12687529
 10
50965.41181011
 20
-8329.49620344
 42
0.05691082
 10
50965.404087
 20
-8329.56383642
 10
50965.404087
 20
-8331.61417988
 42
-1.00076012
 10
50964.704087
 20
-8331.61461211
 10
50964.704087
 20
-8329.62885159
 42
-0.18586263
 10
50965.80963312
 20
-8327.13014004
 42
0.22946848
 10
50966.01014518
 20
-8326.64691322
 42
0.22235481
 10
50965.70538846
 20
-8325.79264317
 42
0.05887459
 10
50964.73662621
 20
-8325.29194972
 42
-0.11154972
 10
50964.71234751
 20
-8325.18447928
 10
50964.704087
 20
-8323.61461211
 42
-0.59245366
 10
50965.08870288
 20
-8323.4039499
 42
0.12265873
 10
50968.5837157
 20
-8324.30618556
 42
-0.35710574
 10
50968.704087
 20
-8324.45323025
 10
50968.704087
 20
-8325.24901978
  0
LINE
  5
70E
100
AcDbEntity
  8
Ech.1_5
 62
     7
  6
CONTINUOUS
370
    15
100
AcDbLine
 10
50965.97825162
 20
-8341.86442966
 30
0.0
 11
50966.55787264
 21
-8341.33023335
 31
0.0
  0
LWPOLYLINE
  5
70F
100
AcDbEntity
  8
Ech.1_5
 62
     7
  6
CONTINUOUS
370
    15
100
AcDbPolyline
 90
        7
 70
     0
 43
0.0
 10
50967.71250233
 20
-8328.55355376
 42
0.23258596
 10
50966.52574377
 20
-8329.86859028
 42
0.04374928
 10
50966.60059433
 20
-8331.94483096
 42
-1.08702271
 10
50965.404087
 20
-8332.04951253
 10
50965.404087
 20
-8329.56383642
 42
-0.0555506
 10
50965.62070909
 20
-8328.76636382
 42
-0.25732504
 10
50967.74151753
 20
-8327.49529119
  0
LINE
  5
710
100
AcDbEntity
  8
Ech.1_5
 62
     7
  6
CONTINUOUS
100
AcDbLine
 10
50947.45392386
 20
-8384.86213591
 30
0.0
 11
50947.45392386
 21
-8409.79141463
 31
0.0
  0
LINE
  5
711
100
AcDbEntity
  8
Ech.1_5
 62
     7
  6
CONTINUOUS
100
AcDbLine
 10
50963.45392386
 20
-8384.86213591
 30
0.0
 11
50963.45392386
 21
-8414.10106741
 31
0.0
  0
LWPOLYLINE
  5
712
100
AcDbEntity
  8
Ech.1_5
 62
     7
  6
CONTINUOUS
100
AcDbPolyline
 90
        4
 70
     0
 43
0.0
 10
50964.7354657
 20
-8271.7426352
 10
50964.73589249
 20
-8329.7498562
 42
-0.41421752
 10
50963.73589249
 20
-8330.74986972
 10
50953.73540979
 20
-8330.74986972
  0
LINE
  5
713
100
AcDbEntity
  8
Ech.1_5
 62
   150
  6
CADWORK_22
370
    35
100
AcDbLine
 10
50868.56380222
 20
-8262.31085871
 30
2500.0
 11
50890.54229157
 21
-8262.31085871
 31
2500.0
  0
LWPOLYLINE
  5
714
102
{ACAD_REACTORS
330
715
102
}
100
AcDbEntity
  8
Ech.1_5
 62
     7
  6
CONTINUOUS
370
     5
100
AcDbPolyline
 90
        4
 70
     1
 43
0.0
 10
50909.53767062
 20
-8298.43045951
 10
50909.53767062
 20
-8285.05293903
 10
50900.10501056
 20
-8285.05293903
 10
50900.10501056
 20
-8298.43045951
  0
HATCH
  5
715
100
AcDbEntity
  8
Ech.1_5
 62
     2
  6
CONTINUOUS
100
AcDbHatch
 10
0.0
 20
0.0
 30
0.0
210
0.0
220
0.0
230
1.0
  2
SOLID
 70
     1
 71
     1
 91
        1
 92
        7
 72
     0
 73
     1
 93
        4
 10
50909.53767062
 20
-8298.43045951
 10
50909.53767062
 20
-8285.05293903
 10
50900.10501056
 20
-8285.05293903
 10
50900.10501056
 20
-8298.43045951
 97
        1
330
714
 75
     0
 76
     2
 47
0.775229
 98
        1
 10
0.0
 20
0.0
  0
LWPOLYLINE
  5
716
102
{ACAD_REACTORS
330
717
102
}
100
AcDbEntity
  8
Ech.1_5
 62
     7
  6
CONTINUOUS
370
     5
100
AcDbPolyline
 90
        4
 70
     1
 43
0.0
 10
50900.10501056
 20
-8298.43045951
 10
50900.10501056
 20
-8305.2194507
 10
50909.53767062
 20
-8305.2194507
 10
50909.53767062
 20
-8298.43045951
  0
HATCH
  5
717
100
AcDbEntity
  8
Ech.1_5
 62
     2
  6
CONTINUOUS
100
AcDbHatch
 10
0.0
 20
0.0
 30
0.0
210
0.0
220
0.0
230
1.0
  2
SOLID
 70
     1
 71
     1
 91
        1
 92
        7
 72
     0
 73
     1
 93
        4
 10
50900.10501056
 20
-8298.43045951
 10
50900.10501056
 20
-8305.2194507
 10
50909.53767062
 20
-8305.2194507
 10
50909.53767062
 20
-8298.43045951
 97
        1
330
716
 75
     0
 76
     2
 47
0.775229
 98
        1
 10
0.0
 20
0.0
  0
HATCH
  5
718
100
AcDbEntity
  8
Ech.1_5
 62
     7
  6
CONTINUOUS
100
AcDbHatch
 10
0.0
 20
0.0
 30
0.0
210
0.0
220
0.0
230
1.0
  2
ANSI31
 70
     0
 71
     1
 91
        1
 92
        7
 72
     0
 73
     1
 93
        4
 10
50900.10501056
 20
-8298.43045951
 10
50900.10501056
 20
-8305.2194507
 10
50909.53767062
 20
-8305.2194507
 10
50909.53767062
 20
-8298.43045951
 97
        1
330
717
 75
     0
 76
     2
 52
0.0
 41
0.94488785
 77
     0
 78
     1
 53
45.0
 43
0.0
 44
0.0
 45
2.12132043
 46
-2.12132043
 79
     0
 47
0.775229
 98
        1
 10
0.0
 20
0.0
  0
LWPOLYLINE
  5
719
102
{ACAD_REACTORS
330
71A
102
}
100
AcDbEntity
  8
Ech.1_5
 62
     9
  6
CONTINUOUS
370
    -3
100
AcDbPolyline
 90
        3
 70
     1
 43
0.0
 38
2500.0
 39
-2500.0
 10
51106.08550561
 20
-8262.31213751
 42
0.20253787
 10
51047.67530459
 20
-8186.65468781
 10
51047.67530459
 20
-8262.31122619
  0
HATCH
  5
71A
100
AcDbEntity
  8
Ech.1_5
 62
     9
  6
CONTINUOUS
100
AcDbHatch
 10
0.0
 20
0.0
 30
0.0
210
0.0
220
0.0
230
1.0
  2
AR-CONC
 70
     0
 71
     1
 91
        1
 92
        7
 72
     1
 73
     1
 93
        3
 10
51106.08550561
 20
-8262.31213751
 42
0.20253787
 10
51047.67530459
 20
-8186.65468781
 42
0.0
 10
51047.67530459
 20
-8262.31122619
 42
0.0
 97
        1
330
719
 75
     0
 76
     2
 52
0.0
 41
0.11811097
 77
     0
 78
    13
 53
50.0
 43
0.0
 44
0.0
 45
-18.84283637
 46
1.64853443
 79
     2
 49
1.97029307
 49
-21.67322338
 53
355.0
 43
0.0
 44
0.0
 45
-3.64507756
 46
19.76051824
 79
     2
 49
1.57623377
 49
-17.3385787
 53
100.45140076
 43
1.57023568
 44
-0.13737749
 45
-15.19777228
 46
-18.11197244
 79
     2
 49
1.67449124
 49
-18.41940522
 53
46.18420029
 43
0.0
 44
5.25411576
 45
-28.03703353
 46
4.34827878
 79
     2
 49
2.95543872
 49
-32.50983238
 53
96.63559723
 43
2.33641885
 44
4.89175692
 45
-24.55412615
 46
-25.59063404
 79
     2
 49
2.51173697
 49
-27.62910426
 53
351.1842041
 43
0.0
 44
5.25411576
 45
24.55410288
 46
25.59065715
 79
     2
 49
2.36435249
 49
-26.00786805
 53
21.0
 43
2.62705699
 44
3.94058615
 45
-15.68109068
 46
10.57702905
 79
     2
 49
1.97029307
 49
-21.67322338
 53
326.0
 43
2.62705699
 44
3.94058615
 45
6.39203268
 46
19.05010734
 79
     2
 49
1.57623377
 49
-17.3385787
 53
71.45140076
 43
3.93381357
 44
3.05916555
 45
-22.07312962
 46
-8.47306182
 79
     2
 49
1.67449124
 49
-18.41940522
 53
37.5
 43
0.0
 44
0.0
 45
0.31944534
 46
8.74531245
 79
     6
 49
0.01875
 49
-17.12841332
 49
0.01875
 49
-17.60128498
 49
0.01875
 49
-17.40425348
 53
7.5
 43
0.0
 44
0.0
 45
6.91098818
 46
10.3614222
 79
     6
 49
0.01875
 49
-10.03535807
 49
0.01875
 49
-16.7343539
 49
0.01875
 49
-6.6333206
 53
-32.5
 43
-5.85833833
 44
0.0
 45
14.02382061
 46
-0.59253003
 79
     6
 49
0.01875
 49
-6.56764314
 49
0.01875
 49
-20.49104869
 49
0.01875
 49
-27.19004452
 53
-42.5
 43
-8.48539531
 44
0.0
 45
15.32063571
 46
2.62981542
 79
     6
 49
0.01875
 49
-8.53793621
 49
0.01875
 49
-13.60815793
 49
0.01875
 49
-19.30887222
 47
0.775229
 98
        1
 10
0.0
 20
0.0
  0
LWPOLYLINE
  5
71B
100
AcDbEntity
  8
Ech.1_5
 62
   190
  6
CONTINUOUS
370
    -3
100
AcDbPolyline
 90
       46
 70
     0
 43
0.0
 10
51044.33533605
 20
-8262.31122619
 42
1.14028181
 10
51043.47088663
 20
-8255.7450963
 10
51031.83991131
 20
-8258.85745046
 42
-1.30322619
 10
51031.83991131
 20
-8252.40512776
 10
51043.47088663
 20
-8255.51748192
 42
1.30322619
 10
51043.47088663
 20
-8249.06515922
 10
51031.83991131
 20
-8252.17751338
 42
-1.30322619
 10
51031.83991131
 20
-8245.72519068
 10
51043.47088663
 20
-8248.83754484
 42
1.30322619
 10
51043.47088663
 20
-8242.38522214
 10
51031.83991131
 20
-8245.4975763
 42
-1.30322619
 10
51031.83991131
 20
-8239.04525361
 10
51043.47088663
 20
-8242.15760776
 42
1.30322619
 10
51043.47088663
 20
-8235.70528507
 10
51031.83991131
 20
-8238.81763923
 42
-1.30322619
 10
51031.83991131
 20
-8232.36531653
 10
51043.47088663
 20
-8235.47767069
 42
1.30322619
 10
51043.47088663
 20
-8229.02534799
 10
51031.83991131
 20
-8232.13770215
 42
-1.30322619
 10
51031.83991131
 20
-8225.68537945
 10
51043.47088663
 20
-8228.79773361
 42
1.30322619
 10
51043.47088663
 20
-8222.34541091
 10
51031.83991131
 20
-8225.45776507
 42
-1.30322619
 10
51031.83991131
 20
-8219.00544237
 10
51043.47088663
 20
-8222.11779653
 42
1.30322619
 10
51043.47088663
 20
-8215.66547383
 10
51031.83991131
 20
-8218.77782799
 42
-1.30322619
 10
51031.83991131
 20
-8212.3255053
 10
51043.47088663
 20
-8215.43785945
 42
1.30322619
 10
51043.47088663
 20
-8208.98553676
 10
51031.83991131
 20
-8212.09789092
 42
-1.30322619
 10
51031.83991131
 20
-8205.64556822
 10
51043.47088663
 20
-8208.75792238
 42
1.30322619
 10
51043.47088663
 20
-8202.30559968
 10
51031.83991131
 20
-8205.41795384
 42
-1.30322619
 10
51031.83991131
 20
-8198.96563114
 10
51043.47088663
 20
-8202.0779853
 42
1.30322619
 10
51043.47088663
 20
-8195.6256626
 10
51031.83991131
 20
-8198.73801676
 42
-1.30322619
 10
51031.83991131
 20
-8192.28569406
 10
51043.47088663
 20
-8195.39804822
 42
1.30322619
 10
51043.47088663
 20
-8188.94572552
 10
51031.83991131
 20
-8192.05807968
 42
-1.30322619
 10
51031.83991131
 20
-8185.60575699
 10
51043.47088663
 20
-8188.71811115
 42
0.39599062
 10
51047.50108263
 20
-8186.55658046
  0
LWPOLYLINE
  5
71C
100
AcDbEntity
  8
Ech.1_5
 62
   190
  6
CONTINUOUS
370
    -3
100
AcDbPolyline
 90
        3
 70
     0
 43
0.0
 10
51040.69787505
 20
-8183.00782374
 10
51031.83991131
 20
-8185.37814261
 42
-1.13533781
 10
51030.94667689
 20
-8178.81213676
  0
ARC
  5
71D
100
AcDbEntity
  8
Ech.1_5
 62
   190
  6
CONTINUOUS
370
    -3
100
AcDbCircle
 10
51030.97546189
 20
-8175.47204418
 30
0.0
 40
3.33996854
100
AcDbArc
 50
229.95190068
 51
269.49473437
  0
LWPOLYLINE
  5
71E
100
AcDbEntity
  8
Ech.1_5
 62
   190
  6
CONTINUOUS
370
    -3
100
AcDbPolyline
 90
        4
 70
     1
 43
0.0
 10
50909.53548474
 20
-8271.7426352
 10
50944.56895404
 20
-8271.74175162
 10
50944.56895404
 20
-8262.30909156
 10
50909.53548474
 20
-8262.30997514
  0
LWPOLYLINE
  5
71F
100
AcDbEntity
  8
Ech.1_5
 62
   190
  6
CONTINUOUS
370
    -3
100
AcDbPolyline
 90
        4
 70
     0
 43
0.0
 10
50944.56895404
 20
-8262.30909156
 10
50909.53548474
 20
-8271.7426352
 10
50909.53548474
 20
-8262.30997514
 10
50944.56895404
 20
-8271.74175162
  0
LWPOLYLINE
  5
720
102
{ACAD_REACTORS
330
721
102
}
100
AcDbEntity
  8
Ech.1_5
 62
     7
  6
CONTINUOUS
370
     5
100
AcDbPolyline
 90
        4
 70
     1
 43
0.0
 10
50957.94647451
 20
-8271.7426352
 10
50944.56895404
 20
-8271.7426352
 10
50944.56895404
 20
-8262.30997514
 10
50957.94647451
 20
-8262.30997514
  0
HATCH
  5
721
100
AcDbEntity
  8
Ech.1_5
 62
     2
  6
CONTINUOUS
100
AcDbHatch
 10
0.0
 20
0.0
 30
0.0
210
0.0
220
0.0
230
1.0
  2
SOLID
 70
     1
 71
     1
 91
        1
 92
        7
 72
     0
 73
     1
 93
        4
 10
50957.94647451
 20
-8271.7426352
 10
50944.56895404
 20
-8271.7426352
 10
50944.56895404
 20
-8262.30997514
 10
50957.94647451
 20
-8262.30997514
 97
        1
330
720
 75
     0
 76
     2
 47
0.775229
 98
        1
 10
0.0
 20
0.0
  0
LWPOLYLINE
  5
722
102
{ACAD_REACTORS
330
723
102
}
100
AcDbEntity
  8
Ech.1_5
 62
     7
  6
CONTINUOUS
370
     5
100
AcDbPolyline
 90
        4
 70
     1
 43
0.0
 10
50957.94647451
 20
-8262.30997514
 10
50964.7354657
 20
-8262.30997514
 10
50964.7354657
 20
-8271.7426352
 10
50957.94647451
 20
-8271.7426352
  0
HATCH
  5
723
100
AcDbEntity
  8
Ech.1_5
 62
     2
  6
CONTINUOUS
100
AcDbHatch
 10
0.0
 20
0.0
 30
0.0
210
0.0
220
0.0
230
1.0
  2
SOLID
 70
     1
 71
     1
 91
        1
 92
        7
 72
     0
 73
     1
 93
        4
 10
50957.94647451
 20
-8262.30997514
 10
50964.7354657
 20
-8262.30997514
 10
50964.7354657
 20
-8271.7426352
 10
50957.94647451
 20
-8271.7426352
 97
        1
330
722
 75
     0
 76
     2
 47
0.775229
 98
        1
 10
0.0
 20
0.0
  0
HATCH
  5
724
100
AcDbEntity
  8
Ech.1_5
 62
     7
  6
CONTINUOUS
100
AcDbHatch
 10
0.0
 20
0.0
 30
0.0
210
0.0
220
0.0
230
1.0
  2
ANSI31
 70
     0
 71
     1
 91
        1
 92
        7
 72
     0
 73
     1
 93
        4
 10
50957.94647451
 20
-8262.30997514
 10
50964.7354657
 20
-8262.30997514
 10
50964.7354657
 20
-8271.7426352
 10
50957.94647451
 20
-8271.7426352
 97
        1
330
723
 75
     0
 76
     2
 52
0.0
 41
0.94488785
 77
     0
 78
     1
 53
45.0
 43
0.0
 44
0.0
 45
2.12132043
 46
-2.12132043
 79
     0
 47
0.775229
 98
        1
 10
0.0
 20
0.0
  0
LWPOLYLINE
  5
725
100
AcDbEntity
  8
Ech.1_5
 62
     1
  6
CADWORK_22
 48
-5.0
370
    35
100
AcDbPolyline
 90
        3
 70
     0
 43
0.0
 10
51027.63549335
 20
-8177.60812676
 10
51027.63549335
 20
-8262.31085871
 10
50898.35380993
 20
-8262.31085871
  0
LWPOLYLINE
  5
726
100
AcDbEntity
  8
Ech.1_5
 62
     3
370
    70
100
AcDbPolyline
 90
        4
 70
     0
 43
0.0
 10
50649.85979836
 20
-8963.27768794
 10
50636.87066494
 20
-8963.27768794
 10
50632.9359328
 20
-8957.59707497
 10
50619.4575028
 20
-8957.59707497
  0
LWPOLYLINE
  5
727
100
AcDbEntity
  8
Ech.1_5
 62
   190
  6
CONTINUOUS
370
    -3
100
AcDbPolyline
 90
        6
 70
     0
 43
0.0
 10
50409.09892116
 20
-9232.92444131
 10
50584.09892116
 20
-9232.92444131
 10
50600.58442432
 20
-9214.9470929
 10
50586.4744843
 20
-9250.90279291
 10
50602.96083838
 20
-9232.92444131
 10
51014.47219215
 20
-9232.92502765
  0
TEXT
  5
728
100
AcDbEntity
  8
Ech.1_5
 62
   190
100
AcDbText
 10
50201.7631128
 20
-9207.23929361
 30
0.0
 40
8.00000012
  1
Echelle en mm
  7
ARIAL
 50
0.0
 41
1.0
 51
0.0
100
AcDbText
  0
TEXT
  5
729
100
AcDbEntity
  8
Ech.1_5
 62
   190
100
AcDbText
 10
50187.78252805
 20
-9235.44912914
 30
0.0
 40
8.00000012
  1
0
  7
ARIAL
 50
0.0
 41
1.0
 51
0.0
100
AcDbText
  0
TEXT
  5
72A
100
AcDbEntity
  8
Ech.1_5
 62
   190
100
AcDbText
 10
50274.37958594
 20
-9235.44912914
 30
0.0
 40
8.00000012
  1
100
  7
ARIAL
 50
0.0
 41
1.0
 51
0.0
100
AcDbText
  0
TEXT
  5
72B
100
AcDbEntity
  8
Ech.1_5
 62
   190
100
AcDbText
 10
50235.63915437
 20
-9235.44912914
 30
0.0
 40
8.00000012
  1
50
  7
ARIAL
 50
0.0
 41
1.0
 51
0.0
100
AcDbText
  0
INSERT
  5
72C
100
AcDbEntity
  8
Ech.1_5
 62
     0
370
    -3
100
AcDbBlockReference
  2
*D23
 10
0.0
 20
0.0
 30
0.0
  0
INSERT
  5
72D
100
AcDbEntity
  8
Ech.1_5
 62
     0
370
    -3
100
AcDbBlockReference
  2
*D24
 10
0.0
 20
0.0
 30
0.0
  0
INSERT
  5
72E
100
AcDbEntity
  8
Ech.1_5
 62
     0
370
    -3
100
AcDbBlockReference
  2
*D25
 10
0.0
 20
0.0
 30
0.0
  0
INSERT
  5
72F
100
AcDbEntity
  8
Ech.1_5
 62
     0
370
    -3
100
AcDbBlockReference
  2
*D26
 10
0.0
 20
0.0
 30
0.0
  0
INSERT
  5
730
100
AcDbEntity
  8
Ech.1_5
 62
     0
370
    -3
100
AcDbBlockReference
  2
*D27
 10
0.0
 20
0.0
 30
0.0
  0
INSERT
  5
731
100
AcDbEntity
  8
Ech.1_5
 62
     0
370
    -3
100
AcDbBlockReference
  2
*D32
 10
0.0
 20
0.0
 30
0.0
  0
INSERT
  5
732
100
AcDbEntity
  8
Ech.1_5
 62
     0
370
    -3
100
AcDbBlockReference
  2
*D33
 10
0.0
 20
0.0
 30
0.0
  0
ENDSEC
  0
SECTION
  2
OBJECTS
  0
DICTIONARY
  5
1
100
AcDbDictionary
  3
ACAD_GROUP
350
2
  3
ACAD_MLINESTYLE
350
3
  0
DICTIONARY
  5
2
102
{CDWK_REACTORS
330
1
102
}
100
AcDbDictionary
  0
DICTIONARY
  5
3
102
{CDWK_REACTORS
330
1
102
}
100
AcDbDictionary
  3
STANDARD
350
4
  0
MLINESTYLE
  5
4
102
{CDWK_REACTORS
330
3
102
}
100
AcDbMlineStyle
  2
STANDARD
 70
     0
  3

 62
     0
 51
90.0
 52
90.0
 71
     2
 49
0.5
 62
   256
  6
BYLAYER
 49
-0.5
 62
   256
  6
BYLAYER
  0
ENDSEC
  0
EOF
