  0
SECTION
  2
HEADER
  9
$ACADVER
  1
AC1014
  9
$DWGCODEPAGE
  3
ANSI_1252
  9
$INSBASE
 10
0.0
 20
0.0
 30
0.0
  9
$EXTMIN
 10
1033.98771282
 20
-21718.34332712
  9
$EXTMAX
 10
122326.07664696
 20
2240.3362527
  9
$LIMMIN
 10
1033.98771282
 20
-21718.34332712
  9
$LIMMAX
 10
122326.07664696
 20
2240.3362527
  9
$ORTHOMODE
 70
     0
  9
$REGENMODE
 70
     1
  9
$FILLMODE
 70
     1
  9
$QTEXTMODE
 70
     0
  9
$MIRRTEXT
 70
     1
  9
$DRAGMODE
 70
     2
  9
$LTSCALE
 40
5.0
  9
$OSMODE
 70
     0
  9
$ATTMODE
 70
     1
  9
$TEXTSIZE
 40
3.5
  9
$TRACEWID
 40
1.0
  9
$TEXTSTYLE
  7
STANDARD
  9
$CLAYER
  8
0
  9
$CELTYPE
  6
BYLAYER
  9
$CECOLOR
 62
   256
  9
$DIMSCALE
 40
1.0
  9
$DIMASZ
 40
2.0
  9
$DIMEXO
 40
5.0
  9
$DIMDLI
 40
10.0
  9
$DIMRND
 40
0.0
  9
$DIMDLE
 40
2.0
  9
$DIMEXE
 40
2.0
  9
$DIMTP
 40
0.0
  9
$DIMTM
 40
0.0
  9
$DIMTXT
 40
2.5
  9
$DIMCEN
 40
1.5
  9
$DIMTSZ
 40
0.0
  9
$DIMTOL
 70
     0
  9
$DIMLIM
 70
     0
  9
$DIMTIH
 70
     1
  9
$DIMTOH
 70
     0
  9
$DIMSE1
 70
     0
  9
$DIMSE2
 70
     0
  9
$DIMTAD
 70
     1
  9
$DIMZIN
 70
     8
  9
$DIMBLK
  1

  9
$DIMASO
 70
     1
  9
$DIMSHO
 70
     1
  9
$DIMPOST
  1

  9
$DIMAPOST
  1

  9
$DIMALT
 70
     0
  9
$DIMALTD
 70
     2
  9
$DIMALTF
 40
25.4
  9
$DIMLFAC
 40
1.0
  9
$DIMTOFL
 70
     0
  9
$DIMTVP
 40
0.0
  9
$DIMTIX
 70
     0
  9
$DIMSOXD
 70
     0
  9
$DIMSAH
 70
     0
  9
$DIMBLK1
  1

  9
$DIMBLK2
  1

  9
$DIMSTYLE
  2
*UNNAMED
  9
$DIMCLRD
 70
   190
  9
$DIMCLRE
 70
   190
  9
$DIMCLRT
 70
   190
  9
$DIMTFAC
 40
1.0
  9
$DIMGAP
 40
0.09
  9
$DIMUNIT
 70
     2
  9
$LUNITS
 70
     2
  9
$LUPREC
 70
     6
  9
$AXISMODE
 70
     0
  9
$AXISUNIT
 10
0.0
 20
0.0
  9
$SKETCHINC
 40
0.1
  9
$FILLETRAD
 40
0.0
  9
$AUNITS
 70
     0
  9
$AUPREC
 70
     0
  9
$MENU
  1
ACAD
  9
$ELEVATION
 40
0.0
  9
$PELEVATION
 40
0.0
  9
$THICKNESS
 40
0.0
  9
$LIMCHECK
 70
     0
  9
$BLIPMODE
 70
     1
  9
$CHAMFERA
 40
0.0
  9
$CHAMFERB
 40
0.0
  9
$SKPOLY
 70
     1
  9
$TDCREATE
 40
2457808.0000000000
  9
$TDUPDATE
 40
2457808.0000000000
  9
$TDINDWG
 40
0.0
  9
$TDUSRTIMER
 40
0.0
  9
$USRTIMER
 70
     1
  9
$ANGBASE
 50
0.0
  9
$ANGDIR
 70
     0
  9
$PDMODE
 70
     0
  9
$PDSIZE
 40
0.0
  9
$PLINEWID
 40
0.0
  9
$COORDS
 70
     2
  9
$SPLFRAME
 70
     0
  9
$SPLINETYPE
 70
     6
  9
$SPLINESEGS
 70
     8
  9
$ATTDIA
 70
     1
  9
$ATTREQ
 70
     1
  9
$HANDLING
 70
     1
  9
$HANDSEED
  5
     65C
  9
$SURFTAB1
 70
     6
  9
$SURFTAB2
 70
     6
  9
$SURFTYPE
 70
     6
  9
$SURFU
 70
     6
  9
$SURFV
 70
     6
  9
$UCSNAME
  2

  9
$UCSORG
 10
0.0
 20
0.0
 30
0.0
  9
$UCSXDIR
 10
1.0
 20
0.0
 30
0.0
  9
$UCSYDIR
 10
0.0
 20
1.0
 30
0.0
  9
$PUCSNAME
  2

  9
$PUCSORG
 10
0.0
 20
0.0
 30
0.0
  9
$PUCSXDIR
 10
1.0
 20
0.0
 30
0.0
  9
$PUCSYDIR
 10
0.0
 20
1.0
 30
0.0
  9
$USERI1
 70
     0
  9
$USERI2
 70
     0
  9
$USERI3
 70
     0
  9
$USERI4
 70
     0
  9
$USERI5
 70
     0
  9
$USERR1
 40
0.0
  9
$USERR2
 40
0.0
  9
$USERR3
 40
0.0
  9
$USERR4
 40
0.0
  9
$USERR5
 40
0.0
  9
$WORLDVIEW
 70
     1
  9
$SHADEDGE
 70
     3
  9
$SHADEDIF
 70
    70
  9
$TILEMODE
 70
     1
  9
$MAXACTVP
 70
    16
  9
$PINSBASE
 10
0.0
 20
0.0
 30
0.0
  9
$PLIMCHECK
 70
     0
  9
$PEXTMIN
 10
1.0000000000000E+20
 20
1.0000000000000E+20
 30
1.0000000000000E+20
  9
$PEXTMAX
 10
-1.0000000000000E+20
 20
-1.0000000000000E+20
 30
-1.0000000000000E+20
  9
$PLIMMIN
 10
0.0
 20
0.0
  9
$UNITMODE
 70
     0
  9
$VISRETAIN
 70
     0
  9
$MEASUREMENT
 70
     1
  0
ENDSEC
  0
SECTION
  2
TABLES
  0
TABLE
  2
VPORT
  5
4A2
100
AcDbSymbolTable
 70
     1
  0
ENDTAB
  0
TABLE
  2
STYLE
  5
4A3
100
AcDbSymbolTable
 70
     4
  0
STYLE
  5
4A4
100
AcDbSymbolTableRecord
100
AcDbTextStyleTableRecord
  2
STANDARD
 70
     0
 40
0.0
 41
1.0
 50
0.0
 71
     0
 42
3.5
  3
MONOTXT
  4

  0
STYLE
  5
4A5
100
AcDbSymbolTableRecord
100
AcDbTextStyleTableRecord
  2
SYMAP
 70
     0
 40
0.0
 41
1.0
 50
0.0
 71
     0
 42
3.5
  3
SYMAP
  4

  0
STYLE
  5
4A6
100
AcDbSymbolTableRecord
100
AcDbTextStyleTableRecord
  2
CADWORK1
 70
     0
 40
0.0
 41
1.0
 50
0.0
 71
     0
 42
3.5
  3
MONOTXT
  4

  0
STYLE
  5
4A7
100
AcDbSymbolTableRecord
100
AcDbTextStyleTableRecord
  2
MONOTXT
 70
     0
 40
0.0
 41
1.0
 50
0.0
 71
     0
 42
3.5
  3
MONOTXT
  4

  0
STYLE
  5
4A8
100
AcDbSymbolTableRecord
100
AcDbTextStyleTableRecord
  2
TAHOMA
 70
     0
 40
0.0
 41
1.0
 50
0.0
 71
     0
 42
3.5
  3

  4

1001
ACAD
1000
Tahoma
1071
        0
  0
STYLE
  5
4A9
100
AcDbSymbolTableRecord
100
AcDbTextStyleTableRecord
  2
ARIAL
 70
     0
 40
0.0
 41
1.0
 50
0.0
 71
     0
 42
3.5
  3

  4

1001
ACAD
1000
Arial
1071
        0
  0
ENDTAB
  0
TABLE
  2
LTYPE
  5
4AA
100
AcDbSymbolTable
 70
    15
  0
LTYPE
  5
4AB
100
AcDbSymbolTableRecord
100
AcDbLinetypeTableRecord
  2
BYBLOCK
 70
    64
  3

 72
    65
 73
     0
 40
0.0
  0
LTYPE
  5
4AC
100
AcDbSymbolTableRecord
100
AcDbLinetypeTableRecord
  2
BYLAYER
 70
    64
  3

 72
    65
 73
     0
 40
0.0
  0
LTYPE
  5
4AD
100
AcDbSymbolTableRecord
100
AcDbLinetypeTableRecord
  2
CONTINUOUS
 70
    64
  3
Solid line
 72
    65
 73
     0
 40
0.0
  0
LTYPE
  5
4AE
100
AcDbSymbolTableRecord
100
AcDbLinetypeTableRecord
  2
DOT2
 70
    64
  3
...............................................
 72
    65
 73
     2
 40
1.25
 49
0.0
 74
     0
 49
-1.25
 74
     0
  0
LTYPE
  5
4AF
100
AcDbSymbolTableRecord
100
AcDbLinetypeTableRecord
  2
CADWORK_13
 70
    64
  3
13 =======================================
 72
    65
 73
     2
 40
4.0
 49
2.0
 74
     0
 49
-2.0
 74
     0
  0
LTYPE
  5
4B0
100
AcDbSymbolTableRecord
100
AcDbLinetypeTableRecord
  2
DASHDOT
 70
    64
  3
 __ . __ . __ . __ . __ . __ . __ . __ . __ . __
 72
    65
 73
     4
 40
10.0
 49
5.0
 74
     0
 49
-2.5
 74
     0
 49
0.0
 74
     0
 49
-2.5
 74
     0
  0
LTYPE
  5
4B1
100
AcDbSymbolTableRecord
100
AcDbLinetypeTableRecord
  2
CENTER
 70
    64
  3
 ____ _ ____ _ ____ _ ____ _ ____ _ ____ _ ____
 72
    65
 73
     4
 40
20.0
 49
12.5
 74
     0
 49
-2.5
 74
     0
 49
2.5
 74
     0
 49
-2.5
 74
     0
  0
LTYPE
  5
4B2
100
AcDbSymbolTableRecord
100
AcDbLinetypeTableRecord
  2
DASHEDX2
 70
    64
  3
____  ____  ____  ____  ____  ____  ____  ____
 72
    65
 73
     2
 40
3.75
 49
2.5
 74
     0
 49
-1.25
 74
     0
  0
LTYPE
  5
4B3
100
AcDbSymbolTableRecord
100
AcDbLinetypeTableRecord
  2
CADWORK_22
 70
    64
  3
22 =======================================
 72
    65
 73
     0
 40
0.0
  0
LTYPE
  5
4B4
100
AcDbSymbolTableRecord
100
AcDbLinetypeTableRecord
  2
DAL
 70
    64
  3
Solid line (for MAPS)
 72
    65
 73
     0
 40
0.0
  0
LTYPE
  5
4B5
100
AcDbSymbolTableRecord
100
AcDbLinetypeTableRecord
  2
MUR
 70
    64
  3
Solid line (for MAPS)
 72
    65
 73
     0
 40
0.0
  0
LTYPE
  5
4B6
100
AcDbSymbolTableRecord
100
AcDbLinetypeTableRecord
  2
SOM
 70
    64
  3
Solid line (for MAPS)
 72
    65
 73
     0
 40
0.0
  0
LTYPE
  5
4B7
100
AcDbSymbolTableRecord
100
AcDbLinetypeTableRecord
  2
COL
 70
    64
  3
Solid line (for MAPS)
 72
    65
 73
     0
 40
0.0
  0
LTYPE
  5
4B8
100
AcDbSymbolTableRecord
100
AcDbLinetypeTableRecord
  2
LGN
 70
    64
  3
Solid line (for MAPS)
 72
    65
 73
     0
 40
0.0
  0
LTYPE
  5
4B9
100
AcDbSymbolTableRecord
100
AcDbLinetypeTableRecord
  2
PNT
 70
    64
  3
Solid line (for MAPS)
 72
    65
 73
     0
 40
0.0
  0
ENDTAB
  0
TABLE
  2
LAYER
  5
4BA
100
AcDbSymbolTable
 70
    32
  0
LAYER
  5
4BB
100
AcDbSymbolTableRecord
100
AcDbLayerTableRecord
  2
Standard
 70
     0
 62
     7
  6
CONTINUOUS
370
    -3
  0
LAYER
  5
4BC
100
AcDbSymbolTableRecord
100
AcDbLayerTableRecord
  2
Ech.1_1
 70
     0
 62
     7
  6
CONTINUOUS
370
    -3
  0
LAYER
  5
4BD
100
AcDbSymbolTableRecord
100
AcDbLayerTableRecord
  2
Ech.1_2
 70
     0
 62
     7
  6
CONTINUOUS
370
    -3
  0
LAYER
  5
4BE
100
AcDbSymbolTableRecord
100
AcDbLayerTableRecord
  2
Ech.1_5
 70
     0
 62
     7
  6
CONTINUOUS
370
    -3
  0
LAYER
  5
4BF
100
AcDbSymbolTableRecord
100
AcDbLayerTableRecord
  2
Ech.1_10
 70
     0
 62
     7
  6
CONTINUOUS
370
    -3
  0
LAYER
  5
4C0
100
AcDbSymbolTableRecord
100
AcDbLayerTableRecord
  2
Ech.1_20
 70
     0
 62
     7
  6
CONTINUOUS
370
    -3
  0
LAYER
  5
4C1
100
AcDbSymbolTableRecord
100
AcDbLayerTableRecord
  2
Ech.1_25
 70
     0
 62
     7
  6
CONTINUOUS
370
    -3
  0
LAYER
  5
4C2
100
AcDbSymbolTableRecord
100
AcDbLayerTableRecord
  2
Ech.1_33
 70
     0
 62
     7
  6
CONTINUOUS
370
    -3
  0
LAYER
  5
4C3
100
AcDbSymbolTableRecord
100
AcDbLayerTableRecord
  2
Ech.1_50
 70
     0
 62
     7
  6
CONTINUOUS
370
    -3
  0
LAYER
  5
4C4
100
AcDbSymbolTableRecord
100
AcDbLayerTableRecord
  2
Ech.1_75
 70
     0
 62
     7
  6
CONTINUOUS
370
    -3
  0
LAYER
  5
4C5
100
AcDbSymbolTableRecord
100
AcDbLayerTableRecord
  2
Ech.1_100
 70
     0
 62
     7
  6
CONTINUOUS
370
    -3
  0
LAYER
  5
4C6
100
AcDbSymbolTableRecord
100
AcDbLayerTableRecord
  2
Ech.1_200
 70
     0
 62
     7
  6
CONTINUOUS
370
    -3
  0
LAYER
  5
4C7
100
AcDbSymbolTableRecord
100
AcDbLayerTableRecord
  2
Ech.1_500
 70
     0
 62
     7
  6
CONTINUOUS
370
    -3
  0
LAYER
  5
4C8
100
AcDbSymbolTableRecord
100
AcDbLayerTableRecord
  2
Ech.1_1000
 70
     0
 62
     7
  6
CONTINUOUS
370
    -3
  0
LAYER
  5
4C9
100
AcDbSymbolTableRecord
100
AcDbLayerTableRecord
  2
Cadres traceur
 70
     0
 62
     7
  6
CONTINUOUS
370
    18
  0
LAYER
  5
4CA
100
AcDbSymbolTableRecord
100
AcDbLayerTableRecord
  2
Cadres laser
 70
     0
 62
     7
  6
CONTINUOUS
370
    18
  0
LAYER
  5
4CB
100
AcDbSymbolTableRecord
100
AcDbLayerTableRecord
  2
Légende d_aide
 70
     0
 62
     7
  6
CONTINUOUS
370
    18
  0
LAYER
  5
4CC
100
AcDbSymbolTableRecord
100
AcDbLayerTableRecord
  2
hachures ok
 70
     0
 62
     7
  6
CONTINUOUS
370
    18
  0
LAYER
  5
4CD
100
AcDbSymbolTableRecord
100
AcDbLayerTableRecord
  2
ossature bois
 70
     0
 62
     7
  6
CONTINUOUS
370
    18
  0
LAYER
  5
4CE
100
AcDbSymbolTableRecord
100
AcDbLayerTableRecord
  2
VR
 70
     0
 62
     7
  6
CONTINUOUS
370
    25
  0
LAYER
  5
4CF
100
AcDbSymbolTableRecord
100
AcDbLayerTableRecord
  2
Calque1
 70
     0
 62
     7
  6
CONTINUOUS
370
     9
  0
LAYER
  5
4D0
100
AcDbSymbolTableRecord
100
AcDbLayerTableRecord
  2
0
 70
     0
 62
     7
  6
CONTINUOUS
370
    -3
  0
LAYER
  5
4D1
100
AcDbSymbolTableRecord
100
AcDbLayerTableRecord
  2
menuiserie
 70
     0
 62
     7
  6
CONTINUOUS
370
    -3
  0
LAYER
  5
4D2
100
AcDbSymbolTableRecord
100
AcDbLayerTableRecord
  2
cotation
 70
     0
 62
   250
  6
CONTINUOUS
370
     9
  0
LAYER
  5
4D3
100
AcDbSymbolTableRecord
100
AcDbLayerTableRecord
  2
Defpoints
 70
     0
 62
    10
  6
CONTINUOUS
370
    -3
  0
LAYER
  5
4D4
100
AcDbSymbolTableRecord
100
AcDbLayerTableRecord
  2
HACHURE
 70
     0
 62
   254
  6
CONTINUOUS
370
    25
  0
LAYER
  5
4D5
100
AcDbSymbolTableRecord
100
AcDbLayerTableRecord
  2
mat1
 70
     0
 62
     7
  6
CONTINUOUS
370
    30
  0
LAYER
  5
4D6
100
AcDbSymbolTableRecord
100
AcDbLayerTableRecord
  2
mat2
 70
     0
 62
     7
  6
CONTINUOUS
370
     5
  0
LAYER
  5
4D7
100
AcDbSymbolTableRecord
100
AcDbLayerTableRecord
  2
hach
 70
     0
 62
     8
  6
CONTINUOUS
370
     5
  0
LAYER
  5
4D8
100
AcDbSymbolTableRecord
100
AcDbLayerTableRecord
  2
menuiseries
 70
     0
 62
     7
  6
CONTINUOUS
370
     9
  0
LAYER
  5
4D9
100
AcDbSymbolTableRecord
100
AcDbLayerTableRecord
  2
BétonMétal
 70
     0
 62
     7
  6
CONTINUOUS
370
    80
  0
LAYER
  5
4DA
100
AcDbSymbolTableRecord
100
AcDbLayerTableRecord
  2
bois
 70
     0
 62
     7
  6
CONTINUOUS
370
    60
  0
ENDTAB
  0
TABLE
  2
VIEW
  5
4DB
100
AcDbSymbolTable
 70
     0
  0
ENDTAB
  0
TABLE
  2
UCS
  5
4DC
100
AcDbSymbolTable
 70
     0
  0
ENDTAB
  0
TABLE
  2
APPID
  5
4DD
100
AcDbSymbolTable
 70
     1
  0
APPID
  5
4DE
100
AcDbSymbolTableRecord
100
AcDbRegAppTableRecord
  2
ACAD
 70
     0
  0
ENDTAB
  0
TABLE
  2
DIMSTYLE
  5
4DF
100
AcDbSymbolTable
 70
     0
  0
ENDTAB
  0
TABLE
  2
BLOCK_RECORD
  5
4E0
100
AcDbSymbolTable
 70
     0
  0
BLOCK_RECORD
  5
4E1
100
AcDbSymbolTableRecord
100
AcDbBlockTableRecord
  2
*MODEL_SPACE
  0
BLOCK_RECORD
  5
4E2
100
AcDbSymbolTableRecord
100
AcDbBlockTableRecord
  2
*PAPER_SPACE
  0
BLOCK_RECORD
  5
4E3
100
AcDbSymbolTableRecord
100
AcDbBlockTableRecord
  2
CDWK_EXTR_0
  0
BLOCK_RECORD
  5
4E4
100
AcDbSymbolTableRecord
100
AcDbBlockTableRecord
  2
CDWK_EXTR_1D
  0
BLOCK_RECORD
  5
4E5
100
AcDbSymbolTableRecord
100
AcDbBlockTableRecord
  2
CDWK_EXTR_1G
  0
BLOCK_RECORD
  5
4E6
100
AcDbSymbolTableRecord
100
AcDbBlockTableRecord
  2
CDWK_EXTR_2
  0
BLOCK_RECORD
  5
4E7
100
AcDbSymbolTableRecord
100
AcDbBlockTableRecord
  2
CDWK_EXTR_3
  0
BLOCK_RECORD
  5
4E8
100
AcDbSymbolTableRecord
100
AcDbBlockTableRecord
  2
CDWK_EXTR_4
  0
BLOCK_RECORD
  5
4E9
100
AcDbSymbolTableRecord
100
AcDbBlockTableRecord
  2
CDWK_PTTYP0
  0
BLOCK_RECORD
  5
4EA
100
AcDbSymbolTableRecord
100
AcDbBlockTableRecord
  2
CDWK_PTTYP1
  0
BLOCK_RECORD
  5
4EB
100
AcDbSymbolTableRecord
100
AcDbBlockTableRecord
  2
CDWK_PTTYP2
  0
BLOCK_RECORD
  5
4EC
100
AcDbSymbolTableRecord
100
AcDbBlockTableRecord
  2
CDWK_PTTYP3
  0
BLOCK_RECORD
  5
4ED
100
AcDbSymbolTableRecord
100
AcDbBlockTableRecord
  2
CDWK_PTTYP4
  0
BLOCK_RECORD
  5
4EE
100
AcDbSymbolTableRecord
100
AcDbBlockTableRecord
  2
CDWK_PTTYP5
  0
BLOCK_RECORD
  5
4EF
100
AcDbSymbolTableRecord
100
AcDbBlockTableRecord
  2
CDWK_PTTYP6
  0
BLOCK_RECORD
  5
4F0
100
AcDbSymbolTableRecord
100
AcDbBlockTableRecord
  2
CDWK_PTTYP7
  0
BLOCK_RECORD
  5
4F1
100
AcDbSymbolTableRecord
100
AcDbBlockTableRecord
  2
CDWK_PTTYP8
  0
BLOCK_RECORD
  5
4F2
100
AcDbSymbolTableRecord
100
AcDbBlockTableRecord
  2
CDWK_PTTYP9
  0
BLOCK_RECORD
  5
4F3
100
AcDbSymbolTableRecord
100
AcDbBlockTableRecord
  2
CDWK_PTTYP10
  0
BLOCK_RECORD
  5
4F4
100
AcDbSymbolTableRecord
100
AcDbBlockTableRecord
  2
CDWK_PTTYP11
  0
BLOCK_RECORD
  5
4F5
100
AcDbSymbolTableRecord
100
AcDbBlockTableRecord
  2
CDWK_PTTYP12
  0
BLOCK_RECORD
  5
4F6
100
AcDbSymbolTableRecord
100
AcDbBlockTableRecord
  2
CDWK_PTTYP13
  0
BLOCK_RECORD
  5
4F7
100
AcDbSymbolTableRecord
100
AcDbBlockTableRecord
  2
CDWK_PTTYP14
  0
BLOCK_RECORD
  5
4F8
100
AcDbSymbolTableRecord
100
AcDbBlockTableRecord
  2
CDWK_PTTYP15
  0
BLOCK_RECORD
  5
4F9
100
AcDbSymbolTableRecord
100
AcDbBlockTableRecord
  2
CDWK_PTTYP16
  0
BLOCK_RECORD
  5
4FA
100
AcDbSymbolTableRecord
100
AcDbBlockTableRecord
  2
CDWK_PTTYP17
  0
BLOCK_RECORD
  5
4FB
100
AcDbSymbolTableRecord
100
AcDbBlockTableRecord
  2
CDWK_PTTYP18
  0
BLOCK_RECORD
  5
4FC
100
AcDbSymbolTableRecord
100
AcDbBlockTableRecord
  2
CDWK_PTTYP19
  0
BLOCK_RECORD
  5
4FD
100
AcDbSymbolTableRecord
100
AcDbBlockTableRecord
  2
CDWK_PTTYP20
  0
BLOCK_RECORD
  5
4FE
100
AcDbSymbolTableRecord
100
AcDbBlockTableRecord
  2
CDWK_PTTYP21
  0
BLOCK_RECORD
  5
4FF
100
AcDbSymbolTableRecord
100
AcDbBlockTableRecord
  2
CDWK_PTTYP22
  0
BLOCK_RECORD
  5
500
100
AcDbSymbolTableRecord
100
AcDbBlockTableRecord
  2
CDWK_PTTYP23
  0
BLOCK_RECORD
  5
501
100
AcDbSymbolTableRecord
100
AcDbBlockTableRecord
  2
CDWK_PTTYP24
  0
BLOCK_RECORD
  5
502
100
AcDbSymbolTableRecord
100
AcDbBlockTableRecord
  2
CDWK_PTTYP25
  0
BLOCK_RECORD
  5
503
100
AcDbSymbolTableRecord
100
AcDbBlockTableRecord
  2
CDWK_PTTYP26
  0
BLOCK_RECORD
  5
504
100
AcDbSymbolTableRecord
100
AcDbBlockTableRecord
  2
CDWK_PTTYP27
  0
BLOCK_RECORD
  5
505
100
AcDbSymbolTableRecord
100
AcDbBlockTableRecord
  2
CDWK_PTTYP28
  0
BLOCK_RECORD
  5
506
100
AcDbSymbolTableRecord
100
AcDbBlockTableRecord
  2
CDWK_PTTYP29
  0
BLOCK_RECORD
  5
507
100
AcDbSymbolTableRecord
100
AcDbBlockTableRecord
  2
CDWK_PTTYP30
  0
BLOCK_RECORD
  5
508
100
AcDbSymbolTableRecord
100
AcDbBlockTableRecord
  2
CDWK_PTTYP31
  0
BLOCK_RECORD
  5
509
100
AcDbSymbolTableRecord
100
AcDbBlockTableRecord
  2
CDWK_PTTYP32
  0
BLOCK_RECORD
  5
50A
100
AcDbSymbolTableRecord
100
AcDbBlockTableRecord
  2
CDWK_PTTYP33
  0
BLOCK_RECORD
  5
50B
100
AcDbSymbolTableRecord
100
AcDbBlockTableRecord
  2
CDWK_PTTYP34
  0
BLOCK_RECORD
  5
50C
100
AcDbSymbolTableRecord
100
AcDbBlockTableRecord
  2
CDWK_PTTYP35
  0
BLOCK_RECORD
  5
50D
100
AcDbSymbolTableRecord
100
AcDbBlockTableRecord
  2
CDWK_PTTYP36
  0
BLOCK_RECORD
  5
50E
100
AcDbSymbolTableRecord
100
AcDbBlockTableRecord
  2
CDWK_PTTYP37
  0
BLOCK_RECORD
  5
50F
100
AcDbSymbolTableRecord
100
AcDbBlockTableRecord
  2
CDWK_PTTYP38
  0
BLOCK_RECORD
  5
510
100
AcDbSymbolTableRecord
100
AcDbBlockTableRecord
  2
*X1
  0
BLOCK_RECORD
  5
511
100
AcDbSymbolTableRecord
100
AcDbBlockTableRecord
  2
*X2
  0
ENDTAB
  0
ENDSEC
  0
SECTION
  2
BLOCKS
  0
BLOCK
  5
512
100
AcDbEntity
  8
0
100
AcDbBlockBegin
  2
*MODEL_SPACE
 70
     0
 10
0.0
 20
0.0
 30
0.0
  3
*MODEL_SPACE
  1

  0
ENDBLK
  5
513
100
AcDbEntity
100
AcDbBlockEnd
  0
BLOCK
  5
514
100
AcDbEntity
  8
0
100
AcDbBlockBegin
  2
*PAPER_SPACE
 70
     0
 10
0.0
 20
0.0
 30
0.0
  3
*PAPER_SPACE
  1

  0
ENDBLK
  5
515
100
AcDbEntity
100
AcDbBlockEnd
  0
BLOCK
  5
516
100
AcDbEntity
  8
0
100
AcDbBlockBegin
  2
CDWK_EXTR_0
 70
     0
 10
0.0
 20
0.0
 30
0.0
  3
CDWK_EXTR_0
  1

  4
Cadwork line-extremity
  0
LINE
  5
517
100
AcDbEntity
  8
0
 62
     0
370
    -2
100
AcDbLine
 10
0.0
 20
0.0
 30
0.0
 11
2.0
 21
0.5
 31
0.0
  0
LINE
  5
518
100
AcDbEntity
  8
0
 62
     0
370
    -2
100
AcDbLine
 10
0.0
 20
0.0
 30
0.0
 11
2.0
 21
-0.5
 31
0.0
  0
LINE
  5
519
100
AcDbEntity
  8
0
 62
     0
370
    -2
100
AcDbLine
 10
2.0
 20
0.5
 30
0.0
 11
2.0
 21
-0.5
 31
0.0
  0
ENDBLK
  5
51A
100
AcDbEntity
100
AcDbBlockEnd
  0
BLOCK
  5
51B
100
AcDbEntity
  8
0
100
AcDbBlockBegin
  2
CDWK_EXTR_1D
 70
     0
 10
0.0
 20
0.0
 30
0.0
  3
CDWK_EXTR_1D
  1

  4
Cadwork line-extremity
  0
LINE
  5
51C
100
AcDbEntity
  8
0
 62
     0
370
    -2
100
AcDbLine
 10
0.0
 20
0.0
 30
0.0
 11
0.0
 21
1.0
 31
0.0
  0
LINE
  5
51D
100
AcDbEntity
  8
0
 62
     0
370
    -2
100
AcDbLine
 10
0.0
 20
1.0
 30
0.0
 11
0.5
 21
1.5
 31
0.0
  0
LINE
  5
51E
100
AcDbEntity
  8
0
 62
     0
370
    -2
100
AcDbLine
 10
0.5
 20
1.5
 30
0.0
 11
1.5
 21
1.5
 31
0.0
  0
ENDBLK
  5
51F
100
AcDbEntity
100
AcDbBlockEnd
  0
BLOCK
  5
520
100
AcDbEntity
  8
0
100
AcDbBlockBegin
  2
CDWK_EXTR_1G
 70
     0
 10
0.0
 20
0.0
 30
0.0
  3
CDWK_EXTR_1G
  1

  4
Cadwork line-extremity
  0
LINE
  5
521
100
AcDbEntity
  8
0
 62
     0
370
    -2
100
AcDbLine
 10
0.0
 20
0.0
 30
0.0
 11
0.0
 21
-1.0
 31
0.0
  0
LINE
  5
522
100
AcDbEntity
  8
0
 62
     0
370
    -2
100
AcDbLine
 10
0.0
 20
-1.0
 30
0.0
 11
0.5
 21
-1.5
 31
0.0
  0
LINE
  5
523
100
AcDbEntity
  8
0
 62
     0
370
    -2
100
AcDbLine
 10
0.5
 20
-1.5
 30
0.0
 11
1.5
 21
-1.5
 31
0.0
  0
ENDBLK
  5
524
100
AcDbEntity
100
AcDbBlockEnd
  0
BLOCK
  5
525
100
AcDbEntity
  8
0
100
AcDbBlockBegin
  2
CDWK_EXTR_2
 70
     0
 10
0.0
 20
0.0
 30
0.0
  3
CDWK_EXTR_2
  1

  4
Cadwork line-extremity
  0
SOLID
  5
526
100
AcDbEntity
  8
0
 62
     0
100
AcDbTrace
 10
0.0
 20
0.0
 11
2.0
 21
0.5
 12
2.0
 22
-0.5
 13
2.0
 23
-0.5
  0
ENDBLK
  5
527
100
AcDbEntity
100
AcDbBlockEnd
  0
BLOCK
  5
528
100
AcDbEntity
  8
0
100
AcDbBlockBegin
  2
CDWK_EXTR_3
 70
     0
 10
0.0
 20
0.0
 30
0.0
  3
CDWK_EXTR_3
  1

  4
Cadwork line-extremity
  0
SOLID
  5
529
100
AcDbEntity
  8
0
 62
     0
100
AcDbTrace
 10
0.0
 20
0.0
 11
2.0
 21
0.5
 12
2.0
 22
-0.5
 13
2.0
 23
-0.5
  0
LINE
  5
52A
100
AcDbEntity
  8
0
 62
     0
370
    -2
100
AcDbLine
 10
0.0
 20
1.0
 30
0.0
 11
0.0
 21
-1.0
 31
0.0
  0
ENDBLK
  5
52B
100
AcDbEntity
100
AcDbBlockEnd
  0
BLOCK
  5
52C
100
AcDbEntity
  8
0
100
AcDbBlockBegin
  2
CDWK_EXTR_4
 70
     0
 10
0.0
 20
0.0
 30
0.0
  3
CDWK_EXTR_4
  1

  4
Cadwork line-extremity
  0
HATCH
  5
52D
100
AcDbEntity
  8
0
 62
     0
370
    -2
100
AcDbHatch
 10
0.0
 20
0.0
 30
0.0
210
0.0
220
0.0
230
1.0
  2
SOLID
 70
     1
 71
     0
 91
        1
 92
        1
 93
        1
 72
     2
 10
0.0
 20
0.0
 40
0.5
 50
0.0
 51
360.0
 73
     1
 97
        0
 75
     0
 76
     1
 98
        1
 10
0.0
 20
0.0
  0
ENDBLK
  5
52E
100
AcDbEntity
100
AcDbBlockEnd
  0
BLOCK
  5
52F
100
AcDbEntity
  8
0
100
AcDbBlockBegin
  2
CDWK_PTTYP0
 70
     0
 10
0.0
 20
0.0
 30
0.0
  3
CDWK_PTTYP0
  1

  4
Cadwork point
  0
POINT
  5
530
100
AcDbEntity
  8
0
 62
     0
100
AcDbPoint
 10
0.0
 20
0.0
 30
0.0
  0
ENDBLK
  5
531
100
AcDbEntity
100
AcDbBlockEnd
  0
BLOCK
  5
532
100
AcDbEntity
  8
0
100
AcDbBlockBegin
  2
CDWK_PTTYP1
 70
     0
 10
0.0
 20
0.0
 30
0.0
  3
CDWK_PTTYP1
  1

  4
Cadwork node
  0
LINE
  5
533
100
AcDbEntity
  8
0
 62
     0
370
    -2
100
AcDbLine
 10
-0.5
 20
0.5
 30
0.0
 11
0.5
 21
0.5
 31
0.0
  0
LINE
  5
534
100
AcDbEntity
  8
0
 62
     0
370
    -2
100
AcDbLine
 10
0.5
 20
0.5
 30
0.0
 11
0.5
 21
-0.5
 31
0.0
  0
LINE
  5
535
100
AcDbEntity
  8
0
 62
     0
370
    -2
100
AcDbLine
 10
0.5
 20
-0.5
 30
0.0
 11
-0.5
 21
-0.5
 31
0.0
  0
LINE
  5
536
100
AcDbEntity
  8
0
 62
     0
370
    -2
100
AcDbLine
 10
-0.5
 20
-0.5
 30
0.0
 11
-0.5
 21
0.5
 31
0.0
  0
ENDBLK
  5
537
100
AcDbEntity
100
AcDbBlockEnd
  0
BLOCK
  5
538
100
AcDbEntity
  8
0
100
AcDbBlockBegin
  2
CDWK_PTTYP2
 70
     0
 10
0.0
 20
0.0
 30
0.0
  3
CDWK_PTTYP2
  1

  4
Cadwork node
  0
LINE
  5
539
100
AcDbEntity
  8
0
 62
     0
370
    -2
100
AcDbLine
 10
0.0
 20
0.5
 30
0.0
 11
0.0
 21
-0.5
 31
0.0
  0
LINE
  5
53A
100
AcDbEntity
  8
0
 62
     0
370
    -2
100
AcDbLine
 10
-0.5
 20
0.0
 30
0.0
 11
0.5
 21
0.0
 31
0.0
  0
ENDBLK
  5
53B
100
AcDbEntity
100
AcDbBlockEnd
  0
BLOCK
  5
53C
100
AcDbEntity
  8
0
100
AcDbBlockBegin
  2
CDWK_PTTYP3
 70
     0
 10
0.0
 20
0.0
 30
0.0
  3
CDWK_PTTYP3
  1

  4
Cadwork node
  0
CIRCLE
  5
53D
100
AcDbEntity
  8
0
 62
     0
370
    -2
100
AcDbCircle
 10
0.0
 20
0.0
 30
0.0
 40
0.5
  0
ENDBLK
  5
53E
100
AcDbEntity
100
AcDbBlockEnd
  0
BLOCK
  5
53F
100
AcDbEntity
  8
0
100
AcDbBlockBegin
  2
CDWK_PTTYP4
 70
     0
 10
0.0
 20
0.0
 30
0.0
  3
CDWK_PTTYP4
  1

  4
Cadwork node
  0
HATCH
  5
540
100
AcDbEntity
  8
0
 62
     0
370
    -2
100
AcDbHatch
 10
0.0
 20
0.0
 30
0.0
210
0.0
220
0.0
230
1.0
  2
SOLID
 70
     1
 71
     0
 91
        1
 92
        1
 93
        1
 72
     2
 10
0.0
 20
0.0
 40
0.5
 50
0.0
 51
360.0
 73
     1
 97
        0
 75
     0
 76
     1
 98
        1
 10
0.0
 20
0.0
  0
ENDBLK
  5
541
100
AcDbEntity
100
AcDbBlockEnd
  0
BLOCK
  5
542
100
AcDbEntity
  8
0
100
AcDbBlockBegin
  2
CDWK_PTTYP5
 70
     0
 10
0.0
 20
0.0
 30
0.0
  3
CDWK_PTTYP5
  1

  4
Cadwork node
  0
LINE
  5
543
100
AcDbEntity
  8
0
 62
     0
370
    -2
100
AcDbLine
 10
-0.5
 20
0.5
 30
0.0
 11
0.5
 21
0.5
 31
0.0
  0
LINE
  5
544
100
AcDbEntity
  8
0
 62
     0
370
    -2
100
AcDbLine
 10
0.5
 20
0.5
 30
0.0
 11
0.5
 21
-0.5
 31
0.0
  0
LINE
  5
545
100
AcDbEntity
  8
0
 62
     0
370
    -2
100
AcDbLine
 10
0.5
 20
-0.5
 30
0.0
 11
-0.5
 21
-0.5
 31
0.0
  0
LINE
  5
546
100
AcDbEntity
  8
0
 62
     0
370
    -2
100
AcDbLine
 10
-0.5
 20
-0.5
 30
0.0
 11
-0.5
 21
0.5
 31
0.0
  0
SOLID
  5
547
100
AcDbEntity
  8
0
 62
     0
100
AcDbTrace
 10
-0.5
 20
-0.5
 11
-0.5
 21
0.0
 12
0.0
 22
-0.5
 13
0.0
 23
0.0
  0
SOLID
  5
548
100
AcDbEntity
  8
0
 62
     0
100
AcDbTrace
 10
0.0
 20
0.0
 11
0.0
 21
0.5
 12
0.5
 22
0.0
 13
0.5
 23
0.5
  0
ENDBLK
  5
549
100
AcDbEntity
100
AcDbBlockEnd
  0
BLOCK
  5
54A
100
AcDbEntity
  8
0
100
AcDbBlockBegin
  2
CDWK_PTTYP6
 70
     0
 10
0.0
 20
0.0
 30
0.0
  3
CDWK_PTTYP6
  1

  4
Cadwork node
  0
LINE
  5
54B
100
AcDbEntity
  8
0
 62
     0
370
    -2
100
AcDbLine
 10
-0.5
 20
0.5
 30
0.0
 11
0.5
 21
0.5
 31
0.0
  0
LINE
  5
54C
100
AcDbEntity
  8
0
 62
     0
370
    -2
100
AcDbLine
 10
0.5
 20
0.5
 30
0.0
 11
0.5
 21
-0.5
 31
0.0
  0
LINE
  5
54D
100
AcDbEntity
  8
0
 62
     0
370
    -2
100
AcDbLine
 10
0.5
 20
-0.5
 30
0.0
 11
-0.5
 21
-0.5
 31
0.0
  0
LINE
  5
54E
100
AcDbEntity
  8
0
 62
     0
370
    -2
100
AcDbLine
 10
-0.5
 20
-0.5
 30
0.0
 11
-0.5
 21
0.5
 31
0.0
  0
SOLID
  5
54F
100
AcDbEntity
  8
0
 62
     0
100
AcDbTrace
 10
-0.5
 20
-0.5
 11
-0.5
 21
0.5
 12
0.5
 22
0.5
 13
0.5
 23
0.5
  0
ENDBLK
  5
550
100
AcDbEntity
100
AcDbBlockEnd
  0
BLOCK
  5
551
100
AcDbEntity
  8
0
100
AcDbBlockBegin
  2
CDWK_PTTYP7
 70
     0
 10
0.0
 20
0.0
 30
0.0
  3
CDWK_PTTYP7
  1

  4
Cadwork node
  0
LINE
  5
552
100
AcDbEntity
  8
0
 62
     0
370
    -2
100
AcDbLine
 10
-0.5
 20
0.5
 30
0.0
 11
0.5
 21
0.5
 31
0.0
  0
LINE
  5
553
100
AcDbEntity
  8
0
 62
     0
370
    -2
100
AcDbLine
 10
0.5
 20
0.5
 30
0.0
 11
0.5
 21
-0.5
 31
0.0
  0
LINE
  5
554
100
AcDbEntity
  8
0
 62
     0
370
    -2
100
AcDbLine
 10
0.5
 20
-0.5
 30
0.0
 11
-0.5
 21
-0.5
 31
0.0
  0
LINE
  5
555
100
AcDbEntity
  8
0
 62
     0
370
    -2
100
AcDbLine
 10
-0.5
 20
-0.5
 30
0.0
 11
-0.5
 21
0.5
 31
0.0
  0
LINE
  5
556
100
AcDbEntity
  8
0
 62
     0
370
    -2
100
AcDbLine
 10
0.0
 20
0.5
 30
0.0
 11
0.0
 21
-0.5
 31
0.0
  0
LINE
  5
557
100
AcDbEntity
  8
0
 62
     0
370
    -2
100
AcDbLine
 10
-0.5
 20
0.0
 30
0.0
 11
0.5
 21
0.0
 31
0.0
  0
ENDBLK
  5
558
100
AcDbEntity
100
AcDbBlockEnd
  0
BLOCK
  5
559
100
AcDbEntity
  8
0
100
AcDbBlockBegin
  2
CDWK_PTTYP8
 70
     0
 10
0.0
 20
0.0
 30
0.0
  3
CDWK_PTTYP8
  1

  4
Cadwork node
  0
SOLID
  5
55A
100
AcDbEntity
  8
0
 62
     0
100
AcDbTrace
 10
-0.5
 20
0.5
 11
0.5
 21
0.5
 12
-0.5
 22
-0.5
 13
0.5
 23
-0.5
  0
ENDBLK
  5
55B
100
AcDbEntity
100
AcDbBlockEnd
  0
BLOCK
  5
55C
100
AcDbEntity
  8
0
100
AcDbBlockBegin
  2
CDWK_PTTYP9
 70
     0
 10
0.0
 20
0.0
 30
0.0
  3
CDWK_PTTYP9
  1

  4
Cadwork node
  0
CIRCLE
  5
55D
100
AcDbEntity
  8
0
 62
     0
370
    -2
100
AcDbCircle
 10
0.0
 20
0.0
 30
0.0
 40
0.5
  0
CIRCLE
  5
55E
100
AcDbEntity
  8
0
 62
     0
370
    -2
100
AcDbCircle
 10
0.0
 20
0.0
 30
0.0
 40
0.16666667
  0
ENDBLK
  5
55F
100
AcDbEntity
100
AcDbBlockEnd
  0
BLOCK
  5
560
100
AcDbEntity
  8
0
100
AcDbBlockBegin
  2
CDWK_PTTYP10
 70
     0
 10
0.0
 20
0.0
 30
0.0
  3
CDWK_PTTYP10
  1

  4
Cadwork node
  0
CIRCLE
  5
561
100
AcDbEntity
  8
0
 62
     0
370
    -2
100
AcDbCircle
 10
0.0
 20
0.0
 30
0.0
 40
0.5
  0
ENDBLK
  5
562
100
AcDbEntity
100
AcDbBlockEnd
  0
BLOCK
  5
563
100
AcDbEntity
  8
0
100
AcDbBlockBegin
  2
CDWK_PTTYP11
 70
     0
 10
0.0
 20
0.0
 30
0.0
  3
CDWK_PTTYP11
  1

  4
Cadwork node
  0
CIRCLE
  5
564
100
AcDbEntity
  8
0
 62
     0
370
    -2
100
AcDbCircle
 10
0.0
 20
0.0
 30
0.0
 40
0.5
  0
CIRCLE
  5
565
100
AcDbEntity
  8
0
 62
     0
370
    -2
100
AcDbCircle
 10
0.0
 20
0.0
 30
0.0
 40
0.25
  0
ENDBLK
  5
566
100
AcDbEntity
100
AcDbBlockEnd
  0
BLOCK
  5
567
100
AcDbEntity
  8
0
100
AcDbBlockBegin
  2
CDWK_PTTYP12
 70
     0
 10
0.0
 20
0.0
 30
0.0
  3
CDWK_PTTYP12
  1

  4
Cadwork node
  0
CIRCLE
  5
568
100
AcDbEntity
  8
0
 62
     0
370
    -2
100
AcDbCircle
 10
0.0
 20
0.0
 30
0.0
 40
0.5
  0
CIRCLE
  5
569
100
AcDbEntity
  8
0
 62
     0
370
    -2
100
AcDbCircle
 10
0.25
 20
0.0
 30
0.0
 40
0.25
  0
ENDBLK
  5
56A
100
AcDbEntity
100
AcDbBlockEnd
  0
BLOCK
  5
56B
100
AcDbEntity
  8
0
100
AcDbBlockBegin
  2
CDWK_PTTYP13
 70
     0
 10
0.0
 20
0.0
 30
0.0
  3
CDWK_PTTYP13
  1

  4
Cadwork node
  0
CIRCLE
  5
56C
100
AcDbEntity
  8
0
 62
     0
370
    -2
100
AcDbCircle
 10
0.0
 20
0.0
 30
0.0
 40
0.5
  0
CIRCLE
  5
56D
100
AcDbEntity
  8
0
 62
     0
370
    -2
100
AcDbCircle
 10
0.25
 20
0.0
 30
0.0
 40
0.25
  0
CIRCLE
  5
56E
100
AcDbEntity
  8
0
 62
     0
370
    -2
100
AcDbCircle
 10
-0.25
 20
0.0
 30
0.0
 40
0.25
  0
ENDBLK
  5
56F
100
AcDbEntity
100
AcDbBlockEnd
  0
BLOCK
  5
570
100
AcDbEntity
  8
0
100
AcDbBlockBegin
  2
CDWK_PTTYP14
 70
     0
 10
0.0
 20
0.0
 30
0.0
  3
CDWK_PTTYP14
  1

  4
Cadwork node
  0
POINT
  5
571
100
AcDbEntity
  8
0
 62
     0
100
AcDbPoint
 10
0.0
 20
0.0
 30
0.0
  0
ENDBLK
  5
572
100
AcDbEntity
100
AcDbBlockEnd
  0
BLOCK
  5
573
100
AcDbEntity
  8
0
100
AcDbBlockBegin
  2
CDWK_PTTYP15
 70
     0
 10
0.0
 20
0.0
 30
0.0
  3
CDWK_PTTYP15
  1

  4
Cadwork node
  0
POINT
  5
574
100
AcDbEntity
  8
0
 62
     0
100
AcDbPoint
 10
0.0
 20
0.0
 30
0.0
  0
ENDBLK
  5
575
100
AcDbEntity
100
AcDbBlockEnd
  0
BLOCK
  5
576
100
AcDbEntity
  8
0
100
AcDbBlockBegin
  2
CDWK_PTTYP16
 70
     0
 10
0.0
 20
0.0
 30
0.0
  3
CDWK_PTTYP16
  1

  4
Cadwork node
  0
LINE
  5
577
100
AcDbEntity
  8
0
 62
     0
370
    -2
100
AcDbLine
 10
-0.5
 20
-0.28867513
 30
0.0
 11
0.5
 21
-0.28867513
 31
0.0
  0
LINE
  5
578
100
AcDbEntity
  8
0
 62
     0
370
    -2
100
AcDbLine
 10
0.5
 20
-0.28867513
 30
0.0
 11
0.0
 21
0.57735027
 31
0.0
  0
LINE
  5
579
100
AcDbEntity
  8
0
 62
     0
370
    -2
100
AcDbLine
 10
0.0
 20
0.57735027
 30
0.0
 11
-0.5
 21
-0.28867513
 31
0.0
  0
CIRCLE
  5
57A
100
AcDbEntity
  8
0
 62
     0
370
    -2
100
AcDbCircle
 10
0.0
 20
0.0
 30
0.0
 40
0.28867513
  0
ENDBLK
  5
57B
100
AcDbEntity
100
AcDbBlockEnd
  0
BLOCK
  5
57C
100
AcDbEntity
  8
0
100
AcDbBlockBegin
  2
CDWK_PTTYP17
 70
     0
 10
0.0
 20
0.0
 30
0.0
  3
CDWK_PTTYP17
  1

  4
Cadwork node
  0
CIRCLE
  5
57D
100
AcDbEntity
  8
0
 62
     0
370
    -2
100
AcDbCircle
 10
0.0
 20
0.0
 30
0.0
 40
0.5
  0
HATCH
  5
57E
100
AcDbEntity
  8
0
 62
     0
370
    -2
100
AcDbHatch
 10
0.0
 20
0.0
 30
0.0
210
0.0
220
0.0
230
1.0
  2
SOLID
 70
     1
 71
     0
 91
        1
 92
        1
 93
        1
 72
     2
 10
0.0
 20
0.0
 40
0.25
 50
0.0
 51
360.0
 73
     1
 97
        0
 75
     0
 76
     1
 98
        1
 10
0.0
 20
0.0
  0
ENDBLK
  5
57F
100
AcDbEntity
100
AcDbBlockEnd
  0
BLOCK
  5
580
100
AcDbEntity
  8
0
100
AcDbBlockBegin
  2
CDWK_PTTYP18
 70
     0
 10
0.0
 20
0.0
 30
0.0
  3
CDWK_PTTYP18
  1

  4
Cadwork node
  0
CIRCLE
  5
581
100
AcDbEntity
  8
0
 62
     0
370
    -2
100
AcDbCircle
 10
0.0
 20
0.0
 30
0.0
 40
0.5
  0
CIRCLE
  5
582
100
AcDbEntity
  8
0
 62
     0
370
    -2
100
AcDbCircle
 10
0.0
 20
0.0
 30
0.0
 40
0.2
  0
ENDBLK
  5
583
100
AcDbEntity
100
AcDbBlockEnd
  0
BLOCK
  5
584
100
AcDbEntity
  8
0
100
AcDbBlockBegin
  2
CDWK_PTTYP19
 70
     0
 10
0.0
 20
0.0
 30
0.0
  3
CDWK_PTTYP19
  1

  4
Cadwork node
  0
CIRCLE
  5
585
100
AcDbEntity
  8
0
 62
     0
370
    -2
100
AcDbCircle
 10
0.0
 20
0.0
 30
0.0
 40
0.4
  0
CIRCLE
  5
586
100
AcDbEntity
  8
0
 62
     0
370
    -2
100
AcDbCircle
 10
0.0
 20
0.0
 30
0.0
 40
0.25
  0
LINE
  5
587
100
AcDbEntity
  8
0
 62
     0
370
    -2
100
AcDbLine
 10
-0.25
 20
0.0
 30
0.0
 11
0.25
 21
0.0
 31
0.0
  0
ENDBLK
  5
588
100
AcDbEntity
100
AcDbBlockEnd
  0
BLOCK
  5
589
100
AcDbEntity
  8
0
100
AcDbBlockBegin
  2
CDWK_PTTYP20
 70
     0
 10
0.0
 20
0.0
 30
0.0
  3
CDWK_PTTYP20
  1

  4
Cadwork node
  0
CIRCLE
  5
58A
100
AcDbEntity
  8
0
 62
     0
370
    -2
100
AcDbCircle
 10
0.0
 20
0.0
 30
0.0
 40
0.5
  0
CIRCLE
  5
58B
100
AcDbEntity
  8
0
 62
     0
370
    -2
100
AcDbCircle
 10
0.0
 20
0.0
 30
0.0
 40
0.3
  0
ENDBLK
  5
58C
100
AcDbEntity
100
AcDbBlockEnd
  0
BLOCK
  5
58D
100
AcDbEntity
  8
0
100
AcDbBlockBegin
  2
CDWK_PTTYP21
 70
     0
 10
0.0
 20
0.0
 30
0.0
  3
CDWK_PTTYP21
  1

  4
Cadwork node
  0
CIRCLE
  5
58E
100
AcDbEntity
  8
0
 62
     0
370
    -2
100
AcDbCircle
 10
0.0
 20
0.0
 30
0.0
 40
0.5
  0
LINE
  5
58F
100
AcDbEntity
  8
0
 62
     0
370
    -2
100
AcDbLine
 10
-0.5
 20
0.0
 30
0.0
 11
0.5
 21
0.0
 31
0.0
  0
ENDBLK
  5
590
100
AcDbEntity
100
AcDbBlockEnd
  0
BLOCK
  5
591
100
AcDbEntity
  8
0
100
AcDbBlockBegin
  2
CDWK_PTTYP22
 70
     0
 10
0.0
 20
0.0
 30
0.0
  3
CDWK_PTTYP22
  1

  4
Cadwork node
  0
POINT
  5
592
100
AcDbEntity
  8
0
 62
     0
100
AcDbPoint
 10
0.0
 20
0.0
 30
0.0
  0
ENDBLK
  5
593
100
AcDbEntity
100
AcDbBlockEnd
  0
BLOCK
  5
594
100
AcDbEntity
  8
0
100
AcDbBlockBegin
  2
CDWK_PTTYP23
 70
     0
 10
0.0
 20
0.0
 30
0.0
  3
CDWK_PTTYP23
  1

  4
Cadwork node
  0
POINT
  5
595
100
AcDbEntity
  8
0
 62
     0
100
AcDbPoint
 10
0.0
 20
0.0
 30
0.0
  0
ENDBLK
  5
596
100
AcDbEntity
100
AcDbBlockEnd
  0
BLOCK
  5
597
100
AcDbEntity
  8
0
100
AcDbBlockBegin
  2
CDWK_PTTYP24
 70
     0
 10
0.0
 20
0.0
 30
0.0
  3
CDWK_PTTYP24
  1

  4
Cadwork node
  0
POINT
  5
598
100
AcDbEntity
  8
0
 62
     0
100
AcDbPoint
 10
0.0
 20
0.0
 30
0.0
  0
ENDBLK
  5
599
100
AcDbEntity
100
AcDbBlockEnd
  0
BLOCK
  5
59A
100
AcDbEntity
  8
0
100
AcDbBlockBegin
  2
CDWK_PTTYP25
 70
     0
 10
0.0
 20
0.0
 30
0.0
  3
CDWK_PTTYP25
  1

  4
Cadwork node
  0
LINE
  5
59B
100
AcDbEntity
  8
0
 62
     0
370
    -2
100
AcDbLine
 10
-0.43290044
 20
-0.25
 30
0.0
 11
0.43290044
 21
-0.25
 31
0.0
  0
LINE
  5
59C
100
AcDbEntity
  8
0
 62
     0
370
    -2
100
AcDbLine
 10
-0.43290044
 20
-0.25
 30
0.0
 11
0.0
 21
0.5
 31
0.0
  0
LINE
  5
59D
100
AcDbEntity
  8
0
 62
     0
370
    -2
100
AcDbLine
 10
0.43290044
 20
-0.25
 30
0.0
 11
0.0
 21
0.5
 31
0.0
  0
CIRCLE
  5
59E
100
AcDbEntity
  8
0
 62
     0
370
    -2
100
AcDbCircle
 10
0.0
 20
0.0
 30
0.0
 40
0.5
  0
ENDBLK
  5
59F
100
AcDbEntity
100
AcDbBlockEnd
  0
BLOCK
  5
5A0
100
AcDbEntity
  8
0
100
AcDbBlockBegin
  2
CDWK_PTTYP26
 70
     0
 10
0.0
 20
0.0
 30
0.0
  3
CDWK_PTTYP26
  1

  4
Cadwork node
  0
LINE
  5
5A1
100
AcDbEntity
  8
0
 62
     0
370
    -2
100
AcDbLine
 10
-0.5
 20
-0.28850001
 30
0.0
 11
0.5
 21
-0.28850001
 31
0.0
  0
LINE
  5
5A2
100
AcDbEntity
  8
0
 62
     0
370
    -2
100
AcDbLine
 10
-0.5
 20
-0.28850001
 30
0.0
 11
0.0
 21
0.57736721
 31
0.0
  0
LINE
  5
5A3
100
AcDbEntity
  8
0
 62
     0
370
    -2
100
AcDbLine
 10
0.5
 20
-0.28850001
 30
0.0
 11
0.0
 21
0.57736721
 31
0.0
  0
CIRCLE
  5
5A4
100
AcDbEntity
  8
0
 62
     0
370
    -2
100
AcDbCircle
 10
0.0
 20
0.0
 30
0.0
 40
0.1312336
  0
ENDBLK
  5
5A5
100
AcDbEntity
100
AcDbBlockEnd
  0
BLOCK
  5
5A6
100
AcDbEntity
  8
0
100
AcDbBlockBegin
  2
CDWK_PTTYP27
 70
     0
 10
0.0
 20
0.0
 30
0.0
  3
CDWK_PTTYP27
  1

  4
Cadwork node
  0
LINE
  5
5A7
100
AcDbEntity
  8
0
 62
     0
370
    -2
100
AcDbLine
 10
-0.43290044
 20
-0.25
 30
0.0
 11
0.43290044
 21
-0.25
 31
0.0
  0
LINE
  5
5A8
100
AcDbEntity
  8
0
 62
     0
370
    -2
100
AcDbLine
 10
-0.43290044
 20
-0.25
 30
0.0
 11
0.0
 21
0.5
 31
0.0
  0
LINE
  5
5A9
100
AcDbEntity
  8
0
 62
     0
370
    -2
100
AcDbLine
 10
0.43290044
 20
-0.25
 30
0.0
 11
0.0
 21
0.5
 31
0.0
  0
CIRCLE
  5
5AA
100
AcDbEntity
  8
0
 62
     0
370
    -2
100
AcDbCircle
 10
0.0
 20
0.0
 30
0.0
 40
0.5
  0
CIRCLE
  5
5AB
100
AcDbEntity
  8
0
 62
     0
370
    -2
100
AcDbCircle
 10
0.0
 20
0.0
 30
0.0
 40
0.1312336
  0
ENDBLK
  5
5AC
100
AcDbEntity
100
AcDbBlockEnd
  0
BLOCK
  5
5AD
100
AcDbEntity
  8
0
100
AcDbBlockBegin
  2
CDWK_PTTYP28
 70
     0
 10
0.0
 20
0.0
 30
0.0
  3
CDWK_PTTYP28
  1

  4
Cadwork node
  0
POINT
  5
5AE
100
AcDbEntity
  8
0
 62
     0
100
AcDbPoint
 10
0.0
 20
0.0
 30
0.0
  0
ENDBLK
  5
5AF
100
AcDbEntity
100
AcDbBlockEnd
  0
BLOCK
  5
5B0
100
AcDbEntity
  8
0
100
AcDbBlockBegin
  2
CDWK_PTTYP29
 70
     0
 10
0.0
 20
0.0
 30
0.0
  3
CDWK_PTTYP29
  1

  4
Cadwork node
  0
CIRCLE
  5
5B1
100
AcDbEntity
  8
0
 62
     0
370
    -2
100
AcDbCircle
 10
0.0
 20
0.0
 30
0.0
 40
0.5
  0
CIRCLE
  5
5B2
100
AcDbEntity
  8
0
 62
     0
370
    -2
100
AcDbCircle
 10
0.0
 20
0.0
 30
0.0
 40
0.375
  0
CIRCLE
  5
5B3
100
AcDbEntity
  8
0
 62
     0
370
    -2
100
AcDbCircle
 10
0.0
 20
0.0
 30
0.0
 40
0.21875
  0
ENDBLK
  5
5B4
100
AcDbEntity
100
AcDbBlockEnd
  0
BLOCK
  5
5B5
100
AcDbEntity
  8
0
100
AcDbBlockBegin
  2
CDWK_PTTYP30
 70
     0
 10
0.0
 20
0.0
 30
0.0
  3
CDWK_PTTYP30
  1

  4
Cadwork node
  0
LINE
  5
5B6
100
AcDbEntity
  8
0
 62
     0
370
    -2
100
AcDbLine
 10
0.17680339
 20
0.17680339
 30
0.0
 11
0.5
 21
0.5
 31
0.0
  0
LINE
  5
5B7
100
AcDbEntity
  8
0
 62
     0
370
    -2
100
AcDbLine
 10
-0.17680339
 20
0.17680339
 30
0.0
 11
-0.5
 21
0.5
 31
0.0
  0
LINE
  5
5B8
100
AcDbEntity
  8
0
 62
     0
370
    -2
100
AcDbLine
 10
0.17680339
 20
-0.17680339
 30
0.0
 11
0.5
 21
-0.5
 31
0.0
  0
LINE
  5
5B9
100
AcDbEntity
  8
0
 62
     0
370
    -2
100
AcDbLine
 10
-0.17680339
 20
-0.17680339
 30
0.0
 11
-0.5
 21
-0.5
 31
0.0
  0
ENDBLK
  5
5BA
100
AcDbEntity
100
AcDbBlockEnd
  0
BLOCK
  5
5BB
100
AcDbEntity
  8
0
100
AcDbBlockBegin
  2
CDWK_PTTYP31
 70
     0
 10
0.0
 20
0.0
 30
0.0
  3
CDWK_PTTYP31
  1

  4
Cadwork node
  0
CIRCLE
  5
5BC
100
AcDbEntity
  8
0
 62
     0
370
    -2
100
AcDbCircle
 10
0.0
 20
0.0
 30
0.0
 40
0.075
  0
LINE
  5
5BD
100
AcDbEntity
  8
0
 62
     0
370
    -2
100
AcDbLine
 10
0.075
 20
0.0
 30
0.0
 11
0.5
 21
0.0
 31
0.0
  0
LINE
  5
5BE
100
AcDbEntity
  8
0
 62
     0
370
    -2
100
AcDbLine
 10
-0.075
 20
0.0
 30
0.0
 11
-0.5
 21
0.0
 31
0.0
  0
LINE
  5
5BF
100
AcDbEntity
  8
0
 62
     0
370
    -2
100
AcDbLine
 10
0.0
 20
0.075
 30
0.0
 11
0.0
 21
0.5
 31
0.0
  0
LINE
  5
5C0
100
AcDbEntity
  8
0
 62
     0
370
    -2
100
AcDbLine
 10
0.0
 20
-0.075
 30
0.0
 11
0.0
 21
-0.5
 31
0.0
  0
ENDBLK
  5
5C1
100
AcDbEntity
100
AcDbBlockEnd
  0
BLOCK
  5
5C2
100
AcDbEntity
  8
0
100
AcDbBlockBegin
  2
CDWK_PTTYP32
 70
     0
 10
0.0
 20
0.0
 30
0.0
  3
CDWK_PTTYP32
  1

  4
Cadwork node
  0
CIRCLE
  5
5C3
100
AcDbEntity
  8
0
 62
     0
370
    -2
100
AcDbCircle
 10
0.0
 20
0.0
 30
0.0
 40
0.5
  0
CIRCLE
  5
5C4
100
AcDbEntity
  8
0
 62
     0
370
    -2
100
AcDbCircle
 10
0.0
 20
0.0
 30
0.0
 40
0.16666667
  0
LINE
  5
5C5
100
AcDbEntity
  8
0
 62
     0
370
    -2
100
AcDbLine
 10
0.11786893
 20
0.11786893
 30
0.0
 11
0.35360678
 21
0.35360678
 31
0.0
  0
LINE
  5
5C6
100
AcDbEntity
  8
0
 62
     0
370
    -2
100
AcDbLine
 10
-0.11786893
 20
0.11786893
 30
0.0
 11
-0.35360678
 21
0.35360678
 31
0.0
  0
LINE
  5
5C7
100
AcDbEntity
  8
0
 62
     0
370
    -2
100
AcDbLine
 10
0.11786893
 20
-0.11786893
 30
0.0
 11
0.35360678
 21
-0.35360678
 31
0.0
  0
LINE
  5
5C8
100
AcDbEntity
  8
0
 62
     0
370
    -2
100
AcDbLine
 10
-0.11786893
 20
-0.11786893
 30
0.0
 11
-0.35360678
 21
-0.35360678
 31
0.0
  0
ENDBLK
  5
5C9
100
AcDbEntity
100
AcDbBlockEnd
  0
BLOCK
  5
5CA
100
AcDbEntity
  8
0
100
AcDbBlockBegin
  2
CDWK_PTTYP33
 70
     0
 10
0.0
 20
0.0
 30
0.0
  3
CDWK_PTTYP33
  1

  4
Cadwork node
  0
CIRCLE
  5
5CB
100
AcDbEntity
  8
0
 62
     0
370
    -2
100
AcDbCircle
 10
0.0
 20
0.0
 30
0.0
 40
0.5
  0
LINE
  5
5CC
100
AcDbEntity
  8
0
 62
     0
370
    -2
100
AcDbLine
 10
0.0
 20
0.5
 30
0.0
 11
0.0
 21
-0.5
 31
0.0
  0
LINE
  5
5CD
100
AcDbEntity
  8
0
 62
     0
370
    -2
100
AcDbLine
 10
-0.5
 20
0.0
 30
0.0
 11
0.5
 21
0.0
 31
0.0
  0
ENDBLK
  5
5CE
100
AcDbEntity
100
AcDbBlockEnd
  0
BLOCK
  5
5CF
100
AcDbEntity
  8
0
100
AcDbBlockBegin
  2
CDWK_PTTYP34
 70
     0
 10
0.0
 20
0.0
 30
0.0
  3
CDWK_PTTYP34
  1

  4
Cadwork node
  0
CIRCLE
  5
5D0
100
AcDbEntity
  8
0
 62
     0
370
    -2
100
AcDbCircle
 10
0.0
 20
0.0
 30
0.0
 40
0.5
  0
LINE
  5
5D1
100
AcDbEntity
  8
0
 62
     0
370
    -2
100
AcDbLine
 10
-0.30360678
 20
-0.40360678
 30
0.0
 11
0.40360678
 21
0.30360678
 31
0.0
  0
LINE
  5
5D2
100
AcDbEntity
  8
0
 62
     0
370
    -2
100
AcDbLine
 10
-0.40360678
 20
-0.30360678
 30
0.0
 11
0.30360678
 21
0.40360678
 31
0.0
  0
ENDBLK
  5
5D3
100
AcDbEntity
100
AcDbBlockEnd
  0
BLOCK
  5
5D4
100
AcDbEntity
  8
0
100
AcDbBlockBegin
  2
CDWK_PTTYP35
 70
     0
 10
0.0
 20
0.0
 30
0.0
  3
CDWK_PTTYP35
  1

  4
Cadwork node
  0
CIRCLE
  5
5D5
100
AcDbEntity
  8
0
 62
     0
370
    -2
100
AcDbCircle
 10
0.0
 20
0.0
 30
0.0
 40
0.21431634
  0
LINE
  5
5D6
100
AcDbEntity
  8
0
 62
     0
370
    -2
100
AcDbLine
 10
0.0
 20
0.21431634
 30
0.0
 11
0.0
 21
0.5
 31
0.0
  0
LINE
  5
5D7
100
AcDbEntity
  8
0
 62
     0
370
    -2
100
AcDbLine
 10
0.0
 20
-0.21431634
 30
0.0
 11
0.0
 21
-0.5
 31
0.0
  0
ENDBLK
  5
5D8
100
AcDbEntity
100
AcDbBlockEnd
  0
BLOCK
  5
5D9
100
AcDbEntity
  8
0
100
AcDbBlockBegin
  2
CDWK_PTTYP36
 70
     0
 10
0.0
 20
0.0
 30
0.0
  3
CDWK_PTTYP36
  1

  4
Cadwork node
  0
LINE
  5
5DA
100
AcDbEntity
  8
0
 62
     0
370
    -2
100
AcDbLine
 10
-0.5
 20
-0.16666667
 30
0.0
 11
0.5
 21
-0.16666667
 31
0.0
  0
LINE
  5
5DB
100
AcDbEntity
  8
0
 62
     0
370
    -2
100
AcDbLine
 10
0.5
 20
-0.16666667
 30
0.0
 11
0.5
 21
0.16666667
 31
0.0
  0
LINE
  5
5DC
100
AcDbEntity
  8
0
 62
     0
370
    -2
100
AcDbLine
 10
0.5
 20
0.16666667
 30
0.0
 11
-0.5
 21
0.16666667
 31
0.0
  0
LINE
  5
5DD
100
AcDbEntity
  8
0
 62
     0
370
    -2
100
AcDbLine
 10
-0.5
 20
0.16666667
 30
0.0
 11
-0.5
 21
-0.16666667
 31
0.0
  0
SOLID
  5
5DE
100
AcDbEntity
  8
0
 62
     0
100
AcDbTrace
 10
-0.5
 20
-0.16666667
 11
0.5
 21
0.16666667
 12
0.5
 22
-0.16666667
 13
0.5
 23
-0.16666667
  0
ENDBLK
  5
5DF
100
AcDbEntity
100
AcDbBlockEnd
  0
BLOCK
  5
5E0
100
AcDbEntity
  8
0
100
AcDbBlockBegin
  2
CDWK_PTTYP37
 70
     0
 10
0.0
 20
0.0
 30
0.0
  3
CDWK_PTTYP37
  1

  4
Cadwork node
  0
CIRCLE
  5
5E1
100
AcDbEntity
  8
0
 62
     0
370
    -2
100
AcDbCircle
 10
0.0
 20
0.0
 30
0.0
 40
0.5
  0
SOLID
  5
5E2
100
AcDbEntity
  8
0
 62
     0
100
AcDbTrace
 10
0.0
 20
0.0
 11
0.35350001
 21
0.35350001
 12
0.5
 22
0.0
 13
0.46200001
 23
0.19149999
  0
SOLID
  5
5E3
100
AcDbEntity
  8
0
 62
     0
100
AcDbTrace
 10
0.0
 20
0.0
 11
0.35350001
 21
-0.35350001
 12
0.5
 22
0.0
 13
0.46200001
 23
-0.19149999
  0
SOLID
  5
5E4
100
AcDbEntity
  8
0
 62
     0
100
AcDbTrace
 10
0.0
 20
0.0
 11
0.0
 21
-0.5
 12
0.35350001
 22
-0.35350001
 13
0.19149999
 23
-0.46200001
  0
SOLID
  5
5E5
100
AcDbEntity
  8
0
 62
     0
100
AcDbTrace
 10
0.0
 20
0.0
 11
0.0
 21
-0.5
 12
-0.35350001
 22
-0.35350001
 13
-0.19149999
 23
-0.46200001
  0
ENDBLK
  5
5E6
100
AcDbEntity
100
AcDbBlockEnd
  0
BLOCK
  5
5E7
100
AcDbEntity
  8
0
100
AcDbBlockBegin
  2
CDWK_PTTYP38
 70
     0
 10
0.0
 20
0.0
 30
0.0
  3
CDWK_PTTYP38
  1

  4
Cadwork node
  0
CIRCLE
  5
5E8
100
AcDbEntity
  8
0
 62
     0
370
    -2
100
AcDbCircle
 10
0.0
 20
0.0
 30
0.0
 40
0.5
  0
SOLID
  5
5E9
100
AcDbEntity
  8
0
 62
     0
100
AcDbTrace
 10
0.0
 20
0.0
 11
0.35350001
 21
0.35350001
 12
0.0
 22
0.5
 13
0.19149999
 23
0.46200001
  0
SOLID
  5
5EA
100
AcDbEntity
  8
0
 62
     0
100
AcDbTrace
 10
0.0
 20
0.0
 11
0.5
 21
0.0
 12
0.35350001
 22
0.35350001
 13
0.46200001
 23
0.19149999
  0
SOLID
  5
5EB
100
AcDbEntity
  8
0
 62
     0
100
AcDbTrace
 10
0.0
 20
0.0
 11
0.0
 21
-0.5
 12
-0.35350001
 22
-0.35350001
 13
-0.19149999
 23
-0.46200001
  0
SOLID
  5
5EC
100
AcDbEntity
  8
0
 62
     0
100
AcDbTrace
 10
0.0
 20
0.0
 11
-0.5
 21
0.0
 12
-0.35350001
 22
-0.35350001
 13
-0.46200001
 23
-0.19149999
  0
ENDBLK
  5
5ED
100
AcDbEntity
100
AcDbBlockEnd
  0
BLOCK
  5
5EE
100
AcDbEntity
  8
Ech.1_5
100
AcDbBlockBegin
  2
*X1
 70
     1
 10
0.0
 20
0.0
 30
0.0
  3
*X1
  1

  4
Cadwork hatch
  0
LINE
  5
5EF
100
AcDbEntity
  8
Ech.1_5
 62
   190
  6
CONTINUOUS
370
    -2
100
AcDbLine
 10
46261.18628773
 20
-8567.63985774
 30
0.0
 11
46081.18384165
 21
-8522.63924622
 31
0.0
  0
LINE
  5
5F0
100
AcDbEntity
  8
Ech.1_5
 62
   190
  6
CONTINUOUS
370
    -2
100
AcDbLine
 10
46261.18628773
 20
-8522.63924622
 30
0.0
 11
46081.18384165
 21
-8567.63985774
 31
0.0
  0
ENDBLK
  5
5F1
100
AcDbEntity
100
AcDbBlockEnd
  0
BLOCK
  5
5F2
100
AcDbEntity
  8
Ech.1_5
100
AcDbBlockBegin
  2
*X2
 70
     1
 10
0.0
 20
0.0
 30
0.0
  3
*X2
  1

  4
Cadwork hatch
  0
LINE
  5
5F3
100
AcDbEntity
  8
Ech.1_5
 62
   190
  6
CONTINUOUS
370
    -2
100
AcDbLine
 10
46261.18628773
 20
-8354.5144089
 30
0.0
 11
46081.18384165
 21
-8309.51379738
 31
0.0
  0
LINE
  5
5F4
100
AcDbEntity
  8
Ech.1_5
 62
   190
  6
CONTINUOUS
370
    -2
100
AcDbLine
 10
46261.18628773
 20
-8309.51379738
 30
0.0
 11
46081.18384165
 21
-8354.5144089
 31
0.0
  0
ENDBLK
  5
5F5
100
AcDbEntity
100
AcDbBlockEnd
  0
ENDSEC
  0
SECTION
  2
ENTITIES
  0
INSERT
  5
5F6
100
AcDbEntity
  8
Ech.1_5
 62
     0
100
AcDbBlockReference
  2
*X1
 10
0.0
 20
0.0
 30
0.0
  0
INSERT
  5
5F7
100
AcDbEntity
  8
Ech.1_5
 62
     0
100
AcDbBlockReference
  2
*X2
 10
0.0
 20
0.0
 30
0.0
  0
LWPOLYLINE
  5
5F8
100
AcDbEntity
  8
Ech.1_5
 62
   190
  6
CONTINUOUS
370
    -3
100
AcDbPolyline
 90
        5
 70
     0
 43
0.0
 10
45964.72475615
 20
-9512.40601397
 10
46949.72475615
 20
-9512.40601397
 10
46949.72475615
 20
-8157.40601397
 10
45964.72475615
 20
-8157.40601397
 10
45964.72475615
 20
-9512.40601397
  0
LWPOLYLINE
  5
5F9
102
{ACAD_REACTORS
330
5FA
102
}
100
AcDbEntity
  8
Ech.1_5
 62
     7
  6
CONTINUOUS
370
    -3
100
AcDbPolyline
 90
        4
 70
     1
 43
0.0
 10
46270.18350754
 20
-8309.51421307
 10
46261.18350754
 20
-8309.51421307
 10
46261.18350754
 20
-8393.35350751
 10
46270.18350754
 20
-8393.35350751
  0
HATCH
  5
5FA
100
AcDbEntity
  8
Ech.1_5
 62
   190
  6
CONTINUOUS
100
AcDbHatch
 10
0.0
 20
0.0
 30
0.0
210
0.0
220
0.0
230
1.0
  2
CDWK10A
 70
     0
 71
     1
 91
        1
 92
        7
 72
     0
 73
     1
 93
        4
 10
46270.18350754
 20
-8309.51421307
 10
46261.18350754
 20
-8309.51421307
 10
46261.18350754
 20
-8393.35350751
 10
46270.18350754
 20
-8393.35350751
 97
        1
330
5F9
 75
     0
 76
     2
 52
0.0
 41
1.0
 77
     0
 78
     3
 53
45.0
 43
0.0
 44
0.0
 45
0.0
 46
42.00000167
 79
     0
 53
45.0
 43
0.0
 44
10.80000043
 45
0.0
 46
42.00000167
 79
     0
 53
45.0
 43
0.0
 44
21.60000086
 45
0.0
 46
42.00000167
 79
     0
 47
0.775229
 98
        1
 10
0.0
 20
0.0
  0
LWPOLYLINE
  5
5FB
102
{ACAD_REACTORS
330
5FC
102
}
100
AcDbEntity
  8
Ech.1_5
 62
     7
  6
CONTINUOUS
370
    -3
100
AcDbPolyline
 90
        4
 70
     1
 43
0.0
 10
46072.18350754
 20
-8821.13996155
 10
46081.18350754
 20
-8821.13996155
 10
46081.18350754
 20
-8424.23754532
 10
46072.18350754
 20
-8424.23754532
  0
HATCH
  5
5FC
100
AcDbEntity
  8
Ech.1_5
 62
   190
  6
CONTINUOUS
100
AcDbHatch
 10
0.0
 20
0.0
 30
0.0
210
0.0
220
0.0
230
1.0
  2
CDWK10A
 70
     0
 71
     1
 91
        1
 92
        7
 72
     0
 73
     1
 93
        4
 10
46072.18350754
 20
-8821.13996155
 10
46081.18350754
 20
-8821.13996155
 10
46081.18350754
 20
-8424.23754532
 10
46072.18350754
 20
-8424.23754532
 97
        1
330
5FB
 75
     0
 76
     2
 52
0.0
 41
1.0
 77
     0
 78
     3
 53
45.0
 43
0.0
 44
0.0
 45
0.0
 46
42.00000167
 79
     0
 53
45.0
 43
0.0
 44
10.80000043
 45
0.0
 46
42.00000167
 79
     0
 53
45.0
 43
0.0
 44
21.60000086
 45
0.0
 46
42.00000167
 79
     0
 47
0.775229
 98
        1
 10
0.0
 20
0.0
  0
LINE
  5
5FD
100
AcDbEntity
  8
Ech.1_5
 62
   190
  6
CONTINUOUS
370
    -3
100
AcDbLine
 10
46072.18350754
 20
-8424.23782093
 30
0.0
 11
46072.18350754
 21
-9040.3852113
 31
0.0
  0
LWPOLYLINE
  5
5FE
100
AcDbEntity
  8
Ech.1_5
 62
     9
100
AcDbPolyline
 90
       27
 70
     0
 43
0.0
 10
46035.53046558
 20
-8705.62526734
 10
46035.6570827
 20
-8705.29079373
 10
46035.6570827
 20
-8677.90732987
 10
46042.6570827
 20
-8677.90732987
 10
46042.6570827
 20
-8686.90732987
 10
46048.6570827
 20
-8686.90732987
 10
46048.6570827
 20
-8659.90732987
 10
46044.6570827
 20
-8655.90732987
 10
46048.6570827
 20
-8651.90732987
 10
46048.6570827
 20
-8587.90732987
 10
46044.6570827
 20
-8583.90732987
 10
46048.6570827
 20
-8579.90732987
 10
46048.6570827
 20
-8544.90732987
 10
46041.6570827
 20
-8544.90732987
 10
46041.6570827
 20
-8538.90732987
 10
46039.1570827
 20
-8533.90732987
 10
46036.6570827
 20
-8538.90732987
 10
46036.6570827
 20
-8569.83626206
 10
46036.27648036
 20
-8571.74967892
 10
46030.12154879
 20
-8578.44286377
 10
46028.6570827
 20
-8581.97839768
 10
46028.6570827
 20
-8701.06514199
 10
46029.6174051
 20
-8702.69501049
 10
46034.35352595
 20
-8705.66636021
 10
46034.76552732
 20
-8705.90732987
 10
46035.07934481
 20
-8705.90732987
 10
46035.53046558
 20
-8705.62526734
  0
LINE
  5
5FF
100
AcDbEntity
  8
Ech.1_5
 62
   190
  6
CONTINUOUS
370
    -3
100
AcDbLine
 10
46261.18350754
 20
-8657.63911755
 30
0.0
 11
46261.18350754
 21
-8424.2372163
 31
0.0
  0
LWPOLYLINE
  5
600
102
{ACAD_REACTORS
330
601
102
}
100
AcDbEntity
  8
Ech.1_5
 62
     7
  6
CONTINUOUS
370
    -3
100
AcDbPolyline
 90
        4
 70
     1
 43
0.0
 10
46081.18350754
 20
-8821.13996155
 10
46072.18350754
 20
-8821.13996155
 10
46072.18350754
 20
-9240.38520462
 10
46081.18350754
 20
-9240.3854316
  0
HATCH
  5
601
100
AcDbEntity
  8
Ech.1_5
 62
   190
  6
CONTINUOUS
100
AcDbHatch
 10
0.0
 20
0.0
 30
0.0
210
0.0
220
0.0
230
1.0
  2
CDWK10A
 70
     0
 71
     1
 91
        1
 92
        7
 72
     0
 73
     1
 93
        4
 10
46081.18350754
 20
-8821.13996155
 10
46072.18350754
 20
-8821.13996155
 10
46072.18350754
 20
-9240.38520462
 10
46081.18350754
 20
-9240.3854316
 97
        1
330
600
 75
     0
 76
     2
 52
0.0
 41
1.0
 77
     0
 78
     3
 53
45.0
 43
0.0
 44
0.0
 45
0.0
 46
42.00000167
 79
     0
 53
45.0
 43
0.0
 44
10.80000043
 45
0.0
 46
42.00000167
 79
     0
 53
45.0
 43
0.0
 44
21.60000086
 45
0.0
 46
42.00000167
 79
     0
 47
0.775229
 98
        1
 10
0.0
 20
0.0
  0
LWPOLYLINE
  5
602
100
AcDbEntity
  8
Ech.1_5
 62
     9
100
AcDbPolyline
 90
       23
 70
     0
 43
0.0
 10
46036.6570827
 20
-8424.23846943
 10
46036.6570827
 20
-8424.83626206
 10
46036.27648036
 20
-8426.74967892
 10
46030.12154879
 20
-8433.44286377
 10
46028.6570827
 20
-8436.97839768
 10
46028.6570827
 20
-8556.06514199
 10
46029.6174051
 20
-8557.69501049
 10
46034.35352595
 20
-8560.66636021
 10
46034.76552732
 20
-8560.90732987
 10
46035.07934481
 20
-8560.90732987
 10
46035.53046558
 20
-8560.62526734
 10
46035.6570827
 20
-8560.29079373
 10
46035.6570827
 20
-8532.90732987
 10
46042.6570827
 20
-8532.90732987
 10
46042.6570827
 20
-8541.90732987
 10
46048.6570827
 20
-8541.90732987
 10
46048.6570827
 20
-8514.90732987
 10
46044.6570827
 20
-8510.90732987
 10
46048.6570827
 20
-8506.90732987
 10
46048.6570827
 20
-8442.90732987
 10
46044.6570827
 20
-8438.90732987
 10
46048.6570827
 20
-8434.90732987
 10
46048.6570827
 20
-8424.23846943
  0
LINE
  5
603
100
AcDbEntity
  8
Ech.1_5
 62
   150
  6
CADWORK_22
370
    35
100
AcDbLine
 10
46072.18350754
 20
-8424.23754532
 30
0.0
 11
46072.18350754
 21
-9240.38493759
 31
0.0
  0
LWPOLYLINE
  5
604
100
AcDbEntity
  8
Ech.1_5
 62
     9
  6
CONTINUOUS
370
     5
100
AcDbPolyline
 90
        5
 70
     0
 43
0.0
 10
46048.6570827
 20
-9240.38510639
 10
46073.6570827
 20
-9240.38520462
 10
46073.6570827
 20
-8424.2382024
 10
46048.6570827
 20
-8424.23846943
 10
46048.6570827
 20
-8779.13996155
  0
LINE
  5
605
100
AcDbEntity
  8
Ech.1_5
 62
     9
  6
CONTINUOUS
370
     5
100
AcDbLine
 10
46048.6570827
 20
-8779.13996155
 30
0.0
 11
46048.6570827
 21
-9240.38510639
 31
0.0
  0
LWPOLYLINE
  5
606
102
{ACAD_REACTORS
330
607
102
}
100
AcDbEntity
  8
Ech.1_5
 62
   190
  6
CONTINUOUS
370
    -3
100
AcDbPolyline
 90
        8
 70
     1
 43
0.0
 10
46162.47892825
 20
-8424.23681576
 10
46145.99257417
 20
-8442.21516735
 10
46160.10251419
 20
-8406.25946743
 10
46143.61701103
 20
-8424.23681576
 10
46081.18350754
 20
-8424.23706658
 10
46081.18350754
 20
-8522.63996441
 10
46261.18350754
 20
-8522.63996441
 10
46261.18350754
 20
-8424.2372163
  0
HATCH
  5
607
100
AcDbEntity
  8
Ech.1_5
 62
    41
  6
CONTINUOUS
100
AcDbHatch
 10
0.0
 20
0.0
 30
0.0
210
0.0
220
0.0
230
1.0
  2
SOLID
 70
     1
 71
     1
 91
        1
 92
        7
 72
     0
 73
     1
 93
        8
 10
46162.47892825
 20
-8424.23681576
 10
46145.99257417
 20
-8442.21516735
 10
46160.10251419
 20
-8406.25946743
 10
46143.61701103
 20
-8424.23681576
 10
46081.18350754
 20
-8424.23706658
 10
46081.18350754
 20
-8522.63996441
 10
46261.18350754
 20
-8522.63996441
 10
46261.18350754
 20
-8424.2372163
 97
        1
330
606
 75
     0
 76
     2
 47
0.775229
 98
        1
 10
0.0
 20
0.0
  0
LWPOLYLINE
  5
608
100
AcDbEntity
  8
Ech.1_5
 62
   190
  6
CONTINUOUS
370
    -3
100
AcDbPolyline
 90
        9
 70
     1
 43
0.0
 10
46261.18350754
 20
-9117.56375153
 10
46261.18350754
 20
-8567.63996441
 10
46081.18350754
 20
-8567.63996441
 10
46081.18350754
 20
-9240.3854316
 10
46195.25598151
 20
-9240.38572342
 10
46211.74233559
 20
-9222.40737183
 10
46197.63239558
 20
-9258.36307175
 10
46214.11789873
 20
-9240.38572342
 10
46261.18350754
 20
-9240.38409359
  0
LWPOLYLINE
  5
609
100
AcDbEntity
  8
Ech.1_5
 62
   190
  6
CONTINUOUS
370
    -3
100
AcDbPolyline
 90
       36
 70
     0
 43
0.0
 10
46223.4189187
 20
-8893.21531613
 10
46118.94809637
 20
-8865.25977547
 42
0.06551677
 10
46111.18672243
 20
-8864.23754627
 42
0.99999999
 10
46111.18029299
 20
-8924.23754627
 42
0.06557045
 10
46118.94809637
 20
-8923.21531613
 10
46223.4189187
 20
-8895.25977547
 42
-0.06551677
 10
46231.18029267
 20
-8894.23754627
 42
1.0
 10
46231.18672206
 20
-8834.23754627
 42
-0.06557045
 10
46223.4189187
 20
-8833.21531613
 10
46118.94809637
 20
-8805.25977547
 42
0.06551677
 10
46111.18672243
 20
-8804.23754627
 42
1.0
 10
46111.18029299
 20
-8864.23754627
 42
0.06557045
 10
46118.94809637
 20
-8863.21531613
 10
46223.4189187
 20
-8835.25977547
 42
-0.06551677
 10
46231.18029267
 20
-8834.23754627
 42
0.99999999
 10
46231.18672206
 20
-8774.23754627
 42
-0.06557045
 10
46223.4189187
 20
-8773.21531613
 10
46118.94809637
 20
-8745.25977547
 42
0.06551677
 10
46111.18672243
 20
-8744.23754627
 42
1.0
 10
46111.18029299
 20
-8804.23754627
 42
0.06557045
 10
46118.94809637
 20
-8803.21531613
 10
46223.4189187
 20
-8775.25977547
 42
-0.06551677
 10
46231.18029267
 20
-8774.23754627
 42
1.0
 10
46231.18672206
 20
-8714.23754627
 42
-0.06557045
 10
46223.4189187
 20
-8713.21531613
 10
46118.94809637
 20
-8685.25977547
 42
0.06551831
 10
46111.18652959
 20
-8684.23754532
 42
0.99999677
 10
46111.18029299
 20
-8744.23754627
 42
0.06557045
 10
46118.94809637
 20
-8743.21531613
 10
46223.4189187
 20
-8715.25977547
 42
-0.06551677
 10
46231.18029267
 20
-8714.23754627
 42
-1.00010716
 10
46231.18029267
 20
-8774.23754627
 42
-1.00010716
 10
46231.18029267
 20
-8834.23754627
 42
-1.00010716
 10
46231.18029267
 20
-8894.23754627
 42
-1.00010716
 10
46231.18029267
 20
-8954.23754627
 42
1.0
 10
46231.18672206
 20
-8894.23754627
  0
LWPOLYLINE
  5
60A
100
AcDbEntity
  8
Ech.1_5
 62
   190
  6
CONTINUOUS
370
    -3
100
AcDbPolyline
 90
        4
 70
     1
 43
0.0
 10
46261.18350754
 20
-8567.63996441
 10
46261.18350754
 20
-8522.63996441
 10
46081.18350754
 20
-8522.63996441
 10
46081.18350754
 20
-8567.63996441
  0
LWPOLYLINE
  5
60B
100
AcDbEntity
  8
Ech.1_5
 62
     5
  6
CONTINUOUS
370
    -3
100
AcDbPolyline
 90
        5
 70
     0
 43
0.0
 10
46081.18350754
 20
-8567.63996441
 10
46081.18350754
 20
-8522.63996441
 10
46261.18350754
 20
-8522.63996441
 10
46261.18350754
 20
-8567.63996441
 10
46081.18350754
 20
-8567.63996441
  0
LWPOLYLINE
  5
60C
100
AcDbEntity
  8
Ech.1_5
 62
   190
  6
CONTINUOUS
370
    -3
100
AcDbPolyline
 90
        4
 70
     1
 43
0.0
 10
46291.18350754
 20
-8902.63996441
 10
46261.18350754
 20
-8902.63996441
 10
46261.18350754
 20
-9122.63996441
 10
46291.18350754
 20
-9122.63996441
  0
LWPOLYLINE
  5
60D
100
AcDbEntity
  8
Ech.1_5
 62
   190
  6
CONTINUOUS
370
    -3
100
AcDbPolyline
 90
       81
 70
     0
 43
0.0
 10
46286.18350754
 20
-9122.63996441
 42
1.14028185
 10
46284.8894094
 20
-9112.81033642
 10
46267.47760568
 20
-9117.4695924
 42
-1.30322628
 10
46267.47760568
 20
-9107.81033642
 10
46284.8894094
 20
-9112.4695924
 42
1.30322628
 10
46284.8894094
 20
-9102.81033642
 10
46267.47760568
 20
-9107.4695924
 42
-1.30322628
 10
46267.47760568
 20
-9097.81033642
 10
46284.8894094
 20
-9102.4695924
 42
1.30322628
 10
46284.8894094
 20
-9092.81033642
 10
46267.47760568
 20
-9097.4695924
 42
-1.30322628
 10
46267.47760568
 20
-9087.81033642
 10
46284.8894094
 20
-9092.4695924
 42
1.30322628
 10
46284.8894094
 20
-9082.81033642
 10
46267.47760568
 20
-9087.4695924
 42
-1.30322628
 10
46267.47760568
 20
-9077.81033642
 10
46284.8894094
 20
-9082.4695924
 42
1.30322628
 10
46284.8894094
 20
-9072.81033642
 10
46267.47760568
 20
-9077.4695924
 42
-1.30322628
 10
46267.47760568
 20
-9067.81033642
 10
46284.8894094
 20
-9072.4695924
 42
1.30322628
 10
46284.8894094
 20
-9062.81033642
 10
46267.47760568
 20
-9067.4695924
 42
-1.30322628
 10
46267.47760568
 20
-9057.81033642
 10
46284.8894094
 20
-9062.4695924
 42
1.30322628
 10
46284.8894094
 20
-9052.81033642
 10
46267.47760568
 20
-9057.4695924
 42
-1.30322628
 10
46267.47760568
 20
-9047.81033642
 10
46284.8894094
 20
-9052.4695924
 42
1.30322628
 10
46284.8894094
 20
-9042.81033642
 10
46267.47760568
 20
-9047.4695924
 42
-1.30322628
 10
46267.47760568
 20
-9037.81033642
 10
46284.8894094
 20
-9042.4695924
 42
1.30322628
 10
46284.8894094
 20
-9032.81033642
 10
46267.47760568
 20
-9037.4695924
 42
-1.30322628
 10
46267.47760568
 20
-9027.81033642
 10
46284.8894094
 20
-9032.4695924
 42
1.30322628
 10
46284.8894094
 20
-9022.81033642
 10
46267.47760568
 20
-9027.4695924
 42
-1.30322628
 10
46267.47760568
 20
-9017.81033642
 10
46284.8894094
 20
-9022.4695924
 42
1.30322628
 10
46284.8894094
 20
-9012.81033642
 10
46267.47760568
 20
-9017.4695924
 42
-1.30322628
 10
46267.47760568
 20
-9007.81033642
 10
46284.8894094
 20
-9012.4695924
 42
1.30322628
 10
46284.8894094
 20
-9002.81033642
 10
46267.47760568
 20
-9007.4695924
 42
-1.30322628
 10
46267.47760568
 20
-8997.81033642
 10
46284.8894094
 20
-9002.4695924
 42
1.30322628
 10
46284.8894094
 20
-8992.81033642
 10
46267.47760568
 20
-8997.4695924
 42
-1.30322628
 10
46267.47760568
 20
-8987.81033642
 10
46284.8894094
 20
-8992.4695924
 42
1.30322628
 10
46284.8894094
 20
-8982.81033642
 10
46267.47760568
 20
-8987.4695924
 42
-1.30322628
 10
46267.47760568
 20
-8977.81033642
 10
46284.8894094
 20
-8982.4695924
 42
1.30322628
 10
46284.8894094
 20
-8972.81033642
 10
46267.47760568
 20
-8977.4695924
 42
-1.30322628
 10
46267.47760568
 20
-8967.81033642
 10
46284.8894094
 20
-8972.4695924
 42
1.30322628
 10
46284.8894094
 20
-8962.81033642
 10
46267.47760568
 20
-8967.4695924
 42
-1.30322628
 10
46267.47760568
 20
-8957.81033642
 10
46284.8894094
 20
-8962.4695924
 42
1.30322628
 10
46284.8894094
 20
-8952.81033642
 10
46267.47760568
 20
-8957.4695924
 42
-1.30322628
 10
46267.47760568
 20
-8947.81033642
 10
46284.8894094
 20
-8952.4695924
 42
1.30322628
 10
46284.8894094
 20
-8942.81033642
 10
46267.47760568
 20
-8947.4695924
 42
-1.30322628
 10
46267.47760568
 20
-8937.81033642
 10
46284.8894094
 20
-8942.4695924
 42
1.30322628
 10
46284.8894094
 20
-8932.81033642
 10
46267.47760568
 20
-8937.4695924
 42
-1.30322628
 10
46267.47760568
 20
-8927.81033642
 10
46284.8894094
 20
-8932.4695924
 42
1.14028182
 10
46286.18350781
 20
-8922.63996441
 42
0.06554355
 10
46284.8894094
 20
-8922.81033642
 10
46267.47760568
 20
-8927.4695924
 42
-0.4931456
 10
46261.18350754
 20
-8922.63996441
  0
LWPOLYLINE
  5
60E
100
AcDbEntity
  8
Ech.1_5
 62
     9
  6
CONTINUOUS
370
    -3
100
AcDbPolyline
 90
        3
 70
     0
 43
0.0
 10
46413.68350754
 20
-8902.63996441
 10
46291.18350754
 20
-8902.63996441
 10
46291.18350754
 20
-8922.63996441
  0
LWPOLYLINE
  5
60F
102
{ACAD_REACTORS
330
610
102
}
100
AcDbEntity
  8
Ech.1_5
 62
     9
  6
CONTINUOUS
370
    -3
100
AcDbPolyline
 90
       11
 70
     1
 43
0.0
 10
46291.18350754
 20
-8922.63996441
 10
46291.18350754
 20
-8902.63996441
 10
46413.68350754
 20
-8902.63996441
 10
46766.6348715
 20
-8902.63996441
 10
46766.63510981
 20
-8922.63996441
 10
46766.63607625
 20
-9003.74746163
 10
46784.61342466
 20
-9020.23296482
 10
46748.65772465
 20
-9006.12302429
 10
46766.63607625
 20
-9022.60937912
 10
46766.63555979
 20
-9122.63996441
 10
46291.18350754
 20
-9122.63996441
  0
HATCH
  5
610
100
AcDbEntity
  8
Ech.1_5
 62
     9
  6
CONTINUOUS
100
AcDbHatch
 10
0.0
 20
0.0
 30
0.0
210
0.0
220
0.0
230
1.0
  2
AR-CONC
 70
     0
 71
     1
 91
        1
 92
        7
 72
     0
 73
     1
 93
       11
 10
46291.18350754
 20
-8922.63996441
 10
46291.18350754
 20
-8902.63996441
 10
46413.68350754
 20
-8902.63996441
 10
46766.6348715
 20
-8902.63996441
 10
46766.63510981
 20
-8922.63996441
 10
46766.63607625
 20
-9003.74746163
 10
46784.61342466
 20
-9020.23296482
 10
46748.65772465
 20
-9006.12302429
 10
46766.63607625
 20
-9022.60937912
 10
46766.63555979
 20
-9122.63996441
 10
46291.18350754
 20
-9122.63996441
 97
        1
330
60F
 75
     0
 76
     2
 52
0.0
 41
0.11811097
 77
     0
 78
    13
 53
50.0
 43
0.0
 44
0.0
 45
-18.84283637
 46
1.64853443
 79
     2
 49
1.97029307
 49
-21.67322338
 53
355.0
 43
0.0
 44
0.0
 45
-3.64507756
 46
19.76051824
 79
     2
 49
1.57623377
 49
-17.3385787
 53
100.45140076
 43
1.57023568
 44
-0.13737749
 45
-15.19777228
 46
-18.11197244
 79
     2
 49
1.67449124
 49
-18.41940522
 53
46.18420029
 43
0.0
 44
5.25411576
 45
-28.03703353
 46
4.34827878
 79
     2
 49
2.95543872
 49
-32.50983238
 53
96.63559723
 43
2.33641885
 44
4.89175692
 45
-24.55412615
 46
-25.59063404
 79
     2
 49
2.51173697
 49
-27.62910426
 53
351.1842041
 43
0.0
 44
5.25411576
 45
24.55410288
 46
25.59065715
 79
     2
 49
2.36435249
 49
-26.00786805
 53
21.0
 43
2.62705699
 44
3.94058615
 45
-15.68109068
 46
10.57702905
 79
     2
 49
1.97029307
 49
-21.67322338
 53
326.0
 43
2.62705699
 44
3.94058615
 45
6.39203268
 46
19.05010734
 79
     2
 49
1.57623377
 49
-17.3385787
 53
71.45140076
 43
3.93381357
 44
3.05916555
 45
-22.07312962
 46
-8.47306182
 79
     2
 49
1.67449124
 49
-18.41940522
 53
37.5
 43
0.0
 44
0.0
 45
0.31944534
 46
8.74531245
 79
     6
 49
0.01875
 49
-17.12841332
 49
0.01875
 49
-17.60128498
 49
0.01875
 49
-17.40425348
 53
7.5
 43
0.0
 44
0.0
 45
6.91098818
 46
10.3614222
 79
     6
 49
0.01875
 49
-10.03535807
 49
0.01875
 49
-16.7343539
 49
0.01875
 49
-6.6333206
 53
-32.5
 43
-5.85833833
 44
0.0
 45
14.02382061
 46
-0.59253003
 79
     6
 49
0.01875
 49
-6.56764314
 49
0.01875
 49
-20.49104869
 49
0.01875
 49
-27.19004452
 53
-42.5
 43
-8.48539531
 44
0.0
 45
15.32063571
 46
2.62981542
 79
     6
 49
0.01875
 49
-8.53793621
 49
0.01875
 49
-13.60815793
 49
0.01875
 49
-19.30887222
 47
0.775229
 98
        1
 10
0.0
 20
0.0
  0
LWPOLYLINE
  5
611
100
AcDbEntity
  8
Ech.1_5
 62
   190
  6
CONTINUOUS
370
    -3
100
AcDbPolyline
 90
       17
 70
     0
 43
0.0
 10
46260.13094936
 20
-9036.56548245
 42
-0.49776925
 10
46231.27576157
 20
-9074.76259262
 42
-0.06557045
 10
46223.50795821
 20
-9073.74036247
 10
46119.03713588
 20
-9045.78482182
 42
0.06551676
 10
46111.27576194
 20
-9044.76259262
 42
1.0
 10
46111.26933249
 20
-9104.76259262
 42
0.06557045
 10
46119.03713588
 20
-9103.74036247
 10
46223.50795821
 20
-9075.78482182
 42
-0.06551676
 10
46231.26933218
 20
-9074.76259262
 42
-0.99999794
 10
46231.27588623
 20
-9134.76259167
 42
-0.06557173
 10
46223.50795821
 20
-9133.74036247
 10
46119.03713588
 20
-9105.78482182
 42
0.06551676
 10
46111.27576194
 20
-9104.76259262
 42
1.14034343
 10
46119.03713588
 20
-9163.74036247
 10
46223.50795821
 20
-9135.78482182
 42
-0.06551572
 10
46231.2692076
 20
-9134.76259167
 42
-0.72558186
 10
46248.96981436
 20
-9188.98668606
  0
LWPOLYLINE
  5
612
100
AcDbEntity
  8
Ech.1_5
 62
     9
100
AcDbPolyline
 90
       27
 70
     0
 43
0.0
 10
46035.53046558
 20
-8850.62526734
 10
46035.6570827
 20
-8850.29079373
 10
46035.6570827
 20
-8822.90732987
 10
46042.6570827
 20
-8822.90732987
 10
46042.6570827
 20
-8831.90732987
 10
46048.6570827
 20
-8831.90732987
 10
46048.6570827
 20
-8804.90732987
 10
46044.6570827
 20
-8800.90732987
 10
46048.6570827
 20
-8796.90732987
 10
46048.6570827
 20
-8732.90732987
 10
46044.6570827
 20
-8728.90732987
 10
46048.6570827
 20
-8724.90732987
 10
46048.6570827
 20
-8689.90732987
 10
46041.6570827
 20
-8689.90732987
 10
46041.6570827
 20
-8683.90732987
 10
46039.1570827
 20
-8678.90732987
 10
46036.6570827
 20
-8683.90732987
 10
46036.6570827
 20
-8714.83626206
 10
46036.27648036
 20
-8716.74967892
 10
46030.12154879
 20
-8723.44286377
 10
46028.6570827
 20
-8726.97839768
 10
46028.6570827
 20
-8846.06514199
 10
46029.6174051
 20
-8847.69501049
 10
46034.35352595
 20
-8850.66636021
 10
46034.76552732
 20
-8850.90732987
 10
46035.07934481
 20
-8850.90732987
 10
46035.53046558
 20
-8850.62526734
  0
LWPOLYLINE
  5
613
100
AcDbEntity
  8
Ech.1_5
 62
     9
100
AcDbPolyline
 90
       27
 70
     0
 43
0.0
 10
46035.53046558
 20
-8995.62526734
 10
46035.6570827
 20
-8995.29079373
 10
46035.6570827
 20
-8967.90732987
 10
46042.6570827
 20
-8967.90732987
 10
46042.6570827
 20
-8976.90732987
 10
46048.6570827
 20
-8976.90732987
 10
46048.6570827
 20
-8949.90732987
 10
46044.6570827
 20
-8945.90732987
 10
46048.6570827
 20
-8941.90732987
 10
46048.6570827
 20
-8877.90732987
 10
46044.6570827
 20
-8873.90732987
 10
46048.6570827
 20
-8869.90732987
 10
46048.6570827
 20
-8834.90732987
 10
46041.6570827
 20
-8834.90732987
 10
46041.6570827
 20
-8828.90732987
 10
46039.1570827
 20
-8823.90732987
 10
46036.6570827
 20
-8828.90732987
 10
46036.6570827
 20
-8859.83626206
 10
46036.27648036
 20
-8861.74967892
 10
46030.12154879
 20
-8868.44286377
 10
46028.6570827
 20
-8871.97839768
 10
46028.6570827
 20
-8991.06514199
 10
46029.6174051
 20
-8992.69501049
 10
46034.35352595
 20
-8995.66636021
 10
46034.76552732
 20
-8995.90732987
 10
46035.07934481
 20
-8995.90732987
 10
46035.53046558
 20
-8995.62526734
  0
LWPOLYLINE
  5
614
100
AcDbEntity
  8
Ech.1_5
 62
   190
  6
CONTINUOUS
370
    -3
100
AcDbPolyline
 90
       12
 70
     0
 43
0.0
 10
46286.14118177
 20
-8932.75505287
 42
1.14028185
 10
46284.84708363
 20
-8922.92542488
 10
46267.43527991
 20
-8927.58468086
 42
-1.30322628
 10
46267.43527991
 20
-8917.92542488
 10
46284.84708363
 20
-8922.58468086
 42
1.30322628
 10
46284.84708363
 20
-8912.92542488
 10
46267.43527991
 20
-8917.58468086
 42
-1.30322628
 10
46267.43527991
 20
-8907.92542488
 10
46284.84708363
 20
-8912.58468086
 42
1.30322628
 10
46284.84708363
 20
-8902.92542488
 10
46267.43527991
 20
-8907.58468086
 42
-0.50032058
 10
46261.14250648
 20
-8902.63996441
  0
ARC
  5
615
100
AcDbEntity
  8
Ech.1_5
 62
   190
  6
CONTINUOUS
370
    -3
100
AcDbCircle
 10
46286.14118204
 20
-8897.75506612
 30
0.0
 40
4.99998675
100
AcDbArc
 50
257.68297916
 51
282.31702084
  0
LWPOLYLINE
  5
616
100
AcDbEntity
  8
Ech.1_5
 62
     9
  6
CONTINUOUS
370
     5
100
AcDbPolyline
 90
        5
 70
     0
 43
0.0
 10
46048.6570827
 20
-8309.51421307
 10
46072.18350754
 20
-8309.51421307
 10
46072.18350754
 20
-8393.35350751
 10
46048.6570827
 20
-8393.35328053
 10
46048.6570827
 20
-8309.51421307
  0
LINE
  5
617
100
AcDbEntity
  8
Ech.1_5
 62
     9
  6
CONTINUOUS
370
     5
100
AcDbLine
 10
46048.6570827
 20
-8309.51421307
 30
0.0
 11
46048.6570827
 21
-8309.51421307
 31
0.0
  0
LWPOLYLINE
  5
618
102
{ACAD_REACTORS
330
619
102
}
100
AcDbEntity
  8
Ech.1_5
 62
     7
  6
CONTINUOUS
370
    -3
100
AcDbPolyline
 90
        4
 70
     1
 43
0.0
 10
46081.18350754
 20
-8309.51421307
 10
46072.18350754
 20
-8309.51421307
 10
46072.18350754
 20
-8393.35350751
 10
46081.18350754
 20
-8393.35350751
  0
HATCH
  5
619
100
AcDbEntity
  8
Ech.1_5
 62
   190
  6
CONTINUOUS
100
AcDbHatch
 10
0.0
 20
0.0
 30
0.0
210
0.0
220
0.0
230
1.0
  2
CDWK10A
 70
     0
 71
     1
 91
        1
 92
        7
 72
     0
 73
     1
 93
        4
 10
46081.18350754
 20
-8309.51421307
 10
46072.18350754
 20
-8309.51421307
 10
46072.18350754
 20
-8393.35350751
 10
46081.18350754
 20
-8393.35350751
 97
        1
330
618
 75
     0
 76
     2
 52
0.0
 41
1.0
 77
     0
 78
     3
 53
45.0
 43
0.0
 44
0.0
 45
0.0
 46
42.00000167
 79
     0
 53
45.0
 43
0.0
 44
10.80000043
 45
0.0
 46
42.00000167
 79
     0
 53
45.0
 43
0.0
 44
21.60000086
 45
0.0
 46
42.00000167
 79
     0
 47
0.775229
 98
        1
 10
0.0
 20
0.0
  0
LINE
  5
61A
100
AcDbEntity
  8
Ech.1_5
 62
   150
  6
CADWORK_22
370
    35
100
AcDbLine
 10
46072.1570827
 20
-8393.3525834
 30
0.0
 11
46072.18350754
 21
-8309.51421307
 31
0.0
  0
LWPOLYLINE
  5
61B
102
{ACAD_REACTORS
330
61C
102
}
100
AcDbEntity
  8
Ech.1_5
 62
   190
  6
CONTINUOUS
370
    -3
100
AcDbPolyline
 90
        8
 70
     1
 43
0.0
 10
46196.3744409
 20
-8375.37555646
 10
46182.26450089
 20
-8411.33125638
 10
46198.75000404
 20
-8393.35390805
 10
46261.18350754
 20
-8393.35365723
 10
46261.18350754
 20
-8309.51421307
 10
46081.18350754
 20
-8309.51421307
 10
46081.18350754
 20
-8393.35350751
 10
46179.88808682
 20
-8393.35390805
  0
HATCH
  5
61C
100
AcDbEntity
  8
Ech.1_5
 62
    41
  6
CONTINUOUS
100
AcDbHatch
 10
0.0
 20
0.0
 30
0.0
210
0.0
220
0.0
230
1.0
  2
SOLID
 70
     1
 71
     1
 91
        1
 92
        7
 72
     0
 73
     1
 93
        8
 10
46196.3744409
 20
-8375.37555646
 10
46182.26450089
 20
-8411.33125638
 10
46198.75000404
 20
-8393.35390805
 10
46261.18350754
 20
-8393.35365723
 10
46261.18350754
 20
-8309.51421307
 10
46081.18350754
 20
-8309.51421307
 10
46081.18350754
 20
-8393.35350751
 10
46179.88808682
 20
-8393.35390805
 97
        1
330
61B
 75
     0
 76
     2
 47
0.775229
 98
        1
 10
0.0
 20
0.0
  0
LWPOLYLINE
  5
61D
100
AcDbEntity
  8
Ech.1_5
 62
     9
100
AcDbPolyline
 90
        6
 70
     0
 43
0.0
 10
46036.6570827
 20
-8320.16163396
 10
46036.6570827
 20
-8320.75942658
 10
46036.27648036
 20
-8322.67284344
 10
46030.12154879
 20
-8329.3660283
 10
46028.6570827
 20
-8332.9015622
 10
46028.6570827
 20
-8393.35292577
  0
LWPOLYLINE
  5
61E
100
AcDbEntity
  8
Ech.1_5
 62
     9
100
AcDbPolyline
 90
        5
 70
     0
 43
0.0
 10
46048.6570827
 20
-8393.35276841
 10
46048.6570827
 20
-8338.83049439
 10
46044.6570827
 20
-8334.83049439
 10
46048.6570827
 20
-8330.83049439
 10
46048.6570827
 20
-8320.16163396
  0
LINE
  5
61F
100
AcDbEntity
  8
Ech.1_5
 62
     9
  6
CONTINUOUS
370
    -3
100
AcDbLine
 10
46036.6570827
 20
-8320.75942658
 30
2500.0
 11
46048.6570827
 21
-8320.75942658
 31
2500.0
  0
LWPOLYLINE
  5
620
100
AcDbEntity
  8
Ech.1_5
 62
   190
  6
CONTINUOUS
370
    -3
100
AcDbPolyline
 90
       17
 70
     0
 43
0.0
 10
46259.87552794
 20
-8916.46949513
 42
-0.49776925
 10
46231.02034014
 20
-8954.6666053
 42
-0.06557045
 10
46223.25253678
 20
-8953.64437515
 10
46118.78171445
 20
-8925.6888345
 42
0.06551676
 10
46111.02034051
 20
-8924.6666053
 42
1.0
 10
46111.01391107
 20
-8984.6666053
 42
0.06557045
 10
46118.78171445
 20
-8983.64437515
 10
46223.25253678
 20
-8955.6888345
 42
-0.06551676
 10
46231.01391075
 20
-8954.6666053
 42
-0.99999794
 10
46231.02046481
 20
-9014.66660435
 42
-0.06557173
 10
46223.25253678
 20
-9013.64437515
 10
46118.78171445
 20
-8985.6888345
 42
0.06551676
 10
46111.02034051
 20
-8984.6666053
 42
1.14034343
 10
46118.78171445
 20
-9043.64437515
 10
46223.25253678
 20
-9015.6888345
 42
-0.06551572
 10
46231.01378617
 20
-9014.66660435
 42
-0.72558186
 10
46248.71439293
 20
-9068.89069874
  0
LWPOLYLINE
  5
621
100
AcDbEntity
  8
Ech.1_5
 62
   190
  6
CONTINUOUS
370
    -3
100
AcDbPolyline
 90
       10
 70
     0
 43
0.0
 10
46256.97473406
 20
-9240.38434345
 42
0.58601443
 10
46231.39595645
 20
-9194.71393616
 42
-0.06557045
 10
46223.6281531
 20
-9193.69170601
 10
46119.15733077
 20
-9165.73616535
 42
0.06551676
 10
46111.39595683
 20
-9164.71393616
 42
0.99999999
 10
46111.38952738
 20
-9224.71393616
 42
0.06557045
 10
46119.15733077
 20
-9223.69170601
 10
46223.6281531
 20
-9195.73616535
 42
-0.06551667
 10
46231.38952707
 20
-9194.71393616
 42
-0.58608641
 10
46256.97473406
 20
-9240.38434345
  0
LWPOLYLINE
  5
622
100
AcDbEntity
  8
Ech.1_5
 62
   190
  6
CONTINUOUS
370
    -3
100
AcDbPolyline
 90
        4
 70
     0
 43
0.0
 10
46173.89882134
 20
-9240.38454182
 10
46119.15733077
 20
-9225.73616535
 42
0.06551667
 10
46111.39595683
 20
-9224.71393616
 42
0.27485822
 10
46085.03606224
 20
-9240.38475449
  0
LINE
  5
623
100
AcDbEntity
  8
Ech.1_5
 62
   150
  6
CADWORK_22
370
    35
100
AcDbLine
 10
46278.66348618
 20
-8424.50284226
 30
0.0
 11
46278.66348618
 21
-8433.92419274
 31
0.0
  0
LWPOLYLINE
  5
624
100
AcDbEntity
  8
Ech.1_5
 62
     9
  6
CONTINUOUS
370
     5
100
AcDbPolyline
 90
        5
 70
     0
 43
0.0
 10
46293.70993237
 20
-8309.51421307
 10
46270.18350754
 20
-8309.51421307
 10
46270.18350754
 20
-8393.35350751
 10
46293.70993237
 20
-8393.35328053
 10
46293.70993237
 20
-8309.51421307
  0
LINE
  5
625
100
AcDbEntity
  8
Ech.1_5
 62
     9
  6
CONTINUOUS
370
     5
100
AcDbLine
 10
46293.70993237
 20
-8309.51421307
 30
0.0
 11
46293.70993237
 21
-8309.51421307
 31
0.0
  0
LWPOLYLINE
  5
626
100
AcDbEntity
  8
Ech.1_5
 62
     9
100
AcDbPolyline
 90
        6
 70
     0
 43
0.0
 10
46305.70993237
 20
-8320.16163396
 10
46305.70993237
 20
-8320.75942658
 10
46306.09053471
 20
-8322.67284344
 10
46312.24546628
 20
-8329.3660283
 10
46313.70993237
 20
-8332.9015622
 10
46313.70993237
 20
-8393.35292577
  0
LINE
  5
627
100
AcDbEntity
  8
Ech.1_5
 62
     9
  6
CONTINUOUS
370
    -3
100
AcDbLine
 10
46305.70993237
 20
-8320.75942658
 30
2500.0
 11
46293.70993237
 21
-8320.75942658
 31
2500.0
  0
LWPOLYLINE
  5
628
100
AcDbEntity
  8
Ech.1_5
 62
     9
100
AcDbPolyline
 90
        5
 70
     0
 43
0.0
 10
46293.70993237
 20
-8478.14156182
 10
46293.70993237
 20
-8442.90732987
 10
46297.70993237
 20
-8438.90732987
 10
46293.70993237
 20
-8434.90732987
 10
46293.70993237
 20
-8424.23846943
  0
LWPOLYLINE
  5
629
100
AcDbEntity
  8
Ech.1_5
 62
     9
100
AcDbPolyline
 90
        6
 70
     0
 43
0.0
 10
46313.70993237
 20
-8493.76888211
 10
46313.70993237
 20
-8436.97839768
 10
46312.24546628
 20
-8433.44286377
 10
46306.09053471
 20
-8426.74967892
 10
46305.70993237
 20
-8424.83626206
 10
46305.70993237
 20
-8424.23846943
  0
LINE
  5
62A
100
AcDbEntity
  8
Ech.1_5
 62
     9
  6
CONTINUOUS
370
    -3
100
AcDbLine
 10
46293.70993237
 20
-8478.14156182
 30
2500.0
 11
46313.70993237
 21
-8493.76888211
 31
2500.0
  0
LINE
  5
62B
100
AcDbEntity
  8
Ech.1_5
 62
     9
  6
CONTINUOUS
370
    -3
100
AcDbLine
 10
46293.70993237
 20
-8478.14156182
 30
2500.0
 11
46270.18350754
 21
-8478.14156182
 31
2500.0
  0
LINE
  5
62C
100
AcDbEntity
  8
Ech.1_5
 62
   150
  6
CADWORK_22
370
    35
100
AcDbLine
 10
46278.66348618
 20
-8433.92419274
 30
2500.0
 11
46287.44104708
 21
-8443.57094033
 31
2500.0
  0
LINE
  5
62D
100
AcDbEntity
  8
Ech.1_5
 62
   150
  6
CADWORK_22
370
    35
100
AcDbLine
 10
46287.44104708
 20
-8443.57094033
 30
2500.0
 11
46287.44104708
 21
-8480.15393669
 31
2500.0
  0
LWPOLYLINE
  5
62E
100
AcDbEntity
  8
Ech.1_5
 62
   150
  6
CADWORK_22
370
    35
100
AcDbPolyline
 90
        7
 70
     0
 43
0.0
 38
2500.0
 10
46270.18350754
 20
-8393.35350751
 10
46270.23653082
 20
-8374.21912049
 42
-0.33642755
 10
46280.63560257
 20
-8371.80745267
 42
0.41421341
 10
46284.92705402
 20
-8367.51600026
 42
0.41421356
 10
46280.63560257
 20
-8363.2245488
 42
-0.29920957
 10
46270.18350754
 20
-8361.26721715
 10
46270.18350754
 20
-8309.51421307
  0
LWPOLYLINE
  5
62F
100
AcDbEntity
  8
Ech.1_5
 62
     9
  6
CONTINUOUS
370
     5
100
AcDbPolyline
 90
        5
 70
     0
 43
0.0
 10
46293.70993237
 20
-8309.51421307
 10
46270.18350754
 20
-8309.51421307
 10
46270.18350754
 20
-8393.35350751
 10
46293.70993237
 20
-8393.35328053
 10
46293.70993237
 20
-8309.51421307
  0
LINE
  5
630
100
AcDbEntity
  8
Ech.1_5
 62
     9
  6
CONTINUOUS
370
     5
100
AcDbLine
 10
46293.70993237
 20
-8309.51421307
 30
0.0
 11
46293.70993237
 21
-8309.51421307
 31
0.0
  0
LWPOLYLINE
  5
631
100
AcDbEntity
  8
Ech.1_5
 62
     3
370
    90
100
AcDbPolyline
 90
        4
 70
     0
 43
0.0
 10
46008.397755
 20
-8215.54890899
 10
45995.40862158
 20
-8215.54890899
 10
45991.47388944
 20
-8209.86829643
 10
45977.99545943
 20
-8209.86829643
  0
LWPOLYLINE
  5
632
102
{ACAD_REACTORS
330
633
102
}
100
AcDbEntity
  8
Ech.1_5
 62
     7
  6
CONTINUOUS
370
    -3
100
AcDbPolyline
 90
        4
 70
     1
 43
0.0
 10
46270.18350754
 20
-8424.2372163
 10
46261.18350754
 20
-8424.2372163
 10
46261.18350754
 20
-8567.63996441
 10
46270.18350754
 20
-8567.63996441
  0
HATCH
  5
633
100
AcDbEntity
  8
Ech.1_5
 62
   190
  6
CONTINUOUS
100
AcDbHatch
 10
0.0
 20
0.0
 30
0.0
210
0.0
220
0.0
230
1.0
  2
CDWK10A
 70
     0
 71
     1
 91
        1
 92
        7
 72
     0
 73
     1
 93
        4
 10
46270.18350754
 20
-8424.2372163
 10
46261.18350754
 20
-8424.2372163
 10
46261.18350754
 20
-8567.63996441
 10
46270.18350754
 20
-8567.63996441
 97
        1
330
632
 75
     0
 76
     2
 52
0.0
 41
1.0
 77
     0
 78
     3
 53
45.0
 43
0.0
 44
0.0
 45
0.0
 46
42.00000167
 79
     0
 53
45.0
 43
0.0
 44
10.80000043
 45
0.0
 46
42.00000167
 79
     0
 53
45.0
 43
0.0
 44
21.60000086
 45
0.0
 46
42.00000167
 79
     0
 47
0.775229
 98
        1
 10
0.0
 20
0.0
  0
LWPOLYLINE
  5
634
100
AcDbEntity
  8
Ech.1_5
 62
     1
  6
CADWORK_22
 48
-5.0
370
    35
100
AcDbPolyline
 90
        3
 70
     0
 43
0.0
 10
46262.68350754
 20
-8576.46778805
 10
46271.71563687
 20
-8567.63996441
 10
46271.71563687
 20
-8506.10816319
  0
LWPOLYLINE
  5
635
100
AcDbEntity
  8
Ech.1_5
 62
     7
  6
CONTINUOUS
370
    80
100
AcDbPolyline
 90
        7
 70
     0
 43
0.0
 10
46019.6570827
 20
-8347.63516473
 10
46016.6570827
 20
-8353.63516473
 10
46016.6570827
 20
-8293.63516473
 10
46314.17920865
 20
-8305.53395413
 10
46325.70993237
 20
-8305.99510144
 10
46325.70993237
 20
-8353.99510144
 10
46322.70993237
 20
-8347.99510144
  0
LINE
  5
636
100
AcDbEntity
  8
Ech.1_5
 62
     7
  6
CADWORK_13
370
    -3
100
AcDbLine
 10
46265.44560765
 20
-8782.63996441
 30
0.0
 11
46766.63460043
 21
-8782.63996441
 31
0.0
  0
LINE
  5
637
100
AcDbEntity
  8
Ech.1_5
 62
     7
  6
CONTINUOUS
370
    -3
100
AcDbLine
 10
46584.39740631
 20
-8902.63996441
 30
0.0
 11
46584.39740631
 21
-8782.63996441
 31
0.0
  0
INSERT
  5
638
100
AcDbEntity
  8
Ech.1_5
 62
     7
  6
CONTINUOUS
370
    -3
100
AcDbBlockReference
  2
CDWK_EXTR_2
 10
46584.39740631
 20
-8902.63996441
 30
0.0
 41
10.0
 42
10.0
 43
10.0
 50
90.0
  0
INSERT
  5
639
100
AcDbEntity
  8
Ech.1_5
 62
     7
  6
CONTINUOUS
370
    -3
100
AcDbBlockReference
  2
CDWK_EXTR_2
 10
46584.39740631
 20
-8782.63996441
 30
0.0
 41
10.0
 42
10.0
 43
10.0
 50
270.0
  0
LWPOLYLINE
  5
63A
100
AcDbEntity
  8
Ech.1_5
 62
   190
  6
CONTINUOUS
370
    -3
100
AcDbPolyline
 90
       36
 70
     0
 43
0.0
 10
46223.45187822
 20
-8833.18547375
 10
46118.98105589
 20
-8805.22993309
 42
0.06551677
 10
46111.21968195
 20
-8804.2077039
 42
1.0
 10
46111.21325251
 20
-8864.2077039
 42
0.06557045
 10
46118.98105589
 20
-8863.18547375
 10
46223.45187822
 20
-8835.22993309
 42
-0.06551677
 10
46231.21325219
 20
-8834.2077039
 42
1.0
 10
46231.21968158
 20
-8774.2077039
 42
-0.06557045
 10
46223.45187822
 20
-8773.18547375
 10
46118.98105589
 20
-8745.22993309
 42
0.06551677
 10
46111.21968195
 20
-8744.2077039
 42
1.0
 10
46111.21325251
 20
-8804.2077039
 42
0.06557045
 10
46118.98105589
 20
-8803.18547375
 10
46223.45187822
 20
-8775.22993309
 42
-0.06551677
 10
46231.21325219
 20
-8774.2077039
 42
0.99999999
 10
46231.21968158
 20
-8714.2077039
 42
-0.06557045
 10
46223.45187822
 20
-8713.18547375
 10
46118.98105589
 20
-8685.22993309
 42
0.06551677
 10
46111.21968195
 20
-8684.2077039
 42
1.0
 10
46111.21325251
 20
-8744.2077039
 42
0.06557045
 10
46118.98105589
 20
-8743.18547375
 10
46223.45187822
 20
-8715.22993309
 42
-0.06551677
 10
46231.21325219
 20
-8714.2077039
 42
1.0
 10
46231.21968158
 20
-8654.2077039
 42
-0.06557045
 10
46223.45187822
 20
-8653.18547375
 10
46118.98105589
 20
-8625.22993309
 42
0.06551831
 10
46111.21948912
 20
-8624.20770294
 42
0.99999677
 10
46111.21325251
 20
-8684.2077039
 42
0.06557045
 10
46118.98105589
 20
-8683.18547375
 10
46223.45187822
 20
-8655.22993309
 42
-0.06551677
 10
46231.21325219
 20
-8654.2077039
 42
-1.00010716
 10
46231.21325219
 20
-8714.2077039
 42
-1.00010716
 10
46231.21325219
 20
-8774.2077039
 42
-1.00010716
 10
46231.21325219
 20
-8834.2077039
 42
-1.00010716
 10
46231.21325219
 20
-8894.2077039
 42
1.0
 10
46231.21968158
 20
-8834.2077039
  0
LWPOLYLINE
  5
63B
100
AcDbEntity
  8
Ech.1_5
 62
   190
  6
CONTINUOUS
370
    -3
100
AcDbPolyline
 90
       17
 70
     0
 43
0.0
 10
46259.99036376
 20
-8555.85187084
 42
-0.49776925
 10
46231.13517596
 20
-8594.04898102
 42
-0.06557045
 10
46223.36737261
 20
-8593.02675087
 10
46118.89655028
 20
-8565.07121021
 42
0.06551676
 10
46111.13517634
 20
-8564.04898102
 42
1.0
 10
46111.12874689
 20
-8624.04898102
 42
0.06557045
 10
46118.89655028
 20
-8623.02675087
 10
46223.36737261
 20
-8595.07121021
 42
-0.06551676
 10
46231.12874658
 20
-8594.04898102
 42
-0.99999794
 10
46231.13530063
 20
-8654.04898007
 42
-0.06557173
 10
46223.36737261
 20
-8653.02675087
 10
46118.89655028
 20
-8625.07121021
 42
0.06551676
 10
46111.13517634
 20
-8624.04898102
 42
1.14034343
 10
46118.89655028
 20
-8683.02675087
 10
46223.36737261
 20
-8655.07121021
 42
-0.06551572
 10
46231.128622
 20
-8654.04898007
 42
-0.72558186
 10
46248.82922876
 20
-8708.27307446
  0
LWPOLYLINE
  5
63C
100
AcDbEntity
  8
Ech.1_5
 62
     3
370
    90
100
AcDbPolyline
 90
        4
 70
     0
 43
0.0
 10
46274.21189814
 20
-8517.24898846
 10
46274.21189814
 20
-8504.25985462
 10
46270.0646925
 20
-8499.9389394
 10
46270.0646925
 20
-8486.23516114
  0
LWPOLYLINE
  5
63D
100
AcDbEntity
  8
Ech.1_5
 62
     3
370
    90
100
AcDbPolyline
 90
        4
 70
     0
 43
0.0
 10
46285.9606669
 20
-8497.92603142
 10
46285.9606669
 20
-8484.93689759
 10
46291.64127987
 20
-8481.00216515
 10
46291.64127987
 20
-8467.52373535
  0
LWPOLYLINE
  5
63E
100
AcDbEntity
  8
Ech.1_5
 62
   190
  6
CONTINUOUS
370
    -3
100
AcDbPolyline
 90
        4
 70
     1
 43
0.0
 10
46261.18350754
 20
-8354.51421307
 10
46261.18350754
 20
-8309.51421307
 10
46081.18350754
 20
-8309.51421307
 10
46081.18350754
 20
-8354.51421307
  0
LWPOLYLINE
  5
63F
100
AcDbEntity
  8
Ech.1_5
 62
     5
  6
CONTINUOUS
370
    -3
100
AcDbPolyline
 90
        5
 70
     0
 43
0.0
 10
46081.18350754
 20
-8354.51421307
 10
46081.18350754
 20
-8309.51421307
 10
46261.18350754
 20
-8309.51421307
 10
46261.18350754
 20
-8354.51421307
 10
46081.18350754
 20
-8354.51421307
  0
LINE
  5
640
100
AcDbEntity
  8
Ech.1_5
 62
   150
  6
CADWORK_22
370
    35
100
AcDbLine
 10
46270.18350754
 20
-8309.51421307
 30
0.0
 11
46072.18350754
 21
-8309.51421307
 31
0.0
  0
LWPOLYLINE
  5
641
100
AcDbEntity
  8
Ech.1_5
 62
     9
100
AcDbPolyline
 90
       27
 70
     0
 43
0.0
 10
46035.53046558
 20
-9140.62526734
 10
46035.6570827
 20
-9140.29079373
 10
46035.6570827
 20
-9112.90732987
 10
46042.6570827
 20
-9112.90732987
 10
46042.6570827
 20
-9121.90732987
 10
46048.6570827
 20
-9121.90732987
 10
46048.6570827
 20
-9094.90732987
 10
46044.6570827
 20
-9090.90732987
 10
46048.6570827
 20
-9086.90732987
 10
46048.6570827
 20
-9022.90732987
 10
46044.6570827
 20
-9018.90732987
 10
46048.6570827
 20
-9014.90732987
 10
46048.6570827
 20
-8979.90732987
 10
46041.6570827
 20
-8979.90732987
 10
46041.6570827
 20
-8973.90732987
 10
46039.1570827
 20
-8968.90732987
 10
46036.6570827
 20
-8973.90732987
 10
46036.6570827
 20
-9004.83626206
 10
46036.27648036
 20
-9006.74967892
 10
46030.12154879
 20
-9013.44286377
 10
46028.6570827
 20
-9016.97839768
 10
46028.6570827
 20
-9136.06514199
 10
46029.6174051
 20
-9137.69501049
 10
46034.35352595
 20
-9140.66636021
 10
46034.76552732
 20
-9140.90732987
 10
46035.07934481
 20
-9140.90732987
 10
46035.53046558
 20
-9140.62526734
  0
LWPOLYLINE
  5
642
100
AcDbEntity
  8
Ech.1_5
 62
     9
100
AcDbPolyline
 90
       17
 70
     0
 43
0.0
 10
46048.6570827
 20
-9240.38510639
 10
46048.6570827
 20
-9239.90732987
 10
46044.6570827
 20
-9235.90732987
 10
46048.6570827
 20
-9231.90732987
 10
46048.6570827
 20
-9167.90732987
 10
46044.6570827
 20
-9163.90732987
 10
46048.6570827
 20
-9159.90732987
 10
46048.6570827
 20
-9124.90732987
 10
46041.6570827
 20
-9124.90732987
 10
46041.6570827
 20
-9118.90732987
 10
46039.1570827
 20
-9113.90732987
 10
46036.6570827
 20
-9118.90732987
 10
46036.6570827
 20
-9149.83626206
 10
46036.27648036
 20
-9151.74967892
 10
46030.12154879
 20
-9158.44286377
 10
46028.6570827
 20
-9161.97839768
 10
46028.6570827
 20
-9240.38502152
  0
LWPOLYLINE
  5
643
100
AcDbEntity
  8
Ech.1_5
 62
     7
  6
CONTINUOUS
370
    80
100
AcDbPolyline
 90
        4
 70
     0
 43
0.0
 10
46301.49954248
 20
-8552.83125375
 10
46301.49954248
 20
-8552.83125375
 10
46282.41061811
 20
-8541.70150455
 10
46282.32043105
 20
-8447.67684681
  0
LWPOLYLINE
  5
644
100
AcDbEntity
  8
Ech.1_5
 62
     7
  6
CONTINUOUS
370
    80
100
AcDbPolyline
 90
        3
 70
     0
 43
0.0
 10
46301.49954248
 20
-8552.83125375
 10
46301.49954248
 20
-8616.04800889
 10
46298.49954248
 20
-8610.04800889
  0
LWPOLYLINE
  5
645
100
AcDbEntity
  8
Ech.1_5
 62
     7
  6
CONTINUOUS
370
   120
100
AcDbPolyline
 90
        3
 70
     0
 43
5.0
 10
46601.59550806
 20
-8900.41466196
 10
46276.21790906
 20
-8900.41466196
 10
46276.21790906
 20
-8577.1663788
  0
LWPOLYLINE
  5
646
100
AcDbEntity
  8
Ech.1_5
 62
   254
  6
CONTINUOUS
370
    -3
100
AcDbPolyline
 90
        5
 70
     1
 43
0.0
 10
46509.68350754
 20
-9122.63996441
 10
46509.68350754
 20
-9240.38479264
 10
46559.41620156
 20
-9240.38409359
 10
46559.68350754
 20
-9240.38411362
 10
46559.68350754
 20
-9122.63996441
  0
LINE
  5
647
100
AcDbEntity
  8
Ech.1_5
 62
     1
  6
CADWORK_22
 48
-5.0
370
    35
100
AcDbLine
 10
46261.18350754
 20
-9240.38409359
 30
0.0
 11
46261.18350754
 21
-8576.46778805
 31
0.0
  0
LWPOLYLINE
  5
648
102
{ACAD_REACTORS
330
649
102
}
100
AcDbEntity
  8
Ech.1_5
 62
     9
  6
CONTINUOUS
370
    -3
100
AcDbPolyline
 90
        4
 70
     1
 43
0.0
 10
46559.68350754
 20
-9240.38409359
 10
46572.68350754
 20
-9240.38409359
 10
46572.68350754
 20
-9122.63996441
 10
46559.68350754
 20
-9122.63996441
  0
HATCH
  5
649
100
AcDbEntity
  8
Ech.1_5
 62
     9
  6
CONTINUOUS
100
AcDbHatch
 10
0.0
 20
0.0
 30
0.0
210
0.0
220
0.0
230
1.0
  2
DOTS2
 70
     0
 71
     1
 91
        1
 92
        7
 72
     0
 73
     1
 93
        4
 10
46559.68350754
 20
-9240.38409359
 10
46572.68350754
 20
-9240.38409359
 10
46572.68350754
 20
-9122.63996441
 10
46559.68350754
 20
-9122.63996441
 97
        1
330
648
 75
     0
 76
     2
 52
0.0
 41
4.72440952
 77
     0
 78
     1
 53
0.0
 43
0.0
 44
0.0
 45
3.75
 46
3.535
 79
     2
 49
0.0
 49
-3.535
 47
0.775229
 98
        1
 10
0.0
 20
0.0
  0
LWPOLYLINE
  5
64A
102
{ACAD_REACTORS
330
64B
102
}
100
AcDbEntity
  8
Ech.1_5
 62
     9
  6
CONTINUOUS
370
    -3
100
AcDbPolyline
 90
       12
 70
     1
 43
0.0
 10
46511.78441152
 20
-9152.63996441
 10
46509.78571722
 20
-9152.63996441
 10
46509.78571722
 20
-9122.63996441
 10
46559.68350754
 20
-9122.63996441
 10
46559.68350754
 20
-9152.63996441
 10
46557.68350754
 20
-9152.63996441
 10
46557.68350754
 20
-9150.63996441
 10
46557.68350754
 20
-9150.63996441
 10
46557.68350754
 20
-9124.63996441
 10
46511.78441152
 20
-9124.63996441
 10
46511.78441152
 20
-9150.63996441
 10
46511.78441152
 20
-9150.63996441
  0
HATCH
  5
64B
100
AcDbEntity
  8
Ech.1_5
 62
     9
  6
CONTINUOUS
100
AcDbHatch
 10
0.0
 20
0.0
 30
0.0
210
0.0
220
0.0
230
1.0
  2
SOLID
 70
     1
 71
     1
 91
        1
 92
        7
 72
     0
 73
     1
 93
       10
 10
46511.78441152
 20
-9152.63996441
 10
46509.78571722
 20
-9152.63996441
 10
46509.78571722
 20
-9122.63996441
 10
46559.68350754
 20
-9122.63996441
 10
46559.68350754
 20
-9152.63996441
 10
46557.68350754
 20
-9152.63996441
 10
46557.68350754
 20
-9150.63996441
 10
46557.68350754
 20
-9124.63996441
 10
46511.78441152
 20
-9124.63996441
 10
46511.78441152
 20
-9150.63996441
 97
        1
330
64A
 75
     0
 76
     2
 47
0.775229
 98
        1
 10
0.0
 20
0.0
  0
LWPOLYLINE
  5
64C
100
AcDbEntity
  8
Ech.1_5
 62
     9
  6
CONTINUOUS
370
    -3
100
AcDbPolyline
 90
       45
 70
     0
 43
0.0
 10
46557.31551475
 20
-9240.38412316
 42
0.76240198
 10
46549.19334397
 20
-9226.51587994
 10
46520.1736711
 20
-9234.28130753
 42
-0.06557028
 10
46518.01596517
 20
-9234.56526024
 42
-0.99999997
 10
46518.01771651
 20
-9217.89859421
 42
-0.06551739
 10
46520.1736711
 20
-9218.18254692
 10
46549.19334397
 20
-9225.94797451
 42
1.1403422
 10
46551.34929855
 20
-9209.56526024
 42
0.06551739
 10
46549.19334397
 20
-9209.84921295
 10
46520.1736711
 20
-9217.6146415
 42
-0.06557028
 10
46518.01596516
 20
-9217.89859421
 42
-1.14022134
 10
46520.1736711
 20
-9201.51587994
 10
46549.19334397
 20
-9209.28130753
 42
0.06557028
 10
46551.35104992
 20
-9209.56526024
 42
0.99999997
 10
46551.34929856
 20
-9192.89859421
 42
0.06551739
 10
46549.19334397
 20
-9193.18254692
 10
46520.1736711
 20
-9200.94797451
 42
-1.1403422
 10
46518.0177165
 20
-9184.56526024
 42
-0.06551739
 10
46520.1736711
 20
-9184.84921295
 10
46549.19334397
 20
-9192.6146415
 42
0.06557028
 10
46551.35104991
 20
-9192.89859421
 42
1.14022134
 10
46549.19334397
 20
-9176.51587994
 10
46520.1736711
 20
-9184.28130753
 42
-0.06557028
 10
46518.01596518
 20
-9184.56526024
 42
-0.99999997
 10
46518.0177165
 20
-9167.89859421
 42
-0.06551739
 10
46520.1736711
 20
-9168.18254692
 10
46549.19334397
 20
-9175.94797451
 42
1.1403422
 10
46551.34929855
 20
-9159.56526024
 42
0.06551739
 10
46549.19334397
 20
-9159.84921295
 10
46520.1736711
 20
-9167.6146415
 42
-0.06557028
 10
46518.01596517
 20
-9167.89859421
 42
-1.14022134
 10
46520.1736711
 20
-9151.51587994
 10
46549.19334397
 20
-9159.28130753
 42
0.06557028
 10
46551.35104992
 20
-9159.56526024
 42
0.99999997
 10
46551.34929855
 20
-9142.89859421
 42
0.06551739
 10
46549.19334397
 20
-9143.18254692
 10
46520.1736711
 20
-9150.94797451
 42
-1.1403422
 10
46518.0177165
 20
-9134.56526024
 42
-0.06551739
 10
46520.1736711
 20
-9134.84921295
 10
46549.19334397
 20
-9142.6146415
 42
0.06557028
 10
46551.35104992
 20
-9142.89859421
 42
1.14022134
 10
46549.19334397
 20
-9126.51587994
 10
46520.1736711
 20
-9134.28130753
 42
-0.06557028
 10
46518.01596517
 20
-9134.56526024
 42
-0.54052796
 10
46510.37908059
 20
-9122.89890129
  0
LWPOLYLINE
  5
64D
102
{ACAD_REACTORS
330
64E
102
}
100
AcDbEntity
  8
Ech.1_5
 62
     9
  6
CONTINUOUS
370
    -3
100
AcDbPolyline
 90
        4
 70
     1
 43
0.0
 10
46489.68350754
 20
-9122.63996441
 10
46289.68350754
 20
-9122.63996441
 10
46289.68350754
 20
-9240.38409359
 10
46489.68350754
 20
-9240.38409359
  0
HATCH
  5
64E
100
AcDbEntity
  8
Ech.1_5
 62
     9
  6
CONTINUOUS
100
AcDbHatch
 10
0.0
 20
0.0
 30
0.0
210
0.0
220
0.0
230
1.0
  2
AR-CONC
 70
     0
 71
     1
 91
        1
 92
        7
 72
     0
 73
     1
 93
        4
 10
46489.68350754
 20
-9122.63996441
 10
46289.68350754
 20
-9122.63996441
 10
46289.68350754
 20
-9240.38409359
 10
46489.68350754
 20
-9240.38409359
 97
        1
330
64D
 75
     0
 76
     2
 52
0.0
 41
0.11811097
 77
     0
 78
    13
 53
50.0
 43
0.0
 44
0.0
 45
-18.84283637
 46
1.64853443
 79
     2
 49
1.97029307
 49
-21.67322338
 53
355.0
 43
0.0
 44
0.0
 45
-3.64507756
 46
19.76051824
 79
     2
 49
1.57623377
 49
-17.3385787
 53
100.45140076
 43
1.57023568
 44
-0.13737749
 45
-15.19777228
 46
-18.11197244
 79
     2
 49
1.67449124
 49
-18.41940522
 53
46.18420029
 43
0.0
 44
5.25411576
 45
-28.03703353
 46
4.34827878
 79
     2
 49
2.95543872
 49
-32.50983238
 53
96.63559723
 43
2.33641885
 44
4.89175692
 45
-24.55412615
 46
-25.59063404
 79
     2
 49
2.51173697
 49
-27.62910426
 53
351.1842041
 43
0.0
 44
5.25411576
 45
24.55410288
 46
25.59065715
 79
     2
 49
2.36435249
 49
-26.00786805
 53
21.0
 43
2.62705699
 44
3.94058615
 45
-15.68109068
 46
10.57702905
 79
     2
 49
1.97029307
 49
-21.67322338
 53
326.0
 43
2.62705699
 44
3.94058615
 45
6.39203268
 46
19.05010734
 79
     2
 49
1.57623377
 49
-17.3385787
 53
71.45140076
 43
3.93381357
 44
3.05916555
 45
-22.07312962
 46
-8.47306182
 79
     2
 49
1.67449124
 49
-18.41940522
 53
37.5
 43
0.0
 44
0.0
 45
0.31944534
 46
8.74531245
 79
     6
 49
0.01875
 49
-17.12841332
 49
0.01875
 49
-17.60128498
 49
0.01875
 49
-17.40425348
 53
7.5
 43
0.0
 44
0.0
 45
6.91098818
 46
10.3614222
 79
     6
 49
0.01875
 49
-10.03535807
 49
0.01875
 49
-16.7343539
 49
0.01875
 49
-6.6333206
 53
-32.5
 43
-5.85833833
 44
0.0
 45
14.02382061
 46
-0.59253003
 79
     6
 49
0.01875
 49
-6.56764314
 49
0.01875
 49
-20.49104869
 49
0.01875
 49
-27.19004452
 53
-42.5
 43
-8.48539531
 44
0.0
 45
15.32063571
 46
2.62981542
 79
     6
 49
0.01875
 49
-8.53793621
 49
0.01875
 49
-13.60815793
 49
0.01875
 49
-19.30887222
 47
0.775229
 98
        1
 10
0.0
 20
0.0
  0
LWPOLYLINE
  5
64F
100
AcDbEntity
  8
Ech.1_5
 62
     9
  6
CONTINUOUS
370
    -3
100
AcDbPolyline
 90
        6
 70
     0
 43
0.0
 10
46766.63460043
 20
-8750.26332791
 10
46766.63607625
 20
-9003.74746163
 10
46784.61342466
 20
-9020.23296482
 10
46748.65772465
 20
-9006.12302429
 10
46766.63607625
 20
-9022.60937912
 10
46766.63525396
 20
-9199.63987572
  0
LWPOLYLINE
  5
650
100
AcDbEntity
  8
Ech.1_5
 62
   190
  6
CONTINUOUS
370
    -3
100
AcDbPolyline
 90
        6
 70
     0
 43
0.0
 10
46008.6570827
 20
-8424.23829205
 10
46143.61701103
 20
-8424.23681576
 10
46160.10251419
 20
-8406.25946743
 10
46145.99257417
 20
-8442.21516735
 10
46162.47892825
 20
-8424.23681576
 10
46334.18350754
 20
-8424.23763783
  0
LWPOLYLINE
  5
651
100
AcDbEntity
  8
Ech.1_5
 62
   190
  6
CONTINUOUS
370
    -3
100
AcDbPolyline
 90
        6
 70
     0
 43
0.0
 10
46333.70993237
 20
-8393.35243176
 10
46198.75000404
 20
-8393.35390805
 10
46182.26450089
 20
-8411.33125638
 10
46196.3744409
 20
-8375.37555646
 10
46179.88808682
 20
-8393.35390805
 10
46008.18350754
 20
-8393.35308598
  0
LWPOLYLINE
  5
652
100
AcDbEntity
  8
Ech.1_5
 62
   190
  6
CONTINUOUS
370
    -3
100
AcDbPolyline
 90
        6
 70
     0
 43
0.0
 10
46597.53971361
 20
-9240.38409359
 10
46214.11789873
 20
-9240.38572342
 10
46197.63239558
 20
-9258.36307175
 10
46211.74233559
 20
-9222.40737183
 10
46195.25598151
 20
-9240.38572342
 10
46008.6570827
 20
-9240.38493759
  0
LWPOLYLINE
  5
653
100
AcDbEntity
  8
Ech.1_5
 62
   190
100
AcDbPolyline
 90
        5
 70
     0
 43
0.0
 10
46794.55742684
 20
-9183.16898277
 10
46928.98620583
 20
-9183.16898277
 10
46928.98620583
 20
-9239.89194158
 10
46794.55742684
 20
-9239.89194158
 10
46794.55742684
 20
-9183.16898277
  0
HATCH
  5
654
100
AcDbEntity
  8
Ech.1_5
 62
   190
100
AcDbHatch
 10
0.0
 20
0.0
 30
0.0
210
0.0
220
0.0
230
1.0
  2
SOLID
 70
     1
 71
     0
 91
        1
 92
        7
 72
     0
 73
     1
 93
        4
 10
46812.83747263
 20
-9216.8257939
 10
46862.83747263
 20
-9216.8257939
 10
46862.83747263
 20
-9209.41065637
 10
46812.83747263
 20
-9209.41065637
 97
        0
 75
     0
 76
     2
 47
0.775229
 98
        1
 10
0.0
 20
0.0
  0
LWPOLYLINE
  5
655
100
AcDbEntity
  8
Ech.1_5
 62
   190
100
AcDbPolyline
 90
        5
 70
     0
 43
0.0
 10
46812.83747263
 20
-9216.8257939
 10
46862.83747263
 20
-9216.8257939
 10
46862.83747263
 20
-9209.41065637
 10
46812.83747263
 20
-9209.41065637
 10
46812.83747263
 20
-9216.8257939
  0
LWPOLYLINE
  5
656
100
AcDbEntity
  8
Ech.1_5
 62
   190
100
AcDbPolyline
 90
        5
 70
     0
 43
0.0
 10
46862.83747263
 20
-9216.8257939
 10
46912.83747263
 20
-9216.8257939
 10
46912.83747263
 20
-9209.41065637
 10
46862.83747263
 20
-9209.41065637
 10
46862.83747263
 20
-9216.8257939
  0
TEXT
  5
657
100
AcDbEntity
  8
Ech.1_5
 62
     7
370
    18
100
AcDbText
 10
46601.57689147
 20
-8852.5766967
 30
0.0
 40
17.5
  1
Hauteur X d'isolant
  7
TAHOMA
 50
0.0
 41
0.7
 51
10.0
100
AcDbText
  0
TEXT
  5
658
100
AcDbEntity
  8
Ech.1_5
 62
   190
100
AcDbText
 10
46824.13176525
 20
-9199.82465328
 30
0.0
 40
8.00000012
  1
Echelle en mm
  7
ARIAL
 50
0.0
 41
1.0
 51
0.0
100
AcDbText
  0
TEXT
  5
659
100
AcDbEntity
  8
Ech.1_5
 62
   190
100
AcDbText
 10
46810.15118051
 20
-9228.03448881
 30
0.0
 40
8.00000012
  1
0
  7
ARIAL
 50
0.0
 41
1.0
 51
0.0
100
AcDbText
  0
TEXT
  5
65A
100
AcDbEntity
  8
Ech.1_5
 62
   190
100
AcDbText
 10
46896.7482384
 20
-9228.03448881
 30
0.0
 40
8.00000012
  1
100
  7
ARIAL
 50
0.0
 41
1.0
 51
0.0
100
AcDbText
  0
TEXT
  5
65B
100
AcDbEntity
  8
Ech.1_5
 62
   190
100
AcDbText
 10
46858.00780683
 20
-9228.03448881
 30
0.0
 40
8.00000012
  1
50
  7
ARIAL
 50
0.0
 41
1.0
 51
0.0
100
AcDbText
  0
ENDSEC
  0
SECTION
  2
OBJECTS
  0
DICTIONARY
  5
1
100
AcDbDictionary
  3
ACAD_GROUP
350
2
  3
ACAD_MLINESTYLE
350
3
  0
DICTIONARY
  5
2
102
{CDWK_REACTORS
330
1
102
}
100
AcDbDictionary
  0
DICTIONARY
  5
3
102
{CDWK_REACTORS
330
1
102
}
100
AcDbDictionary
  3
STANDARD
350
4
  0
MLINESTYLE
  5
4
102
{CDWK_REACTORS
330
3
102
}
100
AcDbMlineStyle
  2
STANDARD
 70
     0
  3

 62
     0
 51
90.0
 52
90.0
 71
     2
 49
0.5
 62
   256
  6
BYLAYER
 49
-0.5
 62
   256
  6
BYLAYER
  0
ENDSEC
  0
EOF
