  0
SECTION
  2
HEADER
  9
$ACADVER
  1
AC1014
  9
$DWGCODEPAGE
  3
ANSI_1252
  9
$INSBASE
 10
0.0
 20
0.0
 30
0.0
  9
$EXTMIN
 10
1033.98771282
 20
-21718.34332712
  9
$EXTMAX
 10
122326.07664696
 20
2240.3362527
  9
$LIMMIN
 10
1033.98771282
 20
-21718.34332712
  9
$LIMMAX
 10
122326.07664696
 20
2240.3362527
  9
$ORTHOMODE
 70
     0
  9
$REGENMODE
 70
     1
  9
$FILLMODE
 70
     1
  9
$QTEXTMODE
 70
     0
  9
$MIRRTEXT
 70
     1
  9
$DRAGMODE
 70
     2
  9
$LTSCALE
 40
5.0
  9
$OSMODE
 70
     0
  9
$ATTMODE
 70
     1
  9
$TEXTSIZE
 40
3.5
  9
$TRACEWID
 40
1.0
  9
$TEXTSTYLE
  7
STANDARD
  9
$CLAYER
  8
0
  9
$CELTYPE
  6
BYLAYER
  9
$CECOLOR
 62
   256
  9
$DIMSCALE
 40
1.0
  9
$DIMASZ
 40
2.0
  9
$DIMEXO
 40
5.0
  9
$DIMDLI
 40
10.0
  9
$DIMRND
 40
0.0
  9
$DIMDLE
 40
2.0
  9
$DIMEXE
 40
2.0
  9
$DIMTP
 40
0.0
  9
$DIMTM
 40
0.0
  9
$DIMTXT
 40
2.5
  9
$DIMCEN
 40
1.5
  9
$DIMTSZ
 40
0.0
  9
$DIMTOL
 70
     0
  9
$DIMLIM
 70
     0
  9
$DIMTIH
 70
     1
  9
$DIMTOH
 70
     0
  9
$DIMSE1
 70
     0
  9
$DIMSE2
 70
     0
  9
$DIMTAD
 70
     1
  9
$DIMZIN
 70
     8
  9
$DIMBLK
  1

  9
$DIMASO
 70
     1
  9
$DIMSHO
 70
     1
  9
$DIMPOST
  1

  9
$DIMAPOST
  1

  9
$DIMALT
 70
     0
  9
$DIMALTD
 70
     2
  9
$DIMALTF
 40
25.4
  9
$DIMLFAC
 40
1.0
  9
$DIMTOFL
 70
     0
  9
$DIMTVP
 40
0.0
  9
$DIMTIX
 70
     0
  9
$DIMSOXD
 70
     0
  9
$DIMSAH
 70
     0
  9
$DIMBLK1
  1

  9
$DIMBLK2
  1

  9
$DIMSTYLE
  2
*UNNAMED
  9
$DIMCLRD
 70
   190
  9
$DIMCLRE
 70
   190
  9
$DIMCLRT
 70
   190
  9
$DIMTFAC
 40
1.0
  9
$DIMGAP
 40
0.09
  9
$DIMUNIT
 70
     2
  9
$LUNITS
 70
     2
  9
$LUPREC
 70
     6
  9
$AXISMODE
 70
     0
  9
$AXISUNIT
 10
0.0
 20
0.0
  9
$SKETCHINC
 40
0.1
  9
$FILLETRAD
 40
0.0
  9
$AUNITS
 70
     0
  9
$AUPREC
 70
     0
  9
$MENU
  1
ACAD
  9
$ELEVATION
 40
0.0
  9
$PELEVATION
 40
0.0
  9
$THICKNESS
 40
0.0
  9
$LIMCHECK
 70
     0
  9
$BLIPMODE
 70
     1
  9
$CHAMFERA
 40
0.0
  9
$CHAMFERB
 40
0.0
  9
$SKPOLY
 70
     1
  9
$TDCREATE
 40
2457808.0000000000
  9
$TDUPDATE
 40
2457808.0000000000
  9
$TDINDWG
 40
0.0
  9
$TDUSRTIMER
 40
0.0
  9
$USRTIMER
 70
     1
  9
$ANGBASE
 50
0.0
  9
$ANGDIR
 70
     0
  9
$PDMODE
 70
     0
  9
$PDSIZE
 40
0.0
  9
$PLINEWID
 40
0.0
  9
$COORDS
 70
     2
  9
$SPLFRAME
 70
     0
  9
$SPLINETYPE
 70
     6
  9
$SPLINESEGS
 70
     8
  9
$ATTDIA
 70
     1
  9
$ATTREQ
 70
     1
  9
$HANDLING
 70
     1
  9
$HANDSEED
  5
     649
  9
$SURFTAB1
 70
     6
  9
$SURFTAB2
 70
     6
  9
$SURFTYPE
 70
     6
  9
$SURFU
 70
     6
  9
$SURFV
 70
     6
  9
$UCSNAME
  2

  9
$UCSORG
 10
0.0
 20
0.0
 30
0.0
  9
$UCSXDIR
 10
1.0
 20
0.0
 30
0.0
  9
$UCSYDIR
 10
0.0
 20
1.0
 30
0.0
  9
$PUCSNAME
  2

  9
$PUCSORG
 10
0.0
 20
0.0
 30
0.0
  9
$PUCSXDIR
 10
1.0
 20
0.0
 30
0.0
  9
$PUCSYDIR
 10
0.0
 20
1.0
 30
0.0
  9
$USERI1
 70
     0
  9
$USERI2
 70
     0
  9
$USERI3
 70
     0
  9
$USERI4
 70
     0
  9
$USERI5
 70
     0
  9
$USERR1
 40
0.0
  9
$USERR2
 40
0.0
  9
$USERR3
 40
0.0
  9
$USERR4
 40
0.0
  9
$USERR5
 40
0.0
  9
$WORLDVIEW
 70
     1
  9
$SHADEDGE
 70
     3
  9
$SHADEDIF
 70
    70
  9
$TILEMODE
 70
     1
  9
$MAXACTVP
 70
    16
  9
$PINSBASE
 10
0.0
 20
0.0
 30
0.0
  9
$PLIMCHECK
 70
     0
  9
$PEXTMIN
 10
1.0000000000000E+20
 20
1.0000000000000E+20
 30
1.0000000000000E+20
  9
$PEXTMAX
 10
-1.0000000000000E+20
 20
-1.0000000000000E+20
 30
-1.0000000000000E+20
  9
$PLIMMIN
 10
0.0
 20
0.0
  9
$UNITMODE
 70
     0
  9
$VISRETAIN
 70
     0
  9
$MEASUREMENT
 70
     1
  0
ENDSEC
  0
SECTION
  2
TABLES
  0
TABLE
  2
VPORT
  5
4A2
100
AcDbSymbolTable
 70
     1
  0
ENDTAB
  0
TABLE
  2
STYLE
  5
4A3
100
AcDbSymbolTable
 70
     3
  0
STYLE
  5
4A4
100
AcDbSymbolTableRecord
100
AcDbTextStyleTableRecord
  2
STANDARD
 70
     0
 40
0.0
 41
1.0
 50
0.0
 71
     0
 42
3.5
  3
MONOTXT
  4

  0
STYLE
  5
4A5
100
AcDbSymbolTableRecord
100
AcDbTextStyleTableRecord
  2
SYMAP
 70
     0
 40
0.0
 41
1.0
 50
0.0
 71
     0
 42
3.5
  3
SYMAP
  4

  0
STYLE
  5
4A6
100
AcDbSymbolTableRecord
100
AcDbTextStyleTableRecord
  2
CADWORK1
 70
     0
 40
0.0
 41
1.0
 50
0.0
 71
     0
 42
3.5
  3
MONOTXT
  4

  0
STYLE
  5
4A7
100
AcDbSymbolTableRecord
100
AcDbTextStyleTableRecord
  2
MONOTXT
 70
     0
 40
0.0
 41
1.0
 50
0.0
 71
     0
 42
3.5
  3
MONOTXT
  4

  0
STYLE
  5
4A8
100
AcDbSymbolTableRecord
100
AcDbTextStyleTableRecord
  2
ARIAL
 70
     0
 40
0.0
 41
1.0
 50
0.0
 71
     0
 42
3.5
  3

  4

1001
ACAD
1000
Arial
1071
        0
  0
ENDTAB
  0
TABLE
  2
LTYPE
  5
4A9
100
AcDbSymbolTable
 70
    15
  0
LTYPE
  5
4AA
100
AcDbSymbolTableRecord
100
AcDbLinetypeTableRecord
  2
BYBLOCK
 70
    64
  3

 72
    65
 73
     0
 40
0.0
  0
LTYPE
  5
4AB
100
AcDbSymbolTableRecord
100
AcDbLinetypeTableRecord
  2
BYLAYER
 70
    64
  3

 72
    65
 73
     0
 40
0.0
  0
LTYPE
  5
4AC
100
AcDbSymbolTableRecord
100
AcDbLinetypeTableRecord
  2
CONTINUOUS
 70
    64
  3
Solid line
 72
    65
 73
     0
 40
0.0
  0
LTYPE
  5
4AD
100
AcDbSymbolTableRecord
100
AcDbLinetypeTableRecord
  2
DOT2
 70
    64
  3
...............................................
 72
    65
 73
     2
 40
1.25
 49
0.0
 74
     0
 49
-1.25
 74
     0
  0
LTYPE
  5
4AE
100
AcDbSymbolTableRecord
100
AcDbLinetypeTableRecord
  2
CADWORK_13
 70
    64
  3
13 =======================================
 72
    65
 73
     2
 40
4.0
 49
2.0
 74
     0
 49
-2.0
 74
     0
  0
LTYPE
  5
4AF
100
AcDbSymbolTableRecord
100
AcDbLinetypeTableRecord
  2
DASHDOT
 70
    64
  3
 __ . __ . __ . __ . __ . __ . __ . __ . __ . __
 72
    65
 73
     4
 40
10.0
 49
5.0
 74
     0
 49
-2.5
 74
     0
 49
0.0
 74
     0
 49
-2.5
 74
     0
  0
LTYPE
  5
4B0
100
AcDbSymbolTableRecord
100
AcDbLinetypeTableRecord
  2
CENTER
 70
    64
  3
 ____ _ ____ _ ____ _ ____ _ ____ _ ____ _ ____
 72
    65
 73
     4
 40
20.0
 49
12.5
 74
     0
 49
-2.5
 74
     0
 49
2.5
 74
     0
 49
-2.5
 74
     0
  0
LTYPE
  5
4B1
100
AcDbSymbolTableRecord
100
AcDbLinetypeTableRecord
  2
DASHEDX2
 70
    64
  3
____  ____  ____  ____  ____  ____  ____  ____
 72
    65
 73
     2
 40
3.75
 49
2.5
 74
     0
 49
-1.25
 74
     0
  0
LTYPE
  5
4B2
100
AcDbSymbolTableRecord
100
AcDbLinetypeTableRecord
  2
CADWORK_22
 70
    64
  3
22 =======================================
 72
    65
 73
     0
 40
0.0
  0
LTYPE
  5
4B3
100
AcDbSymbolTableRecord
100
AcDbLinetypeTableRecord
  2
DAL
 70
    64
  3
Solid line (for MAPS)
 72
    65
 73
     0
 40
0.0
  0
LTYPE
  5
4B4
100
AcDbSymbolTableRecord
100
AcDbLinetypeTableRecord
  2
MUR
 70
    64
  3
Solid line (for MAPS)
 72
    65
 73
     0
 40
0.0
  0
LTYPE
  5
4B5
100
AcDbSymbolTableRecord
100
AcDbLinetypeTableRecord
  2
SOM
 70
    64
  3
Solid line (for MAPS)
 72
    65
 73
     0
 40
0.0
  0
LTYPE
  5
4B6
100
AcDbSymbolTableRecord
100
AcDbLinetypeTableRecord
  2
COL
 70
    64
  3
Solid line (for MAPS)
 72
    65
 73
     0
 40
0.0
  0
LTYPE
  5
4B7
100
AcDbSymbolTableRecord
100
AcDbLinetypeTableRecord
  2
LGN
 70
    64
  3
Solid line (for MAPS)
 72
    65
 73
     0
 40
0.0
  0
LTYPE
  5
4B8
100
AcDbSymbolTableRecord
100
AcDbLinetypeTableRecord
  2
PNT
 70
    64
  3
Solid line (for MAPS)
 72
    65
 73
     0
 40
0.0
  0
ENDTAB
  0
TABLE
  2
LAYER
  5
4B9
100
AcDbSymbolTable
 70
    32
  0
LAYER
  5
4BA
100
AcDbSymbolTableRecord
100
AcDbLayerTableRecord
  2
Standard
 70
     0
 62
     7
  6
CONTINUOUS
370
    -3
  0
LAYER
  5
4BB
100
AcDbSymbolTableRecord
100
AcDbLayerTableRecord
  2
Ech.1_1
 70
     0
 62
     7
  6
CONTINUOUS
370
    -3
  0
LAYER
  5
4BC
100
AcDbSymbolTableRecord
100
AcDbLayerTableRecord
  2
Ech.1_2
 70
     0
 62
     7
  6
CONTINUOUS
370
    -3
  0
LAYER
  5
4BD
100
AcDbSymbolTableRecord
100
AcDbLayerTableRecord
  2
Ech.1_5
 70
     0
 62
     7
  6
CONTINUOUS
370
    -3
  0
LAYER
  5
4BE
100
AcDbSymbolTableRecord
100
AcDbLayerTableRecord
  2
Ech.1_10
 70
     0
 62
     7
  6
CONTINUOUS
370
    -3
  0
LAYER
  5
4BF
100
AcDbSymbolTableRecord
100
AcDbLayerTableRecord
  2
Ech.1_20
 70
     0
 62
     7
  6
CONTINUOUS
370
    -3
  0
LAYER
  5
4C0
100
AcDbSymbolTableRecord
100
AcDbLayerTableRecord
  2
Ech.1_25
 70
     0
 62
     7
  6
CONTINUOUS
370
    -3
  0
LAYER
  5
4C1
100
AcDbSymbolTableRecord
100
AcDbLayerTableRecord
  2
Ech.1_33
 70
     0
 62
     7
  6
CONTINUOUS
370
    -3
  0
LAYER
  5
4C2
100
AcDbSymbolTableRecord
100
AcDbLayerTableRecord
  2
Ech.1_50
 70
     0
 62
     7
  6
CONTINUOUS
370
    -3
  0
LAYER
  5
4C3
100
AcDbSymbolTableRecord
100
AcDbLayerTableRecord
  2
Ech.1_75
 70
     0
 62
     7
  6
CONTINUOUS
370
    -3
  0
LAYER
  5
4C4
100
AcDbSymbolTableRecord
100
AcDbLayerTableRecord
  2
Ech.1_100
 70
     0
 62
     7
  6
CONTINUOUS
370
    -3
  0
LAYER
  5
4C5
100
AcDbSymbolTableRecord
100
AcDbLayerTableRecord
  2
Ech.1_200
 70
     0
 62
     7
  6
CONTINUOUS
370
    -3
  0
LAYER
  5
4C6
100
AcDbSymbolTableRecord
100
AcDbLayerTableRecord
  2
Ech.1_500
 70
     0
 62
     7
  6
CONTINUOUS
370
    -3
  0
LAYER
  5
4C7
100
AcDbSymbolTableRecord
100
AcDbLayerTableRecord
  2
Ech.1_1000
 70
     0
 62
     7
  6
CONTINUOUS
370
    -3
  0
LAYER
  5
4C8
100
AcDbSymbolTableRecord
100
AcDbLayerTableRecord
  2
Cadres traceur
 70
     0
 62
     7
  6
CONTINUOUS
370
    18
  0
LAYER
  5
4C9
100
AcDbSymbolTableRecord
100
AcDbLayerTableRecord
  2
Cadres laser
 70
     0
 62
     7
  6
CONTINUOUS
370
    18
  0
LAYER
  5
4CA
100
AcDbSymbolTableRecord
100
AcDbLayerTableRecord
  2
Légende d_aide
 70
     0
 62
     7
  6
CONTINUOUS
370
    18
  0
LAYER
  5
4CB
100
AcDbSymbolTableRecord
100
AcDbLayerTableRecord
  2
hachures ok
 70
     0
 62
     7
  6
CONTINUOUS
370
    18
  0
LAYER
  5
4CC
100
AcDbSymbolTableRecord
100
AcDbLayerTableRecord
  2
ossature bois
 70
     0
 62
     7
  6
CONTINUOUS
370
    18
  0
LAYER
  5
4CD
100
AcDbSymbolTableRecord
100
AcDbLayerTableRecord
  2
VR
 70
     0
 62
     7
  6
CONTINUOUS
370
    25
  0
LAYER
  5
4CE
100
AcDbSymbolTableRecord
100
AcDbLayerTableRecord
  2
Calque1
 70
     0
 62
     7
  6
CONTINUOUS
370
     9
  0
LAYER
  5
4CF
100
AcDbSymbolTableRecord
100
AcDbLayerTableRecord
  2
0
 70
     0
 62
     7
  6
CONTINUOUS
370
    -3
  0
LAYER
  5
4D0
100
AcDbSymbolTableRecord
100
AcDbLayerTableRecord
  2
menuiserie
 70
     0
 62
     7
  6
CONTINUOUS
370
    -3
  0
LAYER
  5
4D1
100
AcDbSymbolTableRecord
100
AcDbLayerTableRecord
  2
cotation
 70
     0
 62
   250
  6
CONTINUOUS
370
     9
  0
LAYER
  5
4D2
100
AcDbSymbolTableRecord
100
AcDbLayerTableRecord
  2
Defpoints
 70
     0
 62
    10
  6
CONTINUOUS
370
    -3
  0
LAYER
  5
4D3
100
AcDbSymbolTableRecord
100
AcDbLayerTableRecord
  2
HACHURE
 70
     0
 62
   254
  6
CONTINUOUS
370
    25
  0
LAYER
  5
4D4
100
AcDbSymbolTableRecord
100
AcDbLayerTableRecord
  2
mat1
 70
     0
 62
     7
  6
CONTINUOUS
370
    30
  0
LAYER
  5
4D5
100
AcDbSymbolTableRecord
100
AcDbLayerTableRecord
  2
mat2
 70
     0
 62
     7
  6
CONTINUOUS
370
     5
  0
LAYER
  5
4D6
100
AcDbSymbolTableRecord
100
AcDbLayerTableRecord
  2
hach
 70
     0
 62
     8
  6
CONTINUOUS
370
     5
  0
LAYER
  5
4D7
100
AcDbSymbolTableRecord
100
AcDbLayerTableRecord
  2
menuiseries
 70
     0
 62
     7
  6
CONTINUOUS
370
     9
  0
LAYER
  5
4D8
100
AcDbSymbolTableRecord
100
AcDbLayerTableRecord
  2
BétonMétal
 70
     0
 62
     7
  6
CONTINUOUS
370
    80
  0
LAYER
  5
4D9
100
AcDbSymbolTableRecord
100
AcDbLayerTableRecord
  2
bois
 70
     0
 62
     7
  6
CONTINUOUS
370
    60
  0
ENDTAB
  0
TABLE
  2
VIEW
  5
4DA
100
AcDbSymbolTable
 70
     0
  0
ENDTAB
  0
TABLE
  2
UCS
  5
4DB
100
AcDbSymbolTable
 70
     0
  0
ENDTAB
  0
TABLE
  2
APPID
  5
4DC
100
AcDbSymbolTable
 70
     1
  0
APPID
  5
4DD
100
AcDbSymbolTableRecord
100
AcDbRegAppTableRecord
  2
ACAD
 70
     0
  0
ENDTAB
  0
TABLE
  2
DIMSTYLE
  5
4DE
100
AcDbSymbolTable
 70
     0
  0
ENDTAB
  0
TABLE
  2
BLOCK_RECORD
  5
4DF
100
AcDbSymbolTable
 70
     0
  0
BLOCK_RECORD
  5
4E0
100
AcDbSymbolTableRecord
100
AcDbBlockTableRecord
  2
*MODEL_SPACE
  0
BLOCK_RECORD
  5
4E1
100
AcDbSymbolTableRecord
100
AcDbBlockTableRecord
  2
*PAPER_SPACE
  0
BLOCK_RECORD
  5
4E2
100
AcDbSymbolTableRecord
100
AcDbBlockTableRecord
  2
CDWK_EXTR_0
  0
BLOCK_RECORD
  5
4E3
100
AcDbSymbolTableRecord
100
AcDbBlockTableRecord
  2
CDWK_EXTR_1D
  0
BLOCK_RECORD
  5
4E4
100
AcDbSymbolTableRecord
100
AcDbBlockTableRecord
  2
CDWK_EXTR_1G
  0
BLOCK_RECORD
  5
4E5
100
AcDbSymbolTableRecord
100
AcDbBlockTableRecord
  2
CDWK_EXTR_2
  0
BLOCK_RECORD
  5
4E6
100
AcDbSymbolTableRecord
100
AcDbBlockTableRecord
  2
CDWK_EXTR_3
  0
BLOCK_RECORD
  5
4E7
100
AcDbSymbolTableRecord
100
AcDbBlockTableRecord
  2
CDWK_EXTR_4
  0
BLOCK_RECORD
  5
4E8
100
AcDbSymbolTableRecord
100
AcDbBlockTableRecord
  2
CDWK_PTTYP0
  0
BLOCK_RECORD
  5
4E9
100
AcDbSymbolTableRecord
100
AcDbBlockTableRecord
  2
CDWK_PTTYP1
  0
BLOCK_RECORD
  5
4EA
100
AcDbSymbolTableRecord
100
AcDbBlockTableRecord
  2
CDWK_PTTYP2
  0
BLOCK_RECORD
  5
4EB
100
AcDbSymbolTableRecord
100
AcDbBlockTableRecord
  2
CDWK_PTTYP3
  0
BLOCK_RECORD
  5
4EC
100
AcDbSymbolTableRecord
100
AcDbBlockTableRecord
  2
CDWK_PTTYP4
  0
BLOCK_RECORD
  5
4ED
100
AcDbSymbolTableRecord
100
AcDbBlockTableRecord
  2
CDWK_PTTYP5
  0
BLOCK_RECORD
  5
4EE
100
AcDbSymbolTableRecord
100
AcDbBlockTableRecord
  2
CDWK_PTTYP6
  0
BLOCK_RECORD
  5
4EF
100
AcDbSymbolTableRecord
100
AcDbBlockTableRecord
  2
CDWK_PTTYP7
  0
BLOCK_RECORD
  5
4F0
100
AcDbSymbolTableRecord
100
AcDbBlockTableRecord
  2
CDWK_PTTYP8
  0
BLOCK_RECORD
  5
4F1
100
AcDbSymbolTableRecord
100
AcDbBlockTableRecord
  2
CDWK_PTTYP9
  0
BLOCK_RECORD
  5
4F2
100
AcDbSymbolTableRecord
100
AcDbBlockTableRecord
  2
CDWK_PTTYP10
  0
BLOCK_RECORD
  5
4F3
100
AcDbSymbolTableRecord
100
AcDbBlockTableRecord
  2
CDWK_PTTYP11
  0
BLOCK_RECORD
  5
4F4
100
AcDbSymbolTableRecord
100
AcDbBlockTableRecord
  2
CDWK_PTTYP12
  0
BLOCK_RECORD
  5
4F5
100
AcDbSymbolTableRecord
100
AcDbBlockTableRecord
  2
CDWK_PTTYP13
  0
BLOCK_RECORD
  5
4F6
100
AcDbSymbolTableRecord
100
AcDbBlockTableRecord
  2
CDWK_PTTYP14
  0
BLOCK_RECORD
  5
4F7
100
AcDbSymbolTableRecord
100
AcDbBlockTableRecord
  2
CDWK_PTTYP15
  0
BLOCK_RECORD
  5
4F8
100
AcDbSymbolTableRecord
100
AcDbBlockTableRecord
  2
CDWK_PTTYP16
  0
BLOCK_RECORD
  5
4F9
100
AcDbSymbolTableRecord
100
AcDbBlockTableRecord
  2
CDWK_PTTYP17
  0
BLOCK_RECORD
  5
4FA
100
AcDbSymbolTableRecord
100
AcDbBlockTableRecord
  2
CDWK_PTTYP18
  0
BLOCK_RECORD
  5
4FB
100
AcDbSymbolTableRecord
100
AcDbBlockTableRecord
  2
CDWK_PTTYP19
  0
BLOCK_RECORD
  5
4FC
100
AcDbSymbolTableRecord
100
AcDbBlockTableRecord
  2
CDWK_PTTYP20
  0
BLOCK_RECORD
  5
4FD
100
AcDbSymbolTableRecord
100
AcDbBlockTableRecord
  2
CDWK_PTTYP21
  0
BLOCK_RECORD
  5
4FE
100
AcDbSymbolTableRecord
100
AcDbBlockTableRecord
  2
CDWK_PTTYP22
  0
BLOCK_RECORD
  5
4FF
100
AcDbSymbolTableRecord
100
AcDbBlockTableRecord
  2
CDWK_PTTYP23
  0
BLOCK_RECORD
  5
500
100
AcDbSymbolTableRecord
100
AcDbBlockTableRecord
  2
CDWK_PTTYP24
  0
BLOCK_RECORD
  5
501
100
AcDbSymbolTableRecord
100
AcDbBlockTableRecord
  2
CDWK_PTTYP25
  0
BLOCK_RECORD
  5
502
100
AcDbSymbolTableRecord
100
AcDbBlockTableRecord
  2
CDWK_PTTYP26
  0
BLOCK_RECORD
  5
503
100
AcDbSymbolTableRecord
100
AcDbBlockTableRecord
  2
CDWK_PTTYP27
  0
BLOCK_RECORD
  5
504
100
AcDbSymbolTableRecord
100
AcDbBlockTableRecord
  2
CDWK_PTTYP28
  0
BLOCK_RECORD
  5
505
100
AcDbSymbolTableRecord
100
AcDbBlockTableRecord
  2
CDWK_PTTYP29
  0
BLOCK_RECORD
  5
506
100
AcDbSymbolTableRecord
100
AcDbBlockTableRecord
  2
CDWK_PTTYP30
  0
BLOCK_RECORD
  5
507
100
AcDbSymbolTableRecord
100
AcDbBlockTableRecord
  2
CDWK_PTTYP31
  0
BLOCK_RECORD
  5
508
100
AcDbSymbolTableRecord
100
AcDbBlockTableRecord
  2
CDWK_PTTYP32
  0
BLOCK_RECORD
  5
509
100
AcDbSymbolTableRecord
100
AcDbBlockTableRecord
  2
CDWK_PTTYP33
  0
BLOCK_RECORD
  5
50A
100
AcDbSymbolTableRecord
100
AcDbBlockTableRecord
  2
CDWK_PTTYP34
  0
BLOCK_RECORD
  5
50B
100
AcDbSymbolTableRecord
100
AcDbBlockTableRecord
  2
CDWK_PTTYP35
  0
BLOCK_RECORD
  5
50C
100
AcDbSymbolTableRecord
100
AcDbBlockTableRecord
  2
CDWK_PTTYP36
  0
BLOCK_RECORD
  5
50D
100
AcDbSymbolTableRecord
100
AcDbBlockTableRecord
  2
CDWK_PTTYP37
  0
BLOCK_RECORD
  5
50E
100
AcDbSymbolTableRecord
100
AcDbBlockTableRecord
  2
CDWK_PTTYP38
  0
BLOCK_RECORD
  5
50F
100
AcDbSymbolTableRecord
100
AcDbBlockTableRecord
  2
*X1
  0
BLOCK_RECORD
  5
510
100
AcDbSymbolTableRecord
100
AcDbBlockTableRecord
  2
*X2
  0
BLOCK_RECORD
  5
511
100
AcDbSymbolTableRecord
100
AcDbBlockTableRecord
  2
*X3
  0
BLOCK_RECORD
  5
512
100
AcDbSymbolTableRecord
100
AcDbBlockTableRecord
  2
*X4
  0
ENDTAB
  0
ENDSEC
  0
SECTION
  2
BLOCKS
  0
BLOCK
  5
513
100
AcDbEntity
  8
0
100
AcDbBlockBegin
  2
*MODEL_SPACE
 70
     0
 10
0.0
 20
0.0
 30
0.0
  3
*MODEL_SPACE
  1

  0
ENDBLK
  5
514
100
AcDbEntity
100
AcDbBlockEnd
  0
BLOCK
  5
515
100
AcDbEntity
  8
0
100
AcDbBlockBegin
  2
*PAPER_SPACE
 70
     0
 10
0.0
 20
0.0
 30
0.0
  3
*PAPER_SPACE
  1

  0
ENDBLK
  5
516
100
AcDbEntity
100
AcDbBlockEnd
  0
BLOCK
  5
517
100
AcDbEntity
  8
0
100
AcDbBlockBegin
  2
CDWK_EXTR_0
 70
     0
 10
0.0
 20
0.0
 30
0.0
  3
CDWK_EXTR_0
  1

  4
Cadwork line-extremity
  0
LINE
  5
518
100
AcDbEntity
  8
0
 62
     0
370
    -2
100
AcDbLine
 10
0.0
 20
0.0
 30
0.0
 11
2.0
 21
0.5
 31
0.0
  0
LINE
  5
519
100
AcDbEntity
  8
0
 62
     0
370
    -2
100
AcDbLine
 10
0.0
 20
0.0
 30
0.0
 11
2.0
 21
-0.5
 31
0.0
  0
LINE
  5
51A
100
AcDbEntity
  8
0
 62
     0
370
    -2
100
AcDbLine
 10
2.0
 20
0.5
 30
0.0
 11
2.0
 21
-0.5
 31
0.0
  0
ENDBLK
  5
51B
100
AcDbEntity
100
AcDbBlockEnd
  0
BLOCK
  5
51C
100
AcDbEntity
  8
0
100
AcDbBlockBegin
  2
CDWK_EXTR_1D
 70
     0
 10
0.0
 20
0.0
 30
0.0
  3
CDWK_EXTR_1D
  1

  4
Cadwork line-extremity
  0
LINE
  5
51D
100
AcDbEntity
  8
0
 62
     0
370
    -2
100
AcDbLine
 10
0.0
 20
0.0
 30
0.0
 11
0.0
 21
1.0
 31
0.0
  0
LINE
  5
51E
100
AcDbEntity
  8
0
 62
     0
370
    -2
100
AcDbLine
 10
0.0
 20
1.0
 30
0.0
 11
0.5
 21
1.5
 31
0.0
  0
LINE
  5
51F
100
AcDbEntity
  8
0
 62
     0
370
    -2
100
AcDbLine
 10
0.5
 20
1.5
 30
0.0
 11
1.5
 21
1.5
 31
0.0
  0
ENDBLK
  5
520
100
AcDbEntity
100
AcDbBlockEnd
  0
BLOCK
  5
521
100
AcDbEntity
  8
0
100
AcDbBlockBegin
  2
CDWK_EXTR_1G
 70
     0
 10
0.0
 20
0.0
 30
0.0
  3
CDWK_EXTR_1G
  1

  4
Cadwork line-extremity
  0
LINE
  5
522
100
AcDbEntity
  8
0
 62
     0
370
    -2
100
AcDbLine
 10
0.0
 20
0.0
 30
0.0
 11
0.0
 21
-1.0
 31
0.0
  0
LINE
  5
523
100
AcDbEntity
  8
0
 62
     0
370
    -2
100
AcDbLine
 10
0.0
 20
-1.0
 30
0.0
 11
0.5
 21
-1.5
 31
0.0
  0
LINE
  5
524
100
AcDbEntity
  8
0
 62
     0
370
    -2
100
AcDbLine
 10
0.5
 20
-1.5
 30
0.0
 11
1.5
 21
-1.5
 31
0.0
  0
ENDBLK
  5
525
100
AcDbEntity
100
AcDbBlockEnd
  0
BLOCK
  5
526
100
AcDbEntity
  8
0
100
AcDbBlockBegin
  2
CDWK_EXTR_2
 70
     0
 10
0.0
 20
0.0
 30
0.0
  3
CDWK_EXTR_2
  1

  4
Cadwork line-extremity
  0
SOLID
  5
527
100
AcDbEntity
  8
0
 62
     0
100
AcDbTrace
 10
0.0
 20
0.0
 11
2.0
 21
0.5
 12
2.0
 22
-0.5
 13
2.0
 23
-0.5
  0
ENDBLK
  5
528
100
AcDbEntity
100
AcDbBlockEnd
  0
BLOCK
  5
529
100
AcDbEntity
  8
0
100
AcDbBlockBegin
  2
CDWK_EXTR_3
 70
     0
 10
0.0
 20
0.0
 30
0.0
  3
CDWK_EXTR_3
  1

  4
Cadwork line-extremity
  0
SOLID
  5
52A
100
AcDbEntity
  8
0
 62
     0
100
AcDbTrace
 10
0.0
 20
0.0
 11
2.0
 21
0.5
 12
2.0
 22
-0.5
 13
2.0
 23
-0.5
  0
LINE
  5
52B
100
AcDbEntity
  8
0
 62
     0
370
    -2
100
AcDbLine
 10
0.0
 20
1.0
 30
0.0
 11
0.0
 21
-1.0
 31
0.0
  0
ENDBLK
  5
52C
100
AcDbEntity
100
AcDbBlockEnd
  0
BLOCK
  5
52D
100
AcDbEntity
  8
0
100
AcDbBlockBegin
  2
CDWK_EXTR_4
 70
     0
 10
0.0
 20
0.0
 30
0.0
  3
CDWK_EXTR_4
  1

  4
Cadwork line-extremity
  0
HATCH
  5
52E
100
AcDbEntity
  8
0
 62
     0
370
    -2
100
AcDbHatch
 10
0.0
 20
0.0
 30
0.0
210
0.0
220
0.0
230
1.0
  2
SOLID
 70
     1
 71
     0
 91
        1
 92
        1
 93
        1
 72
     2
 10
0.0
 20
0.0
 40
0.5
 50
0.0
 51
360.0
 73
     1
 97
        0
 75
     0
 76
     1
 98
        1
 10
0.0
 20
0.0
  0
ENDBLK
  5
52F
100
AcDbEntity
100
AcDbBlockEnd
  0
BLOCK
  5
530
100
AcDbEntity
  8
0
100
AcDbBlockBegin
  2
CDWK_PTTYP0
 70
     0
 10
0.0
 20
0.0
 30
0.0
  3
CDWK_PTTYP0
  1

  4
Cadwork point
  0
POINT
  5
531
100
AcDbEntity
  8
0
 62
     0
100
AcDbPoint
 10
0.0
 20
0.0
 30
0.0
  0
ENDBLK
  5
532
100
AcDbEntity
100
AcDbBlockEnd
  0
BLOCK
  5
533
100
AcDbEntity
  8
0
100
AcDbBlockBegin
  2
CDWK_PTTYP1
 70
     0
 10
0.0
 20
0.0
 30
0.0
  3
CDWK_PTTYP1
  1

  4
Cadwork node
  0
LINE
  5
534
100
AcDbEntity
  8
0
 62
     0
370
    -2
100
AcDbLine
 10
-0.5
 20
0.5
 30
0.0
 11
0.5
 21
0.5
 31
0.0
  0
LINE
  5
535
100
AcDbEntity
  8
0
 62
     0
370
    -2
100
AcDbLine
 10
0.5
 20
0.5
 30
0.0
 11
0.5
 21
-0.5
 31
0.0
  0
LINE
  5
536
100
AcDbEntity
  8
0
 62
     0
370
    -2
100
AcDbLine
 10
0.5
 20
-0.5
 30
0.0
 11
-0.5
 21
-0.5
 31
0.0
  0
LINE
  5
537
100
AcDbEntity
  8
0
 62
     0
370
    -2
100
AcDbLine
 10
-0.5
 20
-0.5
 30
0.0
 11
-0.5
 21
0.5
 31
0.0
  0
ENDBLK
  5
538
100
AcDbEntity
100
AcDbBlockEnd
  0
BLOCK
  5
539
100
AcDbEntity
  8
0
100
AcDbBlockBegin
  2
CDWK_PTTYP2
 70
     0
 10
0.0
 20
0.0
 30
0.0
  3
CDWK_PTTYP2
  1

  4
Cadwork node
  0
LINE
  5
53A
100
AcDbEntity
  8
0
 62
     0
370
    -2
100
AcDbLine
 10
0.0
 20
0.5
 30
0.0
 11
0.0
 21
-0.5
 31
0.0
  0
LINE
  5
53B
100
AcDbEntity
  8
0
 62
     0
370
    -2
100
AcDbLine
 10
-0.5
 20
0.0
 30
0.0
 11
0.5
 21
0.0
 31
0.0
  0
ENDBLK
  5
53C
100
AcDbEntity
100
AcDbBlockEnd
  0
BLOCK
  5
53D
100
AcDbEntity
  8
0
100
AcDbBlockBegin
  2
CDWK_PTTYP3
 70
     0
 10
0.0
 20
0.0
 30
0.0
  3
CDWK_PTTYP3
  1

  4
Cadwork node
  0
CIRCLE
  5
53E
100
AcDbEntity
  8
0
 62
     0
370
    -2
100
AcDbCircle
 10
0.0
 20
0.0
 30
0.0
 40
0.5
  0
ENDBLK
  5
53F
100
AcDbEntity
100
AcDbBlockEnd
  0
BLOCK
  5
540
100
AcDbEntity
  8
0
100
AcDbBlockBegin
  2
CDWK_PTTYP4
 70
     0
 10
0.0
 20
0.0
 30
0.0
  3
CDWK_PTTYP4
  1

  4
Cadwork node
  0
HATCH
  5
541
100
AcDbEntity
  8
0
 62
     0
370
    -2
100
AcDbHatch
 10
0.0
 20
0.0
 30
0.0
210
0.0
220
0.0
230
1.0
  2
SOLID
 70
     1
 71
     0
 91
        1
 92
        1
 93
        1
 72
     2
 10
0.0
 20
0.0
 40
0.5
 50
0.0
 51
360.0
 73
     1
 97
        0
 75
     0
 76
     1
 98
        1
 10
0.0
 20
0.0
  0
ENDBLK
  5
542
100
AcDbEntity
100
AcDbBlockEnd
  0
BLOCK
  5
543
100
AcDbEntity
  8
0
100
AcDbBlockBegin
  2
CDWK_PTTYP5
 70
     0
 10
0.0
 20
0.0
 30
0.0
  3
CDWK_PTTYP5
  1

  4
Cadwork node
  0
LINE
  5
544
100
AcDbEntity
  8
0
 62
     0
370
    -2
100
AcDbLine
 10
-0.5
 20
0.5
 30
0.0
 11
0.5
 21
0.5
 31
0.0
  0
LINE
  5
545
100
AcDbEntity
  8
0
 62
     0
370
    -2
100
AcDbLine
 10
0.5
 20
0.5
 30
0.0
 11
0.5
 21
-0.5
 31
0.0
  0
LINE
  5
546
100
AcDbEntity
  8
0
 62
     0
370
    -2
100
AcDbLine
 10
0.5
 20
-0.5
 30
0.0
 11
-0.5
 21
-0.5
 31
0.0
  0
LINE
  5
547
100
AcDbEntity
  8
0
 62
     0
370
    -2
100
AcDbLine
 10
-0.5
 20
-0.5
 30
0.0
 11
-0.5
 21
0.5
 31
0.0
  0
SOLID
  5
548
100
AcDbEntity
  8
0
 62
     0
100
AcDbTrace
 10
-0.5
 20
-0.5
 11
-0.5
 21
0.0
 12
0.0
 22
-0.5
 13
0.0
 23
0.0
  0
SOLID
  5
549
100
AcDbEntity
  8
0
 62
     0
100
AcDbTrace
 10
0.0
 20
0.0
 11
0.0
 21
0.5
 12
0.5
 22
0.0
 13
0.5
 23
0.5
  0
ENDBLK
  5
54A
100
AcDbEntity
100
AcDbBlockEnd
  0
BLOCK
  5
54B
100
AcDbEntity
  8
0
100
AcDbBlockBegin
  2
CDWK_PTTYP6
 70
     0
 10
0.0
 20
0.0
 30
0.0
  3
CDWK_PTTYP6
  1

  4
Cadwork node
  0
LINE
  5
54C
100
AcDbEntity
  8
0
 62
     0
370
    -2
100
AcDbLine
 10
-0.5
 20
0.5
 30
0.0
 11
0.5
 21
0.5
 31
0.0
  0
LINE
  5
54D
100
AcDbEntity
  8
0
 62
     0
370
    -2
100
AcDbLine
 10
0.5
 20
0.5
 30
0.0
 11
0.5
 21
-0.5
 31
0.0
  0
LINE
  5
54E
100
AcDbEntity
  8
0
 62
     0
370
    -2
100
AcDbLine
 10
0.5
 20
-0.5
 30
0.0
 11
-0.5
 21
-0.5
 31
0.0
  0
LINE
  5
54F
100
AcDbEntity
  8
0
 62
     0
370
    -2
100
AcDbLine
 10
-0.5
 20
-0.5
 30
0.0
 11
-0.5
 21
0.5
 31
0.0
  0
SOLID
  5
550
100
AcDbEntity
  8
0
 62
     0
100
AcDbTrace
 10
-0.5
 20
-0.5
 11
-0.5
 21
0.5
 12
0.5
 22
0.5
 13
0.5
 23
0.5
  0
ENDBLK
  5
551
100
AcDbEntity
100
AcDbBlockEnd
  0
BLOCK
  5
552
100
AcDbEntity
  8
0
100
AcDbBlockBegin
  2
CDWK_PTTYP7
 70
     0
 10
0.0
 20
0.0
 30
0.0
  3
CDWK_PTTYP7
  1

  4
Cadwork node
  0
LINE
  5
553
100
AcDbEntity
  8
0
 62
     0
370
    -2
100
AcDbLine
 10
-0.5
 20
0.5
 30
0.0
 11
0.5
 21
0.5
 31
0.0
  0
LINE
  5
554
100
AcDbEntity
  8
0
 62
     0
370
    -2
100
AcDbLine
 10
0.5
 20
0.5
 30
0.0
 11
0.5
 21
-0.5
 31
0.0
  0
LINE
  5
555
100
AcDbEntity
  8
0
 62
     0
370
    -2
100
AcDbLine
 10
0.5
 20
-0.5
 30
0.0
 11
-0.5
 21
-0.5
 31
0.0
  0
LINE
  5
556
100
AcDbEntity
  8
0
 62
     0
370
    -2
100
AcDbLine
 10
-0.5
 20
-0.5
 30
0.0
 11
-0.5
 21
0.5
 31
0.0
  0
LINE
  5
557
100
AcDbEntity
  8
0
 62
     0
370
    -2
100
AcDbLine
 10
0.0
 20
0.5
 30
0.0
 11
0.0
 21
-0.5
 31
0.0
  0
LINE
  5
558
100
AcDbEntity
  8
0
 62
     0
370
    -2
100
AcDbLine
 10
-0.5
 20
0.0
 30
0.0
 11
0.5
 21
0.0
 31
0.0
  0
ENDBLK
  5
559
100
AcDbEntity
100
AcDbBlockEnd
  0
BLOCK
  5
55A
100
AcDbEntity
  8
0
100
AcDbBlockBegin
  2
CDWK_PTTYP8
 70
     0
 10
0.0
 20
0.0
 30
0.0
  3
CDWK_PTTYP8
  1

  4
Cadwork node
  0
SOLID
  5
55B
100
AcDbEntity
  8
0
 62
     0
100
AcDbTrace
 10
-0.5
 20
0.5
 11
0.5
 21
0.5
 12
-0.5
 22
-0.5
 13
0.5
 23
-0.5
  0
ENDBLK
  5
55C
100
AcDbEntity
100
AcDbBlockEnd
  0
BLOCK
  5
55D
100
AcDbEntity
  8
0
100
AcDbBlockBegin
  2
CDWK_PTTYP9
 70
     0
 10
0.0
 20
0.0
 30
0.0
  3
CDWK_PTTYP9
  1

  4
Cadwork node
  0
CIRCLE
  5
55E
100
AcDbEntity
  8
0
 62
     0
370
    -2
100
AcDbCircle
 10
0.0
 20
0.0
 30
0.0
 40
0.5
  0
CIRCLE
  5
55F
100
AcDbEntity
  8
0
 62
     0
370
    -2
100
AcDbCircle
 10
0.0
 20
0.0
 30
0.0
 40
0.16666667
  0
ENDBLK
  5
560
100
AcDbEntity
100
AcDbBlockEnd
  0
BLOCK
  5
561
100
AcDbEntity
  8
0
100
AcDbBlockBegin
  2
CDWK_PTTYP10
 70
     0
 10
0.0
 20
0.0
 30
0.0
  3
CDWK_PTTYP10
  1

  4
Cadwork node
  0
CIRCLE
  5
562
100
AcDbEntity
  8
0
 62
     0
370
    -2
100
AcDbCircle
 10
0.0
 20
0.0
 30
0.0
 40
0.5
  0
ENDBLK
  5
563
100
AcDbEntity
100
AcDbBlockEnd
  0
BLOCK
  5
564
100
AcDbEntity
  8
0
100
AcDbBlockBegin
  2
CDWK_PTTYP11
 70
     0
 10
0.0
 20
0.0
 30
0.0
  3
CDWK_PTTYP11
  1

  4
Cadwork node
  0
CIRCLE
  5
565
100
AcDbEntity
  8
0
 62
     0
370
    -2
100
AcDbCircle
 10
0.0
 20
0.0
 30
0.0
 40
0.5
  0
CIRCLE
  5
566
100
AcDbEntity
  8
0
 62
     0
370
    -2
100
AcDbCircle
 10
0.0
 20
0.0
 30
0.0
 40
0.25
  0
ENDBLK
  5
567
100
AcDbEntity
100
AcDbBlockEnd
  0
BLOCK
  5
568
100
AcDbEntity
  8
0
100
AcDbBlockBegin
  2
CDWK_PTTYP12
 70
     0
 10
0.0
 20
0.0
 30
0.0
  3
CDWK_PTTYP12
  1

  4
Cadwork node
  0
CIRCLE
  5
569
100
AcDbEntity
  8
0
 62
     0
370
    -2
100
AcDbCircle
 10
0.0
 20
0.0
 30
0.0
 40
0.5
  0
CIRCLE
  5
56A
100
AcDbEntity
  8
0
 62
     0
370
    -2
100
AcDbCircle
 10
0.25
 20
0.0
 30
0.0
 40
0.25
  0
ENDBLK
  5
56B
100
AcDbEntity
100
AcDbBlockEnd
  0
BLOCK
  5
56C
100
AcDbEntity
  8
0
100
AcDbBlockBegin
  2
CDWK_PTTYP13
 70
     0
 10
0.0
 20
0.0
 30
0.0
  3
CDWK_PTTYP13
  1

  4
Cadwork node
  0
CIRCLE
  5
56D
100
AcDbEntity
  8
0
 62
     0
370
    -2
100
AcDbCircle
 10
0.0
 20
0.0
 30
0.0
 40
0.5
  0
CIRCLE
  5
56E
100
AcDbEntity
  8
0
 62
     0
370
    -2
100
AcDbCircle
 10
0.25
 20
0.0
 30
0.0
 40
0.25
  0
CIRCLE
  5
56F
100
AcDbEntity
  8
0
 62
     0
370
    -2
100
AcDbCircle
 10
-0.25
 20
0.0
 30
0.0
 40
0.25
  0
ENDBLK
  5
570
100
AcDbEntity
100
AcDbBlockEnd
  0
BLOCK
  5
571
100
AcDbEntity
  8
0
100
AcDbBlockBegin
  2
CDWK_PTTYP14
 70
     0
 10
0.0
 20
0.0
 30
0.0
  3
CDWK_PTTYP14
  1

  4
Cadwork node
  0
POINT
  5
572
100
AcDbEntity
  8
0
 62
     0
100
AcDbPoint
 10
0.0
 20
0.0
 30
0.0
  0
ENDBLK
  5
573
100
AcDbEntity
100
AcDbBlockEnd
  0
BLOCK
  5
574
100
AcDbEntity
  8
0
100
AcDbBlockBegin
  2
CDWK_PTTYP15
 70
     0
 10
0.0
 20
0.0
 30
0.0
  3
CDWK_PTTYP15
  1

  4
Cadwork node
  0
POINT
  5
575
100
AcDbEntity
  8
0
 62
     0
100
AcDbPoint
 10
0.0
 20
0.0
 30
0.0
  0
ENDBLK
  5
576
100
AcDbEntity
100
AcDbBlockEnd
  0
BLOCK
  5
577
100
AcDbEntity
  8
0
100
AcDbBlockBegin
  2
CDWK_PTTYP16
 70
     0
 10
0.0
 20
0.0
 30
0.0
  3
CDWK_PTTYP16
  1

  4
Cadwork node
  0
LINE
  5
578
100
AcDbEntity
  8
0
 62
     0
370
    -2
100
AcDbLine
 10
-0.5
 20
-0.28867513
 30
0.0
 11
0.5
 21
-0.28867513
 31
0.0
  0
LINE
  5
579
100
AcDbEntity
  8
0
 62
     0
370
    -2
100
AcDbLine
 10
0.5
 20
-0.28867513
 30
0.0
 11
0.0
 21
0.57735027
 31
0.0
  0
LINE
  5
57A
100
AcDbEntity
  8
0
 62
     0
370
    -2
100
AcDbLine
 10
0.0
 20
0.57735027
 30
0.0
 11
-0.5
 21
-0.28867513
 31
0.0
  0
CIRCLE
  5
57B
100
AcDbEntity
  8
0
 62
     0
370
    -2
100
AcDbCircle
 10
0.0
 20
0.0
 30
0.0
 40
0.28867513
  0
ENDBLK
  5
57C
100
AcDbEntity
100
AcDbBlockEnd
  0
BLOCK
  5
57D
100
AcDbEntity
  8
0
100
AcDbBlockBegin
  2
CDWK_PTTYP17
 70
     0
 10
0.0
 20
0.0
 30
0.0
  3
CDWK_PTTYP17
  1

  4
Cadwork node
  0
CIRCLE
  5
57E
100
AcDbEntity
  8
0
 62
     0
370
    -2
100
AcDbCircle
 10
0.0
 20
0.0
 30
0.0
 40
0.5
  0
HATCH
  5
57F
100
AcDbEntity
  8
0
 62
     0
370
    -2
100
AcDbHatch
 10
0.0
 20
0.0
 30
0.0
210
0.0
220
0.0
230
1.0
  2
SOLID
 70
     1
 71
     0
 91
        1
 92
        1
 93
        1
 72
     2
 10
0.0
 20
0.0
 40
0.25
 50
0.0
 51
360.0
 73
     1
 97
        0
 75
     0
 76
     1
 98
        1
 10
0.0
 20
0.0
  0
ENDBLK
  5
580
100
AcDbEntity
100
AcDbBlockEnd
  0
BLOCK
  5
581
100
AcDbEntity
  8
0
100
AcDbBlockBegin
  2
CDWK_PTTYP18
 70
     0
 10
0.0
 20
0.0
 30
0.0
  3
CDWK_PTTYP18
  1

  4
Cadwork node
  0
CIRCLE
  5
582
100
AcDbEntity
  8
0
 62
     0
370
    -2
100
AcDbCircle
 10
0.0
 20
0.0
 30
0.0
 40
0.5
  0
CIRCLE
  5
583
100
AcDbEntity
  8
0
 62
     0
370
    -2
100
AcDbCircle
 10
0.0
 20
0.0
 30
0.0
 40
0.2
  0
ENDBLK
  5
584
100
AcDbEntity
100
AcDbBlockEnd
  0
BLOCK
  5
585
100
AcDbEntity
  8
0
100
AcDbBlockBegin
  2
CDWK_PTTYP19
 70
     0
 10
0.0
 20
0.0
 30
0.0
  3
CDWK_PTTYP19
  1

  4
Cadwork node
  0
CIRCLE
  5
586
100
AcDbEntity
  8
0
 62
     0
370
    -2
100
AcDbCircle
 10
0.0
 20
0.0
 30
0.0
 40
0.4
  0
CIRCLE
  5
587
100
AcDbEntity
  8
0
 62
     0
370
    -2
100
AcDbCircle
 10
0.0
 20
0.0
 30
0.0
 40
0.25
  0
LINE
  5
588
100
AcDbEntity
  8
0
 62
     0
370
    -2
100
AcDbLine
 10
-0.25
 20
0.0
 30
0.0
 11
0.25
 21
0.0
 31
0.0
  0
ENDBLK
  5
589
100
AcDbEntity
100
AcDbBlockEnd
  0
BLOCK
  5
58A
100
AcDbEntity
  8
0
100
AcDbBlockBegin
  2
CDWK_PTTYP20
 70
     0
 10
0.0
 20
0.0
 30
0.0
  3
CDWK_PTTYP20
  1

  4
Cadwork node
  0
CIRCLE
  5
58B
100
AcDbEntity
  8
0
 62
     0
370
    -2
100
AcDbCircle
 10
0.0
 20
0.0
 30
0.0
 40
0.5
  0
CIRCLE
  5
58C
100
AcDbEntity
  8
0
 62
     0
370
    -2
100
AcDbCircle
 10
0.0
 20
0.0
 30
0.0
 40
0.3
  0
ENDBLK
  5
58D
100
AcDbEntity
100
AcDbBlockEnd
  0
BLOCK
  5
58E
100
AcDbEntity
  8
0
100
AcDbBlockBegin
  2
CDWK_PTTYP21
 70
     0
 10
0.0
 20
0.0
 30
0.0
  3
CDWK_PTTYP21
  1

  4
Cadwork node
  0
CIRCLE
  5
58F
100
AcDbEntity
  8
0
 62
     0
370
    -2
100
AcDbCircle
 10
0.0
 20
0.0
 30
0.0
 40
0.5
  0
LINE
  5
590
100
AcDbEntity
  8
0
 62
     0
370
    -2
100
AcDbLine
 10
-0.5
 20
0.0
 30
0.0
 11
0.5
 21
0.0
 31
0.0
  0
ENDBLK
  5
591
100
AcDbEntity
100
AcDbBlockEnd
  0
BLOCK
  5
592
100
AcDbEntity
  8
0
100
AcDbBlockBegin
  2
CDWK_PTTYP22
 70
     0
 10
0.0
 20
0.0
 30
0.0
  3
CDWK_PTTYP22
  1

  4
Cadwork node
  0
POINT
  5
593
100
AcDbEntity
  8
0
 62
     0
100
AcDbPoint
 10
0.0
 20
0.0
 30
0.0
  0
ENDBLK
  5
594
100
AcDbEntity
100
AcDbBlockEnd
  0
BLOCK
  5
595
100
AcDbEntity
  8
0
100
AcDbBlockBegin
  2
CDWK_PTTYP23
 70
     0
 10
0.0
 20
0.0
 30
0.0
  3
CDWK_PTTYP23
  1

  4
Cadwork node
  0
POINT
  5
596
100
AcDbEntity
  8
0
 62
     0
100
AcDbPoint
 10
0.0
 20
0.0
 30
0.0
  0
ENDBLK
  5
597
100
AcDbEntity
100
AcDbBlockEnd
  0
BLOCK
  5
598
100
AcDbEntity
  8
0
100
AcDbBlockBegin
  2
CDWK_PTTYP24
 70
     0
 10
0.0
 20
0.0
 30
0.0
  3
CDWK_PTTYP24
  1

  4
Cadwork node
  0
POINT
  5
599
100
AcDbEntity
  8
0
 62
     0
100
AcDbPoint
 10
0.0
 20
0.0
 30
0.0
  0
ENDBLK
  5
59A
100
AcDbEntity
100
AcDbBlockEnd
  0
BLOCK
  5
59B
100
AcDbEntity
  8
0
100
AcDbBlockBegin
  2
CDWK_PTTYP25
 70
     0
 10
0.0
 20
0.0
 30
0.0
  3
CDWK_PTTYP25
  1

  4
Cadwork node
  0
LINE
  5
59C
100
AcDbEntity
  8
0
 62
     0
370
    -2
100
AcDbLine
 10
-0.43290044
 20
-0.25
 30
0.0
 11
0.43290044
 21
-0.25
 31
0.0
  0
LINE
  5
59D
100
AcDbEntity
  8
0
 62
     0
370
    -2
100
AcDbLine
 10
-0.43290044
 20
-0.25
 30
0.0
 11
0.0
 21
0.5
 31
0.0
  0
LINE
  5
59E
100
AcDbEntity
  8
0
 62
     0
370
    -2
100
AcDbLine
 10
0.43290044
 20
-0.25
 30
0.0
 11
0.0
 21
0.5
 31
0.0
  0
CIRCLE
  5
59F
100
AcDbEntity
  8
0
 62
     0
370
    -2
100
AcDbCircle
 10
0.0
 20
0.0
 30
0.0
 40
0.5
  0
ENDBLK
  5
5A0
100
AcDbEntity
100
AcDbBlockEnd
  0
BLOCK
  5
5A1
100
AcDbEntity
  8
0
100
AcDbBlockBegin
  2
CDWK_PTTYP26
 70
     0
 10
0.0
 20
0.0
 30
0.0
  3
CDWK_PTTYP26
  1

  4
Cadwork node
  0
LINE
  5
5A2
100
AcDbEntity
  8
0
 62
     0
370
    -2
100
AcDbLine
 10
-0.5
 20
-0.28850001
 30
0.0
 11
0.5
 21
-0.28850001
 31
0.0
  0
LINE
  5
5A3
100
AcDbEntity
  8
0
 62
     0
370
    -2
100
AcDbLine
 10
-0.5
 20
-0.28850001
 30
0.0
 11
0.0
 21
0.57736721
 31
0.0
  0
LINE
  5
5A4
100
AcDbEntity
  8
0
 62
     0
370
    -2
100
AcDbLine
 10
0.5
 20
-0.28850001
 30
0.0
 11
0.0
 21
0.57736721
 31
0.0
  0
CIRCLE
  5
5A5
100
AcDbEntity
  8
0
 62
     0
370
    -2
100
AcDbCircle
 10
0.0
 20
0.0
 30
0.0
 40
0.1312336
  0
ENDBLK
  5
5A6
100
AcDbEntity
100
AcDbBlockEnd
  0
BLOCK
  5
5A7
100
AcDbEntity
  8
0
100
AcDbBlockBegin
  2
CDWK_PTTYP27
 70
     0
 10
0.0
 20
0.0
 30
0.0
  3
CDWK_PTTYP27
  1

  4
Cadwork node
  0
LINE
  5
5A8
100
AcDbEntity
  8
0
 62
     0
370
    -2
100
AcDbLine
 10
-0.43290044
 20
-0.25
 30
0.0
 11
0.43290044
 21
-0.25
 31
0.0
  0
LINE
  5
5A9
100
AcDbEntity
  8
0
 62
     0
370
    -2
100
AcDbLine
 10
-0.43290044
 20
-0.25
 30
0.0
 11
0.0
 21
0.5
 31
0.0
  0
LINE
  5
5AA
100
AcDbEntity
  8
0
 62
     0
370
    -2
100
AcDbLine
 10
0.43290044
 20
-0.25
 30
0.0
 11
0.0
 21
0.5
 31
0.0
  0
CIRCLE
  5
5AB
100
AcDbEntity
  8
0
 62
     0
370
    -2
100
AcDbCircle
 10
0.0
 20
0.0
 30
0.0
 40
0.5
  0
CIRCLE
  5
5AC
100
AcDbEntity
  8
0
 62
     0
370
    -2
100
AcDbCircle
 10
0.0
 20
0.0
 30
0.0
 40
0.1312336
  0
ENDBLK
  5
5AD
100
AcDbEntity
100
AcDbBlockEnd
  0
BLOCK
  5
5AE
100
AcDbEntity
  8
0
100
AcDbBlockBegin
  2
CDWK_PTTYP28
 70
     0
 10
0.0
 20
0.0
 30
0.0
  3
CDWK_PTTYP28
  1

  4
Cadwork node
  0
POINT
  5
5AF
100
AcDbEntity
  8
0
 62
     0
100
AcDbPoint
 10
0.0
 20
0.0
 30
0.0
  0
ENDBLK
  5
5B0
100
AcDbEntity
100
AcDbBlockEnd
  0
BLOCK
  5
5B1
100
AcDbEntity
  8
0
100
AcDbBlockBegin
  2
CDWK_PTTYP29
 70
     0
 10
0.0
 20
0.0
 30
0.0
  3
CDWK_PTTYP29
  1

  4
Cadwork node
  0
CIRCLE
  5
5B2
100
AcDbEntity
  8
0
 62
     0
370
    -2
100
AcDbCircle
 10
0.0
 20
0.0
 30
0.0
 40
0.5
  0
CIRCLE
  5
5B3
100
AcDbEntity
  8
0
 62
     0
370
    -2
100
AcDbCircle
 10
0.0
 20
0.0
 30
0.0
 40
0.375
  0
CIRCLE
  5
5B4
100
AcDbEntity
  8
0
 62
     0
370
    -2
100
AcDbCircle
 10
0.0
 20
0.0
 30
0.0
 40
0.21875
  0
ENDBLK
  5
5B5
100
AcDbEntity
100
AcDbBlockEnd
  0
BLOCK
  5
5B6
100
AcDbEntity
  8
0
100
AcDbBlockBegin
  2
CDWK_PTTYP30
 70
     0
 10
0.0
 20
0.0
 30
0.0
  3
CDWK_PTTYP30
  1

  4
Cadwork node
  0
LINE
  5
5B7
100
AcDbEntity
  8
0
 62
     0
370
    -2
100
AcDbLine
 10
0.17680339
 20
0.17680339
 30
0.0
 11
0.5
 21
0.5
 31
0.0
  0
LINE
  5
5B8
100
AcDbEntity
  8
0
 62
     0
370
    -2
100
AcDbLine
 10
-0.17680339
 20
0.17680339
 30
0.0
 11
-0.5
 21
0.5
 31
0.0
  0
LINE
  5
5B9
100
AcDbEntity
  8
0
 62
     0
370
    -2
100
AcDbLine
 10
0.17680339
 20
-0.17680339
 30
0.0
 11
0.5
 21
-0.5
 31
0.0
  0
LINE
  5
5BA
100
AcDbEntity
  8
0
 62
     0
370
    -2
100
AcDbLine
 10
-0.17680339
 20
-0.17680339
 30
0.0
 11
-0.5
 21
-0.5
 31
0.0
  0
ENDBLK
  5
5BB
100
AcDbEntity
100
AcDbBlockEnd
  0
BLOCK
  5
5BC
100
AcDbEntity
  8
0
100
AcDbBlockBegin
  2
CDWK_PTTYP31
 70
     0
 10
0.0
 20
0.0
 30
0.0
  3
CDWK_PTTYP31
  1

  4
Cadwork node
  0
CIRCLE
  5
5BD
100
AcDbEntity
  8
0
 62
     0
370
    -2
100
AcDbCircle
 10
0.0
 20
0.0
 30
0.0
 40
0.075
  0
LINE
  5
5BE
100
AcDbEntity
  8
0
 62
     0
370
    -2
100
AcDbLine
 10
0.075
 20
0.0
 30
0.0
 11
0.5
 21
0.0
 31
0.0
  0
LINE
  5
5BF
100
AcDbEntity
  8
0
 62
     0
370
    -2
100
AcDbLine
 10
-0.075
 20
0.0
 30
0.0
 11
-0.5
 21
0.0
 31
0.0
  0
LINE
  5
5C0
100
AcDbEntity
  8
0
 62
     0
370
    -2
100
AcDbLine
 10
0.0
 20
0.075
 30
0.0
 11
0.0
 21
0.5
 31
0.0
  0
LINE
  5
5C1
100
AcDbEntity
  8
0
 62
     0
370
    -2
100
AcDbLine
 10
0.0
 20
-0.075
 30
0.0
 11
0.0
 21
-0.5
 31
0.0
  0
ENDBLK
  5
5C2
100
AcDbEntity
100
AcDbBlockEnd
  0
BLOCK
  5
5C3
100
AcDbEntity
  8
0
100
AcDbBlockBegin
  2
CDWK_PTTYP32
 70
     0
 10
0.0
 20
0.0
 30
0.0
  3
CDWK_PTTYP32
  1

  4
Cadwork node
  0
CIRCLE
  5
5C4
100
AcDbEntity
  8
0
 62
     0
370
    -2
100
AcDbCircle
 10
0.0
 20
0.0
 30
0.0
 40
0.5
  0
CIRCLE
  5
5C5
100
AcDbEntity
  8
0
 62
     0
370
    -2
100
AcDbCircle
 10
0.0
 20
0.0
 30
0.0
 40
0.16666667
  0
LINE
  5
5C6
100
AcDbEntity
  8
0
 62
     0
370
    -2
100
AcDbLine
 10
0.11786893
 20
0.11786893
 30
0.0
 11
0.35360678
 21
0.35360678
 31
0.0
  0
LINE
  5
5C7
100
AcDbEntity
  8
0
 62
     0
370
    -2
100
AcDbLine
 10
-0.11786893
 20
0.11786893
 30
0.0
 11
-0.35360678
 21
0.35360678
 31
0.0
  0
LINE
  5
5C8
100
AcDbEntity
  8
0
 62
     0
370
    -2
100
AcDbLine
 10
0.11786893
 20
-0.11786893
 30
0.0
 11
0.35360678
 21
-0.35360678
 31
0.0
  0
LINE
  5
5C9
100
AcDbEntity
  8
0
 62
     0
370
    -2
100
AcDbLine
 10
-0.11786893
 20
-0.11786893
 30
0.0
 11
-0.35360678
 21
-0.35360678
 31
0.0
  0
ENDBLK
  5
5CA
100
AcDbEntity
100
AcDbBlockEnd
  0
BLOCK
  5
5CB
100
AcDbEntity
  8
0
100
AcDbBlockBegin
  2
CDWK_PTTYP33
 70
     0
 10
0.0
 20
0.0
 30
0.0
  3
CDWK_PTTYP33
  1

  4
Cadwork node
  0
CIRCLE
  5
5CC
100
AcDbEntity
  8
0
 62
     0
370
    -2
100
AcDbCircle
 10
0.0
 20
0.0
 30
0.0
 40
0.5
  0
LINE
  5
5CD
100
AcDbEntity
  8
0
 62
     0
370
    -2
100
AcDbLine
 10
0.0
 20
0.5
 30
0.0
 11
0.0
 21
-0.5
 31
0.0
  0
LINE
  5
5CE
100
AcDbEntity
  8
0
 62
     0
370
    -2
100
AcDbLine
 10
-0.5
 20
0.0
 30
0.0
 11
0.5
 21
0.0
 31
0.0
  0
ENDBLK
  5
5CF
100
AcDbEntity
100
AcDbBlockEnd
  0
BLOCK
  5
5D0
100
AcDbEntity
  8
0
100
AcDbBlockBegin
  2
CDWK_PTTYP34
 70
     0
 10
0.0
 20
0.0
 30
0.0
  3
CDWK_PTTYP34
  1

  4
Cadwork node
  0
CIRCLE
  5
5D1
100
AcDbEntity
  8
0
 62
     0
370
    -2
100
AcDbCircle
 10
0.0
 20
0.0
 30
0.0
 40
0.5
  0
LINE
  5
5D2
100
AcDbEntity
  8
0
 62
     0
370
    -2
100
AcDbLine
 10
-0.30360678
 20
-0.40360678
 30
0.0
 11
0.40360678
 21
0.30360678
 31
0.0
  0
LINE
  5
5D3
100
AcDbEntity
  8
0
 62
     0
370
    -2
100
AcDbLine
 10
-0.40360678
 20
-0.30360678
 30
0.0
 11
0.30360678
 21
0.40360678
 31
0.0
  0
ENDBLK
  5
5D4
100
AcDbEntity
100
AcDbBlockEnd
  0
BLOCK
  5
5D5
100
AcDbEntity
  8
0
100
AcDbBlockBegin
  2
CDWK_PTTYP35
 70
     0
 10
0.0
 20
0.0
 30
0.0
  3
CDWK_PTTYP35
  1

  4
Cadwork node
  0
CIRCLE
  5
5D6
100
AcDbEntity
  8
0
 62
     0
370
    -2
100
AcDbCircle
 10
0.0
 20
0.0
 30
0.0
 40
0.21431634
  0
LINE
  5
5D7
100
AcDbEntity
  8
0
 62
     0
370
    -2
100
AcDbLine
 10
0.0
 20
0.21431634
 30
0.0
 11
0.0
 21
0.5
 31
0.0
  0
LINE
  5
5D8
100
AcDbEntity
  8
0
 62
     0
370
    -2
100
AcDbLine
 10
0.0
 20
-0.21431634
 30
0.0
 11
0.0
 21
-0.5
 31
0.0
  0
ENDBLK
  5
5D9
100
AcDbEntity
100
AcDbBlockEnd
  0
BLOCK
  5
5DA
100
AcDbEntity
  8
0
100
AcDbBlockBegin
  2
CDWK_PTTYP36
 70
     0
 10
0.0
 20
0.0
 30
0.0
  3
CDWK_PTTYP36
  1

  4
Cadwork node
  0
LINE
  5
5DB
100
AcDbEntity
  8
0
 62
     0
370
    -2
100
AcDbLine
 10
-0.5
 20
-0.16666667
 30
0.0
 11
0.5
 21
-0.16666667
 31
0.0
  0
LINE
  5
5DC
100
AcDbEntity
  8
0
 62
     0
370
    -2
100
AcDbLine
 10
0.5
 20
-0.16666667
 30
0.0
 11
0.5
 21
0.16666667
 31
0.0
  0
LINE
  5
5DD
100
AcDbEntity
  8
0
 62
     0
370
    -2
100
AcDbLine
 10
0.5
 20
0.16666667
 30
0.0
 11
-0.5
 21
0.16666667
 31
0.0
  0
LINE
  5
5DE
100
AcDbEntity
  8
0
 62
     0
370
    -2
100
AcDbLine
 10
-0.5
 20
0.16666667
 30
0.0
 11
-0.5
 21
-0.16666667
 31
0.0
  0
SOLID
  5
5DF
100
AcDbEntity
  8
0
 62
     0
100
AcDbTrace
 10
-0.5
 20
-0.16666667
 11
0.5
 21
0.16666667
 12
0.5
 22
-0.16666667
 13
0.5
 23
-0.16666667
  0
ENDBLK
  5
5E0
100
AcDbEntity
100
AcDbBlockEnd
  0
BLOCK
  5
5E1
100
AcDbEntity
  8
0
100
AcDbBlockBegin
  2
CDWK_PTTYP37
 70
     0
 10
0.0
 20
0.0
 30
0.0
  3
CDWK_PTTYP37
  1

  4
Cadwork node
  0
CIRCLE
  5
5E2
100
AcDbEntity
  8
0
 62
     0
370
    -2
100
AcDbCircle
 10
0.0
 20
0.0
 30
0.0
 40
0.5
  0
SOLID
  5
5E3
100
AcDbEntity
  8
0
 62
     0
100
AcDbTrace
 10
0.0
 20
0.0
 11
0.35350001
 21
0.35350001
 12
0.5
 22
0.0
 13
0.46200001
 23
0.19149999
  0
SOLID
  5
5E4
100
AcDbEntity
  8
0
 62
     0
100
AcDbTrace
 10
0.0
 20
0.0
 11
0.35350001
 21
-0.35350001
 12
0.5
 22
0.0
 13
0.46200001
 23
-0.19149999
  0
SOLID
  5
5E5
100
AcDbEntity
  8
0
 62
     0
100
AcDbTrace
 10
0.0
 20
0.0
 11
0.0
 21
-0.5
 12
0.35350001
 22
-0.35350001
 13
0.19149999
 23
-0.46200001
  0
SOLID
  5
5E6
100
AcDbEntity
  8
0
 62
     0
100
AcDbTrace
 10
0.0
 20
0.0
 11
0.0
 21
-0.5
 12
-0.35350001
 22
-0.35350001
 13
-0.19149999
 23
-0.46200001
  0
ENDBLK
  5
5E7
100
AcDbEntity
100
AcDbBlockEnd
  0
BLOCK
  5
5E8
100
AcDbEntity
  8
0
100
AcDbBlockBegin
  2
CDWK_PTTYP38
 70
     0
 10
0.0
 20
0.0
 30
0.0
  3
CDWK_PTTYP38
  1

  4
Cadwork node
  0
CIRCLE
  5
5E9
100
AcDbEntity
  8
0
 62
     0
370
    -2
100
AcDbCircle
 10
0.0
 20
0.0
 30
0.0
 40
0.5
  0
SOLID
  5
5EA
100
AcDbEntity
  8
0
 62
     0
100
AcDbTrace
 10
0.0
 20
0.0
 11
0.35350001
 21
0.35350001
 12
0.0
 22
0.5
 13
0.19149999
 23
0.46200001
  0
SOLID
  5
5EB
100
AcDbEntity
  8
0
 62
     0
100
AcDbTrace
 10
0.0
 20
0.0
 11
0.5
 21
0.0
 12
0.35350001
 22
0.35350001
 13
0.46200001
 23
0.19149999
  0
SOLID
  5
5EC
100
AcDbEntity
  8
0
 62
     0
100
AcDbTrace
 10
0.0
 20
0.0
 11
0.0
 21
-0.5
 12
-0.35350001
 22
-0.35350001
 13
-0.19149999
 23
-0.46200001
  0
SOLID
  5
5ED
100
AcDbEntity
  8
0
 62
     0
100
AcDbTrace
 10
0.0
 20
0.0
 11
-0.5
 21
0.0
 12
-0.35350001
 22
-0.35350001
 13
-0.46200001
 23
-0.19149999
  0
ENDBLK
  5
5EE
100
AcDbEntity
100
AcDbBlockEnd
  0
BLOCK
  5
5EF
100
AcDbEntity
  8
Ech.1_5
100
AcDbBlockBegin
  2
*X1
 70
     1
 10
0.0
 20
0.0
 30
0.0
  3
*X1
  1

  4
Cadwork hatch
  0
LINE
  5
5F0
100
AcDbEntity
  8
Ech.1_5
 62
   190
  6
CONTINUOUS
370
    -2
100
AcDbLine
 10
44607.96983319
 20
-8992.64774985
 30
0.0
 11
44562.97398414
 21
-9137.64601615
 31
0.0
  0
LINE
  5
5F1
100
AcDbEntity
  8
Ech.1_5
 62
   190
  6
CONTINUOUS
370
    -2
100
AcDbLine
 10
44562.97398414
 20
-8992.64774985
 30
0.0
 11
44607.96983319
 21
-9137.64601615
 31
0.0
  0
ENDBLK
  5
5F2
100
AcDbEntity
100
AcDbBlockEnd
  0
BLOCK
  5
5F3
100
AcDbEntity
  8
Ech.1_5
100
AcDbBlockBegin
  2
*X2
 70
     1
 10
0.0
 20
0.0
 30
0.0
  3
*X2
  1

  4
Cadwork hatch
  0
LINE
  5
5F4
100
AcDbEntity
  8
Ech.1_5
 62
   190
  6
CONTINUOUS
370
    -2
100
AcDbLine
 10
44702.97165334
 20
-8992.64774985
 30
0.0
 11
44657.97580429
 21
-9137.64601615
 31
0.0
  0
LINE
  5
5F5
100
AcDbEntity
  8
Ech.1_5
 62
   190
  6
CONTINUOUS
370
    -2
100
AcDbLine
 10
44657.97580429
 20
-8992.64774985
 30
0.0
 11
44702.97165334
 21
-9137.64601615
 31
0.0
  0
ENDBLK
  5
5F6
100
AcDbEntity
100
AcDbBlockEnd
  0
BLOCK
  5
5F7
100
AcDbEntity
  8
Ech.1_5
100
AcDbBlockBegin
  2
*X3
 70
     1
 10
0.0
 20
0.0
 30
0.0
  3
*X3
  1

  4
Cadwork hatch
  0
LINE
  5
5F8
100
AcDbEntity
  8
Ech.1_5
 62
   190
  6
CONTINUOUS
370
    -2
100
AcDbLine
 10
44257.97566021
 20
-8992.64774985
 30
0.0
 11
44212.97504869
 21
-9137.64601615
 31
0.0
  0
LINE
  5
5F9
100
AcDbEntity
  8
Ech.1_5
 62
   190
  6
CONTINUOUS
370
    -2
100
AcDbLine
 10
44212.97504869
 20
-8992.64774985
 30
0.0
 11
44257.97566021
 21
-9137.64601615
 31
0.0
  0
ENDBLK
  5
5FA
100
AcDbEntity
100
AcDbBlockEnd
  0
BLOCK
  5
5FB
100
AcDbEntity
  8
Ech.1_5
100
AcDbBlockBegin
  2
*X4
 70
     1
 10
0.0
 20
0.0
 30
0.0
  3
*X4
  1

  4
Cadwork hatch
  0
LINE
  5
5FC
100
AcDbEntity
  8
Ech.1_5
 62
   190
  6
CONTINUOUS
370
    -2
100
AcDbLine
 10
45102.97655989
 20
-8992.64774985
 30
0.0
 11
45057.97594838
 21
-9137.64601615
 31
0.0
  0
LINE
  5
5FD
100
AcDbEntity
  8
Ech.1_5
 62
   190
  6
CONTINUOUS
370
    -2
100
AcDbLine
 10
45057.97594838
 20
-8992.64774985
 30
0.0
 11
45102.97655989
 21
-9137.64601615
 31
0.0
  0
ENDBLK
  5
5FE
100
AcDbEntity
100
AcDbBlockEnd
  0
ENDSEC
  0
SECTION
  2
ENTITIES
  0
INSERT
  5
5FF
100
AcDbEntity
  8
Ech.1_5
 62
     0
100
AcDbBlockReference
  2
*X1
 10
0.0
 20
0.0
 30
0.0
  0
INSERT
  5
600
100
AcDbEntity
  8
Ech.1_5
 62
     0
100
AcDbBlockReference
  2
*X2
 10
0.0
 20
0.0
 30
0.0
  0
INSERT
  5
601
100
AcDbEntity
  8
Ech.1_5
 62
     0
100
AcDbBlockReference
  2
*X3
 10
0.0
 20
0.0
 30
0.0
  0
INSERT
  5
602
100
AcDbEntity
  8
Ech.1_5
 62
     0
100
AcDbBlockReference
  2
*X4
 10
0.0
 20
0.0
 30
0.0
  0
LWPOLYLINE
  5
603
100
AcDbEntity
  8
Ech.1_5
 62
   190
  6
CONTINUOUS
370
    -3
100
AcDbPolyline
 90
        4
 70
     1
 43
0.0
 10
44362.9765997
 20
-8992.64753619
 10
44362.97439357
 20
-8962.64753619
 10
44857.41163861
 20
-8962.64753619
 10
44857.41696502
 20
-8992.64753619
  0
LWPOLYLINE
  5
604
100
AcDbEntity
  8
Ech.1_5
 62
   190
  6
CONTINUOUS
370
    -3
100
AcDbPolyline
 90
        8
 70
     1
 43
0.0
 10
45257.94035046
 20
-9058.57506219
 10
45239.96199885
 20
-9042.08870784
 10
45275.91769886
 20
-9056.19864789
 10
45257.94035046
 20
-9039.71314469
 10
45257.93968654
 20
-8992.64753619
 10
44657.97446438
 20
-8992.64753619
 10
44657.97446438
 20
-9137.64753619
 10
45257.93965564
 20
-9137.64753619
  0
LWPOLYLINE
  5
605
100
AcDbEntity
  8
Ech.1_5
 62
   190
  6
CONTINUOUS
370
    -3
100
AcDbPolyline
 90
        8
 70
     1
 43
0.0
 10
44075.98714467
 20
-9107.83846942
 10
44040.03144466
 20
-9093.72852937
 10
44058.00879307
 20
-9110.21403256
 10
44058.00937543
 20
-9137.64753619
 10
44607.97439357
 20
-9137.64753619
 10
44607.97439357
 20
-8992.64753619
 10
44058.00924222
 20
-8992.64753619
 10
44058.00879307
 20
-9091.35211554
  0
LWPOLYLINE
  5
606
100
AcDbEntity
  8
Ech.1_5
 62
   190
  6
CONTINUOUS
370
    -3
100
AcDbPolyline
 90
       44
 70
     0
 43
0.0
 10
45257.93968654
 20
-9016.8142027
 42
1.14028179
 10
45210.42981617
 20
-9023.06901017
 10
45232.9495569
 20
-9107.22606173
 42
-1.30322619
 10
45186.26314951
 20
-9107.22606173
 10
45208.78289023
 20
-9023.06901017
 42
1.30322617
 10
45162.09648284
 20
-9023.06901017
 10
45184.61622356
 20
-9107.22606173
 42
-1.30322619
 10
45137.92981617
 20
-9107.22606173
 10
45160.4495569
 20
-9023.06901017
 42
1.30322617
 10
45113.76314951
 20
-9023.06901017
 10
45136.28289023
 20
-9107.22606173
 42
-1.30322619
 10
45089.59648284
 20
-9107.22606173
 10
45112.11622356
 20
-9023.06901017
 42
1.30322617
 10
45065.42981617
 20
-9023.06901017
 10
45087.9495569
 20
-9107.22606173
 42
-1.30322619
 10
45041.26314951
 20
-9107.22606173
 10
45063.78289023
 20
-9023.06901017
 42
1.30322617
 10
45017.09648284
 20
-9023.06901017
 10
45039.61622356
 20
-9107.22606173
 42
-1.30322619
 10
44992.92981617
 20
-9107.22606173
 10
45015.4495569
 20
-9023.06901017
 42
1.30322617
 10
44968.76314951
 20
-9023.06901017
 10
44991.28289023
 20
-9107.22606173
 42
-1.30322619
 10
44944.59648284
 20
-9107.22606173
 10
44967.11622356
 20
-9023.06901017
 42
1.30322617
 10
44920.42981617
 20
-9023.06901017
 10
44942.9495569
 20
-9107.22606173
 42
-1.30322619
 10
44896.26314951
 20
-9107.22606173
 10
44918.78289023
 20
-9023.06901017
 42
1.30322617
 10
44872.09648284
 20
-9023.06901017
 10
44894.61622356
 20
-9107.22606173
 42
-1.30322619
 10
44847.92981617
 20
-9107.22606173
 10
44870.4495569
 20
-9023.06901017
 42
1.30322617
 10
44823.76314951
 20
-9023.06901017
 10
44846.28289023
 20
-9107.22606173
 42
-1.30322619
 10
44799.59648284
 20
-9107.22606173
 10
44822.11622356
 20
-9023.06901017
 42
1.30322617
 10
44775.42981617
 20
-9023.06901017
 10
44797.9495569
 20
-9107.22606173
 42
-1.30322619
 10
44751.26314951
 20
-9107.22606173
 10
44773.78289023
 20
-9023.06901017
 42
1.30322617
 10
44727.09648284
 20
-9023.06901017
 10
44749.61622356
 20
-9107.22606173
 42
-0.99648337
 10
44702.97446438
 20
-9119.89998856
  0
LWPOLYLINE
  5
607
100
AcDbEntity
  8
Ech.1_5
 62
   190
  6
CONTINUOUS
370
    -3
100
AcDbPolyline
 90
       64
 70
     0
 43
0.0
 10
44607.97439357
 20
-9002.09460139
 42
0.82050736
 10
44565.46452321
 20
-9023.06901017
 10
44587.98426393
 20
-9107.22606173
 42
-1.14025621
 10
44540.47439357
 20
-9113.48194525
 42
-0.06555479
 10
44541.29785654
 20
-9107.22606173
 10
44563.81759727
 20
-9023.06901017
 42
1.30322617
 10
44517.13118988
 20
-9023.06901017
 10
44539.6509306
 20
-9107.22606173
 42
-0.06553244
 10
44540.47439357
 20
-9113.47979375
 42
-1.0
 10
44492.14106024
 20
-9113.48194508
 42
-0.06555479
 10
44492.96452321
 20
-9107.22606173
 10
44515.48426393
 20
-9023.06901017
 42
1.30322617
 10
44468.79785654
 20
-9023.06901017
 10
44491.31759727
 20
-9107.22606173
 42
-0.06553244
 10
44492.14106024
 20
-9113.47979392
 42
-1.0
 10
44443.8077269
 20
-9113.48194525
 42
-0.06555479
 10
44444.63118988
 20
-9107.22606173
 10
44467.1509306
 20
-9023.06901017
 42
1.30322617
 10
44420.46452321
 20
-9023.06901017
 10
44442.98426393
 20
-9107.22606173
 42
-0.06553244
 10
44443.8077269
 20
-9113.47979375
 42
-1.0
 10
44395.47439357
 20
-9113.48194508
 42
-0.06555479
 10
44396.29785654
 20
-9107.22606173
 10
44418.81759727
 20
-9023.06901017
 42
1.30322617
 10
44372.13118988
 20
-9023.06901017
 10
44394.6509306
 20
-9107.22606173
 42
-0.06553244
 10
44395.47439357
 20
-9113.47979392
 42
-1.0
 10
44347.14106024
 20
-9113.48194525
 42
-0.06555479
 10
44347.96452321
 20
-9107.22606173
 10
44370.48426393
 20
-9023.06901017
 42
1.30322617
 10
44323.79785654
 20
-9023.06901017
 10
44346.31759727
 20
-9107.22606173
 42
-0.06553244
 10
44347.14106024
 20
-9113.47979375
 42
-1.0
 10
44298.8077269
 20
-9113.48194508
 42
-0.06555479
 10
44299.63118988
 20
-9107.22606173
 10
44322.1509306
 20
-9023.06901017
 42
1.30322617
 10
44275.46452321
 20
-9023.06901017
 10
44297.98426393
 20
-9107.22606173
 42
-0.06553244
 10
44298.8077269
 20
-9113.47979392
 42
-0.99999999
 10
44250.47439357
 20
-9113.48194525
 42
-0.06555479
 10
44251.29785654
 20
-9107.22606173
 10
44273.81759727
 20
-9023.06901017
 42
1.30322617
 10
44227.13118988
 20
-9023.06901017
 10
44249.6509306
 20
-9107.22606173
 42
-0.06553244
 10
44250.47439357
 20
-9113.47979375
 42
-1.0
 10
44202.14106024
 20
-9113.48194508
 42
-0.06555479
 10
44202.96452321
 20
-9107.22606173
 10
44225.48426393
 20
-9023.06901017
 42
1.30322617
 10
44178.79785654
 20
-9023.06901017
 10
44201.31759727
 20
-9107.22606173
 42
-0.06553244
 10
44202.14106024
 20
-9113.47979392
 42
-1.0
 10
44153.8077269
 20
-9113.48194525
 42
-0.06555479
 10
44154.63118988
 20
-9107.22606173
 10
44177.1509306
 20
-9023.06901017
 42
1.30322617
 10
44130.46452321
 20
-9023.06901017
 10
44152.98426393
 20
-9107.22606173
 42
-0.06553244
 10
44153.8077269
 20
-9113.47979375
 42
-0.99999937
 10
44105.47439357
 20
-9113.48197579
 42
-0.06555511
 10
44106.29785654
 20
-9107.22606173
 10
44128.81759727
 20
-9023.06901017
 42
1.30322617
 10
44082.13118988
 20
-9023.06901017
 10
44104.6509306
 20
-9107.22606173
 42
-0.06553212
 10
44105.47439357
 20
-9113.47976322
 42
-0.87388023
 10
44058.00924222
 20
-9119.90024558
  0
LWPOLYLINE
  5
608
102
{ACAD_REACTORS
330
609
102
}
100
AcDbEntity
  8
Ech.1_5
 62
     7
  6
CONTINUOUS
370
    -3
100
AcDbPolyline
 90
        4
 70
     1
 43
0.0
 10
45257.93968654
 20
-9146.64753619
 10
45257.93968654
 20
-9137.64753619
 10
44657.97439357
 20
-9137.64753619
 10
44657.97439357
 20
-9146.64753619
  0
HATCH
  5
609
100
AcDbEntity
  8
Ech.1_5
 62
   190
  6
CONTINUOUS
100
AcDbHatch
 10
0.0
 20
0.0
 30
0.0
210
0.0
220
0.0
230
1.0
  2
CDWK10A
 70
     0
 71
     1
 91
        1
 92
        7
 72
     0
 73
     1
 93
        4
 10
45257.93968654
 20
-9146.64753619
 10
45257.93968654
 20
-9137.64753619
 10
44657.97439357
 20
-9137.64753619
 10
44657.97439357
 20
-9146.64753619
 97
        1
330
608
 75
     0
 76
     2
 52
0.0
 41
1.0
 77
     0
 78
     3
 53
45.0
 43
0.0
 44
0.0
 45
0.0
 46
42.00000167
 79
     0
 53
45.0
 43
0.0
 44
10.80000043
 45
0.0
 46
42.00000167
 79
     0
 53
45.0
 43
0.0
 44
21.60000086
 45
0.0
 46
42.00000167
 79
     0
 47
0.775229
 98
        1
 10
0.0
 20
0.0
  0
LWPOLYLINE
  5
60A
102
{ACAD_REACTORS
330
60B
102
}
100
AcDbEntity
  8
Ech.1_5
 62
     7
  6
CONTINUOUS
370
    -3
100
AcDbPolyline
 90
        4
 70
     1
 43
0.0
 10
44652.97439357
 20
-9146.64753619
 10
44652.97439357
 20
-9137.64753619
 10
44058.00910061
 20
-9137.64753619
 10
44058.00910061
 20
-9146.64753619
  0
HATCH
  5
60B
100
AcDbEntity
  8
Ech.1_5
 62
   190
  6
CONTINUOUS
100
AcDbHatch
 10
0.0
 20
0.0
 30
0.0
210
0.0
220
0.0
230
1.0
  2
CDWK10A
 70
     0
 71
     1
 91
        1
 92
        7
 72
     0
 73
     1
 93
        4
 10
44652.97439357
 20
-9146.64753619
 10
44652.97439357
 20
-9137.64753619
 10
44058.00910061
 20
-9137.64753619
 10
44058.00910061
 20
-9146.64753619
 97
        1
330
60A
 75
     0
 76
     2
 52
0.0
 41
1.0
 77
     0
 78
     3
 53
45.0
 43
0.0
 44
0.0
 45
0.0
 46
42.00000167
 79
     0
 53
45.0
 43
0.0
 44
10.80000043
 45
0.0
 46
42.00000167
 79
     0
 53
45.0
 43
0.0
 44
21.60000086
 45
0.0
 46
42.00000167
 79
     0
 47
0.775229
 98
        1
 10
0.0
 20
0.0
  0
LWPOLYLINE
  5
60C
100
AcDbEntity
  8
Ech.1_5
 62
   190
  6
CONTINUOUS
370
    -3
100
AcDbPolyline
 90
        4
 70
     1
 43
0.0
 10
44607.97439357
 20
-8992.64753619
 10
44562.97439357
 20
-8992.64753619
 10
44562.97439357
 20
-9137.64753619
 10
44607.97439357
 20
-9137.64753619
  0
LWPOLYLINE
  5
60D
100
AcDbEntity
  8
Ech.1_5
 62
   190
  6
CONTINUOUS
370
    -3
100
AcDbPolyline
 90
        4
 70
     1
 43
0.0
 10
44702.97446438
 20
-8992.64753619
 10
44657.97446438
 20
-8992.64753619
 10
44657.97446438
 20
-9137.64753619
 10
44702.97446438
 20
-9137.64753619
  0
LINE
  5
60E
100
AcDbEntity
  8
Ech.1_5
 62
   190
  6
CONTINUOUS
370
    -3
100
AcDbLine
 10
44058.00937543
 20
-9146.64753619
 30
0.0
 11
45257.93965564
 21
-9146.64753619
 31
0.0
  0
LWPOLYLINE
  5
60F
100
AcDbEntity
  8
Ech.1_5
 62
   190
  6
CONTINUOUS
370
    -3
100
AcDbPolyline
 90
        4
 70
     1
 43
0.0
 10
44257.97439357
 20
-8992.64753619
 10
44212.97439357
 20
-8992.64753619
 10
44212.97439357
 20
-9137.64753619
 10
44257.97439357
 20
-9137.64753619
  0
LWPOLYLINE
  5
610
100
AcDbEntity
  8
Ech.1_5
 62
   190
  6
CONTINUOUS
370
    -3
100
AcDbPolyline
 90
        4
 70
     1
 43
0.0
 10
45102.97446438
 20
-8992.64753619
 10
45057.97446438
 20
-8992.64753619
 10
45057.97446438
 20
-9137.64753619
 10
45102.97446438
 20
-9137.64753619
  0
LWPOLYLINE
  5
611
100
AcDbEntity
  8
Ech.1_5
 62
     5
  6
CONTINUOUS
370
    -3
100
AcDbPolyline
 90
        5
 70
     0
 43
0.0
 10
44702.97446438
 20
-9137.64753619
 10
44657.97446438
 20
-9137.64753619
 10
44657.97446438
 20
-8992.64753619
 10
44702.97446438
 20
-8992.64753619
 10
44702.97446438
 20
-9137.64753619
  0
LWPOLYLINE
  5
612
100
AcDbEntity
  8
Ech.1_5
 62
     5
  6
CONTINUOUS
370
    -3
100
AcDbPolyline
 90
        5
 70
     0
 43
0.0
 10
44607.97439357
 20
-9137.64753619
 10
44562.97439357
 20
-9137.64753619
 10
44562.97439357
 20
-8992.64753619
 10
44607.97439357
 20
-8992.64753619
 10
44607.97439357
 20
-9137.64753619
  0
LWPOLYLINE
  5
613
100
AcDbEntity
  8
Ech.1_5
 62
     5
  6
CONTINUOUS
370
    -3
100
AcDbPolyline
 90
        5
 70
     0
 43
0.0
 10
44257.97439357
 20
-9137.64753619
 10
44212.97439357
 20
-9137.64753619
 10
44212.97439357
 20
-8992.64753619
 10
44257.97439357
 20
-8992.64753619
 10
44257.97439357
 20
-9137.64753619
  0
LWPOLYLINE
  5
614
100
AcDbEntity
  8
Ech.1_5
 62
     5
  6
CONTINUOUS
370
    -3
100
AcDbPolyline
 90
        5
 70
     0
 43
0.0
 10
45102.97446438
 20
-9137.64753619
 10
45057.97446438
 20
-9137.64753619
 10
45057.97446438
 20
-8992.64753619
 10
45102.97446438
 20
-8992.64753619
 10
45102.97446438
 20
-9137.64753619
  0
LWPOLYLINE
  5
615
100
AcDbEntity
  8
Ech.1_5
 62
   190
  6
CONTINUOUS
370
    -3
100
AcDbPolyline
 90
        4
 70
     0
 43
0.0
 10
45257.93895985
 20
-8927.25790015
 10
45257.97112445
 20
-8927.13769999
 42
0.06551642
 10
45258.2550772
 20
-8924.98177138
 42
0.06921726
 10
45257.93895985
 20
-8922.70739356
  0
LWPOLYLINE
  5
616
102
{ACAD_REACTORS
330
617
102
}
100
AcDbEntity
  8
Ech.1_5
 62
     9
  6
CONTINUOUS
370
    -3
100
AcDbPolyline
 90
        6
 70
     1
 43
0.0
 38
2500.0
 39
-2500.0
 10
44058.00961535
 20
-8962.64753619
 10
45055.93968654
 20
-8962.64753619
 10
45257.93932293
 20
-8962.64753619
 10
45257.93932293
 20
-8762.64753619
 10
44058.00961535
 20
-8762.64753619
 10
44058.00961535
 20
-8815.14753619
  0
HATCH
  5
617
100
AcDbEntity
  8
Ech.1_5
 62
     9
  6
CONTINUOUS
100
AcDbHatch
 10
0.0
 20
0.0
 30
0.0
210
0.0
220
0.0
230
1.0
  2
AR-CONC
 70
     0
 71
     1
 91
        1
 92
        7
 72
     0
 73
     1
 93
        6
 10
44058.00961535
 20
-8962.64753619
 10
45055.93968654
 20
-8962.64753619
 10
45257.93932293
 20
-8962.64753619
 10
45257.93932293
 20
-8762.64753619
 10
44058.00961535
 20
-8762.64753619
 10
44058.00961535
 20
-8815.14753619
 97
        1
330
616
 75
     0
 76
     2
 52
0.0
 41
0.11811097
 77
     0
 78
    13
 53
50.0
 43
0.0
 44
0.0
 45
-18.84283637
 46
1.64853443
 79
     2
 49
1.97029307
 49
-21.67322338
 53
355.0
 43
0.0
 44
0.0
 45
-3.64507756
 46
19.76051824
 79
     2
 49
1.57623377
 49
-17.3385787
 53
100.45140076
 43
1.57023568
 44
-0.13737749
 45
-15.19777228
 46
-18.11197244
 79
     2
 49
1.67449124
 49
-18.41940522
 53
46.18420029
 43
0.0
 44
5.25411576
 45
-28.03703353
 46
4.34827878
 79
     2
 49
2.95543872
 49
-32.50983238
 53
96.63559723
 43
2.33641885
 44
4.89175692
 45
-24.55412615
 46
-25.59063404
 79
     2
 49
2.51173697
 49
-27.62910426
 53
351.1842041
 43
0.0
 44
5.25411576
 45
24.55410288
 46
25.59065715
 79
     2
 49
2.36435249
 49
-26.00786805
 53
21.0
 43
2.62705699
 44
3.94058615
 45
-15.68109068
 46
10.57702905
 79
     2
 49
1.97029307
 49
-21.67322338
 53
326.0
 43
2.62705699
 44
3.94058615
 45
6.39203268
 46
19.05010734
 79
     2
 49
1.57623377
 49
-17.3385787
 53
71.45140076
 43
3.93381357
 44
3.05916555
 45
-22.07312962
 46
-8.47306182
 79
     2
 49
1.67449124
 49
-18.41940522
 53
37.5
 43
0.0
 44
0.0
 45
0.31944534
 46
8.74531245
 79
     6
 49
0.01875
 49
-17.12841332
 49
0.01875
 49
-17.60128498
 49
0.01875
 49
-17.40425348
 53
7.5
 43
0.0
 44
0.0
 45
6.91098818
 46
10.3614222
 79
     6
 49
0.01875
 49
-10.03535807
 49
0.01875
 49
-16.7343539
 49
0.01875
 49
-6.6333206
 53
-32.5
 43
-5.85833833
 44
0.0
 45
14.02382061
 46
-0.59253003
 79
     6
 49
0.01875
 49
-6.56764314
 49
0.01875
 49
-20.49104869
 49
0.01875
 49
-27.19004452
 53
-42.5
 43
-8.48539531
 44
0.0
 45
15.32063571
 46
2.62981542
 79
     6
 49
0.01875
 49
-8.53793621
 49
0.01875
 49
-13.60815793
 49
0.01875
 49
-19.30887222
 47
0.775229
 98
        1
 10
0.0
 20
0.0
  0
LWPOLYLINE
  5
618
100
AcDbEntity
  8
Ech.1_5
 62
     1
  6
CADWORK_22
 48
-5.0
370
    35
100
AcDbPolyline
 90
        3
 70
     0
 43
0.0
 10
44607.96478291
 20
-9058.70497628
 10
44607.97439357
 20
-8992.64753619
 10
44058.00924222
 20
-8992.64753619
  0
LWPOLYLINE
  5
619
100
AcDbEntity
  8
Ech.1_5
 62
   190
  6
CONTINUOUS
370
    35
100
AcDbPolyline
 90
        4
 70
     0
 43
0.0
 10
44652.80534091
 20
-9137.04877127
 10
44607.97439357
 20
-9067.64753619
 10
44652.97439357
 20
-9067.64753619
 10
44607.97439357
 20
-9137.64753619
  0
LWPOLYLINE
  5
61A
100
AcDbEntity
  8
Ech.1_5
 62
     5
  6
CONTINUOUS
370
    -3
100
AcDbPolyline
 90
       12
 70
     0
 43
0.0
 10
44652.97439357
 20
-9137.64753619
 10
44652.97439357
 20
-9125.3259683
 10
44652.97334358
 20
-9125.32593034
 10
44652.97334358
 20
-9099.50139925
 10
44652.97439357
 20
-9099.50143721
 10
44652.97439357
 20
-9067.64753619
 10
44607.97439357
 20
-9067.64753619
 10
44607.97439357
 20
-9083.18599161
 10
44607.97439357
 20
-9083.18599161
 10
44607.97439357
 20
-9109.18599161
 10
44607.97439357
 20
-9109.18599161
 10
44607.97439357
 20
-9137.64753619
  0
LINE
  5
61B
100
AcDbEntity
  8
Ech.1_5
 62
   150
  6
CONTINUOUS
370
    50
100
AcDbLine
 10
44607.97439357
 20
-9137.64753619
 30
2500.0
 11
44652.97439357
 21
-9137.64753619
 31
2500.0
  0
LWPOLYLINE
  5
61C
100
AcDbEntity
  8
Ech.1_5
 62
   190
  6
CONTINUOUS
370
    35
100
AcDbPolyline
 90
        4
 70
     0
 43
0.0
 10
44657.80541172
 20
-9062.04877127
 10
44612.97446438
 20
-8992.64753619
 10
44657.97446438
 20
-8992.64753619
 10
44612.97446438
 20
-9062.64753619
  0
LWPOLYLINE
  5
61D
100
AcDbEntity
  8
Ech.1_5
 62
     5
  6
CONTINUOUS
370
    -3
100
AcDbPolyline
 90
       12
 70
     0
 43
0.0
 10
44657.97446438
 20
-9062.64753619
 10
44657.97446438
 20
-9052.8259683
 10
44657.97341438
 20
-9052.82593034
 10
44657.97341438
 20
-9027.00139925
 10
44657.97446438
 20
-9027.00143721
 10
44657.97446438
 20
-8992.64753619
 10
44612.97446438
 20
-8992.64753619
 10
44612.97446438
 20
-9010.68599161
 10
44612.97446438
 20
-9010.68599161
 10
44612.97446438
 20
-9036.68599161
 10
44612.97446438
 20
-9036.68599161
 10
44612.97446438
 20
-9062.64753619
  0
LINE
  5
61E
100
AcDbEntity
  8
Ech.1_5
 62
   150
  6
CONTINUOUS
370
    50
100
AcDbLine
 10
44612.97446438
 20
-9062.64753619
 30
2500.0
 11
44657.97446438
 21
-9062.64753619
 31
2500.0
  0
LWPOLYLINE
  5
61F
100
AcDbEntity
  8
Ech.1_5
 62
     1
  6
CADWORK_22
 48
-5.0
370
    35
100
AcDbPolyline
 90
        3
 70
     0
 43
0.0
 10
44612.98407503
 20
-9058.70497628
 10
44612.97446438
 20
-8992.64753619
 10
45257.93968654
 20
-8992.64753619
  0
LWPOLYLINE
  5
620
102
{ACAD_REACTORS
330
621
102
}
100
AcDbEntity
  8
Ech.1_5
 62
     7
  6
CONTINUOUS
370
     5
100
AcDbPolyline
 90
        4
 70
     1
 43
0.0
 10
44615.01405596
 20
-9027.45869336
 10
44615.01405596
 20
-9014.08117288
 10
44605.5813959
 20
-9014.08117288
 10
44605.5813959
 20
-9027.45869336
  0
HATCH
  5
621
100
AcDbEntity
  8
Ech.1_5
 62
     2
  6
CONTINUOUS
100
AcDbHatch
 10
0.0
 20
0.0
 30
0.0
210
0.0
220
0.0
230
1.0
  2
SOLID
 70
     1
 71
     1
 91
        1
 92
        7
 72
     0
 73
     1
 93
        4
 10
44615.01405596
 20
-9027.45869336
 10
44615.01405596
 20
-9014.08117288
 10
44605.5813959
 20
-9014.08117288
 10
44605.5813959
 20
-9027.45869336
 97
        1
330
620
 75
     0
 76
     2
 47
0.775229
 98
        1
 10
0.0
 20
0.0
  0
LWPOLYLINE
  5
622
100
AcDbEntity
  8
Ech.1_5
 62
     9
  6
CONTINUOUS
370
    -3
100
AcDbPolyline
 90
        4
 70
     0
 43
0.0
 10
44657.30395048
 20
-9191.67937651
 10
45257.93989326
 20
-9191.65194884
 10
45257.93956472
 20
-9171.65315429
 10
44657.30395048
 20
-9171.70903483
  0
LWPOLYLINE
  5
623
100
AcDbEntity
  8
Ech.1_5
 62
     9
  6
CONTINUOUS
370
    -3
100
AcDbPolyline
 90
        4
 70
     0
 43
0.0
 10
44652.90522123
 20
-9171.68160716
 10
44058.00937543
 20
-9171.70876113
 10
44058.00956815
 20
-9191.65194884
 10
44652.90522123
 20
-9191.65194884
  0
LWPOLYLINE
  5
624
100
AcDbEntity
  8
Ech.1_5
 62
     9
  6
CONTINUOUS
370
    -3
100
AcDbPolyline
 90
        4
 70
     0
 43
0.0
 10
44664.53045963
 20
-9146.70903483
 10
44714.53045963
 20
-9171.70903483
 10
44714.53045963
 20
-9146.70903483
 10
44664.53057294
 20
-9171.70903483
  0
LWPOLYLINE
  5
625
100
AcDbEntity
  8
Ech.1_5
 62
     9
  6
CONTINUOUS
370
    40
100
AcDbPolyline
 90
        5
 70
     0
 43
0.0
 10
44664.53045963
 20
-9171.70903483
 10
44714.53045963
 20
-9171.70903483
 10
44714.53045963
 20
-9146.70903483
 10
44664.53045963
 20
-9146.70903483
 10
44664.53045963
 20
-9171.70903483
  0
LWPOLYLINE
  5
626
100
AcDbEntity
  8
Ech.1_5
 62
     9
  6
CONTINUOUS
370
    -3
100
AcDbPolyline
 90
        4
 70
     0
 43
0.0
 10
44646.62131161
 20
-9146.70903483
 10
44596.62131161
 20
-9171.70903483
 10
44596.62131161
 20
-9146.70903483
 10
44646.6211983
 20
-9171.70903483
  0
LWPOLYLINE
  5
627
100
AcDbEntity
  8
Ech.1_5
 62
     9
  6
CONTINUOUS
370
    40
100
AcDbPolyline
 90
        5
 70
     0
 43
0.0
 10
44596.62131161
 20
-9171.70903483
 10
44646.62131161
 20
-9171.70903483
 10
44646.62131161
 20
-9146.70903483
 10
44596.62131161
 20
-9146.70903483
 10
44596.62131161
 20
-9171.70903483
  0
LINE
  5
628
100
AcDbEntity
  8
Ech.1_5
 62
     9
  6
CONTINUOUS
370
    -3
100
AcDbLine
 10
44652.90522123
 20
-9171.70903483
 30
0.0
 11
44652.90522123
 21
-9191.67937651
 31
0.0
  0
LINE
  5
629
100
AcDbEntity
  8
Ech.1_5
 62
     9
  6
CONTINUOUS
370
    -3
100
AcDbLine
 10
44657.30395048
 20
-9171.70903483
 30
0.0
 11
44657.30395048
 21
-9191.67937651
 31
0.0
  0
LWPOLYLINE
  5
62A
100
AcDbEntity
  8
Ech.1_5
 62
   150
  6
CADWORK_22
370
    35
100
AcDbPolyline
 90
        3
 70
     0
 43
0.0
 38
2500.0
 10
44652.96478291
 20
-9082.54601434
 10
44652.97439357
 20
-9148.68417327
 10
44058.00910061
 20
-9148.68417327
  0
LWPOLYLINE
  5
62B
100
AcDbEntity
  8
Ech.1_5
 62
   150
  6
CADWORK_22
370
    35
100
AcDbPolyline
 90
        3
 70
     0
 43
0.0
 38
2500.0
 10
44657.98407503
 20
-9082.54601434
 10
44657.97446438
 20
-9148.68417327
 10
45257.93956472
 20
-9148.68417327
  0
LWPOLYLINE
  5
62C
102
{ACAD_REACTORS
330
62D
102
}
100
AcDbEntity
  8
Ech.1_5
 62
     7
  6
CONTINUOUS
370
     5
100
AcDbPolyline
 90
        4
 70
     1
 43
0.0
 10
44660.31763189
 20
-9114.06582718
 10
44660.31763189
 20
-9100.68830671
 10
44650.88497182
 20
-9100.68830671
 10
44650.88497182
 20
-9114.06582718
  0
HATCH
  5
62D
100
AcDbEntity
  8
Ech.1_5
 62
     2
  6
CONTINUOUS
100
AcDbHatch
 10
0.0
 20
0.0
 30
0.0
210
0.0
220
0.0
230
1.0
  2
SOLID
 70
     1
 71
     1
 91
        1
 92
        7
 72
     0
 73
     1
 93
        4
 10
44660.31763189
 20
-9114.06582718
 10
44660.31763189
 20
-9100.68830671
 10
44650.88497182
 20
-9100.68830671
 10
44650.88497182
 20
-9114.06582718
 97
        1
330
62C
 75
     0
 76
     2
 47
0.775229
 98
        1
 10
0.0
 20
0.0
  0
LWPOLYLINE
  5
62E
100
AcDbEntity
  8
Ech.1_5
 62
   254
  6
CONTINUOUS
370
    -3
100
AcDbPolyline
 90
        4
 70
     1
 43
0.0
 10
45257.93872091
 20
-8692.64753619
 10
44058.00961535
 20
-8692.64753619
 10
44058.00961535
 20
-8742.64753619
 10
45257.93872091
 20
-8742.64753619
  0
LWPOLYLINE
  5
62F
102
{ACAD_REACTORS
330
630
102
}
100
AcDbEntity
  8
Ech.1_5
 62
     9
  6
CONTINUOUS
370
    -3
100
AcDbPolyline
 90
       12
 70
     1
 43
0.0
 10
44130.54275236
 20
-8734.64753619
 10
44130.54275236
 20
-8740.6434249
 10
44160.54275261
 20
-8740.64753619
 10
44160.54275261
 20
-8692.64753619
 10
44130.54275236
 20
-8692.64753619
 10
44130.54275236
 20
-8698.64753619
 10
44132.54275236
 20
-8698.64753619
 10
44132.54275236
 20
-8694.64753619
 10
44158.54275236
 20
-8694.64753619
 10
44158.54275236
 20
-8738.64753619
 10
44132.54275236
 20
-8738.64753619
 10
44132.54275236
 20
-8734.64753619
  0
HATCH
  5
630
100
AcDbEntity
  8
Ech.1_5
 62
     9
  6
CONTINUOUS
100
AcDbHatch
 10
0.0
 20
0.0
 30
0.0
210
0.0
220
0.0
230
1.0
  2
SOLID
 70
     1
 71
     1
 91
        1
 92
        7
 72
     0
 73
     1
 93
       12
 10
44130.54275236
 20
-8734.64753619
 10
44130.54275236
 20
-8740.6434249
 10
44160.54275261
 20
-8740.64753619
 10
44160.54275261
 20
-8692.64753619
 10
44130.54275236
 20
-8692.64753619
 10
44130.54275236
 20
-8698.64753619
 10
44132.54275236
 20
-8698.64753619
 10
44132.54275236
 20
-8694.64753619
 10
44158.54275236
 20
-8694.64753619
 10
44158.54275236
 20
-8738.64753619
 10
44132.54275236
 20
-8738.64753619
 10
44132.54275236
 20
-8734.64753619
 97
        1
330
62F
 75
     0
 76
     2
 47
0.775229
 98
        1
 10
0.0
 20
0.0
  0
LWPOLYLINE
  5
631
102
{ACAD_REACTORS
330
632
102
}
100
AcDbEntity
  8
Ech.1_5
 62
     9
  6
CONTINUOUS
370
    -3
100
AcDbPolyline
 90
        4
 70
     1
 43
0.0
 10
45257.93872091
 20
-8692.64753619
 10
45257.93872091
 20
-8679.64753619
 10
44058.00961535
 20
-8679.64753619
 10
44058.00961535
 20
-8692.64753619
  0
HATCH
  5
632
100
AcDbEntity
  8
Ech.1_5
 62
     9
  6
CONTINUOUS
100
AcDbHatch
 10
0.0
 20
0.0
 30
0.0
210
0.0
220
0.0
230
1.0
  2
DOTS2
 70
     0
 71
     1
 91
        1
 92
        7
 72
     0
 73
     1
 93
        4
 10
45257.93872091
 20
-8692.64753619
 10
45257.93872091
 20
-8679.64753619
 10
44058.00961535
 20
-8679.64753619
 10
44058.00961535
 20
-8692.64753619
 97
        1
330
631
 75
     0
 76
     2
 52
0.0
 41
4.72440952
 77
     0
 78
     1
 53
0.0
 43
0.0
 44
0.0
 45
3.75
 46
3.535
 79
     2
 49
0.0
 49
-3.535
 47
0.775229
 98
        1
 10
0.0
 20
0.0
  0
LWPOLYLINE
  5
633
102
{ACAD_REACTORS
330
634
102
}
100
AcDbEntity
  8
Ech.1_5
 62
     9
  6
CONTINUOUS
370
    -3
100
AcDbPolyline
 90
       12
 70
     1
 43
0.0
 10
44590.45372259
 20
-8734.64753619
 10
44590.45372259
 20
-8740.6434249
 10
44620.45372284
 20
-8740.64753619
 10
44620.45372284
 20
-8692.64753619
 10
44590.45372259
 20
-8692.64753619
 10
44590.45372259
 20
-8698.64753619
 10
44592.45372259
 20
-8698.64753619
 10
44592.45372259
 20
-8694.64753619
 10
44618.45372259
 20
-8694.64753619
 10
44618.45372259
 20
-8738.64753619
 10
44592.45372259
 20
-8738.64753619
 10
44592.45372259
 20
-8734.64753619
  0
HATCH
  5
634
100
AcDbEntity
  8
Ech.1_5
 62
     9
  6
CONTINUOUS
100
AcDbHatch
 10
0.0
 20
0.0
 30
0.0
210
0.0
220
0.0
230
1.0
  2
SOLID
 70
     1
 71
     1
 91
        1
 92
        7
 72
     0
 73
     1
 93
       12
 10
44590.45372259
 20
-8734.64753619
 10
44590.45372259
 20
-8740.6434249
 10
44620.45372284
 20
-8740.64753619
 10
44620.45372284
 20
-8692.64753619
 10
44590.45372259
 20
-8692.64753619
 10
44590.45372259
 20
-8698.64753619
 10
44592.45372259
 20
-8698.64753619
 10
44592.45372259
 20
-8694.64753619
 10
44618.45372259
 20
-8694.64753619
 10
44618.45372259
 20
-8738.64753619
 10
44592.45372259
 20
-8738.64753619
 10
44592.45372259
 20
-8734.64753619
 97
        1
330
633
 75
     0
 76
     2
 47
0.775229
 98
        1
 10
0.0
 20
0.0
  0
LWPOLYLINE
  5
635
102
{ACAD_REACTORS
330
636
102
}
100
AcDbEntity
  8
Ech.1_5
 62
     9
  6
CONTINUOUS
370
    -3
100
AcDbPolyline
 90
       12
 70
     1
 43
0.0
 10
45044.30917025
 20
-8734.64753619
 10
45044.30917025
 20
-8740.6434249
 10
45074.3091705
 20
-8740.64753619
 10
45074.3091705
 20
-8692.64753619
 10
45044.30917025
 20
-8692.64753619
 10
45044.30917025
 20
-8698.64753619
 10
45046.30917025
 20
-8698.64753619
 10
45046.30917025
 20
-8694.64753619
 10
45072.30917025
 20
-8694.64753619
 10
45072.30917025
 20
-8738.64753619
 10
45046.30917025
 20
-8738.64753619
 10
45046.30917025
 20
-8734.64753619
  0
HATCH
  5
636
100
AcDbEntity
  8
Ech.1_5
 62
     9
  6
CONTINUOUS
100
AcDbHatch
 10
0.0
 20
0.0
 30
0.0
210
0.0
220
0.0
230
1.0
  2
SOLID
 70
     1
 71
     1
 91
        1
 92
        7
 72
     0
 73
     1
 93
       12
 10
45044.30917025
 20
-8734.64753619
 10
45044.30917025
 20
-8740.6434249
 10
45074.3091705
 20
-8740.64753619
 10
45074.3091705
 20
-8692.64753619
 10
45044.30917025
 20
-8692.64753619
 10
45044.30917025
 20
-8698.64753619
 10
45046.30917025
 20
-8698.64753619
 10
45046.30917025
 20
-8694.64753619
 10
45072.30917025
 20
-8694.64753619
 10
45072.30917025
 20
-8738.64753619
 10
45046.30917025
 20
-8738.64753619
 10
45046.30917025
 20
-8734.64753619
 97
        1
330
635
 75
     0
 76
     2
 47
0.775229
 98
        1
 10
0.0
 20
0.0
  0
LWPOLYLINE
  5
637
100
AcDbEntity
  8
Ech.1_5
 62
     9
  6
CONTINUOUS
370
    -3
100
AcDbPolyline
 90
      286
 70
     0
 43
0.0
 10
44058.00961535
 20
-8734.31420286
 42
1.14028181
 10
44074.39232927
 20
-8732.15737262
 10
44066.62690143
 20
-8703.13769976
 42
-1.30322619
 10
44082.7256626
 20
-8703.13769976
 10
44074.96023477
 20
-8732.15737262
 42
1.30322619
 10
44091.05899594
 20
-8732.15737262
 10
44083.2935681
 20
-8703.13769976
 42
-1.30322619
 10
44099.39232927
 20
-8703.13769976
 10
44091.62690143
 20
-8732.15737262
 42
1.30322619
 10
44107.7256626
 20
-8732.15737262
 10
44099.96023477
 20
-8703.13769976
 42
-1.30322619
 10
44116.05899594
 20
-8703.13769976
 10
44108.2935681
 20
-8732.15737262
 42
1.30322619
 10
44124.39232927
 20
-8732.15737262
 10
44116.62690143
 20
-8703.13769976
 42
-1.30322619
 10
44132.7256626
 20
-8703.13769976
 10
44124.96023477
 20
-8732.15737262
 42
1.30322619
 10
44141.05899594
 20
-8732.15737262
 10
44133.2935681
 20
-8703.13769976
 42
-1.30322619
 10
44149.39232927
 20
-8703.13769976
 10
44141.62690143
 20
-8732.15737262
 42
1.30322619
 10
44157.7256626
 20
-8732.15737262
 10
44149.96023477
 20
-8703.13769976
 42
-1.30322619
 10
44166.05899594
 20
-8703.13769976
 10
44158.2935681
 20
-8732.15737262
 42
1.30322619
 10
44174.39232927
 20
-8732.15737262
 10
44166.62690143
 20
-8703.13769976
 42
-1.30322619
 10
44182.7256626
 20
-8703.13769976
 10
44174.96023477
 20
-8732.15737262
 42
1.30322619
 10
44191.05899594
 20
-8732.15737262
 10
44183.2935681
 20
-8703.13769976
 42
-1.30322619
 10
44199.39232927
 20
-8703.13769976
 10
44191.62690143
 20
-8732.15737262
 42
1.30322619
 10
44207.7256626
 20
-8732.15737262
 10
44199.96023477
 20
-8703.13769976
 42
-1.30322619
 10
44216.05899594
 20
-8703.13769976
 10
44208.2935681
 20
-8732.15737262
 42
1.30322619
 10
44224.39232927
 20
-8732.15737262
 10
44216.62690143
 20
-8703.13769976
 42
-1.30322619
 10
44232.7256626
 20
-8703.13769976
 10
44224.96023477
 20
-8732.15737262
 42
1.30322619
 10
44241.05899594
 20
-8732.15737262
 10
44233.2935681
 20
-8703.13769976
 42
-1.30322619
 10
44249.39232927
 20
-8703.13769976
 10
44241.62690143
 20
-8732.15737262
 42
1.30322619
 10
44257.7256626
 20
-8732.15737262
 10
44249.96023477
 20
-8703.13769976
 42
-1.30322619
 10
44266.05899594
 20
-8703.13769976
 10
44258.2935681
 20
-8732.15737262
 42
1.30322619
 10
44274.39232927
 20
-8732.15737262
 10
44266.62690143
 20
-8703.13769976
 42
-1.30322619
 10
44282.7256626
 20
-8703.13769976
 10
44274.96023477
 20
-8732.15737262
 42
1.30322619
 10
44291.05899594
 20
-8732.15737262
 10
44283.2935681
 20
-8703.13769976
 42
-1.30322619
 10
44299.39232927
 20
-8703.13769976
 10
44291.62690143
 20
-8732.15737262
 42
1.30322619
 10
44307.7256626
 20
-8732.15737262
 10
44299.96023477
 20
-8703.13769976
 42
-1.30322619
 10
44316.05899594
 20
-8703.13769976
 10
44308.2935681
 20
-8732.15737262
 42
1.30322619
 10
44324.39232927
 20
-8732.15737262
 10
44316.62690143
 20
-8703.13769976
 42
-1.30322619
 10
44332.7256626
 20
-8703.13769976
 10
44324.96023477
 20
-8732.15737262
 42
1.30322619
 10
44341.05899594
 20
-8732.15737262
 10
44333.2935681
 20
-8703.13769976
 42
-1.30322619
 10
44349.39232927
 20
-8703.13769976
 10
44341.62690143
 20
-8732.15737262
 42
1.30322619
 10
44357.7256626
 20
-8732.15737262
 10
44349.96023477
 20
-8703.13769976
 42
-1.30322619
 10
44366.05899594
 20
-8703.13769976
 10
44358.2935681
 20
-8732.15737262
 42
1.30322619
 10
44374.39232927
 20
-8732.15737262
 10
44366.62690143
 20
-8703.13769976
 42
-1.30322619
 10
44382.7256626
 20
-8703.13769976
 10
44374.96023477
 20
-8732.15737262
 42
1.30322619
 10
44391.05899594
 20
-8732.15737262
 10
44383.2935681
 20
-8703.13769976
 42
-1.30322619
 10
44399.39232927
 20
-8703.13769976
 10
44391.62690143
 20
-8732.15737262
 42
1.30322619
 10
44407.7256626
 20
-8732.15737262
 10
44399.96023477
 20
-8703.13769976
 42
-1.30322619
 10
44416.05899594
 20
-8703.13769976
 10
44408.2935681
 20
-8732.15737262
 42
1.30322619
 10
44424.39232927
 20
-8732.15737262
 10
44416.62690143
 20
-8703.13769976
 42
-1.30322619
 10
44432.7256626
 20
-8703.13769976
 10
44424.96023477
 20
-8732.15737262
 42
1.30322619
 10
44441.05899594
 20
-8732.15737262
 10
44433.2935681
 20
-8703.13769976
 42
-1.30322619
 10
44449.39232927
 20
-8703.13769976
 10
44441.62690143
 20
-8732.15737262
 42
1.30322619
 10
44457.7256626
 20
-8732.15737262
 10
44449.96023477
 20
-8703.13769976
 42
-1.30322619
 10
44466.05899594
 20
-8703.13769976
 10
44458.2935681
 20
-8732.15737262
 42
1.30322619
 10
44474.39232927
 20
-8732.15737262
 10
44466.62690143
 20
-8703.13769976
 42
-1.30322619
 10
44482.7256626
 20
-8703.13769976
 10
44474.96023477
 20
-8732.15737262
 42
1.30322619
 10
44491.05899594
 20
-8732.15737262
 10
44483.2935681
 20
-8703.13769976
 42
-1.30322619
 10
44499.39232927
 20
-8703.13769976
 10
44491.62690143
 20
-8732.15737262
 42
1.30322619
 10
44507.7256626
 20
-8732.15737262
 10
44499.96023477
 20
-8703.13769976
 42
-1.30322619
 10
44516.05899594
 20
-8703.13769976
 10
44508.2935681
 20
-8732.15737262
 42
1.30322619
 10
44524.39232927
 20
-8732.15737262
 10
44516.62690143
 20
-8703.13769976
 42
-1.30322619
 10
44532.7256626
 20
-8703.13769976
 10
44524.96023477
 20
-8732.15737262
 42
1.30322619
 10
44541.05899594
 20
-8732.15737262
 10
44533.2935681
 20
-8703.13769976
 42
-1.30322619
 10
44549.39232927
 20
-8703.13769976
 10
44541.62690143
 20
-8732.15737262
 42
1.30322619
 10
44557.7256626
 20
-8732.15737262
 10
44549.96023477
 20
-8703.13769976
 42
-1.30322619
 10
44566.05899594
 20
-8703.13769976
 10
44558.2935681
 20
-8732.15737262
 42
1.30322619
 10
44574.39232927
 20
-8732.15737262
 10
44566.62690143
 20
-8703.13769976
 42
-1.30322619
 10
44582.7256626
 20
-8703.13769976
 10
44574.96023477
 20
-8732.15737262
 42
1.30322619
 10
44591.05899594
 20
-8732.15737262
 10
44583.2935681
 20
-8703.13769976
 42
-1.30322619
 10
44599.39232927
 20
-8703.13769976
 10
44591.62690143
 20
-8732.15737262
 42
1.30322619
 10
44607.7256626
 20
-8732.15737262
 10
44599.96023477
 20
-8703.13769976
 42
-1.30322619
 10
44616.05899594
 20
-8703.13769976
 10
44608.2935681
 20
-8732.15737262
 42
1.30322619
 10
44624.39232927
 20
-8732.15737262
 10
44616.62690143
 20
-8703.13769976
 42
-1.30322619
 10
44632.7256626
 20
-8703.13769976
 10
44624.96023477
 20
-8732.15737262
 42
1.30322619
 10
44641.05899594
 20
-8732.15737262
 10
44633.2935681
 20
-8703.13769976
 42
-1.30322619
 10
44649.39232927
 20
-8703.13769976
 10
44641.62690143
 20
-8732.15737262
 42
1.30322619
 10
44657.7256626
 20
-8732.15737262
 10
44649.96023477
 20
-8703.13769976
 42
-1.30322619
 10
44666.05899594
 20
-8703.13769976
 10
44658.2935681
 20
-8732.15737262
 42
1.30322619
 10
44674.39232927
 20
-8732.15737262
 10
44666.62690143
 20
-8703.13769976
 42
-1.30322619
 10
44682.7256626
 20
-8703.13769976
 10
44674.96023477
 20
-8732.15737262
 42
1.30322619
 10
44691.05899594
 20
-8732.15737262
 10
44683.2935681
 20
-8703.13769976
 42
-1.30322619
 10
44699.39232927
 20
-8703.13769976
 10
44691.62690143
 20
-8732.15737262
 42
1.30322619
 10
44707.7256626
 20
-8732.15737262
 10
44699.96023477
 20
-8703.13769976
 42
-1.30322619
 10
44716.05899594
 20
-8703.13769976
 10
44708.2935681
 20
-8732.15737262
 42
1.30322619
 10
44724.39232927
 20
-8732.15737262
 10
44716.62690143
 20
-8703.13769976
 42
-1.30322619
 10
44732.7256626
 20
-8703.13769976
 10
44724.96023477
 20
-8732.15737262
 42
1.30322619
 10
44741.05899594
 20
-8732.15737262
 10
44733.2935681
 20
-8703.13769976
 42
-1.30322619
 10
44749.39232927
 20
-8703.13769976
 10
44741.62690143
 20
-8732.15737262
 42
1.30322619
 10
44757.7256626
 20
-8732.15737262
 10
44749.96023477
 20
-8703.13769976
 42
-1.30322619
 10
44766.05899594
 20
-8703.13769976
 10
44758.2935681
 20
-8732.15737262
 42
1.30322619
 10
44774.39232927
 20
-8732.15737262
 10
44766.62690143
 20
-8703.13769976
 42
-1.30322619
 10
44782.7256626
 20
-8703.13769976
 10
44774.96023477
 20
-8732.15737262
 42
1.30322619
 10
44791.05899594
 20
-8732.15737262
 10
44783.2935681
 20
-8703.13769976
 42
-1.30322619
 10
44799.39232927
 20
-8703.13769976
 10
44791.62690143
 20
-8732.15737262
 42
1.30322619
 10
44807.7256626
 20
-8732.15737262
 10
44799.96023477
 20
-8703.13769976
 42
-1.30322619
 10
44816.05899594
 20
-8703.13769976
 10
44808.2935681
 20
-8732.15737262
 42
1.30322619
 10
44824.39232927
 20
-8732.15737262
 10
44816.62690143
 20
-8703.13769976
 42
-1.30322619
 10
44832.7256626
 20
-8703.13769976
 10
44824.96023477
 20
-8732.15737262
 42
1.30322619
 10
44841.05899594
 20
-8732.15737262
 10
44833.2935681
 20
-8703.13769976
 42
-1.30322619
 10
44849.39232927
 20
-8703.13769976
 10
44841.62690143
 20
-8732.15737262
 42
1.30322619
 10
44857.7256626
 20
-8732.15737262
 10
44849.96023477
 20
-8703.13769976
 42
-1.30322619
 10
44866.05899594
 20
-8703.13769976
 10
44858.2935681
 20
-8732.15737262
 42
1.30322619
 10
44874.39232927
 20
-8732.15737262
 10
44866.62690143
 20
-8703.13769976
 42
-1.30322619
 10
44882.7256626
 20
-8703.13769976
 10
44874.96023477
 20
-8732.15737262
 42
1.30322619
 10
44891.05899594
 20
-8732.15737262
 10
44883.2935681
 20
-8703.13769976
 42
-1.30322619
 10
44899.39232927
 20
-8703.13769976
 10
44891.62690143
 20
-8732.15737262
 42
1.30322619
 10
44907.7256626
 20
-8732.15737262
 10
44899.96023477
 20
-8703.13769976
 42
-1.30322619
 10
44916.05899594
 20
-8703.13769976
 10
44908.2935681
 20
-8732.15737262
 42
1.30322619
 10
44924.39232927
 20
-8732.15737262
 10
44916.62690143
 20
-8703.13769976
 42
-1.30322619
 10
44932.7256626
 20
-8703.13769976
 10
44924.96023477
 20
-8732.15737262
 42
1.30322619
 10
44941.05899594
 20
-8732.15737262
 10
44933.2935681
 20
-8703.13769976
 42
-1.30322619
 10
44949.39232927
 20
-8703.13769976
 10
44941.62690143
 20
-8732.15737262
 42
1.30322619
 10
44957.7256626
 20
-8732.15737262
 10
44949.96023477
 20
-8703.13769976
 42
-1.30322619
 10
44966.05899594
 20
-8703.13769976
 10
44958.2935681
 20
-8732.15737262
 42
1.30322619
 10
44974.39232927
 20
-8732.15737262
 10
44966.62690143
 20
-8703.13769976
 42
-1.30322619
 10
44982.7256626
 20
-8703.13769976
 10
44974.96023477
 20
-8732.15737262
 42
1.30322619
 10
44991.05899594
 20
-8732.15737262
 10
44983.2935681
 20
-8703.13769976
 42
-1.30322619
 10
44999.39232927
 20
-8703.13769976
 10
44991.62690143
 20
-8732.15737262
 42
1.30322619
 10
45007.7256626
 20
-8732.15737262
 10
44999.96023477
 20
-8703.13769976
 42
-1.30322619
 10
45016.05899594
 20
-8703.13769976
 10
45008.2935681
 20
-8732.15737262
 42
1.30322619
 10
45024.39232927
 20
-8732.15737262
 10
45016.62690143
 20
-8703.13769976
 42
-1.30322619
 10
45032.7256626
 20
-8703.13769976
 10
45024.96023477
 20
-8732.15737262
 42
1.30322619
 10
45041.05899594
 20
-8732.15737262
 10
45033.2935681
 20
-8703.13769976
 42
-1.30322619
 10
45049.39232927
 20
-8703.13769976
 10
45041.62690143
 20
-8732.15737262
 42
1.30322619
 10
45057.7256626
 20
-8732.15737262
 10
45049.96023477
 20
-8703.13769976
 42
-1.30322619
 10
45066.05899594
 20
-8703.13769976
 10
45058.2935681
 20
-8732.15737262
 42
1.30322619
 10
45074.39232927
 20
-8732.15737262
 10
45066.62690143
 20
-8703.13769976
 42
-1.30322619
 10
45082.7256626
 20
-8703.13769976
 10
45074.96023477
 20
-8732.15737262
 42
1.30322619
 10
45091.05899594
 20
-8732.15737262
 10
45083.2935681
 20
-8703.13769976
 42
-1.30322619
 10
45099.39232927
 20
-8703.13769976
 10
45091.62690143
 20
-8732.15737262
 42
1.30322619
 10
45107.7256626
 20
-8732.15737262
 10
45099.96023477
 20
-8703.13769976
 42
-1.30322619
 10
45116.05899594
 20
-8703.13769976
 10
45108.2935681
 20
-8732.15737262
 42
1.30322619
 10
45124.39232927
 20
-8732.15737262
 10
45116.62690143
 20
-8703.13769976
 42
-1.30322619
 10
45132.7256626
 20
-8703.13769976
 10
45124.96023477
 20
-8732.15737262
 42
1.30322619
 10
45141.05899594
 20
-8732.15737262
 10
45133.2935681
 20
-8703.13769976
 42
-1.30322619
 10
45149.39232927
 20
-8703.13769976
 10
45141.62690143
 20
-8732.15737262
 42
1.30322619
 10
45157.7256626
 20
-8732.15737262
 10
45149.96023477
 20
-8703.13769976
 42
-1.30322619
 10
45166.05899594
 20
-8703.13769976
 10
45158.2935681
 20
-8732.15737262
 42
1.30322619
 10
45174.39232927
 20
-8732.15737262
 10
45166.62690143
 20
-8703.13769976
 42
-1.30322619
 10
45182.7256626
 20
-8703.13769976
 10
45174.96023477
 20
-8732.15737262
 42
1.30322619
 10
45191.05899594
 20
-8732.15737262
 10
45183.2935681
 20
-8703.13769976
 42
-1.30322619
 10
45199.39232927
 20
-8703.13769976
 10
45191.62690143
 20
-8732.15737262
 42
1.30322619
 10
45207.7256626
 20
-8732.15737262
 10
45199.96023477
 20
-8703.13769976
 42
-1.30322619
 10
45216.05899594
 20
-8703.13769976
 10
45208.2935681
 20
-8732.15737262
 42
1.30322619
 10
45224.39232927
 20
-8732.15737262
 10
45216.62690143
 20
-8703.13769976
 42
-1.30322619
 10
45232.7256626
 20
-8703.13769976
 10
45224.96023477
 20
-8732.15737262
 42
1.30322619
 10
45241.05899594
 20
-8732.15737262
 10
45233.2935681
 20
-8703.13769976
 42
-1.30322619
 10
45249.39232927
 20
-8703.13769976
 10
45241.62690143
 20
-8732.15737262
 42
1.06788569
 10
45257.93872091
 20
-8735.39889086
  0
LWPOLYLINE
  5
638
102
{ACAD_REACTORS
330
639
102
}
100
AcDbEntity
  8
Ech.1_5
 62
     7
  6
CONTINUOUS
370
     5
100
AcDbPolyline
 90
        4
 70
     1
 43
0.0
 10
44019.66276343
 20
-9357.85887783
 10
44045.48729452
 20
-9357.85887783
 10
44045.48729452
 20
-9348.42621773
 10
44019.66276343
 20
-9348.42621773
  0
HATCH
  5
639
100
AcDbEntity
  8
Ech.1_5
 62
     2
  6
CONTINUOUS
100
AcDbHatch
 10
0.0
 20
0.0
 30
0.0
210
0.0
220
0.0
230
1.0
  2
SOLID
 70
     1
 71
     1
 91
        1
 92
        7
 72
     0
 73
     1
 93
        4
 10
44019.66276343
 20
-9357.85887783
 10
44045.48729452
 20
-9357.85887783
 10
44045.48729452
 20
-9348.42621773
 10
44019.66276343
 20
-9348.42621773
 97
        1
330
638
 75
     0
 76
     2
 47
0.775229
 98
        1
 10
0.0
 20
0.0
  0
HATCH
  5
63A
100
AcDbEntity
  8
Ech.1_5
 62
     7
100
AcDbHatch
 10
0.0
 20
0.0
 30
0.0
210
0.0
220
0.0
230
1.0
  2
ANSI37
 70
     0
 71
     0
 91
        1
 92
        7
 72
     0
 73
     1
 93
        4
 10
44019.66276343
 20
-9357.85887783
 10
44045.48729452
 20
-9357.85887783
 10
44045.48729452
 20
-9348.42621773
 10
44019.66276343
 20
-9348.42621773
 97
        0
 75
     0
 76
     2
 52
0.0
 41
1.87498831
 77
     0
 78
     2
 53
45.0
 43
0.0
 44
0.0
 45
4.20946876
 46
-4.20946876
 79
     0
 53
-45.0
 43
0.0
 44
0.0
 45
4.20946876
 46
4.20946876
 79
     0
 47
0.775229
 98
        1
 10
0.0
 20
0.0
  0
LWPOLYLINE
  5
63B
100
AcDbEntity
  8
Ech.1_5
 62
   190
  6
CONTINUOUS
370
    -3
100
AcDbPolyline
 90
        5
 70
     0
 43
0.0
 10
45335.41595863
 20
-9505.54380265
 10
45335.41595863
 20
-8520.54380265
 10
43980.41595863
 20
-8520.54380265
 10
43980.41595863
 20
-9505.54380265
 10
45335.41595863
 20
-9505.54380265
  0
LWPOLYLINE
  5
63C
100
AcDbEntity
  8
Ech.1_5
 62
   190
  6
CONTINUOUS
370
    -3
100
AcDbPolyline
 90
      196
 70
     0
 43
0.0
 10
44857.41163861
 20
-8967.64753619
 42
1.14028181
 10
44847.58201026
 20
-8968.94163433
 10
44852.24126696
 20
-8986.35343805
 42
-1.30322619
 10
44842.58201026
 20
-8986.35343805
 10
44847.24126696
 20
-8968.94163433
 42
1.30322619
 10
44837.58201026
 20
-8968.94163433
 10
44842.24126696
 20
-8986.35343805
 42
-1.30322619
 10
44832.58201026
 20
-8986.35343805
 10
44837.24126696
 20
-8968.94163433
 42
1.30322619
 10
44827.58201026
 20
-8968.94163433
 10
44832.24126696
 20
-8986.35343805
 42
-1.30322619
 10
44822.58201026
 20
-8986.35343805
 10
44827.24126696
 20
-8968.94163433
 42
1.30322619
 10
44817.58201026
 20
-8968.94163433
 10
44822.24126696
 20
-8986.35343805
 42
-1.30322619
 10
44812.58201026
 20
-8986.35343805
 10
44817.24126696
 20
-8968.94163433
 42
1.30322619
 10
44807.58201026
 20
-8968.94163433
 10
44812.24126696
 20
-8986.35343805
 42
-1.30322619
 10
44802.58201026
 20
-8986.35343805
 10
44807.24126696
 20
-8968.94163433
 42
1.30322619
 10
44797.58201026
 20
-8968.94163433
 10
44802.24126696
 20
-8986.35343805
 42
-1.30322619
 10
44792.58201026
 20
-8986.35343805
 10
44797.24126696
 20
-8968.94163433
 42
1.30322619
 10
44787.58201026
 20
-8968.94163433
 10
44792.24126696
 20
-8986.35343805
 42
-1.30322619
 10
44782.58201026
 20
-8986.35343805
 10
44787.24126696
 20
-8968.94163433
 42
1.30322619
 10
44777.58201026
 20
-8968.94163433
 10
44782.24126696
 20
-8986.35343805
 42
-1.30322619
 10
44772.58201026
 20
-8986.35343805
 10
44777.24126696
 20
-8968.94163433
 42
1.30322619
 10
44767.58201026
 20
-8968.94163433
 10
44772.24126696
 20
-8986.35343805
 42
-1.30322619
 10
44762.58201026
 20
-8986.35343805
 10
44767.24126696
 20
-8968.94163433
 42
1.30322619
 10
44757.58201026
 20
-8968.94163433
 10
44762.24126696
 20
-8986.35343805
 42
-1.30322619
 10
44752.58201026
 20
-8986.35343805
 10
44757.24126696
 20
-8968.94163433
 42
1.30322619
 10
44747.58201026
 20
-8968.94163433
 10
44752.24126696
 20
-8986.35343805
 42
-1.30322619
 10
44742.58201026
 20
-8986.35343805
 10
44747.24126696
 20
-8968.94163433
 42
1.30322619
 10
44737.58201026
 20
-8968.94163433
 10
44742.24126696
 20
-8986.35343805
 42
-1.30322619
 10
44732.58201026
 20
-8986.35343805
 10
44737.24126696
 20
-8968.94163433
 42
1.30322619
 10
44727.58201026
 20
-8968.94163433
 10
44732.24126696
 20
-8986.35343805
 42
-1.30322619
 10
44722.58201026
 20
-8986.35343805
 10
44727.24126696
 20
-8968.94163433
 42
1.30322619
 10
44717.58201026
 20
-8968.94163433
 10
44722.24126696
 20
-8986.35343805
 42
-1.30322619
 10
44712.58201026
 20
-8986.35343805
 10
44717.24126696
 20
-8968.94163433
 42
1.30322619
 10
44707.58201026
 20
-8968.94163433
 10
44712.24126696
 20
-8986.35343805
 42
-1.30322619
 10
44702.58201026
 20
-8986.35343805
 10
44707.24126696
 20
-8968.94163433
 42
1.30322619
 10
44697.58201026
 20
-8968.94163433
 10
44702.24126696
 20
-8986.35343805
 42
-1.30322619
 10
44692.58201026
 20
-8986.35343805
 10
44697.24126696
 20
-8968.94163433
 42
1.30322619
 10
44687.58201026
 20
-8968.94163433
 10
44692.24126696
 20
-8986.35343805
 42
-1.30322619
 10
44682.58201026
 20
-8986.35343805
 10
44687.24126696
 20
-8968.94163433
 42
1.30322619
 10
44677.58201026
 20
-8968.94163433
 10
44682.24126696
 20
-8986.35343805
 42
-1.30322619
 10
44672.58201026
 20
-8986.35343805
 10
44677.24126696
 20
-8968.94163433
 42
1.30322619
 10
44667.58201026
 20
-8968.94163433
 10
44672.24126696
 20
-8986.35343805
 42
-1.30322619
 10
44662.58201026
 20
-8986.35343805
 10
44667.24126696
 20
-8968.94163433
 42
1.30322619
 10
44657.58201026
 20
-8968.94163433
 10
44662.24126696
 20
-8986.35343805
 42
-1.30322619
 10
44652.58201026
 20
-8986.35343805
 10
44657.24126696
 20
-8968.94163433
 42
1.30322619
 10
44647.58201026
 20
-8968.94163433
 10
44652.24126696
 20
-8986.35343805
 42
-1.30322619
 10
44642.58201026
 20
-8986.35343805
 10
44647.24126696
 20
-8968.94163433
 42
1.30322619
 10
44637.58201026
 20
-8968.94163433
 10
44642.24126696
 20
-8986.35343805
 42
-1.30322619
 10
44632.58201026
 20
-8986.35343805
 10
44637.24126696
 20
-8968.94163433
 42
1.30322619
 10
44627.58201026
 20
-8968.94163433
 10
44632.24126696
 20
-8986.35343805
 42
-1.30322619
 10
44622.58201026
 20
-8986.35343805
 10
44627.24126696
 20
-8968.94163433
 42
1.30322619
 10
44617.58201026
 20
-8968.94163433
 10
44622.24126696
 20
-8986.35343805
 42
-1.30322619
 10
44612.58201026
 20
-8986.35343805
 10
44617.24126696
 20
-8968.94163433
 42
1.30322619
 10
44607.58201026
 20
-8968.94163433
 10
44612.24126696
 20
-8986.35343805
 42
-1.30322619
 10
44602.58201026
 20
-8986.35343805
 10
44607.24126696
 20
-8968.94163433
 42
1.30322619
 10
44597.58201026
 20
-8968.94163433
 10
44602.24126696
 20
-8986.35343805
 42
-1.30322619
 10
44592.58201026
 20
-8986.35343805
 10
44597.24126696
 20
-8968.94163433
 42
1.30322619
 10
44587.58201026
 20
-8968.94163433
 10
44592.24126696
 20
-8986.35343805
 42
-1.30322619
 10
44582.58201026
 20
-8986.35343805
 10
44587.24126696
 20
-8968.94163433
 42
1.30322619
 10
44577.58201026
 20
-8968.94163433
 10
44582.24126696
 20
-8986.35343805
 42
-1.30322619
 10
44572.58201026
 20
-8986.35343805
 10
44577.24126696
 20
-8968.94163433
 42
1.30322619
 10
44567.58201026
 20
-8968.94163433
 10
44572.24126696
 20
-8986.35343805
 42
-1.30322619
 10
44562.58201026
 20
-8986.35343805
 10
44567.24126696
 20
-8968.94163433
 42
1.30322619
 10
44557.58201026
 20
-8968.94163433
 10
44562.24126696
 20
-8986.35343805
 42
-1.30322619
 10
44552.58201026
 20
-8986.35343805
 10
44557.24126696
 20
-8968.94163433
 42
1.30322619
 10
44547.58201026
 20
-8968.94163433
 10
44552.24126696
 20
-8986.35343805
 42
-1.30322619
 10
44542.58201026
 20
-8986.35343805
 10
44547.24126696
 20
-8968.94163433
 42
1.30322619
 10
44537.58201026
 20
-8968.94163433
 10
44542.24126696
 20
-8986.35343805
 42
-1.30322619
 10
44532.58201026
 20
-8986.35343805
 10
44537.24126696
 20
-8968.94163433
 42
1.30322619
 10
44527.58201026
 20
-8968.94163433
 10
44532.24126696
 20
-8986.35343805
 42
-1.30322619
 10
44522.58201026
 20
-8986.35343805
 10
44527.24126696
 20
-8968.94163433
 42
1.30322619
 10
44517.58201026
 20
-8968.94163433
 10
44522.24126696
 20
-8986.35343805
 42
-1.30322619
 10
44512.58201026
 20
-8986.35343805
 10
44517.24126696
 20
-8968.94163433
 42
1.30322619
 10
44507.58201026
 20
-8968.94163433
 10
44512.24126696
 20
-8986.35343805
 42
-1.30322619
 10
44502.58201026
 20
-8986.35343805
 10
44507.24126696
 20
-8968.94163433
 42
1.30322619
 10
44497.58201026
 20
-8968.94163433
 10
44502.24126696
 20
-8986.35343805
 42
-1.30322619
 10
44492.58201026
 20
-8986.35343805
 10
44497.24126696
 20
-8968.94163433
 42
1.30322619
 10
44487.58201026
 20
-8968.94163433
 10
44492.24126696
 20
-8986.35343805
 42
-1.30322619
 10
44482.58201026
 20
-8986.35343805
 10
44487.24126696
 20
-8968.94163433
 42
1.30322619
 10
44477.58201026
 20
-8968.94163433
 10
44482.24126696
 20
-8986.35343805
 42
-1.30322619
 10
44472.58201026
 20
-8986.35343805
 10
44477.24126696
 20
-8968.94163433
 42
1.30322619
 10
44467.58201026
 20
-8968.94163433
 10
44472.24126696
 20
-8986.35343805
 42
-1.30322619
 10
44462.58201026
 20
-8986.35343805
 10
44467.24126696
 20
-8968.94163433
 42
1.30322619
 10
44457.58201026
 20
-8968.94163433
 10
44462.24126696
 20
-8986.35343805
 42
-1.30322619
 10
44452.58201026
 20
-8986.35343805
 10
44457.24126696
 20
-8968.94163433
 42
1.30322619
 10
44447.58201026
 20
-8968.94163433
 10
44452.24126696
 20
-8986.35343805
 42
-1.30322619
 10
44442.58201026
 20
-8986.35343805
 10
44447.24126696
 20
-8968.94163433
 42
1.30322619
 10
44437.58201026
 20
-8968.94163433
 10
44442.24126696
 20
-8986.35343805
 42
-1.30322619
 10
44432.58201026
 20
-8986.35343805
 10
44437.24126696
 20
-8968.94163433
 42
1.30322619
 10
44427.58201026
 20
-8968.94163433
 10
44432.24126696
 20
-8986.35343805
 42
-1.30322619
 10
44422.58201026
 20
-8986.35343805
 10
44427.24126696
 20
-8968.94163433
 42
1.30322619
 10
44417.58201026
 20
-8968.94163433
 10
44422.24126696
 20
-8986.35343805
 42
-1.30322619
 10
44412.58201026
 20
-8986.35343805
 10
44417.24126696
 20
-8968.94163433
 42
1.30322619
 10
44407.58201026
 20
-8968.94163433
 10
44412.24126696
 20
-8986.35343805
 42
-1.30322619
 10
44402.58201026
 20
-8986.35343805
 10
44407.24126696
 20
-8968.94163433
 42
1.30322619
 10
44397.58201026
 20
-8968.94163433
 10
44402.24126696
 20
-8986.35343805
 42
-1.30322619
 10
44392.58201026
 20
-8986.35343805
 10
44397.24126696
 20
-8968.94163433
 42
1.30322619
 10
44387.58201026
 20
-8968.94163433
 10
44392.24126696
 20
-8986.35343805
 42
-1.30322619
 10
44382.58201026
 20
-8986.35343805
 10
44387.24126696
 20
-8968.94163433
 42
1.30322619
 10
44377.58201026
 20
-8968.94163433
 10
44382.24126696
 20
-8986.35343805
 42
-1.30322619
 10
44372.58201026
 20
-8986.35343805
 10
44377.24126696
 20
-8968.94163433
 42
1.30322619
 10
44367.58201026
 20
-8968.94163433
 10
44372.24126696
 20
-8986.35343805
 42
-0.89689003
 10
44362.97439357
 20
-8989.95206575
  0
LWPOLYLINE
  5
63D
100
AcDbEntity
  8
Ech.1_5
 62
   190
  6
CONTINUOUS
370
    -3
100
AcDbPolyline
 90
        6
 70
     0
 43
0.0
 10
45257.93872091
 20
-8620.81458121
 10
45257.94035046
 20
-9039.71314469
 10
45275.91769886
 20
-9056.19864789
 10
45239.96199885
 20
-9042.08870784
 10
45257.94035046
 20
-9058.57506219
 10
45257.93956472
 20
-9262.64753619
  0
LWPOLYLINE
  5
63E
100
AcDbEntity
  8
Ech.1_5
 62
   190
  6
CONTINUOUS
370
    -3
100
AcDbPolyline
 90
        6
 70
     0
 43
0.0
 10
44058.01026888
 20
-9262.64753619
 10
44058.00879307
 20
-9110.21403256
 10
44040.03144466
 20
-9093.72852937
 10
44075.98714467
 20
-9107.83846942
 10
44058.00879307
 20
-9091.35211554
 10
44058.00961535
 20
-8620.81458121
  0
HATCH
  5
63F
100
AcDbEntity
  8
Ech.1_5
 62
     7
100
AcDbHatch
 10
0.0
 20
0.0
 30
0.0
210
0.0
220
0.0
230
1.0
  2
ANSI37
 70
     0
 71
     0
 91
        1
 92
        7
 72
     0
 73
     1
 93
        4
 10
44615.01405596
 20
-9027.45869336
 10
44615.01405596
 20
-9014.08117288
 10
44605.5813959
 20
-9014.08117288
 10
44605.5813959
 20
-9027.45869336
 97
        0
 75
     0
 76
     2
 52
0.0
 41
1.25984256
 77
     0
 78
     2
 53
45.0
 43
0.0
 44
0.0
 45
2.82842717
 46
-2.82842717
 79
     0
 53
-45.0
 43
0.0
 44
0.0
 45
2.82842717
 46
2.82842717
 79
     0
 47
0.775229
 98
        1
 10
0.0
 20
0.0
  0
HATCH
  5
640
100
AcDbEntity
  8
Ech.1_5
 62
     7
100
AcDbHatch
 10
0.0
 20
0.0
 30
0.0
210
0.0
220
0.0
230
1.0
  2
ANSI37
 70
     0
 71
     0
 91
        1
 92
        7
 72
     0
 73
     1
 93
        4
 10
44660.31763189
 20
-9114.06582718
 10
44660.31763189
 20
-9100.68830671
 10
44650.88497182
 20
-9100.68830671
 10
44650.88497182
 20
-9114.06582718
 97
        0
 75
     0
 76
     2
 52
0.0
 41
1.25984256
 77
     0
 78
     2
 53
45.0
 43
0.0
 44
0.0
 45
2.82842717
 46
-2.82842717
 79
     0
 53
-45.0
 43
0.0
 44
0.0
 45
2.82842717
 46
2.82842717
 79
     0
 47
0.775229
 98
        1
 10
0.0
 20
0.0
  0
LWPOLYLINE
  5
641
100
AcDbEntity
  8
Ech.1_5
 62
   190
100
AcDbPolyline
 90
        5
 70
     0
 43
0.0
 10
44055.42081946
 20
-9397.17769838
 10
44189.84959845
 20
-9397.17769838
 10
44189.84959845
 20
-9453.90065719
 10
44055.42081946
 20
-9453.90065719
 10
44055.42081946
 20
-9397.17769838
  0
HATCH
  5
642
100
AcDbEntity
  8
Ech.1_5
 62
   190
100
AcDbHatch
 10
0.0
 20
0.0
 30
0.0
210
0.0
220
0.0
230
1.0
  2
SOLID
 70
     1
 71
     0
 91
        1
 92
        7
 72
     0
 73
     1
 93
        4
 10
44073.70086525
 20
-9430.83450951
 10
44123.70086525
 20
-9430.83450951
 10
44123.70086525
 20
-9423.41937198
 10
44073.70086525
 20
-9423.41937198
 97
        0
 75
     0
 76
     2
 47
0.775229
 98
        1
 10
0.0
 20
0.0
  0
LWPOLYLINE
  5
643
100
AcDbEntity
  8
Ech.1_5
 62
   190
100
AcDbPolyline
 90
        5
 70
     0
 43
0.0
 10
44073.70086525
 20
-9430.83450951
 10
44123.70086525
 20
-9430.83450951
 10
44123.70086525
 20
-9423.41937198
 10
44073.70086525
 20
-9423.41937198
 10
44073.70086525
 20
-9430.83450951
  0
LWPOLYLINE
  5
644
100
AcDbEntity
  8
Ech.1_5
 62
   190
100
AcDbPolyline
 90
        5
 70
     0
 43
0.0
 10
44123.70086525
 20
-9430.83450951
 10
44173.70086525
 20
-9430.83450951
 10
44173.70086525
 20
-9423.41937198
 10
44123.70086525
 20
-9423.41937198
 10
44123.70086525
 20
-9430.83450951
  0
TEXT
  5
645
100
AcDbEntity
  8
Ech.1_5
 62
   190
100
AcDbText
 10
44084.99515787
 20
-9413.83336889
 30
0.0
 40
8.00000012
  1
Echelle en mm
  7
ARIAL
 50
0.0
 41
1.0
 51
0.0
100
AcDbText
  0
TEXT
  5
646
100
AcDbEntity
  8
Ech.1_5
 62
   190
100
AcDbText
 10
44071.01457312
 20
-9442.04320442
 30
0.0
 40
8.00000012
  1
0
  7
ARIAL
 50
0.0
 41
1.0
 51
0.0
100
AcDbText
  0
TEXT
  5
647
100
AcDbEntity
  8
Ech.1_5
 62
   190
100
AcDbText
 10
44157.61163102
 20
-9442.04320442
 30
0.0
 40
8.00000012
  1
100
  7
ARIAL
 50
0.0
 41
1.0
 51
0.0
100
AcDbText
  0
TEXT
  5
648
100
AcDbEntity
  8
Ech.1_5
 62
   190
100
AcDbText
 10
44118.87119945
 20
-9442.04320442
 30
0.0
 40
8.00000012
  1
50
  7
ARIAL
 50
0.0
 41
1.0
 51
0.0
100
AcDbText
  0
ENDSEC
  0
SECTION
  2
OBJECTS
  0
DICTIONARY
  5
1
100
AcDbDictionary
  3
ACAD_GROUP
350
2
  3
ACAD_MLINESTYLE
350
3
  0
DICTIONARY
  5
2
102
{CDWK_REACTORS
330
1
102
}
100
AcDbDictionary
  0
DICTIONARY
  5
3
102
{CDWK_REACTORS
330
1
102
}
100
AcDbDictionary
  3
STANDARD
350
4
  0
MLINESTYLE
  5
4
102
{CDWK_REACTORS
330
3
102
}
100
AcDbMlineStyle
  2
STANDARD
 70
     0
  3

 62
     0
 51
90.0
 52
90.0
 71
     2
 49
0.5
 62
   256
  6
BYLAYER
 49
-0.5
 62
   256
  6
BYLAYER
  0
ENDSEC
  0
EOF
