  0
SECTION
  2
HEADER
  9
$ACADVER
  1
AC1014
  9
$DWGCODEPAGE
  3
ANSI_1252
  9
$INSBASE
 10
0.0
 20
0.0
 30
0.0
  9
$EXTMIN
 10
1033.98771282
 20
-21718.34332712
  9
$EXTMAX
 10
122326.07664696
 20
2240.3362527
  9
$LIMMIN
 10
1033.98771282
 20
-21718.34332712
  9
$LIMMAX
 10
122326.07664696
 20
2240.3362527
  9
$ORTHOMODE
 70
     0
  9
$REGENMODE
 70
     1
  9
$FILLMODE
 70
     1
  9
$QTEXTMODE
 70
     0
  9
$MIRRTEXT
 70
     1
  9
$DRAGMODE
 70
     2
  9
$LTSCALE
 40
5.0
  9
$OSMODE
 70
     0
  9
$ATTMODE
 70
     1
  9
$TEXTSIZE
 40
3.5
  9
$TRACEWID
 40
1.0
  9
$TEXTSTYLE
  7
STANDARD
  9
$CLAYER
  8
0
  9
$CELTYPE
  6
BYLAYER
  9
$CECOLOR
 62
   256
  9
$DIMSCALE
 40
1.0
  9
$DIMASZ
 40
2.0
  9
$DIMEXO
 40
5.0
  9
$DIMDLI
 40
10.0
  9
$DIMRND
 40
0.0
  9
$DIMDLE
 40
2.0
  9
$DIMEXE
 40
2.0
  9
$DIMTP
 40
0.0
  9
$DIMTM
 40
0.0
  9
$DIMTXT
 40
2.5
  9
$DIMCEN
 40
1.5
  9
$DIMTSZ
 40
0.0
  9
$DIMTOL
 70
     0
  9
$DIMLIM
 70
     0
  9
$DIMTIH
 70
     1
  9
$DIMTOH
 70
     0
  9
$DIMSE1
 70
     0
  9
$DIMSE2
 70
     0
  9
$DIMTAD
 70
     1
  9
$DIMZIN
 70
     8
  9
$DIMBLK
  1

  9
$DIMASO
 70
     1
  9
$DIMSHO
 70
     1
  9
$DIMPOST
  1

  9
$DIMAPOST
  1

  9
$DIMALT
 70
     0
  9
$DIMALTD
 70
     2
  9
$DIMALTF
 40
25.4
  9
$DIMLFAC
 40
1.0
  9
$DIMTOFL
 70
     0
  9
$DIMTVP
 40
0.0
  9
$DIMTIX
 70
     0
  9
$DIMSOXD
 70
     0
  9
$DIMSAH
 70
     0
  9
$DIMBLK1
  1

  9
$DIMBLK2
  1

  9
$DIMSTYLE
  2
*UNNAMED
  9
$DIMCLRD
 70
   190
  9
$DIMCLRE
 70
   190
  9
$DIMCLRT
 70
   190
  9
$DIMTFAC
 40
1.0
  9
$DIMGAP
 40
0.09
  9
$DIMUNIT
 70
     2
  9
$LUNITS
 70
     2
  9
$LUPREC
 70
     6
  9
$AXISMODE
 70
     0
  9
$AXISUNIT
 10
0.0
 20
0.0
  9
$SKETCHINC
 40
0.1
  9
$FILLETRAD
 40
0.0
  9
$AUNITS
 70
     0
  9
$AUPREC
 70
     0
  9
$MENU
  1
ACAD
  9
$ELEVATION
 40
0.0
  9
$PELEVATION
 40
0.0
  9
$THICKNESS
 40
0.0
  9
$LIMCHECK
 70
     0
  9
$BLIPMODE
 70
     1
  9
$CHAMFERA
 40
0.0
  9
$CHAMFERB
 40
0.0
  9
$SKPOLY
 70
     1
  9
$TDCREATE
 40
2457808.0000000000
  9
$TDUPDATE
 40
2457808.0000000000
  9
$TDINDWG
 40
0.0
  9
$TDUSRTIMER
 40
0.0
  9
$USRTIMER
 70
     1
  9
$ANGBASE
 50
0.0
  9
$ANGDIR
 70
     0
  9
$PDMODE
 70
     0
  9
$PDSIZE
 40
0.0
  9
$PLINEWID
 40
0.0
  9
$COORDS
 70
     2
  9
$SPLFRAME
 70
     0
  9
$SPLINETYPE
 70
     6
  9
$SPLINESEGS
 70
     8
  9
$ATTDIA
 70
     1
  9
$ATTREQ
 70
     1
  9
$HANDLING
 70
     1
  9
$HANDSEED
  5
     640
  9
$SURFTAB1
 70
     6
  9
$SURFTAB2
 70
     6
  9
$SURFTYPE
 70
     6
  9
$SURFU
 70
     6
  9
$SURFV
 70
     6
  9
$UCSNAME
  2

  9
$UCSORG
 10
0.0
 20
0.0
 30
0.0
  9
$UCSXDIR
 10
1.0
 20
0.0
 30
0.0
  9
$UCSYDIR
 10
0.0
 20
1.0
 30
0.0
  9
$PUCSNAME
  2

  9
$PUCSORG
 10
0.0
 20
0.0
 30
0.0
  9
$PUCSXDIR
 10
1.0
 20
0.0
 30
0.0
  9
$PUCSYDIR
 10
0.0
 20
1.0
 30
0.0
  9
$USERI1
 70
     0
  9
$USERI2
 70
     0
  9
$USERI3
 70
     0
  9
$USERI4
 70
     0
  9
$USERI5
 70
     0
  9
$USERR1
 40
0.0
  9
$USERR2
 40
0.0
  9
$USERR3
 40
0.0
  9
$USERR4
 40
0.0
  9
$USERR5
 40
0.0
  9
$WORLDVIEW
 70
     1
  9
$SHADEDGE
 70
     3
  9
$SHADEDIF
 70
    70
  9
$TILEMODE
 70
     1
  9
$MAXACTVP
 70
    16
  9
$PINSBASE
 10
0.0
 20
0.0
 30
0.0
  9
$PLIMCHECK
 70
     0
  9
$PEXTMIN
 10
1.0000000000000E+20
 20
1.0000000000000E+20
 30
1.0000000000000E+20
  9
$PEXTMAX
 10
-1.0000000000000E+20
 20
-1.0000000000000E+20
 30
-1.0000000000000E+20
  9
$PLIMMIN
 10
0.0
 20
0.0
  9
$UNITMODE
 70
     0
  9
$VISRETAIN
 70
     0
  9
$MEASUREMENT
 70
     1
  0
ENDSEC
  0
SECTION
  2
TABLES
  0
TABLE
  2
VPORT
  5
4A2
100
AcDbSymbolTable
 70
     1
  0
ENDTAB
  0
TABLE
  2
STYLE
  5
4A3
100
AcDbSymbolTable
 70
     3
  0
STYLE
  5
4A4
100
AcDbSymbolTableRecord
100
AcDbTextStyleTableRecord
  2
STANDARD
 70
     0
 40
0.0
 41
1.0
 50
0.0
 71
     0
 42
3.5
  3
MONOTXT
  4

  0
STYLE
  5
4A5
100
AcDbSymbolTableRecord
100
AcDbTextStyleTableRecord
  2
SYMAP
 70
     0
 40
0.0
 41
1.0
 50
0.0
 71
     0
 42
3.5
  3
SYMAP
  4

  0
STYLE
  5
4A6
100
AcDbSymbolTableRecord
100
AcDbTextStyleTableRecord
  2
CADWORK1
 70
     0
 40
0.0
 41
1.0
 50
0.0
 71
     0
 42
3.5
  3
MONOTXT
  4

  0
STYLE
  5
4A7
100
AcDbSymbolTableRecord
100
AcDbTextStyleTableRecord
  2
MONOTXT
 70
     0
 40
0.0
 41
1.0
 50
0.0
 71
     0
 42
3.5
  3
MONOTXT
  4

  0
STYLE
  5
4A8
100
AcDbSymbolTableRecord
100
AcDbTextStyleTableRecord
  2
ARIAL
 70
     0
 40
0.0
 41
1.0
 50
0.0
 71
     0
 42
3.5
  3

  4

1001
ACAD
1000
Arial
1071
        0
  0
ENDTAB
  0
TABLE
  2
LTYPE
  5
4A9
100
AcDbSymbolTable
 70
    15
  0
LTYPE
  5
4AA
100
AcDbSymbolTableRecord
100
AcDbLinetypeTableRecord
  2
BYBLOCK
 70
    64
  3

 72
    65
 73
     0
 40
0.0
  0
LTYPE
  5
4AB
100
AcDbSymbolTableRecord
100
AcDbLinetypeTableRecord
  2
BYLAYER
 70
    64
  3

 72
    65
 73
     0
 40
0.0
  0
LTYPE
  5
4AC
100
AcDbSymbolTableRecord
100
AcDbLinetypeTableRecord
  2
CONTINUOUS
 70
    64
  3
Solid line
 72
    65
 73
     0
 40
0.0
  0
LTYPE
  5
4AD
100
AcDbSymbolTableRecord
100
AcDbLinetypeTableRecord
  2
DOT2
 70
    64
  3
...............................................
 72
    65
 73
     2
 40
1.25
 49
0.0
 74
     0
 49
-1.25
 74
     0
  0
LTYPE
  5
4AE
100
AcDbSymbolTableRecord
100
AcDbLinetypeTableRecord
  2
CADWORK_13
 70
    64
  3
13 =======================================
 72
    65
 73
     2
 40
4.0
 49
2.0
 74
     0
 49
-2.0
 74
     0
  0
LTYPE
  5
4AF
100
AcDbSymbolTableRecord
100
AcDbLinetypeTableRecord
  2
DASHDOT
 70
    64
  3
 __ . __ . __ . __ . __ . __ . __ . __ . __ . __
 72
    65
 73
     4
 40
10.0
 49
5.0
 74
     0
 49
-2.5
 74
     0
 49
0.0
 74
     0
 49
-2.5
 74
     0
  0
LTYPE
  5
4B0
100
AcDbSymbolTableRecord
100
AcDbLinetypeTableRecord
  2
CENTER
 70
    64
  3
 ____ _ ____ _ ____ _ ____ _ ____ _ ____ _ ____
 72
    65
 73
     4
 40
20.0
 49
12.5
 74
     0
 49
-2.5
 74
     0
 49
2.5
 74
     0
 49
-2.5
 74
     0
  0
LTYPE
  5
4B1
100
AcDbSymbolTableRecord
100
AcDbLinetypeTableRecord
  2
DASHEDX2
 70
    64
  3
____  ____  ____  ____  ____  ____  ____  ____
 72
    65
 73
     2
 40
3.75
 49
2.5
 74
     0
 49
-1.25
 74
     0
  0
LTYPE
  5
4B2
100
AcDbSymbolTableRecord
100
AcDbLinetypeTableRecord
  2
CADWORK_22
 70
    64
  3
22 =======================================
 72
    65
 73
     0
 40
0.0
  0
LTYPE
  5
4B3
100
AcDbSymbolTableRecord
100
AcDbLinetypeTableRecord
  2
DAL
 70
    64
  3
Solid line (for MAPS)
 72
    65
 73
     0
 40
0.0
  0
LTYPE
  5
4B4
100
AcDbSymbolTableRecord
100
AcDbLinetypeTableRecord
  2
MUR
 70
    64
  3
Solid line (for MAPS)
 72
    65
 73
     0
 40
0.0
  0
LTYPE
  5
4B5
100
AcDbSymbolTableRecord
100
AcDbLinetypeTableRecord
  2
SOM
 70
    64
  3
Solid line (for MAPS)
 72
    65
 73
     0
 40
0.0
  0
LTYPE
  5
4B6
100
AcDbSymbolTableRecord
100
AcDbLinetypeTableRecord
  2
COL
 70
    64
  3
Solid line (for MAPS)
 72
    65
 73
     0
 40
0.0
  0
LTYPE
  5
4B7
100
AcDbSymbolTableRecord
100
AcDbLinetypeTableRecord
  2
LGN
 70
    64
  3
Solid line (for MAPS)
 72
    65
 73
     0
 40
0.0
  0
LTYPE
  5
4B8
100
AcDbSymbolTableRecord
100
AcDbLinetypeTableRecord
  2
PNT
 70
    64
  3
Solid line (for MAPS)
 72
    65
 73
     0
 40
0.0
  0
ENDTAB
  0
TABLE
  2
LAYER
  5
4B9
100
AcDbSymbolTable
 70
    32
  0
LAYER
  5
4BA
100
AcDbSymbolTableRecord
100
AcDbLayerTableRecord
  2
Standard
 70
     0
 62
     7
  6
CONTINUOUS
370
    -3
  0
LAYER
  5
4BB
100
AcDbSymbolTableRecord
100
AcDbLayerTableRecord
  2
Ech.1_1
 70
     0
 62
     7
  6
CONTINUOUS
370
    -3
  0
LAYER
  5
4BC
100
AcDbSymbolTableRecord
100
AcDbLayerTableRecord
  2
Ech.1_2
 70
     0
 62
     7
  6
CONTINUOUS
370
    -3
  0
LAYER
  5
4BD
100
AcDbSymbolTableRecord
100
AcDbLayerTableRecord
  2
Ech.1_5
 70
     0
 62
     7
  6
CONTINUOUS
370
    -3
  0
LAYER
  5
4BE
100
AcDbSymbolTableRecord
100
AcDbLayerTableRecord
  2
Ech.1_10
 70
     0
 62
     7
  6
CONTINUOUS
370
    -3
  0
LAYER
  5
4BF
100
AcDbSymbolTableRecord
100
AcDbLayerTableRecord
  2
Ech.1_20
 70
     0
 62
     7
  6
CONTINUOUS
370
    -3
  0
LAYER
  5
4C0
100
AcDbSymbolTableRecord
100
AcDbLayerTableRecord
  2
Ech.1_25
 70
     0
 62
     7
  6
CONTINUOUS
370
    -3
  0
LAYER
  5
4C1
100
AcDbSymbolTableRecord
100
AcDbLayerTableRecord
  2
Ech.1_33
 70
     0
 62
     7
  6
CONTINUOUS
370
    -3
  0
LAYER
  5
4C2
100
AcDbSymbolTableRecord
100
AcDbLayerTableRecord
  2
Ech.1_50
 70
     0
 62
     7
  6
CONTINUOUS
370
    -3
  0
LAYER
  5
4C3
100
AcDbSymbolTableRecord
100
AcDbLayerTableRecord
  2
Ech.1_75
 70
     0
 62
     7
  6
CONTINUOUS
370
    -3
  0
LAYER
  5
4C4
100
AcDbSymbolTableRecord
100
AcDbLayerTableRecord
  2
Ech.1_100
 70
     0
 62
     7
  6
CONTINUOUS
370
    -3
  0
LAYER
  5
4C5
100
AcDbSymbolTableRecord
100
AcDbLayerTableRecord
  2
Ech.1_200
 70
     0
 62
     7
  6
CONTINUOUS
370
    -3
  0
LAYER
  5
4C6
100
AcDbSymbolTableRecord
100
AcDbLayerTableRecord
  2
Ech.1_500
 70
     0
 62
     7
  6
CONTINUOUS
370
    -3
  0
LAYER
  5
4C7
100
AcDbSymbolTableRecord
100
AcDbLayerTableRecord
  2
Ech.1_1000
 70
     0
 62
     7
  6
CONTINUOUS
370
    -3
  0
LAYER
  5
4C8
100
AcDbSymbolTableRecord
100
AcDbLayerTableRecord
  2
Cadres traceur
 70
     0
 62
     7
  6
CONTINUOUS
370
    18
  0
LAYER
  5
4C9
100
AcDbSymbolTableRecord
100
AcDbLayerTableRecord
  2
Cadres laser
 70
     0
 62
     7
  6
CONTINUOUS
370
    18
  0
LAYER
  5
4CA
100
AcDbSymbolTableRecord
100
AcDbLayerTableRecord
  2
Légende d_aide
 70
     0
 62
     7
  6
CONTINUOUS
370
    18
  0
LAYER
  5
4CB
100
AcDbSymbolTableRecord
100
AcDbLayerTableRecord
  2
hachures ok
 70
     0
 62
     7
  6
CONTINUOUS
370
    18
  0
LAYER
  5
4CC
100
AcDbSymbolTableRecord
100
AcDbLayerTableRecord
  2
ossature bois
 70
     0
 62
     7
  6
CONTINUOUS
370
    18
  0
LAYER
  5
4CD
100
AcDbSymbolTableRecord
100
AcDbLayerTableRecord
  2
VR
 70
     0
 62
     7
  6
CONTINUOUS
370
    25
  0
LAYER
  5
4CE
100
AcDbSymbolTableRecord
100
AcDbLayerTableRecord
  2
Calque1
 70
     0
 62
     7
  6
CONTINUOUS
370
     9
  0
LAYER
  5
4CF
100
AcDbSymbolTableRecord
100
AcDbLayerTableRecord
  2
0
 70
     0
 62
     7
  6
CONTINUOUS
370
    -3
  0
LAYER
  5
4D0
100
AcDbSymbolTableRecord
100
AcDbLayerTableRecord
  2
menuiserie
 70
     0
 62
     7
  6
CONTINUOUS
370
    -3
  0
LAYER
  5
4D1
100
AcDbSymbolTableRecord
100
AcDbLayerTableRecord
  2
cotation
 70
     0
 62
   250
  6
CONTINUOUS
370
     9
  0
LAYER
  5
4D2
100
AcDbSymbolTableRecord
100
AcDbLayerTableRecord
  2
Defpoints
 70
     0
 62
    10
  6
CONTINUOUS
370
    -3
  0
LAYER
  5
4D3
100
AcDbSymbolTableRecord
100
AcDbLayerTableRecord
  2
HACHURE
 70
     0
 62
   254
  6
CONTINUOUS
370
    25
  0
LAYER
  5
4D4
100
AcDbSymbolTableRecord
100
AcDbLayerTableRecord
  2
mat1
 70
     0
 62
     7
  6
CONTINUOUS
370
    30
  0
LAYER
  5
4D5
100
AcDbSymbolTableRecord
100
AcDbLayerTableRecord
  2
mat2
 70
     0
 62
     7
  6
CONTINUOUS
370
     5
  0
LAYER
  5
4D6
100
AcDbSymbolTableRecord
100
AcDbLayerTableRecord
  2
hach
 70
     0
 62
     8
  6
CONTINUOUS
370
     5
  0
LAYER
  5
4D7
100
AcDbSymbolTableRecord
100
AcDbLayerTableRecord
  2
menuiseries
 70
     0
 62
     7
  6
CONTINUOUS
370
     9
  0
LAYER
  5
4D8
100
AcDbSymbolTableRecord
100
AcDbLayerTableRecord
  2
BétonMétal
 70
     0
 62
     7
  6
CONTINUOUS
370
    80
  0
LAYER
  5
4D9
100
AcDbSymbolTableRecord
100
AcDbLayerTableRecord
  2
bois
 70
     0
 62
     7
  6
CONTINUOUS
370
    60
  0
ENDTAB
  0
TABLE
  2
VIEW
  5
4DA
100
AcDbSymbolTable
 70
     0
  0
ENDTAB
  0
TABLE
  2
UCS
  5
4DB
100
AcDbSymbolTable
 70
     0
  0
ENDTAB
  0
TABLE
  2
APPID
  5
4DC
100
AcDbSymbolTable
 70
     1
  0
APPID
  5
4DD
100
AcDbSymbolTableRecord
100
AcDbRegAppTableRecord
  2
ACAD
 70
     0
  0
ENDTAB
  0
TABLE
  2
DIMSTYLE
  5
4DE
100
AcDbSymbolTable
 70
     0
  0
ENDTAB
  0
TABLE
  2
BLOCK_RECORD
  5
4DF
100
AcDbSymbolTable
 70
     0
  0
BLOCK_RECORD
  5
4E0
100
AcDbSymbolTableRecord
100
AcDbBlockTableRecord
  2
*MODEL_SPACE
  0
BLOCK_RECORD
  5
4E1
100
AcDbSymbolTableRecord
100
AcDbBlockTableRecord
  2
*PAPER_SPACE
  0
BLOCK_RECORD
  5
4E2
100
AcDbSymbolTableRecord
100
AcDbBlockTableRecord
  2
CDWK_EXTR_0
  0
BLOCK_RECORD
  5
4E3
100
AcDbSymbolTableRecord
100
AcDbBlockTableRecord
  2
CDWK_EXTR_1D
  0
BLOCK_RECORD
  5
4E4
100
AcDbSymbolTableRecord
100
AcDbBlockTableRecord
  2
CDWK_EXTR_1G
  0
BLOCK_RECORD
  5
4E5
100
AcDbSymbolTableRecord
100
AcDbBlockTableRecord
  2
CDWK_EXTR_2
  0
BLOCK_RECORD
  5
4E6
100
AcDbSymbolTableRecord
100
AcDbBlockTableRecord
  2
CDWK_EXTR_3
  0
BLOCK_RECORD
  5
4E7
100
AcDbSymbolTableRecord
100
AcDbBlockTableRecord
  2
CDWK_EXTR_4
  0
BLOCK_RECORD
  5
4E8
100
AcDbSymbolTableRecord
100
AcDbBlockTableRecord
  2
CDWK_PTTYP0
  0
BLOCK_RECORD
  5
4E9
100
AcDbSymbolTableRecord
100
AcDbBlockTableRecord
  2
CDWK_PTTYP1
  0
BLOCK_RECORD
  5
4EA
100
AcDbSymbolTableRecord
100
AcDbBlockTableRecord
  2
CDWK_PTTYP2
  0
BLOCK_RECORD
  5
4EB
100
AcDbSymbolTableRecord
100
AcDbBlockTableRecord
  2
CDWK_PTTYP3
  0
BLOCK_RECORD
  5
4EC
100
AcDbSymbolTableRecord
100
AcDbBlockTableRecord
  2
CDWK_PTTYP4
  0
BLOCK_RECORD
  5
4ED
100
AcDbSymbolTableRecord
100
AcDbBlockTableRecord
  2
CDWK_PTTYP5
  0
BLOCK_RECORD
  5
4EE
100
AcDbSymbolTableRecord
100
AcDbBlockTableRecord
  2
CDWK_PTTYP6
  0
BLOCK_RECORD
  5
4EF
100
AcDbSymbolTableRecord
100
AcDbBlockTableRecord
  2
CDWK_PTTYP7
  0
BLOCK_RECORD
  5
4F0
100
AcDbSymbolTableRecord
100
AcDbBlockTableRecord
  2
CDWK_PTTYP8
  0
BLOCK_RECORD
  5
4F1
100
AcDbSymbolTableRecord
100
AcDbBlockTableRecord
  2
CDWK_PTTYP9
  0
BLOCK_RECORD
  5
4F2
100
AcDbSymbolTableRecord
100
AcDbBlockTableRecord
  2
CDWK_PTTYP10
  0
BLOCK_RECORD
  5
4F3
100
AcDbSymbolTableRecord
100
AcDbBlockTableRecord
  2
CDWK_PTTYP11
  0
BLOCK_RECORD
  5
4F4
100
AcDbSymbolTableRecord
100
AcDbBlockTableRecord
  2
CDWK_PTTYP12
  0
BLOCK_RECORD
  5
4F5
100
AcDbSymbolTableRecord
100
AcDbBlockTableRecord
  2
CDWK_PTTYP13
  0
BLOCK_RECORD
  5
4F6
100
AcDbSymbolTableRecord
100
AcDbBlockTableRecord
  2
CDWK_PTTYP14
  0
BLOCK_RECORD
  5
4F7
100
AcDbSymbolTableRecord
100
AcDbBlockTableRecord
  2
CDWK_PTTYP15
  0
BLOCK_RECORD
  5
4F8
100
AcDbSymbolTableRecord
100
AcDbBlockTableRecord
  2
CDWK_PTTYP16
  0
BLOCK_RECORD
  5
4F9
100
AcDbSymbolTableRecord
100
AcDbBlockTableRecord
  2
CDWK_PTTYP17
  0
BLOCK_RECORD
  5
4FA
100
AcDbSymbolTableRecord
100
AcDbBlockTableRecord
  2
CDWK_PTTYP18
  0
BLOCK_RECORD
  5
4FB
100
AcDbSymbolTableRecord
100
AcDbBlockTableRecord
  2
CDWK_PTTYP19
  0
BLOCK_RECORD
  5
4FC
100
AcDbSymbolTableRecord
100
AcDbBlockTableRecord
  2
CDWK_PTTYP20
  0
BLOCK_RECORD
  5
4FD
100
AcDbSymbolTableRecord
100
AcDbBlockTableRecord
  2
CDWK_PTTYP21
  0
BLOCK_RECORD
  5
4FE
100
AcDbSymbolTableRecord
100
AcDbBlockTableRecord
  2
CDWK_PTTYP22
  0
BLOCK_RECORD
  5
4FF
100
AcDbSymbolTableRecord
100
AcDbBlockTableRecord
  2
CDWK_PTTYP23
  0
BLOCK_RECORD
  5
500
100
AcDbSymbolTableRecord
100
AcDbBlockTableRecord
  2
CDWK_PTTYP24
  0
BLOCK_RECORD
  5
501
100
AcDbSymbolTableRecord
100
AcDbBlockTableRecord
  2
CDWK_PTTYP25
  0
BLOCK_RECORD
  5
502
100
AcDbSymbolTableRecord
100
AcDbBlockTableRecord
  2
CDWK_PTTYP26
  0
BLOCK_RECORD
  5
503
100
AcDbSymbolTableRecord
100
AcDbBlockTableRecord
  2
CDWK_PTTYP27
  0
BLOCK_RECORD
  5
504
100
AcDbSymbolTableRecord
100
AcDbBlockTableRecord
  2
CDWK_PTTYP28
  0
BLOCK_RECORD
  5
505
100
AcDbSymbolTableRecord
100
AcDbBlockTableRecord
  2
CDWK_PTTYP29
  0
BLOCK_RECORD
  5
506
100
AcDbSymbolTableRecord
100
AcDbBlockTableRecord
  2
CDWK_PTTYP30
  0
BLOCK_RECORD
  5
507
100
AcDbSymbolTableRecord
100
AcDbBlockTableRecord
  2
CDWK_PTTYP31
  0
BLOCK_RECORD
  5
508
100
AcDbSymbolTableRecord
100
AcDbBlockTableRecord
  2
CDWK_PTTYP32
  0
BLOCK_RECORD
  5
509
100
AcDbSymbolTableRecord
100
AcDbBlockTableRecord
  2
CDWK_PTTYP33
  0
BLOCK_RECORD
  5
50A
100
AcDbSymbolTableRecord
100
AcDbBlockTableRecord
  2
CDWK_PTTYP34
  0
BLOCK_RECORD
  5
50B
100
AcDbSymbolTableRecord
100
AcDbBlockTableRecord
  2
CDWK_PTTYP35
  0
BLOCK_RECORD
  5
50C
100
AcDbSymbolTableRecord
100
AcDbBlockTableRecord
  2
CDWK_PTTYP36
  0
BLOCK_RECORD
  5
50D
100
AcDbSymbolTableRecord
100
AcDbBlockTableRecord
  2
CDWK_PTTYP37
  0
BLOCK_RECORD
  5
50E
100
AcDbSymbolTableRecord
100
AcDbBlockTableRecord
  2
CDWK_PTTYP38
  0
ENDTAB
  0
ENDSEC
  0
SECTION
  2
BLOCKS
  0
BLOCK
  5
50F
100
AcDbEntity
  8
0
100
AcDbBlockBegin
  2
*MODEL_SPACE
 70
     0
 10
0.0
 20
0.0
 30
0.0
  3
*MODEL_SPACE
  1

  0
ENDBLK
  5
510
100
AcDbEntity
100
AcDbBlockEnd
  0
BLOCK
  5
511
100
AcDbEntity
  8
0
100
AcDbBlockBegin
  2
*PAPER_SPACE
 70
     0
 10
0.0
 20
0.0
 30
0.0
  3
*PAPER_SPACE
  1

  0
ENDBLK
  5
512
100
AcDbEntity
100
AcDbBlockEnd
  0
BLOCK
  5
513
100
AcDbEntity
  8
0
100
AcDbBlockBegin
  2
CDWK_EXTR_0
 70
     0
 10
0.0
 20
0.0
 30
0.0
  3
CDWK_EXTR_0
  1

  4
Cadwork line-extremity
  0
LINE
  5
514
100
AcDbEntity
  8
0
 62
     0
370
    -2
100
AcDbLine
 10
0.0
 20
0.0
 30
0.0
 11
2.0
 21
0.5
 31
0.0
  0
LINE
  5
515
100
AcDbEntity
  8
0
 62
     0
370
    -2
100
AcDbLine
 10
0.0
 20
0.0
 30
0.0
 11
2.0
 21
-0.5
 31
0.0
  0
LINE
  5
516
100
AcDbEntity
  8
0
 62
     0
370
    -2
100
AcDbLine
 10
2.0
 20
0.5
 30
0.0
 11
2.0
 21
-0.5
 31
0.0
  0
ENDBLK
  5
517
100
AcDbEntity
100
AcDbBlockEnd
  0
BLOCK
  5
518
100
AcDbEntity
  8
0
100
AcDbBlockBegin
  2
CDWK_EXTR_1D
 70
     0
 10
0.0
 20
0.0
 30
0.0
  3
CDWK_EXTR_1D
  1

  4
Cadwork line-extremity
  0
LINE
  5
519
100
AcDbEntity
  8
0
 62
     0
370
    -2
100
AcDbLine
 10
0.0
 20
0.0
 30
0.0
 11
0.0
 21
1.0
 31
0.0
  0
LINE
  5
51A
100
AcDbEntity
  8
0
 62
     0
370
    -2
100
AcDbLine
 10
0.0
 20
1.0
 30
0.0
 11
0.5
 21
1.5
 31
0.0
  0
LINE
  5
51B
100
AcDbEntity
  8
0
 62
     0
370
    -2
100
AcDbLine
 10
0.5
 20
1.5
 30
0.0
 11
1.5
 21
1.5
 31
0.0
  0
ENDBLK
  5
51C
100
AcDbEntity
100
AcDbBlockEnd
  0
BLOCK
  5
51D
100
AcDbEntity
  8
0
100
AcDbBlockBegin
  2
CDWK_EXTR_1G
 70
     0
 10
0.0
 20
0.0
 30
0.0
  3
CDWK_EXTR_1G
  1

  4
Cadwork line-extremity
  0
LINE
  5
51E
100
AcDbEntity
  8
0
 62
     0
370
    -2
100
AcDbLine
 10
0.0
 20
0.0
 30
0.0
 11
0.0
 21
-1.0
 31
0.0
  0
LINE
  5
51F
100
AcDbEntity
  8
0
 62
     0
370
    -2
100
AcDbLine
 10
0.0
 20
-1.0
 30
0.0
 11
0.5
 21
-1.5
 31
0.0
  0
LINE
  5
520
100
AcDbEntity
  8
0
 62
     0
370
    -2
100
AcDbLine
 10
0.5
 20
-1.5
 30
0.0
 11
1.5
 21
-1.5
 31
0.0
  0
ENDBLK
  5
521
100
AcDbEntity
100
AcDbBlockEnd
  0
BLOCK
  5
522
100
AcDbEntity
  8
0
100
AcDbBlockBegin
  2
CDWK_EXTR_2
 70
     0
 10
0.0
 20
0.0
 30
0.0
  3
CDWK_EXTR_2
  1

  4
Cadwork line-extremity
  0
SOLID
  5
523
100
AcDbEntity
  8
0
 62
     0
100
AcDbTrace
 10
0.0
 20
0.0
 11
2.0
 21
0.5
 12
2.0
 22
-0.5
 13
2.0
 23
-0.5
  0
ENDBLK
  5
524
100
AcDbEntity
100
AcDbBlockEnd
  0
BLOCK
  5
525
100
AcDbEntity
  8
0
100
AcDbBlockBegin
  2
CDWK_EXTR_3
 70
     0
 10
0.0
 20
0.0
 30
0.0
  3
CDWK_EXTR_3
  1

  4
Cadwork line-extremity
  0
SOLID
  5
526
100
AcDbEntity
  8
0
 62
     0
100
AcDbTrace
 10
0.0
 20
0.0
 11
2.0
 21
0.5
 12
2.0
 22
-0.5
 13
2.0
 23
-0.5
  0
LINE
  5
527
100
AcDbEntity
  8
0
 62
     0
370
    -2
100
AcDbLine
 10
0.0
 20
1.0
 30
0.0
 11
0.0
 21
-1.0
 31
0.0
  0
ENDBLK
  5
528
100
AcDbEntity
100
AcDbBlockEnd
  0
BLOCK
  5
529
100
AcDbEntity
  8
0
100
AcDbBlockBegin
  2
CDWK_EXTR_4
 70
     0
 10
0.0
 20
0.0
 30
0.0
  3
CDWK_EXTR_4
  1

  4
Cadwork line-extremity
  0
HATCH
  5
52A
100
AcDbEntity
  8
0
 62
     0
370
    -2
100
AcDbHatch
 10
0.0
 20
0.0
 30
0.0
210
0.0
220
0.0
230
1.0
  2
SOLID
 70
     1
 71
     0
 91
        1
 92
        1
 93
        1
 72
     2
 10
0.0
 20
0.0
 40
0.5
 50
0.0
 51
360.0
 73
     1
 97
        0
 75
     0
 76
     1
 98
        1
 10
0.0
 20
0.0
  0
ENDBLK
  5
52B
100
AcDbEntity
100
AcDbBlockEnd
  0
BLOCK
  5
52C
100
AcDbEntity
  8
0
100
AcDbBlockBegin
  2
CDWK_PTTYP0
 70
     0
 10
0.0
 20
0.0
 30
0.0
  3
CDWK_PTTYP0
  1

  4
Cadwork point
  0
POINT
  5
52D
100
AcDbEntity
  8
0
 62
     0
100
AcDbPoint
 10
0.0
 20
0.0
 30
0.0
  0
ENDBLK
  5
52E
100
AcDbEntity
100
AcDbBlockEnd
  0
BLOCK
  5
52F
100
AcDbEntity
  8
0
100
AcDbBlockBegin
  2
CDWK_PTTYP1
 70
     0
 10
0.0
 20
0.0
 30
0.0
  3
CDWK_PTTYP1
  1

  4
Cadwork node
  0
LINE
  5
530
100
AcDbEntity
  8
0
 62
     0
370
    -2
100
AcDbLine
 10
-0.5
 20
0.5
 30
0.0
 11
0.5
 21
0.5
 31
0.0
  0
LINE
  5
531
100
AcDbEntity
  8
0
 62
     0
370
    -2
100
AcDbLine
 10
0.5
 20
0.5
 30
0.0
 11
0.5
 21
-0.5
 31
0.0
  0
LINE
  5
532
100
AcDbEntity
  8
0
 62
     0
370
    -2
100
AcDbLine
 10
0.5
 20
-0.5
 30
0.0
 11
-0.5
 21
-0.5
 31
0.0
  0
LINE
  5
533
100
AcDbEntity
  8
0
 62
     0
370
    -2
100
AcDbLine
 10
-0.5
 20
-0.5
 30
0.0
 11
-0.5
 21
0.5
 31
0.0
  0
ENDBLK
  5
534
100
AcDbEntity
100
AcDbBlockEnd
  0
BLOCK
  5
535
100
AcDbEntity
  8
0
100
AcDbBlockBegin
  2
CDWK_PTTYP2
 70
     0
 10
0.0
 20
0.0
 30
0.0
  3
CDWK_PTTYP2
  1

  4
Cadwork node
  0
LINE
  5
536
100
AcDbEntity
  8
0
 62
     0
370
    -2
100
AcDbLine
 10
0.0
 20
0.5
 30
0.0
 11
0.0
 21
-0.5
 31
0.0
  0
LINE
  5
537
100
AcDbEntity
  8
0
 62
     0
370
    -2
100
AcDbLine
 10
-0.5
 20
0.0
 30
0.0
 11
0.5
 21
0.0
 31
0.0
  0
ENDBLK
  5
538
100
AcDbEntity
100
AcDbBlockEnd
  0
BLOCK
  5
539
100
AcDbEntity
  8
0
100
AcDbBlockBegin
  2
CDWK_PTTYP3
 70
     0
 10
0.0
 20
0.0
 30
0.0
  3
CDWK_PTTYP3
  1

  4
Cadwork node
  0
CIRCLE
  5
53A
100
AcDbEntity
  8
0
 62
     0
370
    -2
100
AcDbCircle
 10
0.0
 20
0.0
 30
0.0
 40
0.5
  0
ENDBLK
  5
53B
100
AcDbEntity
100
AcDbBlockEnd
  0
BLOCK
  5
53C
100
AcDbEntity
  8
0
100
AcDbBlockBegin
  2
CDWK_PTTYP4
 70
     0
 10
0.0
 20
0.0
 30
0.0
  3
CDWK_PTTYP4
  1

  4
Cadwork node
  0
HATCH
  5
53D
100
AcDbEntity
  8
0
 62
     0
370
    -2
100
AcDbHatch
 10
0.0
 20
0.0
 30
0.0
210
0.0
220
0.0
230
1.0
  2
SOLID
 70
     1
 71
     0
 91
        1
 92
        1
 93
        1
 72
     2
 10
0.0
 20
0.0
 40
0.5
 50
0.0
 51
360.0
 73
     1
 97
        0
 75
     0
 76
     1
 98
        1
 10
0.0
 20
0.0
  0
ENDBLK
  5
53E
100
AcDbEntity
100
AcDbBlockEnd
  0
BLOCK
  5
53F
100
AcDbEntity
  8
0
100
AcDbBlockBegin
  2
CDWK_PTTYP5
 70
     0
 10
0.0
 20
0.0
 30
0.0
  3
CDWK_PTTYP5
  1

  4
Cadwork node
  0
LINE
  5
540
100
AcDbEntity
  8
0
 62
     0
370
    -2
100
AcDbLine
 10
-0.5
 20
0.5
 30
0.0
 11
0.5
 21
0.5
 31
0.0
  0
LINE
  5
541
100
AcDbEntity
  8
0
 62
     0
370
    -2
100
AcDbLine
 10
0.5
 20
0.5
 30
0.0
 11
0.5
 21
-0.5
 31
0.0
  0
LINE
  5
542
100
AcDbEntity
  8
0
 62
     0
370
    -2
100
AcDbLine
 10
0.5
 20
-0.5
 30
0.0
 11
-0.5
 21
-0.5
 31
0.0
  0
LINE
  5
543
100
AcDbEntity
  8
0
 62
     0
370
    -2
100
AcDbLine
 10
-0.5
 20
-0.5
 30
0.0
 11
-0.5
 21
0.5
 31
0.0
  0
SOLID
  5
544
100
AcDbEntity
  8
0
 62
     0
100
AcDbTrace
 10
-0.5
 20
-0.5
 11
-0.5
 21
0.0
 12
0.0
 22
-0.5
 13
0.0
 23
0.0
  0
SOLID
  5
545
100
AcDbEntity
  8
0
 62
     0
100
AcDbTrace
 10
0.0
 20
0.0
 11
0.0
 21
0.5
 12
0.5
 22
0.0
 13
0.5
 23
0.5
  0
ENDBLK
  5
546
100
AcDbEntity
100
AcDbBlockEnd
  0
BLOCK
  5
547
100
AcDbEntity
  8
0
100
AcDbBlockBegin
  2
CDWK_PTTYP6
 70
     0
 10
0.0
 20
0.0
 30
0.0
  3
CDWK_PTTYP6
  1

  4
Cadwork node
  0
LINE
  5
548
100
AcDbEntity
  8
0
 62
     0
370
    -2
100
AcDbLine
 10
-0.5
 20
0.5
 30
0.0
 11
0.5
 21
0.5
 31
0.0
  0
LINE
  5
549
100
AcDbEntity
  8
0
 62
     0
370
    -2
100
AcDbLine
 10
0.5
 20
0.5
 30
0.0
 11
0.5
 21
-0.5
 31
0.0
  0
LINE
  5
54A
100
AcDbEntity
  8
0
 62
     0
370
    -2
100
AcDbLine
 10
0.5
 20
-0.5
 30
0.0
 11
-0.5
 21
-0.5
 31
0.0
  0
LINE
  5
54B
100
AcDbEntity
  8
0
 62
     0
370
    -2
100
AcDbLine
 10
-0.5
 20
-0.5
 30
0.0
 11
-0.5
 21
0.5
 31
0.0
  0
SOLID
  5
54C
100
AcDbEntity
  8
0
 62
     0
100
AcDbTrace
 10
-0.5
 20
-0.5
 11
-0.5
 21
0.5
 12
0.5
 22
0.5
 13
0.5
 23
0.5
  0
ENDBLK
  5
54D
100
AcDbEntity
100
AcDbBlockEnd
  0
BLOCK
  5
54E
100
AcDbEntity
  8
0
100
AcDbBlockBegin
  2
CDWK_PTTYP7
 70
     0
 10
0.0
 20
0.0
 30
0.0
  3
CDWK_PTTYP7
  1

  4
Cadwork node
  0
LINE
  5
54F
100
AcDbEntity
  8
0
 62
     0
370
    -2
100
AcDbLine
 10
-0.5
 20
0.5
 30
0.0
 11
0.5
 21
0.5
 31
0.0
  0
LINE
  5
550
100
AcDbEntity
  8
0
 62
     0
370
    -2
100
AcDbLine
 10
0.5
 20
0.5
 30
0.0
 11
0.5
 21
-0.5
 31
0.0
  0
LINE
  5
551
100
AcDbEntity
  8
0
 62
     0
370
    -2
100
AcDbLine
 10
0.5
 20
-0.5
 30
0.0
 11
-0.5
 21
-0.5
 31
0.0
  0
LINE
  5
552
100
AcDbEntity
  8
0
 62
     0
370
    -2
100
AcDbLine
 10
-0.5
 20
-0.5
 30
0.0
 11
-0.5
 21
0.5
 31
0.0
  0
LINE
  5
553
100
AcDbEntity
  8
0
 62
     0
370
    -2
100
AcDbLine
 10
0.0
 20
0.5
 30
0.0
 11
0.0
 21
-0.5
 31
0.0
  0
LINE
  5
554
100
AcDbEntity
  8
0
 62
     0
370
    -2
100
AcDbLine
 10
-0.5
 20
0.0
 30
0.0
 11
0.5
 21
0.0
 31
0.0
  0
ENDBLK
  5
555
100
AcDbEntity
100
AcDbBlockEnd
  0
BLOCK
  5
556
100
AcDbEntity
  8
0
100
AcDbBlockBegin
  2
CDWK_PTTYP8
 70
     0
 10
0.0
 20
0.0
 30
0.0
  3
CDWK_PTTYP8
  1

  4
Cadwork node
  0
SOLID
  5
557
100
AcDbEntity
  8
0
 62
     0
100
AcDbTrace
 10
-0.5
 20
0.5
 11
0.5
 21
0.5
 12
-0.5
 22
-0.5
 13
0.5
 23
-0.5
  0
ENDBLK
  5
558
100
AcDbEntity
100
AcDbBlockEnd
  0
BLOCK
  5
559
100
AcDbEntity
  8
0
100
AcDbBlockBegin
  2
CDWK_PTTYP9
 70
     0
 10
0.0
 20
0.0
 30
0.0
  3
CDWK_PTTYP9
  1

  4
Cadwork node
  0
CIRCLE
  5
55A
100
AcDbEntity
  8
0
 62
     0
370
    -2
100
AcDbCircle
 10
0.0
 20
0.0
 30
0.0
 40
0.5
  0
CIRCLE
  5
55B
100
AcDbEntity
  8
0
 62
     0
370
    -2
100
AcDbCircle
 10
0.0
 20
0.0
 30
0.0
 40
0.16666667
  0
ENDBLK
  5
55C
100
AcDbEntity
100
AcDbBlockEnd
  0
BLOCK
  5
55D
100
AcDbEntity
  8
0
100
AcDbBlockBegin
  2
CDWK_PTTYP10
 70
     0
 10
0.0
 20
0.0
 30
0.0
  3
CDWK_PTTYP10
  1

  4
Cadwork node
  0
CIRCLE
  5
55E
100
AcDbEntity
  8
0
 62
     0
370
    -2
100
AcDbCircle
 10
0.0
 20
0.0
 30
0.0
 40
0.5
  0
ENDBLK
  5
55F
100
AcDbEntity
100
AcDbBlockEnd
  0
BLOCK
  5
560
100
AcDbEntity
  8
0
100
AcDbBlockBegin
  2
CDWK_PTTYP11
 70
     0
 10
0.0
 20
0.0
 30
0.0
  3
CDWK_PTTYP11
  1

  4
Cadwork node
  0
CIRCLE
  5
561
100
AcDbEntity
  8
0
 62
     0
370
    -2
100
AcDbCircle
 10
0.0
 20
0.0
 30
0.0
 40
0.5
  0
CIRCLE
  5
562
100
AcDbEntity
  8
0
 62
     0
370
    -2
100
AcDbCircle
 10
0.0
 20
0.0
 30
0.0
 40
0.25
  0
ENDBLK
  5
563
100
AcDbEntity
100
AcDbBlockEnd
  0
BLOCK
  5
564
100
AcDbEntity
  8
0
100
AcDbBlockBegin
  2
CDWK_PTTYP12
 70
     0
 10
0.0
 20
0.0
 30
0.0
  3
CDWK_PTTYP12
  1

  4
Cadwork node
  0
CIRCLE
  5
565
100
AcDbEntity
  8
0
 62
     0
370
    -2
100
AcDbCircle
 10
0.0
 20
0.0
 30
0.0
 40
0.5
  0
CIRCLE
  5
566
100
AcDbEntity
  8
0
 62
     0
370
    -2
100
AcDbCircle
 10
0.25
 20
0.0
 30
0.0
 40
0.25
  0
ENDBLK
  5
567
100
AcDbEntity
100
AcDbBlockEnd
  0
BLOCK
  5
568
100
AcDbEntity
  8
0
100
AcDbBlockBegin
  2
CDWK_PTTYP13
 70
     0
 10
0.0
 20
0.0
 30
0.0
  3
CDWK_PTTYP13
  1

  4
Cadwork node
  0
CIRCLE
  5
569
100
AcDbEntity
  8
0
 62
     0
370
    -2
100
AcDbCircle
 10
0.0
 20
0.0
 30
0.0
 40
0.5
  0
CIRCLE
  5
56A
100
AcDbEntity
  8
0
 62
     0
370
    -2
100
AcDbCircle
 10
0.25
 20
0.0
 30
0.0
 40
0.25
  0
CIRCLE
  5
56B
100
AcDbEntity
  8
0
 62
     0
370
    -2
100
AcDbCircle
 10
-0.25
 20
0.0
 30
0.0
 40
0.25
  0
ENDBLK
  5
56C
100
AcDbEntity
100
AcDbBlockEnd
  0
BLOCK
  5
56D
100
AcDbEntity
  8
0
100
AcDbBlockBegin
  2
CDWK_PTTYP14
 70
     0
 10
0.0
 20
0.0
 30
0.0
  3
CDWK_PTTYP14
  1

  4
Cadwork node
  0
POINT
  5
56E
100
AcDbEntity
  8
0
 62
     0
100
AcDbPoint
 10
0.0
 20
0.0
 30
0.0
  0
ENDBLK
  5
56F
100
AcDbEntity
100
AcDbBlockEnd
  0
BLOCK
  5
570
100
AcDbEntity
  8
0
100
AcDbBlockBegin
  2
CDWK_PTTYP15
 70
     0
 10
0.0
 20
0.0
 30
0.0
  3
CDWK_PTTYP15
  1

  4
Cadwork node
  0
POINT
  5
571
100
AcDbEntity
  8
0
 62
     0
100
AcDbPoint
 10
0.0
 20
0.0
 30
0.0
  0
ENDBLK
  5
572
100
AcDbEntity
100
AcDbBlockEnd
  0
BLOCK
  5
573
100
AcDbEntity
  8
0
100
AcDbBlockBegin
  2
CDWK_PTTYP16
 70
     0
 10
0.0
 20
0.0
 30
0.0
  3
CDWK_PTTYP16
  1

  4
Cadwork node
  0
LINE
  5
574
100
AcDbEntity
  8
0
 62
     0
370
    -2
100
AcDbLine
 10
-0.5
 20
-0.28867513
 30
0.0
 11
0.5
 21
-0.28867513
 31
0.0
  0
LINE
  5
575
100
AcDbEntity
  8
0
 62
     0
370
    -2
100
AcDbLine
 10
0.5
 20
-0.28867513
 30
0.0
 11
0.0
 21
0.57735027
 31
0.0
  0
LINE
  5
576
100
AcDbEntity
  8
0
 62
     0
370
    -2
100
AcDbLine
 10
0.0
 20
0.57735027
 30
0.0
 11
-0.5
 21
-0.28867513
 31
0.0
  0
CIRCLE
  5
577
100
AcDbEntity
  8
0
 62
     0
370
    -2
100
AcDbCircle
 10
0.0
 20
0.0
 30
0.0
 40
0.28867513
  0
ENDBLK
  5
578
100
AcDbEntity
100
AcDbBlockEnd
  0
BLOCK
  5
579
100
AcDbEntity
  8
0
100
AcDbBlockBegin
  2
CDWK_PTTYP17
 70
     0
 10
0.0
 20
0.0
 30
0.0
  3
CDWK_PTTYP17
  1

  4
Cadwork node
  0
CIRCLE
  5
57A
100
AcDbEntity
  8
0
 62
     0
370
    -2
100
AcDbCircle
 10
0.0
 20
0.0
 30
0.0
 40
0.5
  0
HATCH
  5
57B
100
AcDbEntity
  8
0
 62
     0
370
    -2
100
AcDbHatch
 10
0.0
 20
0.0
 30
0.0
210
0.0
220
0.0
230
1.0
  2
SOLID
 70
     1
 71
     0
 91
        1
 92
        1
 93
        1
 72
     2
 10
0.0
 20
0.0
 40
0.25
 50
0.0
 51
360.0
 73
     1
 97
        0
 75
     0
 76
     1
 98
        1
 10
0.0
 20
0.0
  0
ENDBLK
  5
57C
100
AcDbEntity
100
AcDbBlockEnd
  0
BLOCK
  5
57D
100
AcDbEntity
  8
0
100
AcDbBlockBegin
  2
CDWK_PTTYP18
 70
     0
 10
0.0
 20
0.0
 30
0.0
  3
CDWK_PTTYP18
  1

  4
Cadwork node
  0
CIRCLE
  5
57E
100
AcDbEntity
  8
0
 62
     0
370
    -2
100
AcDbCircle
 10
0.0
 20
0.0
 30
0.0
 40
0.5
  0
CIRCLE
  5
57F
100
AcDbEntity
  8
0
 62
     0
370
    -2
100
AcDbCircle
 10
0.0
 20
0.0
 30
0.0
 40
0.2
  0
ENDBLK
  5
580
100
AcDbEntity
100
AcDbBlockEnd
  0
BLOCK
  5
581
100
AcDbEntity
  8
0
100
AcDbBlockBegin
  2
CDWK_PTTYP19
 70
     0
 10
0.0
 20
0.0
 30
0.0
  3
CDWK_PTTYP19
  1

  4
Cadwork node
  0
CIRCLE
  5
582
100
AcDbEntity
  8
0
 62
     0
370
    -2
100
AcDbCircle
 10
0.0
 20
0.0
 30
0.0
 40
0.4
  0
CIRCLE
  5
583
100
AcDbEntity
  8
0
 62
     0
370
    -2
100
AcDbCircle
 10
0.0
 20
0.0
 30
0.0
 40
0.25
  0
LINE
  5
584
100
AcDbEntity
  8
0
 62
     0
370
    -2
100
AcDbLine
 10
-0.25
 20
0.0
 30
0.0
 11
0.25
 21
0.0
 31
0.0
  0
ENDBLK
  5
585
100
AcDbEntity
100
AcDbBlockEnd
  0
BLOCK
  5
586
100
AcDbEntity
  8
0
100
AcDbBlockBegin
  2
CDWK_PTTYP20
 70
     0
 10
0.0
 20
0.0
 30
0.0
  3
CDWK_PTTYP20
  1

  4
Cadwork node
  0
CIRCLE
  5
587
100
AcDbEntity
  8
0
 62
     0
370
    -2
100
AcDbCircle
 10
0.0
 20
0.0
 30
0.0
 40
0.5
  0
CIRCLE
  5
588
100
AcDbEntity
  8
0
 62
     0
370
    -2
100
AcDbCircle
 10
0.0
 20
0.0
 30
0.0
 40
0.3
  0
ENDBLK
  5
589
100
AcDbEntity
100
AcDbBlockEnd
  0
BLOCK
  5
58A
100
AcDbEntity
  8
0
100
AcDbBlockBegin
  2
CDWK_PTTYP21
 70
     0
 10
0.0
 20
0.0
 30
0.0
  3
CDWK_PTTYP21
  1

  4
Cadwork node
  0
CIRCLE
  5
58B
100
AcDbEntity
  8
0
 62
     0
370
    -2
100
AcDbCircle
 10
0.0
 20
0.0
 30
0.0
 40
0.5
  0
LINE
  5
58C
100
AcDbEntity
  8
0
 62
     0
370
    -2
100
AcDbLine
 10
-0.5
 20
0.0
 30
0.0
 11
0.5
 21
0.0
 31
0.0
  0
ENDBLK
  5
58D
100
AcDbEntity
100
AcDbBlockEnd
  0
BLOCK
  5
58E
100
AcDbEntity
  8
0
100
AcDbBlockBegin
  2
CDWK_PTTYP22
 70
     0
 10
0.0
 20
0.0
 30
0.0
  3
CDWK_PTTYP22
  1

  4
Cadwork node
  0
POINT
  5
58F
100
AcDbEntity
  8
0
 62
     0
100
AcDbPoint
 10
0.0
 20
0.0
 30
0.0
  0
ENDBLK
  5
590
100
AcDbEntity
100
AcDbBlockEnd
  0
BLOCK
  5
591
100
AcDbEntity
  8
0
100
AcDbBlockBegin
  2
CDWK_PTTYP23
 70
     0
 10
0.0
 20
0.0
 30
0.0
  3
CDWK_PTTYP23
  1

  4
Cadwork node
  0
POINT
  5
592
100
AcDbEntity
  8
0
 62
     0
100
AcDbPoint
 10
0.0
 20
0.0
 30
0.0
  0
ENDBLK
  5
593
100
AcDbEntity
100
AcDbBlockEnd
  0
BLOCK
  5
594
100
AcDbEntity
  8
0
100
AcDbBlockBegin
  2
CDWK_PTTYP24
 70
     0
 10
0.0
 20
0.0
 30
0.0
  3
CDWK_PTTYP24
  1

  4
Cadwork node
  0
POINT
  5
595
100
AcDbEntity
  8
0
 62
     0
100
AcDbPoint
 10
0.0
 20
0.0
 30
0.0
  0
ENDBLK
  5
596
100
AcDbEntity
100
AcDbBlockEnd
  0
BLOCK
  5
597
100
AcDbEntity
  8
0
100
AcDbBlockBegin
  2
CDWK_PTTYP25
 70
     0
 10
0.0
 20
0.0
 30
0.0
  3
CDWK_PTTYP25
  1

  4
Cadwork node
  0
LINE
  5
598
100
AcDbEntity
  8
0
 62
     0
370
    -2
100
AcDbLine
 10
-0.43290044
 20
-0.25
 30
0.0
 11
0.43290044
 21
-0.25
 31
0.0
  0
LINE
  5
599
100
AcDbEntity
  8
0
 62
     0
370
    -2
100
AcDbLine
 10
-0.43290044
 20
-0.25
 30
0.0
 11
0.0
 21
0.5
 31
0.0
  0
LINE
  5
59A
100
AcDbEntity
  8
0
 62
     0
370
    -2
100
AcDbLine
 10
0.43290044
 20
-0.25
 30
0.0
 11
0.0
 21
0.5
 31
0.0
  0
CIRCLE
  5
59B
100
AcDbEntity
  8
0
 62
     0
370
    -2
100
AcDbCircle
 10
0.0
 20
0.0
 30
0.0
 40
0.5
  0
ENDBLK
  5
59C
100
AcDbEntity
100
AcDbBlockEnd
  0
BLOCK
  5
59D
100
AcDbEntity
  8
0
100
AcDbBlockBegin
  2
CDWK_PTTYP26
 70
     0
 10
0.0
 20
0.0
 30
0.0
  3
CDWK_PTTYP26
  1

  4
Cadwork node
  0
LINE
  5
59E
100
AcDbEntity
  8
0
 62
     0
370
    -2
100
AcDbLine
 10
-0.5
 20
-0.28850001
 30
0.0
 11
0.5
 21
-0.28850001
 31
0.0
  0
LINE
  5
59F
100
AcDbEntity
  8
0
 62
     0
370
    -2
100
AcDbLine
 10
-0.5
 20
-0.28850001
 30
0.0
 11
0.0
 21
0.57736721
 31
0.0
  0
LINE
  5
5A0
100
AcDbEntity
  8
0
 62
     0
370
    -2
100
AcDbLine
 10
0.5
 20
-0.28850001
 30
0.0
 11
0.0
 21
0.57736721
 31
0.0
  0
CIRCLE
  5
5A1
100
AcDbEntity
  8
0
 62
     0
370
    -2
100
AcDbCircle
 10
0.0
 20
0.0
 30
0.0
 40
0.1312336
  0
ENDBLK
  5
5A2
100
AcDbEntity
100
AcDbBlockEnd
  0
BLOCK
  5
5A3
100
AcDbEntity
  8
0
100
AcDbBlockBegin
  2
CDWK_PTTYP27
 70
     0
 10
0.0
 20
0.0
 30
0.0
  3
CDWK_PTTYP27
  1

  4
Cadwork node
  0
LINE
  5
5A4
100
AcDbEntity
  8
0
 62
     0
370
    -2
100
AcDbLine
 10
-0.43290044
 20
-0.25
 30
0.0
 11
0.43290044
 21
-0.25
 31
0.0
  0
LINE
  5
5A5
100
AcDbEntity
  8
0
 62
     0
370
    -2
100
AcDbLine
 10
-0.43290044
 20
-0.25
 30
0.0
 11
0.0
 21
0.5
 31
0.0
  0
LINE
  5
5A6
100
AcDbEntity
  8
0
 62
     0
370
    -2
100
AcDbLine
 10
0.43290044
 20
-0.25
 30
0.0
 11
0.0
 21
0.5
 31
0.0
  0
CIRCLE
  5
5A7
100
AcDbEntity
  8
0
 62
     0
370
    -2
100
AcDbCircle
 10
0.0
 20
0.0
 30
0.0
 40
0.5
  0
CIRCLE
  5
5A8
100
AcDbEntity
  8
0
 62
     0
370
    -2
100
AcDbCircle
 10
0.0
 20
0.0
 30
0.0
 40
0.1312336
  0
ENDBLK
  5
5A9
100
AcDbEntity
100
AcDbBlockEnd
  0
BLOCK
  5
5AA
100
AcDbEntity
  8
0
100
AcDbBlockBegin
  2
CDWK_PTTYP28
 70
     0
 10
0.0
 20
0.0
 30
0.0
  3
CDWK_PTTYP28
  1

  4
Cadwork node
  0
POINT
  5
5AB
100
AcDbEntity
  8
0
 62
     0
100
AcDbPoint
 10
0.0
 20
0.0
 30
0.0
  0
ENDBLK
  5
5AC
100
AcDbEntity
100
AcDbBlockEnd
  0
BLOCK
  5
5AD
100
AcDbEntity
  8
0
100
AcDbBlockBegin
  2
CDWK_PTTYP29
 70
     0
 10
0.0
 20
0.0
 30
0.0
  3
CDWK_PTTYP29
  1

  4
Cadwork node
  0
CIRCLE
  5
5AE
100
AcDbEntity
  8
0
 62
     0
370
    -2
100
AcDbCircle
 10
0.0
 20
0.0
 30
0.0
 40
0.5
  0
CIRCLE
  5
5AF
100
AcDbEntity
  8
0
 62
     0
370
    -2
100
AcDbCircle
 10
0.0
 20
0.0
 30
0.0
 40
0.375
  0
CIRCLE
  5
5B0
100
AcDbEntity
  8
0
 62
     0
370
    -2
100
AcDbCircle
 10
0.0
 20
0.0
 30
0.0
 40
0.21875
  0
ENDBLK
  5
5B1
100
AcDbEntity
100
AcDbBlockEnd
  0
BLOCK
  5
5B2
100
AcDbEntity
  8
0
100
AcDbBlockBegin
  2
CDWK_PTTYP30
 70
     0
 10
0.0
 20
0.0
 30
0.0
  3
CDWK_PTTYP30
  1

  4
Cadwork node
  0
LINE
  5
5B3
100
AcDbEntity
  8
0
 62
     0
370
    -2
100
AcDbLine
 10
0.17680339
 20
0.17680339
 30
0.0
 11
0.5
 21
0.5
 31
0.0
  0
LINE
  5
5B4
100
AcDbEntity
  8
0
 62
     0
370
    -2
100
AcDbLine
 10
-0.17680339
 20
0.17680339
 30
0.0
 11
-0.5
 21
0.5
 31
0.0
  0
LINE
  5
5B5
100
AcDbEntity
  8
0
 62
     0
370
    -2
100
AcDbLine
 10
0.17680339
 20
-0.17680339
 30
0.0
 11
0.5
 21
-0.5
 31
0.0
  0
LINE
  5
5B6
100
AcDbEntity
  8
0
 62
     0
370
    -2
100
AcDbLine
 10
-0.17680339
 20
-0.17680339
 30
0.0
 11
-0.5
 21
-0.5
 31
0.0
  0
ENDBLK
  5
5B7
100
AcDbEntity
100
AcDbBlockEnd
  0
BLOCK
  5
5B8
100
AcDbEntity
  8
0
100
AcDbBlockBegin
  2
CDWK_PTTYP31
 70
     0
 10
0.0
 20
0.0
 30
0.0
  3
CDWK_PTTYP31
  1

  4
Cadwork node
  0
CIRCLE
  5
5B9
100
AcDbEntity
  8
0
 62
     0
370
    -2
100
AcDbCircle
 10
0.0
 20
0.0
 30
0.0
 40
0.075
  0
LINE
  5
5BA
100
AcDbEntity
  8
0
 62
     0
370
    -2
100
AcDbLine
 10
0.075
 20
0.0
 30
0.0
 11
0.5
 21
0.0
 31
0.0
  0
LINE
  5
5BB
100
AcDbEntity
  8
0
 62
     0
370
    -2
100
AcDbLine
 10
-0.075
 20
0.0
 30
0.0
 11
-0.5
 21
0.0
 31
0.0
  0
LINE
  5
5BC
100
AcDbEntity
  8
0
 62
     0
370
    -2
100
AcDbLine
 10
0.0
 20
0.075
 30
0.0
 11
0.0
 21
0.5
 31
0.0
  0
LINE
  5
5BD
100
AcDbEntity
  8
0
 62
     0
370
    -2
100
AcDbLine
 10
0.0
 20
-0.075
 30
0.0
 11
0.0
 21
-0.5
 31
0.0
  0
ENDBLK
  5
5BE
100
AcDbEntity
100
AcDbBlockEnd
  0
BLOCK
  5
5BF
100
AcDbEntity
  8
0
100
AcDbBlockBegin
  2
CDWK_PTTYP32
 70
     0
 10
0.0
 20
0.0
 30
0.0
  3
CDWK_PTTYP32
  1

  4
Cadwork node
  0
CIRCLE
  5
5C0
100
AcDbEntity
  8
0
 62
     0
370
    -2
100
AcDbCircle
 10
0.0
 20
0.0
 30
0.0
 40
0.5
  0
CIRCLE
  5
5C1
100
AcDbEntity
  8
0
 62
     0
370
    -2
100
AcDbCircle
 10
0.0
 20
0.0
 30
0.0
 40
0.16666667
  0
LINE
  5
5C2
100
AcDbEntity
  8
0
 62
     0
370
    -2
100
AcDbLine
 10
0.11786893
 20
0.11786893
 30
0.0
 11
0.35360678
 21
0.35360678
 31
0.0
  0
LINE
  5
5C3
100
AcDbEntity
  8
0
 62
     0
370
    -2
100
AcDbLine
 10
-0.11786893
 20
0.11786893
 30
0.0
 11
-0.35360678
 21
0.35360678
 31
0.0
  0
LINE
  5
5C4
100
AcDbEntity
  8
0
 62
     0
370
    -2
100
AcDbLine
 10
0.11786893
 20
-0.11786893
 30
0.0
 11
0.35360678
 21
-0.35360678
 31
0.0
  0
LINE
  5
5C5
100
AcDbEntity
  8
0
 62
     0
370
    -2
100
AcDbLine
 10
-0.11786893
 20
-0.11786893
 30
0.0
 11
-0.35360678
 21
-0.35360678
 31
0.0
  0
ENDBLK
  5
5C6
100
AcDbEntity
100
AcDbBlockEnd
  0
BLOCK
  5
5C7
100
AcDbEntity
  8
0
100
AcDbBlockBegin
  2
CDWK_PTTYP33
 70
     0
 10
0.0
 20
0.0
 30
0.0
  3
CDWK_PTTYP33
  1

  4
Cadwork node
  0
CIRCLE
  5
5C8
100
AcDbEntity
  8
0
 62
     0
370
    -2
100
AcDbCircle
 10
0.0
 20
0.0
 30
0.0
 40
0.5
  0
LINE
  5
5C9
100
AcDbEntity
  8
0
 62
     0
370
    -2
100
AcDbLine
 10
0.0
 20
0.5
 30
0.0
 11
0.0
 21
-0.5
 31
0.0
  0
LINE
  5
5CA
100
AcDbEntity
  8
0
 62
     0
370
    -2
100
AcDbLine
 10
-0.5
 20
0.0
 30
0.0
 11
0.5
 21
0.0
 31
0.0
  0
ENDBLK
  5
5CB
100
AcDbEntity
100
AcDbBlockEnd
  0
BLOCK
  5
5CC
100
AcDbEntity
  8
0
100
AcDbBlockBegin
  2
CDWK_PTTYP34
 70
     0
 10
0.0
 20
0.0
 30
0.0
  3
CDWK_PTTYP34
  1

  4
Cadwork node
  0
CIRCLE
  5
5CD
100
AcDbEntity
  8
0
 62
     0
370
    -2
100
AcDbCircle
 10
0.0
 20
0.0
 30
0.0
 40
0.5
  0
LINE
  5
5CE
100
AcDbEntity
  8
0
 62
     0
370
    -2
100
AcDbLine
 10
-0.30360678
 20
-0.40360678
 30
0.0
 11
0.40360678
 21
0.30360678
 31
0.0
  0
LINE
  5
5CF
100
AcDbEntity
  8
0
 62
     0
370
    -2
100
AcDbLine
 10
-0.40360678
 20
-0.30360678
 30
0.0
 11
0.30360678
 21
0.40360678
 31
0.0
  0
ENDBLK
  5
5D0
100
AcDbEntity
100
AcDbBlockEnd
  0
BLOCK
  5
5D1
100
AcDbEntity
  8
0
100
AcDbBlockBegin
  2
CDWK_PTTYP35
 70
     0
 10
0.0
 20
0.0
 30
0.0
  3
CDWK_PTTYP35
  1

  4
Cadwork node
  0
CIRCLE
  5
5D2
100
AcDbEntity
  8
0
 62
     0
370
    -2
100
AcDbCircle
 10
0.0
 20
0.0
 30
0.0
 40
0.21431634
  0
LINE
  5
5D3
100
AcDbEntity
  8
0
 62
     0
370
    -2
100
AcDbLine
 10
0.0
 20
0.21431634
 30
0.0
 11
0.0
 21
0.5
 31
0.0
  0
LINE
  5
5D4
100
AcDbEntity
  8
0
 62
     0
370
    -2
100
AcDbLine
 10
0.0
 20
-0.21431634
 30
0.0
 11
0.0
 21
-0.5
 31
0.0
  0
ENDBLK
  5
5D5
100
AcDbEntity
100
AcDbBlockEnd
  0
BLOCK
  5
5D6
100
AcDbEntity
  8
0
100
AcDbBlockBegin
  2
CDWK_PTTYP36
 70
     0
 10
0.0
 20
0.0
 30
0.0
  3
CDWK_PTTYP36
  1

  4
Cadwork node
  0
LINE
  5
5D7
100
AcDbEntity
  8
0
 62
     0
370
    -2
100
AcDbLine
 10
-0.5
 20
-0.16666667
 30
0.0
 11
0.5
 21
-0.16666667
 31
0.0
  0
LINE
  5
5D8
100
AcDbEntity
  8
0
 62
     0
370
    -2
100
AcDbLine
 10
0.5
 20
-0.16666667
 30
0.0
 11
0.5
 21
0.16666667
 31
0.0
  0
LINE
  5
5D9
100
AcDbEntity
  8
0
 62
     0
370
    -2
100
AcDbLine
 10
0.5
 20
0.16666667
 30
0.0
 11
-0.5
 21
0.16666667
 31
0.0
  0
LINE
  5
5DA
100
AcDbEntity
  8
0
 62
     0
370
    -2
100
AcDbLine
 10
-0.5
 20
0.16666667
 30
0.0
 11
-0.5
 21
-0.16666667
 31
0.0
  0
SOLID
  5
5DB
100
AcDbEntity
  8
0
 62
     0
100
AcDbTrace
 10
-0.5
 20
-0.16666667
 11
0.5
 21
0.16666667
 12
0.5
 22
-0.16666667
 13
0.5
 23
-0.16666667
  0
ENDBLK
  5
5DC
100
AcDbEntity
100
AcDbBlockEnd
  0
BLOCK
  5
5DD
100
AcDbEntity
  8
0
100
AcDbBlockBegin
  2
CDWK_PTTYP37
 70
     0
 10
0.0
 20
0.0
 30
0.0
  3
CDWK_PTTYP37
  1

  4
Cadwork node
  0
CIRCLE
  5
5DE
100
AcDbEntity
  8
0
 62
     0
370
    -2
100
AcDbCircle
 10
0.0
 20
0.0
 30
0.0
 40
0.5
  0
SOLID
  5
5DF
100
AcDbEntity
  8
0
 62
     0
100
AcDbTrace
 10
0.0
 20
0.0
 11
0.35350001
 21
0.35350001
 12
0.5
 22
0.0
 13
0.46200001
 23
0.19149999
  0
SOLID
  5
5E0
100
AcDbEntity
  8
0
 62
     0
100
AcDbTrace
 10
0.0
 20
0.0
 11
0.35350001
 21
-0.35350001
 12
0.5
 22
0.0
 13
0.46200001
 23
-0.19149999
  0
SOLID
  5
5E1
100
AcDbEntity
  8
0
 62
     0
100
AcDbTrace
 10
0.0
 20
0.0
 11
0.0
 21
-0.5
 12
0.35350001
 22
-0.35350001
 13
0.19149999
 23
-0.46200001
  0
SOLID
  5
5E2
100
AcDbEntity
  8
0
 62
     0
100
AcDbTrace
 10
0.0
 20
0.0
 11
0.0
 21
-0.5
 12
-0.35350001
 22
-0.35350001
 13
-0.19149999
 23
-0.46200001
  0
ENDBLK
  5
5E3
100
AcDbEntity
100
AcDbBlockEnd
  0
BLOCK
  5
5E4
100
AcDbEntity
  8
0
100
AcDbBlockBegin
  2
CDWK_PTTYP38
 70
     0
 10
0.0
 20
0.0
 30
0.0
  3
CDWK_PTTYP38
  1

  4
Cadwork node
  0
CIRCLE
  5
5E5
100
AcDbEntity
  8
0
 62
     0
370
    -2
100
AcDbCircle
 10
0.0
 20
0.0
 30
0.0
 40
0.5
  0
SOLID
  5
5E6
100
AcDbEntity
  8
0
 62
     0
100
AcDbTrace
 10
0.0
 20
0.0
 11
0.35350001
 21
0.35350001
 12
0.0
 22
0.5
 13
0.19149999
 23
0.46200001
  0
SOLID
  5
5E7
100
AcDbEntity
  8
0
 62
     0
100
AcDbTrace
 10
0.0
 20
0.0
 11
0.5
 21
0.0
 12
0.35350001
 22
0.35350001
 13
0.46200001
 23
0.19149999
  0
SOLID
  5
5E8
100
AcDbEntity
  8
0
 62
     0
100
AcDbTrace
 10
0.0
 20
0.0
 11
0.0
 21
-0.5
 12
-0.35350001
 22
-0.35350001
 13
-0.19149999
 23
-0.46200001
  0
SOLID
  5
5E9
100
AcDbEntity
  8
0
 62
     0
100
AcDbTrace
 10
0.0
 20
0.0
 11
-0.5
 21
0.0
 12
-0.35350001
 22
-0.35350001
 13
-0.46200001
 23
-0.19149999
  0
ENDBLK
  5
5EA
100
AcDbEntity
100
AcDbBlockEnd
  0
ENDSEC
  0
SECTION
  2
ENTITIES
  0
LWPOLYLINE
  5
5EB
102
{ACAD_REACTORS
330
5EC
102
}
100
AcDbEntity
  8
Ech.1_5
 62
   190
  6
CONTINUOUS
370
    -3
100
AcDbPolyline
 90
        4
 70
     1
 43
0.0
 10
43060.42511655
 20
-8991.70437875
 10
43060.42511655
 20
-9116.49044757
 10
43085.43803894
 20
-9116.49044757
 10
43085.43803894
 20
-8991.69993778
  0
HATCH
  5
5EC
100
AcDbEntity
  8
Ech.1_5
 62
   253
  6
CONTINUOUS
100
AcDbHatch
 10
0.0
 20
0.0
 30
0.0
210
0.0
220
0.0
230
1.0
  2
SOLID
 70
     1
 71
     1
 91
        1
 92
        7
 72
     0
 73
     1
 93
        4
 10
43060.42511655
 20
-8991.70437875
 10
43060.42511655
 20
-9116.49044757
 10
43085.43803894
 20
-9116.49044757
 10
43085.43803894
 20
-8991.69993778
 97
        1
330
5EB
 75
     0
 76
     2
 47
0.775229
 98
        1
 10
0.0
 20
0.0
  0
LWPOLYLINE
  5
5ED
100
AcDbEntity
  8
Ech.1_5
 62
   190
  6
CONTINUOUS
370
    -3
100
AcDbPolyline
 90
        3
 70
     0
 43
0.0
 10
43607.93765168
 20
-9019.86010944
 10
43601.45806271
 20
-8995.64566051
 42
-0.25125178
 10
43607.93765168
 20
-8968.03587448
  0
LWPOLYLINE
  5
5EE
102
{ACAD_REACTORS
330
5EF
102
}
100
AcDbEntity
  8
Ech.1_5
 62
     9
  6
CONTINUOUS
370
    -3
100
AcDbPolyline
 90
        4
 70
     1
 43
0.0
 10
43085.43583281
 20
-8727.88015756
 10
43607.93765168
 20
-8727.88015756
 10
43607.93765168
 20
-8927.88327801
 10
43085.43583281
 20
-8927.88015758
  0
HATCH
  5
5EF
100
AcDbEntity
  8
Ech.1_5
 62
     9
  6
CONTINUOUS
100
AcDbHatch
 10
0.0
 20
0.0
 30
0.0
210
0.0
220
0.0
230
1.0
  2
AR-CONC
 70
     0
 71
     1
 91
        1
 92
        7
 72
     0
 73
     1
 93
        4
 10
43085.43583281
 20
-8727.88015756
 10
43607.93765168
 20
-8727.88015756
 10
43607.93765168
 20
-8927.88327801
 10
43085.43583281
 20
-8927.88015758
 97
        1
330
5EE
 75
     0
 76
     2
 52
0.0
 41
0.11811097
 77
     0
 78
    13
 53
50.0
 43
0.0
 44
0.0
 45
-18.84283637
 46
1.64853443
 79
     2
 49
1.97029307
 49
-21.67322338
 53
355.0
 43
0.0
 44
0.0
 45
-3.64507756
 46
19.76051824
 79
     2
 49
1.57623377
 49
-17.3385787
 53
100.45140076
 43
1.57023568
 44
-0.13737749
 45
-15.19777228
 46
-18.11197244
 79
     2
 49
1.67449124
 49
-18.41940522
 53
46.18420029
 43
0.0
 44
5.25411576
 45
-28.03703353
 46
4.34827878
 79
     2
 49
2.95543872
 49
-32.50983238
 53
96.63559723
 43
2.33641885
 44
4.89175692
 45
-24.55412615
 46
-25.59063404
 79
     2
 49
2.51173697
 49
-27.62910426
 53
351.1842041
 43
0.0
 44
5.25411576
 45
24.55410288
 46
25.59065715
 79
     2
 49
2.36435249
 49
-26.00786805
 53
21.0
 43
2.62705699
 44
3.94058615
 45
-15.68109068
 46
10.57702905
 79
     2
 49
1.97029307
 49
-21.67322338
 53
326.0
 43
2.62705699
 44
3.94058615
 45
6.39203268
 46
19.05010734
 79
     2
 49
1.57623377
 49
-17.3385787
 53
71.45140076
 43
3.93381357
 44
3.05916555
 45
-22.07312962
 46
-8.47306182
 79
     2
 49
1.67449124
 49
-18.41940522
 53
37.5
 43
0.0
 44
0.0
 45
0.31944534
 46
8.74531245
 79
     6
 49
0.01875
 49
-17.12841332
 49
0.01875
 49
-17.60128498
 49
0.01875
 49
-17.40425348
 53
7.5
 43
0.0
 44
0.0
 45
6.91098818
 46
10.3614222
 79
     6
 49
0.01875
 49
-10.03535807
 49
0.01875
 49
-16.7343539
 49
0.01875
 49
-6.6333206
 53
-32.5
 43
-5.85833833
 44
0.0
 45
14.02382061
 46
-0.59253003
 79
     6
 49
0.01875
 49
-6.56764314
 49
0.01875
 49
-20.49104869
 49
0.01875
 49
-27.19004452
 53
-42.5
 43
-8.48539531
 44
0.0
 45
15.32063571
 46
2.62981542
 79
     6
 49
0.01875
 49
-8.53793621
 49
0.01875
 49
-13.60815793
 49
0.01875
 49
-19.30887222
 47
0.775229
 98
        1
 10
0.0
 20
0.0
  0
LWPOLYLINE
  5
5F0
100
AcDbEntity
  8
Ech.1_5
 62
     9
  6
CONTINUOUS
370
    -3
100
AcDbPolyline
 90
        4
 70
     0
 43
0.0
 10
43100.43803894
 20
-9191.90849983
 10
43607.93698008
 20
-9191.88107216
 10
43607.93665154
 20
-9171.8822776
 10
43100.43803894
 20
-9171.93815815
  0
LWPOLYLINE
  5
5F1
100
AcDbEntity
  8
Ech.1_5
 62
     9
  6
CONTINUOUS
370
    -3
100
AcDbPolyline
 90
        4
 70
     0
 43
0.0
 10
43045.43928398
 20
-9171.91073048
 10
42537.94066529
 20
-9171.93788444
 10
42537.94085801
 20
-9191.88107216
 10
43045.43928398
 20
-9191.88107216
  0
LWPOLYLINE
  5
5F2
100
AcDbEntity
  8
Ech.1_5
 62
   190
  6
CONTINUOUS
370
    -3
100
AcDbPolyline
 90
        4
 70
     1
 43
0.0
 10
43085.43803894
 20
-8957.88327801
 10
43085.43583281
 20
-8927.88327801
 10
43285.43583281
 20
-8927.88327801
 10
43285.44115923
 20
-8957.88327801
  0
LWPOLYLINE
  5
5F3
100
AcDbEntity
  8
Ech.1_5
 62
   190
  6
CONTINUOUS
370
    -3
100
AcDbPolyline
 90
       80
 70
     0
 43
0.0
 10
43085.43588796
 20
-8952.88143932
 42
1.14028188
 10
43095.26480773
 20
-8951.58754551
 10
43090.60608571
 20
-8934.1769706
 42
-1.3032262
 10
43100.26463209
 20
-8934.17707741
 10
43095.60552597
 20
-8951.58754932
 42
1.30322611
 10
43105.26407235
 20
-8951.58765518
 10
43100.60535033
 20
-8934.17708027
 42
-1.3032262
 10
43110.26389671
 20
-8934.17718708
 10
43105.60479059
 20
-8951.587659
 42
1.3032262
 10
43115.26333697
 20
-8951.58776581
 10
43110.60461495
 20
-8934.17719089
 42
-1.3032262
 10
43120.26316133
 20
-8934.17729771
 10
43115.60405521
 20
-8951.58776962
 42
1.3032262
 10
43125.26260159
 20
-8951.58787643
 10
43120.60387957
 20
-8934.17730152
 42
-1.30322611
 10
43130.26242595
 20
-8934.17740738
 10
43125.60331983
 20
-8951.58787929
 42
1.3032262
 10
43135.26186621
 20
-8951.58798611
 10
43130.60314419
 20
-8934.17741119
 42
-1.3032262
 10
43140.26169057
 20
-8934.177518
 10
43135.60258446
 20
-8951.58798992
 42
1.3032262
 10
43145.26113084
 20
-8951.58809673
 10
43140.60240881
 20
-8934.17752182
 42
-1.3032262
 10
43150.26095519
 20
-8934.17762863
 10
43145.60184908
 20
-8951.58810055
 42
1.3032263
 10
43155.26039546
 20
-8951.5882064
 10
43150.60167343
 20
-8934.17763245
 42
-1.30322611
 10
43160.26021981
 20
-8934.1777383
 10
43155.6011137
 20
-8951.58821022
 42
1.3032262
 10
43165.25966008
 20
-8951.58831703
 10
43160.60093805
 20
-8934.17774212
 42
-1.3032262
 10
43170.25948443
 20
-8934.17784893
 10
43165.60037832
 20
-8951.58832085
 42
1.3032262
 10
43175.2589247
 20
-8951.58842766
 10
43170.60020267
 20
-8934.17785274
 42
-1.3032262
 10
43180.25874905
 20
-8934.17795956
 10
43175.59964294
 20
-8951.58843147
 42
1.3032263
 10
43185.25818932
 20
-8951.58853733
 10
43180.59946729
 20
-8934.17796337
 42
-1.30322611
 10
43190.25801367
 20
-8934.17806923
 10
43185.59890756
 20
-8951.58854114
 42
1.3032262
 10
43195.25745394
 20
-8951.58864796
 10
43190.59873192
 20
-8934.17807304
 42
-1.3032262
 10
43200.2572783
 20
-8934.17817985
 10
43195.59817218
 20
-8951.58865177
 42
1.3032262
 10
43205.25671856
 20
-8951.58875858
 10
43200.59799654
 20
-8934.17818367
 42
-1.3032262
 10
43210.25654292
 20
-8934.17829048
 10
43205.5974368
 20
-8951.5887624
 42
1.30322611
 10
43215.25598318
 20
-8951.58886825
 10
43210.59726116
 20
-8934.17829429
 42
-1.30322611
 10
43220.25580754
 20
-8934.17840015
 10
43215.59670142
 20
-8951.58887207
 42
1.3032262
 10
43225.2552478
 20
-8951.58897888
 10
43220.59652578
 20
-8934.17840397
 42
-1.3032262
 10
43230.25507216
 20
-8934.17851078
 10
43225.59596604
 20
-8951.5889827
 42
1.3032262
 10
43235.25451242
 20
-8951.58908951
 10
43230.5957904
 20
-8934.17851459
 42
-1.3032262
 10
43240.25433678
 20
-8934.17862141
 10
43235.59523067
 20
-8951.58909332
 42
1.30322611
 10
43245.25377705
 20
-8951.58919918
 10
43240.59505502
 20
-8934.17862522
 42
-1.30322611
 10
43250.2536014
 20
-8934.17873108
 10
43245.59449529
 20
-8951.58920299
 42
1.3032262
 10
43255.25304167
 20
-8951.58930981
 10
43250.59431964
 20
-8934.17873489
 42
-1.3032262
 10
43260.25286602
 20
-8934.1788417
 10
43255.59375991
 20
-8951.58931362
 42
1.3032262
 10
43265.25230629
 20
-8951.58942043
 10
43260.59358426
 20
-8934.17884552
 42
-1.3032262
 10
43270.25213064
 20
-8934.17895233
 10
43265.59302453
 20
-8951.58942425
 42
1.30322611
 10
43275.25157091
 20
-8951.5895301
 10
43270.59284888
 20
-8934.17895614
 42
-1.30322611
 10
43280.25139526
 20
-8934.179062
 10
43275.59228915
 20
-8951.58953392
 42
1.3032262
 10
43285.25083553
 20
-8951.58964073
 10
43280.5921135
 20
-8934.17906582
 42
-0.49438213
 10
43285.44149011
 20
-8927.88552391
  0
LWPOLYLINE
  5
5F4
102
{ACAD_REACTORS
330
5F5
102
}
100
AcDbEntity
  8
Ech.1_5
 62
     9
  6
CONTINUOUS
370
    -3
100
AcDbPolyline
 90
        4
 70
     1
 43
0.0
 10
42537.94091102
 20
-8727.88015756
 10
43060.43583281
 20
-8727.88015756
 10
43060.43583281
 20
-8927.88327801
 10
42537.94091102
 20
-8927.88015758
  0
HATCH
  5
5F5
100
AcDbEntity
  8
Ech.1_5
 62
     9
  6
CONTINUOUS
100
AcDbHatch
 10
0.0
 20
0.0
 30
0.0
210
0.0
220
0.0
230
1.0
  2
AR-CONC
 70
     0
 71
     1
 91
        1
 92
        7
 72
     0
 73
     1
 93
        4
 10
42537.94091102
 20
-8727.88015756
 10
43060.43583281
 20
-8727.88015756
 10
43060.43583281
 20
-8927.88327801
 10
42537.94091102
 20
-8927.88015758
 97
        1
330
5F4
 75
     0
 76
     2
 52
0.0
 41
0.11811097
 77
     0
 78
    13
 53
50.0
 43
0.0
 44
0.0
 45
-18.84283637
 46
1.64853443
 79
     2
 49
1.97029307
 49
-21.67322338
 53
355.0
 43
0.0
 44
0.0
 45
-3.64507756
 46
19.76051824
 79
     2
 49
1.57623377
 49
-17.3385787
 53
100.45140076
 43
1.57023568
 44
-0.13737749
 45
-15.19777228
 46
-18.11197244
 79
     2
 49
1.67449124
 49
-18.41940522
 53
46.18420029
 43
0.0
 44
5.25411576
 45
-28.03703353
 46
4.34827878
 79
     2
 49
2.95543872
 49
-32.50983238
 53
96.63559723
 43
2.33641885
 44
4.89175692
 45
-24.55412615
 46
-25.59063404
 79
     2
 49
2.51173697
 49
-27.62910426
 53
351.1842041
 43
0.0
 44
5.25411576
 45
24.55410288
 46
25.59065715
 79
     2
 49
2.36435249
 49
-26.00786805
 53
21.0
 43
2.62705699
 44
3.94058615
 45
-15.68109068
 46
10.57702905
 79
     2
 49
1.97029307
 49
-21.67322338
 53
326.0
 43
2.62705699
 44
3.94058615
 45
6.39203268
 46
19.05010734
 79
     2
 49
1.57623377
 49
-17.3385787
 53
71.45140076
 43
3.93381357
 44
3.05916555
 45
-22.07312962
 46
-8.47306182
 79
     2
 49
1.67449124
 49
-18.41940522
 53
37.5
 43
0.0
 44
0.0
 45
0.31944534
 46
8.74531245
 79
     6
 49
0.01875
 49
-17.12841332
 49
0.01875
 49
-17.60128498
 49
0.01875
 49
-17.40425348
 53
7.5
 43
0.0
 44
0.0
 45
6.91098818
 46
10.3614222
 79
     6
 49
0.01875
 49
-10.03535807
 49
0.01875
 49
-16.7343539
 49
0.01875
 49
-6.6333206
 53
-32.5
 43
-5.85833833
 44
0.0
 45
14.02382061
 46
-0.59253003
 79
     6
 49
0.01875
 49
-6.56764314
 49
0.01875
 49
-20.49104869
 49
0.01875
 49
-27.19004452
 53
-42.5
 43
-8.48539531
 44
0.0
 45
15.32063571
 46
2.62981542
 79
     6
 49
0.01875
 49
-8.53793621
 49
0.01875
 49
-13.60815793
 49
0.01875
 49
-19.30887222
 47
0.775229
 98
        1
 10
0.0
 20
0.0
  0
LWPOLYLINE
  5
5F6
100
AcDbEntity
  8
Ech.1_5
 62
   190
  6
CONTINUOUS
370
    -3
100
AcDbPolyline
 90
        4
 70
     1
 43
0.0
 10
42860.43803894
 20
-8957.88327801
 10
42860.43583281
 20
-8927.88327801
 10
43060.43583281
 20
-8927.88327801
 10
43060.44115923
 20
-8957.88327801
  0
LWPOLYLINE
  5
5F7
100
AcDbEntity
  8
Ech.1_5
 62
   190
  6
CONTINUOUS
370
    -3
100
AcDbPolyline
 90
       80
 70
     0
 43
0.0
 10
42860.43588796
 20
-8952.88143932
 42
1.14028188
 10
42870.26480773
 20
-8951.58754551
 10
42865.60608571
 20
-8934.1769706
 42
-1.3032262
 10
42875.26463209
 20
-8934.17707741
 10
42870.60552597
 20
-8951.58754932
 42
1.30322611
 10
42880.26407235
 20
-8951.58765518
 10
42875.60535033
 20
-8934.17708027
 42
-1.3032262
 10
42885.26389671
 20
-8934.17718708
 10
42880.60479059
 20
-8951.587659
 42
1.3032262
 10
42890.26333697
 20
-8951.58776581
 10
42885.60461495
 20
-8934.17719089
 42
-1.3032262
 10
42895.26316133
 20
-8934.17729771
 10
42890.60405521
 20
-8951.58776962
 42
1.3032262
 10
42900.26260159
 20
-8951.58787643
 10
42895.60387957
 20
-8934.17730152
 42
-1.30322611
 10
42905.26242595
 20
-8934.17740738
 10
42900.60331983
 20
-8951.58787929
 42
1.3032262
 10
42910.26186621
 20
-8951.58798611
 10
42905.60314419
 20
-8934.17741119
 42
-1.3032262
 10
42915.26169057
 20
-8934.177518
 10
42910.60258446
 20
-8951.58798992
 42
1.3032262
 10
42920.26113084
 20
-8951.58809673
 10
42915.60240881
 20
-8934.17752182
 42
-1.3032262
 10
42925.26095519
 20
-8934.17762863
 10
42920.60184908
 20
-8951.58810055
 42
1.3032263
 10
42930.26039546
 20
-8951.5882064
 10
42925.60167343
 20
-8934.17763245
 42
-1.30322611
 10
42935.26021981
 20
-8934.1777383
 10
42930.6011137
 20
-8951.58821022
 42
1.3032262
 10
42940.25966008
 20
-8951.58831703
 10
42935.60093805
 20
-8934.17774212
 42
-1.3032262
 10
42945.25948443
 20
-8934.17784893
 10
42940.60037832
 20
-8951.58832085
 42
1.3032262
 10
42950.2589247
 20
-8951.58842766
 10
42945.60020267
 20
-8934.17785274
 42
-1.3032262
 10
42955.25874905
 20
-8934.17795956
 10
42950.59964294
 20
-8951.58843147
 42
1.3032263
 10
42960.25818932
 20
-8951.58853733
 10
42955.59946729
 20
-8934.17796337
 42
-1.30322611
 10
42965.25801367
 20
-8934.17806923
 10
42960.59890756
 20
-8951.58854114
 42
1.3032262
 10
42970.25745394
 20
-8951.58864796
 10
42965.59873192
 20
-8934.17807304
 42
-1.3032262
 10
42975.2572783
 20
-8934.17817985
 10
42970.59817218
 20
-8951.58865177
 42
1.3032262
 10
42980.25671856
 20
-8951.58875858
 10
42975.59799654
 20
-8934.17818367
 42
-1.3032262
 10
42985.25654292
 20
-8934.17829048
 10
42980.5974368
 20
-8951.5887624
 42
1.30322611
 10
42990.25598318
 20
-8951.58886825
 10
42985.59726116
 20
-8934.17829429
 42
-1.30322611
 10
42995.25580754
 20
-8934.17840015
 10
42990.59670142
 20
-8951.58887207
 42
1.3032262
 10
43000.2552478
 20
-8951.58897888
 10
42995.59652578
 20
-8934.17840397
 42
-1.3032262
 10
43005.25507216
 20
-8934.17851078
 10
43000.59596604
 20
-8951.5889827
 42
1.3032262
 10
43010.25451242
 20
-8951.58908951
 10
43005.5957904
 20
-8934.17851459
 42
-1.3032262
 10
43015.25433678
 20
-8934.17862141
 10
43010.59523067
 20
-8951.58909332
 42
1.30322611
 10
43020.25377705
 20
-8951.58919918
 10
43015.59505502
 20
-8934.17862522
 42
-1.30322611
 10
43025.2536014
 20
-8934.17873108
 10
43020.59449529
 20
-8951.58920299
 42
1.3032262
 10
43030.25304167
 20
-8951.58930981
 10
43025.59431964
 20
-8934.17873489
 42
-1.3032262
 10
43035.25286602
 20
-8934.1788417
 10
43030.59375991
 20
-8951.58931362
 42
1.3032262
 10
43040.25230629
 20
-8951.58942043
 10
43035.59358426
 20
-8934.17884552
 42
-1.3032262
 10
43045.25213064
 20
-8934.17895233
 10
43040.59302453
 20
-8951.58942425
 42
1.30322611
 10
43050.25157091
 20
-8951.5895301
 10
43045.59284888
 20
-8934.17895614
 42
-1.30322611
 10
43055.25139526
 20
-8934.179062
 10
43050.59228915
 20
-8951.58953392
 42
1.3032262
 10
43060.25083553
 20
-8951.58964073
 10
43055.5921135
 20
-8934.17906582
 42
-0.49438213
 10
43060.44149011
 20
-8927.88552391
  0
LWPOLYLINE
  5
5F8
100
AcDbEntity
  8
Ech.1_5
 62
   190
  6
CONTINUOUS
370
    -3
100
AcDbPolyline
 90
        4
 70
     0
 43
0.0
 10
43130.43803894
 20
-9137.88420021
 10
43085.43803894
 20
-8957.88327801
 10
43130.43803894
 20
-8957.88327801
 10
43085.43803894
 20
-9137.88420021
  0
LWPOLYLINE
  5
5F9
100
AcDbEntity
  8
Ech.1_5
 62
   190
  6
CONTINUOUS
370
    -3
100
AcDbPolyline
 90
       10
 70
     0
 43
0.0
 10
43130.43803894
 20
-9107.88404667
 42
1.1402818
 10
43189.41611126
 20
-9100.11941826
 10
43161.4604278
 20
-8995.64806091
 42
-1.30322621
 10
43219.41626498
 20
-8995.64806091
 10
43191.46058153
 20
-9100.11941826
 42
1.30322617
 10
43249.41641871
 20
-9100.11941826
 10
43221.46073525
 20
-8995.64806091
 42
-1.30322621
 10
43279.41657243
 20
-8995.64806091
 10
43251.46088898
 20
-9100.11941826
 42
0.54628394
 10
43285.43583281
 20
-9137.46510422
  0
LINE
  5
5FA
100
AcDbEntity
  8
Ech.1_5
 62
   150
  6
CADWORK_22
370
    35
100
AcDbLine
 10
43085.43803894
 20
-9147.88107216
 30
2500.0
 11
43607.93583281
 21
-9146.87886631
 31
2500.0
  0
LWPOLYLINE
  5
5FB
100
AcDbEntity
  8
Ech.1_5
 62
     9
  6
CONTINUOUS
370
    -3
100
AcDbPolyline
 90
        4
 70
     0
 43
0.0
 10
43085.43803894
 20
-9146.93815815
 10
43135.43803894
 20
-9171.93815815
 10
43135.43803894
 20
-9146.93815815
 10
43085.43815225
 20
-9171.93815815
  0
LWPOLYLINE
  5
5FC
100
AcDbEntity
  8
Ech.1_5
 62
     9
  6
CONTINUOUS
370
    40
100
AcDbPolyline
 90
        5
 70
     0
 43
0.0
 10
43085.43803894
 20
-9171.93815815
 10
43135.43803894
 20
-9171.93815815
 10
43135.43803894
 20
-9146.93815815
 10
43085.43803894
 20
-9146.93815815
 10
43085.43803894
 20
-9171.93815815
  0
LWPOLYLINE
  5
5FD
100
AcDbEntity
  8
Ech.1_5
 62
   190
  6
CONTINUOUS
370
    -3
100
AcDbPolyline
 90
        4
 70
     0
 43
0.0
 10
43015.43928398
 20
-9137.88420021
 10
43060.43928398
 20
-8957.88327801
 10
43015.43928398
 20
-8957.88327801
 10
43060.43928398
 20
-9137.88420021
  0
LWPOLYLINE
  5
5FE
100
AcDbEntity
  8
Ech.1_5
 62
     9
  6
CONTINUOUS
370
    -3
100
AcDbPolyline
 90
        4
 70
     0
 43
0.0
 10
43060.43928398
 20
-9146.93815815
 10
43010.43928398
 20
-9171.93815815
 10
43010.43928398
 20
-9146.93815815
 10
43060.43917067
 20
-9171.93815815
  0
LWPOLYLINE
  5
5FF
100
AcDbEntity
  8
Ech.1_5
 62
     9
  6
CONTINUOUS
370
    40
100
AcDbPolyline
 90
        5
 70
     0
 43
0.0
 10
43010.43928398
 20
-9171.93815815
 10
43060.43928398
 20
-9171.93815815
 10
43060.43928398
 20
-9146.93815815
 10
43010.43928398
 20
-9146.93815815
 10
43010.43928398
 20
-9171.93815815
  0
LWPOLYLINE
  5
600
100
AcDbEntity
  8
Ech.1_5
 62
   150
  6
CADWORK_22
370
    35
100
AcDbPolyline
 90
        7
 70
     0
 43
0.0
 38
2500.0
 10
42537.9413655
 20
-9146.87665951
 10
43060.43928398
 20
-9146.87665951
 42
0.44667535
 10
43064.35541691
 20
-9130.97430908
 42
-0.4142136
 10
43072.9383204
 20
-9122.39140522
 42
-0.4142136
 10
43081.5212239
 20
-9130.97430908
 42
0.29920964
 10
43085.43588796
 20
-9151.87849819
 10
43343.44125709
 20
-9151.87849819
  0
LINE
  5
601
100
AcDbEntity
  8
Ech.1_5
 62
     9
  6
CONTINUOUS
370
    -3
100
AcDbLine
 10
43045.43928398
 20
-9171.93815815
 30
0.0
 11
43045.43928398
 21
-9191.90849983
 31
0.0
  0
LINE
  5
602
100
AcDbEntity
  8
Ech.1_5
 62
     9
  6
CONTINUOUS
370
    -3
100
AcDbLine
 10
43100.43803894
 20
-9171.93815815
 30
0.0
 11
43100.43803894
 21
-9191.90849983
 31
0.0
  0
LWPOLYLINE
  5
603
100
AcDbEntity
  8
Ech.1_5
 62
     3
  6
CADWORK_22
370
    35
100
AcDbPolyline
 90
        9
 70
     0
 43
0.0
 38
2500.0
 10
43000.43928398
 20
-9161.90631306
 10
43010.43928398
 20
-9171.93815815
 10
43060.43928398
 20
-9171.93815815
 42
0.44667534
 10
43064.35541691
 20
-9156.03580677
 42
-0.41421356
 10
43072.9383204
 20
-9147.45290386
 42
-0.41421356
 10
43081.5212239
 20
-9156.03580677
 42
0.44667534
 10
43085.43735683
 20
-9171.93815815
 10
43135.43803894
 20
-9171.93815815
 10
43145.43803894
 20
-9161.90631306
  0
LWPOLYLINE
  5
604
102
{ACAD_REACTORS
330
605
102
}
100
AcDbEntity
  8
Ech.1_5
 62
    81
  6
CONTINUOUS
370
     5
100
AcDbPolyline
 90
        4
 70
     1
 43
0.0
 10
43085.43803894
 20
-8927.88015758
 10
43060.43928398
 20
-8927.88236439
 10
43060.43928398
 20
-8727.88548383
 10
43085.43803894
 20
-8727.88015756
  0
HATCH
  5
605
100
AcDbEntity
  8
Ech.1_5
 62
    81
  6
CONTINUOUS
100
AcDbHatch
 10
0.0
 20
0.0
 30
0.0
210
0.0
220
0.0
230
1.0
  2
SOLID
 70
     1
 71
     1
 91
        1
 92
        7
 72
     0
 73
     1
 93
        4
 10
43085.43803894
 20
-8927.88015758
 10
43060.43928398
 20
-8927.88236439
 10
43060.43928398
 20
-8727.88548383
 10
43085.43803894
 20
-8727.88015756
 97
        1
330
604
 75
     0
 76
     2
 47
0.775229
 98
        1
 10
0.0
 20
0.0
  0
LWPOLYLINE
  5
606
102
{ACAD_REACTORS
330
607
102
}
100
AcDbEntity
  8
Ech.1_5
 62
     7
  6
CONTINUOUS
370
     5
100
AcDbPolyline
 90
        4
 70
     1
 43
0.0
 10
43085.25546701
 20
-8991.70437875
 10
43085.25546701
 20
-8960.7149407
 10
43062.61708276
 20
-8960.7149407
 10
43062.61708276
 20
-8991.70437875
  0
HATCH
  5
607
100
AcDbEntity
  8
Ech.1_5
 62
     2
  6
CONTINUOUS
100
AcDbHatch
 10
0.0
 20
0.0
 30
0.0
210
0.0
220
0.0
230
1.0
  2
SOLID
 70
     1
 71
     1
 91
        1
 92
        7
 72
     0
 73
     1
 93
        4
 10
43085.25546701
 20
-8991.70437875
 10
43085.25546701
 20
-8960.7149407
 10
43062.61708276
 20
-8960.7149407
 10
43062.61708276
 20
-8991.70437875
 97
        1
330
606
 75
     0
 76
     2
 47
0.775229
 98
        1
 10
0.0
 20
0.0
  0
HATCH
  5
608
100
AcDbEntity
  8
Ech.1_5
 62
     7
100
AcDbHatch
 10
0.0
 20
0.0
 30
0.0
210
0.0
220
0.0
230
1.0
  2
ANSI37
 70
     0
 71
     0
 91
        1
 92
        7
 72
     0
 73
     1
 93
        4
 10
43085.25546701
 20
-8991.70437875
 10
43085.25546701
 20
-8960.7149407
 10
43062.61708276
 20
-8960.7149407
 10
43062.61708276
 20
-8991.70437875
 97
        0
 75
     0
 76
     2
 52
0.0
 41
1.87498831
 77
     0
 78
     2
 53
45.0
 43
0.0
 44
0.0
 45
4.20946876
 46
-4.20946876
 79
     0
 53
-45.0
 43
0.0
 44
0.0
 45
4.20946876
 46
4.20946876
 79
     0
 47
0.775229
 98
        1
 10
0.0
 20
0.0
  0
LWPOLYLINE
  5
609
100
AcDbEntity
  8
Ech.1_5
 62
   190
  6
CONTINUOUS
370
    -3
100
AcDbPolyline
 90
        8
 70
     1
 43
0.0
 10
43607.93377802
 20
-9038.76275169
 10
43589.95542642
 20
-9022.27639782
 10
43625.91112643
 20
-9036.38633739
 10
43607.93377802
 20
-9019.9008342
 10
43607.93583281
 20
-8957.88107216
 10
43130.43803894
 20
-8957.88327801
 10
43130.43803894
 20
-9137.87886536
 10
43607.93611444
 20
-9137.88107216
  0
LWPOLYLINE
  5
60A
100
AcDbEntity
  8
Ech.1_5
 62
   190
  6
CONTINUOUS
370
    -3
100
AcDbPolyline
 90
       46
 70
     0
 43
0.0
 10
43130.43803894
 20
-9122.54273331
 42
0.78766762
 10
43187.14682082
 20
-9108.88348877
 42
0.06556383
 10
43186.12459093
 20
-9101.11648285
 10
43158.16905072
 20
-8996.64566051
 42
-1.30322617
 10
43216.12459093
 20
-8996.64566051
 10
43188.16905072
 20
-9101.11648285
 42
0.0655234
 10
43187.14682082
 20
-9108.87865555
 42
1.0
 10
43247.14682082
 20
-9108.88348877
 42
0.06556383
 10
43246.12459093
 20
-9101.11648285
 10
43218.16905072
 20
-8996.64566051
 42
-1.30322617
 10
43276.12459093
 20
-8996.64566051
 10
43248.16905072
 20
-9101.11648285
 42
0.0655234
 10
43247.14682082
 20
-9108.87865555
 42
1.0
 10
43307.14682082
 20
-9108.88348877
 42
0.06556383
 10
43306.12459093
 20
-9101.11648285
 10
43278.16905072
 20
-8996.64566051
 42
-1.30322617
 10
43336.12459093
 20
-8996.64566051
 10
43308.16905072
 20
-9101.11648285
 42
0.0655234
 10
43307.14682082
 20
-9108.87865555
 42
1.0
 10
43367.14682082
 20
-9108.88348877
 42
0.06556383
 10
43366.12459093
 20
-9101.11648285
 10
43338.16905072
 20
-8996.64566051
 42
-1.30322617
 10
43396.12459093
 20
-8996.64566051
 10
43368.16905072
 20
-9101.11648285
 42
0.0655234
 10
43367.14682082
 20
-9108.87865555
 42
1.0
 10
43427.14682082
 20
-9108.88348877
 42
0.06556383
 10
43426.12459093
 20
-9101.11648285
 10
43398.16905072
 20
-8996.64566051
 42
-1.30322617
 10
43456.12459093
 20
-8996.64566051
 10
43428.16905072
 20
-9101.11648285
 42
0.0655234
 10
43427.14682082
 20
-9108.87865555
 42
1.0
 10
43487.14682082
 20
-9108.88348877
 42
0.06556383
 10
43486.12459093
 20
-9101.11648285
 10
43458.16905072
 20
-8996.64566051
 42
-1.30322617
 10
43516.12459093
 20
-8996.64566051
 10
43488.16905072
 20
-9101.11648285
 42
0.0655234
 10
43487.14682082
 20
-9108.87865555
 42
0.99999999
 10
43547.14682082
 20
-9108.88348877
 42
0.06556383
 10
43546.12459093
 20
-9101.11648285
 10
43518.16905072
 20
-8996.64566051
 42
-1.30322617
 10
43576.12459093
 20
-8996.64566051
 10
43548.16905072
 20
-9101.11648285
 42
0.0655234
 10
43547.14682082
 20
-9108.87865555
 42
1.14032814
 10
43606.12459093
 20
-9101.11648285
 10
43578.16905072
 20
-8996.64566051
 42
-0.50134696
 10
43607.93583281
 20
-8958.89144909
  0
LWPOLYLINE
  5
60B
100
AcDbEntity
  8
Ech.1_5
 62
   190
  6
CONTINUOUS
370
    -3
100
AcDbPolyline
 90
        3
 70
     0
 43
0.0
 10
43130.43803894
 20
-8959.06215393
 42
-0.45942848
 10
43156.12459093
 20
-8996.64566051
 10
43130.43803894
 20
-9092.6371957
  0
LWPOLYLINE
  5
60C
100
AcDbEntity
  8
Ech.1_5
 62
     5
  6
CONTINUOUS
370
    -3
100
AcDbPolyline
 90
        5
 70
     0
 43
0.0
 10
43085.43803894
 20
-9137.88107216
 10
43085.43803894
 20
-8957.88327801
 10
43130.43803894
 20
-8957.88327801
 10
43130.43803894
 20
-9137.88107216
 10
43085.43803894
 20
-9137.88107216
  0
LWPOLYLINE
  5
60D
100
AcDbEntity
  8
Ech.1_5
 62
   190
  6
CONTINUOUS
370
    -3
100
AcDbPolyline
 90
        8
 70
     1
 43
0.0
 10
42537.9378876
 20
-9038.76275169
 10
42555.9162392
 20
-9022.27639782
 10
42519.96053919
 20
-9036.38633739
 10
42537.9378876
 20
-9019.9008342
 10
42537.93583281
 20
-8957.88107216
 10
43015.43362668
 20
-8957.88327801
 10
43015.43362668
 20
-9137.87886536
 10
42537.93555118
 20
-9137.88107216
  0
LWPOLYLINE
  5
60E
100
AcDbEntity
  8
Ech.1_5
 62
   190
  6
CONTINUOUS
370
    -3
100
AcDbPolyline
 90
       46
 70
     0
 43
0.0
 10
43015.43362668
 20
-9122.54273331
 42
-0.78766762
 10
42958.7248448
 20
-9108.88348877
 42
-0.06556383
 10
42959.74707469
 20
-9101.11648285
 10
42987.7026149
 20
-8996.64566051
 42
1.30322617
 10
42929.74707469
 20
-8996.64566051
 10
42957.7026149
 20
-9101.11648285
 42
-0.0655234
 10
42958.7248448
 20
-9108.87865555
 42
-1.0
 10
42898.7248448
 20
-9108.88348877
 42
-0.06556383
 10
42899.74707469
 20
-9101.11648285
 10
42927.7026149
 20
-8996.64566051
 42
1.30322617
 10
42869.74707469
 20
-8996.64566051
 10
42897.7026149
 20
-9101.11648285
 42
-0.0655234
 10
42898.7248448
 20
-9108.87865555
 42
-1.0
 10
42838.7248448
 20
-9108.88348877
 42
-0.06556383
 10
42839.74707469
 20
-9101.11648285
 10
42867.7026149
 20
-8996.64566051
 42
1.30322617
 10
42809.74707469
 20
-8996.64566051
 10
42837.7026149
 20
-9101.11648285
 42
-0.0655234
 10
42838.7248448
 20
-9108.87865555
 42
-1.0
 10
42778.7248448
 20
-9108.88348877
 42
-0.06556383
 10
42779.74707469
 20
-9101.11648285
 10
42807.7026149
 20
-8996.64566051
 42
1.30322617
 10
42749.74707469
 20
-8996.64566051
 10
42777.7026149
 20
-9101.11648285
 42
-0.0655234
 10
42778.7248448
 20
-9108.87865555
 42
-1.0
 10
42718.7248448
 20
-9108.88348877
 42
-0.06556383
 10
42719.74707469
 20
-9101.11648285
 10
42747.7026149
 20
-8996.64566051
 42
1.30322617
 10
42689.74707469
 20
-8996.64566051
 10
42717.7026149
 20
-9101.11648285
 42
-0.0655234
 10
42718.7248448
 20
-9108.87865555
 42
-1.0
 10
42658.7248448
 20
-9108.88348877
 42
-0.06556383
 10
42659.74707469
 20
-9101.11648285
 10
42687.7026149
 20
-8996.64566051
 42
1.30322617
 10
42629.74707469
 20
-8996.64566051
 10
42657.7026149
 20
-9101.11648285
 42
-0.0655234
 10
42658.7248448
 20
-9108.87865555
 42
-1.0
 10
42598.7248448
 20
-9108.88348877
 42
-0.06556383
 10
42599.74707469
 20
-9101.11648285
 10
42627.7026149
 20
-8996.64566051
 42
1.30322617
 10
42569.74707469
 20
-8996.64566051
 10
42597.7026149
 20
-9101.11648285
 42
-0.0655234
 10
42598.7248448
 20
-9108.87865555
 42
-1.14032814
 10
42539.74707469
 20
-9101.11648285
 10
42567.7026149
 20
-8996.64566051
 42
0.50134696
 10
42537.93583281
 20
-8958.89144909
  0
LWPOLYLINE
  5
60F
100
AcDbEntity
  8
Ech.1_5
 62
     5
  6
CONTINUOUS
370
    -3
100
AcDbPolyline
 90
        5
 70
     0
 43
0.0
 10
43060.43928398
 20
-9137.88107216
 10
43060.43928398
 20
-8957.88327801
 10
43015.43928398
 20
-8957.88327801
 10
43015.43928398
 20
-9137.88107216
 10
43060.43928398
 20
-9137.88107216
  0
LWPOLYLINE
  5
610
102
{ACAD_REACTORS
330
611
102
}
100
AcDbEntity
  8
Ech.1_5
 62
     7
  6
CONTINUOUS
370
     5
100
AcDbPolyline
 90
        4
 70
     1
 43
0.0
 10
43409.25565337
 20
-8590.09571447
 10
43435.08018445
 20
-8590.09571447
 10
43435.08018445
 20
-8580.66305437
 10
43409.25565337
 20
-8580.66305437
  0
HATCH
  5
611
100
AcDbEntity
  8
Ech.1_5
 62
     2
  6
CONTINUOUS
100
AcDbHatch
 10
0.0
 20
0.0
 30
0.0
210
0.0
220
0.0
230
1.0
  2
SOLID
 70
     1
 71
     1
 91
        1
 92
        7
 72
     0
 73
     1
 93
        4
 10
43409.25565337
 20
-8590.09571447
 10
43435.08018445
 20
-8590.09571447
 10
43435.08018445
 20
-8580.66305437
 10
43409.25565337
 20
-8580.66305437
 97
        1
330
610
 75
     0
 76
     2
 47
0.775229
 98
        1
 10
0.0
 20
0.0
  0
HATCH
  5
612
100
AcDbEntity
  8
Ech.1_5
 62
     7
100
AcDbHatch
 10
0.0
 20
0.0
 30
0.0
210
0.0
220
0.0
230
1.0
  2
ANSI37
 70
     0
 71
     0
 91
        1
 92
        7
 72
     0
 73
     1
 93
        4
 10
43409.25565337
 20
-8590.09571447
 10
43435.08018445
 20
-8590.09571447
 10
43435.08018445
 20
-8580.66305437
 10
43409.25565337
 20
-8580.66305437
 97
        0
 75
     0
 76
     2
 52
0.0
 41
1.87498831
 77
     0
 78
     2
 53
45.0
 43
0.0
 44
0.0
 45
4.20946876
 46
-4.20946876
 79
     0
 53
-45.0
 43
0.0
 44
0.0
 45
4.20946876
 46
4.20946876
 79
     0
 47
0.775229
 98
        1
 10
0.0
 20
0.0
  0
LWPOLYLINE
  5
613
100
AcDbEntity
  8
Ech.1_5
 62
   190
  6
CONTINUOUS
370
    -3
100
AcDbPolyline
 90
        5
 70
     0
 43
0.0
 10
43732.34071763
 20
-9512.40601397
 10
43732.34071763
 20
-8527.40601397
 10
42377.34071763
 20
-8527.40601397
 10
42377.34071763
 20
-9512.40601397
 10
43732.34071763
 20
-9512.40601397
  0
LWPOLYLINE
  5
614
100
AcDbEntity
  8
Ech.1_5
 62
   190
  6
CONTINUOUS
370
    -3
100
AcDbPolyline
 90
       96
 70
     0
 43
0.0
 10
43064.60249945
 20
-8727.88045707
 42
1.14028181
 10
43065.68032576
 20
-8736.0718915
 10
43080.19044121
 20
-8732.19022059
 42
-1.30322619
 10
43080.18986261
 20
-8740.23960114
 10
43065.68030535
 20
-8736.35584425
 42
1.30322619
 10
43065.67972674
 20
-8744.40522479
 10
43080.1898422
 20
-8740.52355388
 42
-1.30322619
 10
43080.1892636
 20
-8748.57293443
 10
43065.67970633
 20
-8744.68917754
 42
1.30322619
 10
43065.67912773
 20
-8752.73855808
 10
43080.18924319
 20
-8748.85688717
 42
-1.30322619
 10
43080.18866458
 20
-8756.90626772
 10
43065.67910732
 20
-8753.02251083
 42
1.30322619
 10
43065.67852872
 20
-8761.07189137
 10
43080.18864417
 20
-8757.19022046
 42
-1.30322619
 10
43080.18806557
 20
-8765.23960101
 10
43065.67850831
 20
-8761.35584412
 42
1.30322619
 10
43065.67792971
 20
-8769.40522466
 10
43080.18804516
 20
-8765.52355375
 42
-1.30322619
 10
43080.18746656
 20
-8773.5729343
 10
43065.67790929
 20
-8769.68917741
 42
1.30322619
 10
43065.67733069
 20
-8777.73855795
 10
43080.18744615
 20
-8773.85688704
 42
-1.30322619
 10
43080.18686755
 20
-8781.90626759
 10
43065.67731028
 20
-8778.0225107
 42
1.30322619
 10
43065.67673168
 20
-8786.07189124
 10
43080.18684713
 20
-8782.19022033
 42
-1.30322619
 10
43080.18626853
 20
-8790.23960088
 10
43065.67671127
 20
-8786.35584399
 42
1.30322619
 10
43065.67613267
 20
-8794.40522453
 10
43080.18624812
 20
-8790.52355362
 42
-1.30322619
 10
43080.18566952
 20
-8798.57293417
 10
43065.67611226
 20
-8794.68917728
 42
1.30322619
 10
43065.67553365
 20
-8802.73855782
 10
43080.18564911
 20
-8798.85688691
 42
-1.30322619
 10
43080.18507051
 20
-8806.90626746
 10
43065.67551324
 20
-8803.02251057
 42
1.30322619
 10
43065.67493464
 20
-8811.07189111
 10
43080.1850501
 20
-8807.19022021
 42
-1.30322619
 10
43080.18447149
 20
-8815.23960075
 10
43065.67491423
 20
-8811.35584386
 42
1.30322619
 10
43065.67433563
 20
-8819.4052244
 10
43080.18445108
 20
-8815.5235535
 42
-1.30322619
 10
43080.18387248
 20
-8823.57293404
 10
43065.67431522
 20
-8819.68917715
 42
1.30322619
 10
43065.67373662
 20
-8827.73855769
 10
43080.18385207
 20
-8823.85688679
 42
-1.30322619
 10
43080.18327347
 20
-8831.90626733
 10
43065.6737162
 20
-8828.02251044
 42
1.30322619
 10
43065.6731376
 20
-8836.07189098
 10
43080.18325306
 20
-8832.19022008
 42
-1.30322619
 10
43080.18267446
 20
-8840.23960062
 10
43065.67311719
 20
-8836.35584373
 42
1.30322619
 10
43065.67253859
 20
-8844.40522427
 10
43080.18265404
 20
-8840.52355337
 42
-1.30322619
 10
43080.18207544
 20
-8848.57293391
 10
43065.67251818
 20
-8844.68917702
 42
1.30322619
 10
43065.67193958
 20
-8852.73855756
 10
43080.18205503
 20
-8848.85688666
 42
-1.30322619
 10
43080.18147643
 20
-8856.9062672
 10
43065.67191917
 20
-8853.02251031
 42
1.30322619
 10
43065.67134056
 20
-8861.07189085
 10
43080.18145602
 20
-8857.19021995
 42
-1.30322619
 10
43080.18087742
 20
-8865.23960049
 10
43065.67132015
 20
-8861.3558436
 42
1.30322619
 10
43065.67074155
 20
-8869.40522415
 10
43080.18085701
 20
-8865.52355324
 42
-1.30322619
 10
43080.1802784
 20
-8873.57293378
 10
43065.67072114
 20
-8869.68917689
 42
1.30322619
 10
43065.67014254
 20
-8877.73855744
 10
43080.18025799
 20
-8873.85688653
 42
-1.30322619
 10
43080.17967939
 20
-8881.90626707
 10
43065.67012213
 20
-8878.02251018
 42
1.30322619
 10
43065.66954352
 20
-8886.07189073
 10
43080.17965898
 20
-8882.19021982
 42
-1.30322619
 10
43080.17908038
 20
-8890.23960036
 10
43065.66952311
 20
-8886.35584347
 42
1.30322619
 10
43065.66894451
 20
-8894.40522402
 10
43080.17905997
 20
-8890.52355311
 42
-1.30322619
 10
43080.17848136
 20
-8898.57293365
 10
43065.6689241
 20
-8894.68917676
 42
1.30322619
 10
43065.6683455
 20
-8902.73855731
 10
43080.17846095
 20
-8898.8568864
 42
-1.30322619
 10
43080.17788235
 20
-8906.90626694
 10
43065.66832509
 20
-8903.02251005
 42
1.30322619
 10
43065.66774649
 20
-8911.0718906
 10
43080.17786194
 20
-8907.19021969
 42
-1.30322619
 10
43080.17728334
 20
-8915.23960023
 10
43065.66772607
 20
-8911.35584334
 42
1.30322619
 10
43065.66714747
 20
-8919.40522389
 10
43080.17726293
 20
-8915.52355298
 42
-1.30322619
 10
43080.17668433
 20
-8923.57293352
 10
43065.66712706
 20
-8919.68917663
 42
1.30322619
 10
43065.66654846
 20
-8927.73855718
 10
43080.17666391
 20
-8923.85688627
 42
-0.49354305
 10
43085.42145258
 20
-8927.88728089
  0
3DFACE
  5
615
102
{ACAD_REACTORS
330
616
102
}
100
AcDbEntity
  8
Ech.1_5
 62
     9
  6
CONTINUOUS
370
    -3
100
AcDbFace
 70
     0
 10
43085.43928398
 20
-8547.38327798
 30
2500.0
 11
43285.43928398
 21
-8547.38327798
 31
2500.0
 12
43285.43928398
 22
-8727.88548383
 32
2500.0
 13
43085.43928398
 23
-8727.88236341
 33
2500.0
  0
HATCH
  5
616
100
AcDbEntity
  8
Ech.1_5
 62
     9
  6
CONTINUOUS
100
AcDbHatch
 10
0.0
 20
0.0
 30
0.0
210
0.0
220
0.0
230
1.0
  2
AR-CONC
 70
     0
 71
     1
 91
        1
 92
        7
 72
     0
 73
     1
 93
        4
 10
43085.43928398
 20
-8547.38327798
 10
43285.43928398
 20
-8547.38327798
 10
43285.43928398
 20
-8727.88548383
 10
43085.43928398
 20
-8727.88236341
 97
        1
330
615
 75
     0
 76
     2
 52
0.0
 41
0.11811097
 77
     0
 78
    13
 53
50.0
 43
0.0
 44
0.0
 45
-18.84283637
 46
1.64853443
 79
     2
 49
1.97029307
 49
-21.67322338
 53
355.0
 43
0.0
 44
0.0
 45
-3.64507756
 46
19.76051824
 79
     2
 49
1.57623377
 49
-17.3385787
 53
100.45140076
 43
1.57023568
 44
-0.13737749
 45
-15.19777228
 46
-18.11197244
 79
     2
 49
1.67449124
 49
-18.41940522
 53
46.18420029
 43
0.0
 44
5.25411576
 45
-28.03703353
 46
4.34827878
 79
     2
 49
2.95543872
 49
-32.50983238
 53
96.63559723
 43
2.33641885
 44
4.89175692
 45
-24.55412615
 46
-25.59063404
 79
     2
 49
2.51173697
 49
-27.62910426
 53
351.1842041
 43
0.0
 44
5.25411576
 45
24.55410288
 46
25.59065715
 79
     2
 49
2.36435249
 49
-26.00786805
 53
21.0
 43
2.62705699
 44
3.94058615
 45
-15.68109068
 46
10.57702905
 79
     2
 49
1.97029307
 49
-21.67322338
 53
326.0
 43
2.62705699
 44
3.94058615
 45
6.39203268
 46
19.05010734
 79
     2
 49
1.57623377
 49
-17.3385787
 53
71.45140076
 43
3.93381357
 44
3.05916555
 45
-22.07312962
 46
-8.47306182
 79
     2
 49
1.67449124
 49
-18.41940522
 53
37.5
 43
0.0
 44
0.0
 45
0.31944534
 46
8.74531245
 79
     6
 49
0.01875
 49
-17.12841332
 49
0.01875
 49
-17.60128498
 49
0.01875
 49
-17.40425348
 53
7.5
 43
0.0
 44
0.0
 45
6.91098818
 46
10.3614222
 79
     6
 49
0.01875
 49
-10.03535807
 49
0.01875
 49
-16.7343539
 49
0.01875
 49
-6.6333206
 53
-32.5
 43
-5.85833833
 44
0.0
 45
14.02382061
 46
-0.59253003
 79
     6
 49
0.01875
 49
-6.56764314
 49
0.01875
 49
-20.49104869
 49
0.01875
 49
-27.19004452
 53
-42.5
 43
-8.48539531
 44
0.0
 45
15.32063571
 46
2.62981542
 79
     6
 49
0.01875
 49
-8.53793621
 49
0.01875
 49
-13.60815793
 49
0.01875
 49
-19.30887222
 47
0.775229
 98
        1
 10
0.0
 20
0.0
  0
3DFACE
  5
617
102
{ACAD_REACTORS
330
618
102
}
100
AcDbEntity
  8
Ech.1_5
 62
     9
  6
CONTINUOUS
370
    -3
100
AcDbFace
 70
     0
 10
42860.43928398
 20
-8547.38327798
 30
2500.0
 11
43060.43928398
 21
-8547.38327798
 31
2500.0
 12
43060.43928398
 22
-8727.88548383
 32
2500.0
 13
42860.43928398
 23
-8727.88236341
 33
2500.0
  0
HATCH
  5
618
100
AcDbEntity
  8
Ech.1_5
 62
     9
  6
CONTINUOUS
100
AcDbHatch
 10
0.0
 20
0.0
 30
0.0
210
0.0
220
0.0
230
1.0
  2
AR-CONC
 70
     0
 71
     1
 91
        1
 92
        7
 72
     0
 73
     1
 93
        4
 10
42860.43928398
 20
-8547.38327798
 10
43060.43928398
 20
-8547.38327798
 10
43060.43928398
 20
-8727.88548383
 10
42860.43928398
 20
-8727.88236341
 97
        1
330
617
 75
     0
 76
     2
 52
0.0
 41
0.11811097
 77
     0
 78
    13
 53
50.0
 43
0.0
 44
0.0
 45
-18.84283637
 46
1.64853443
 79
     2
 49
1.97029307
 49
-21.67322338
 53
355.0
 43
0.0
 44
0.0
 45
-3.64507756
 46
19.76051824
 79
     2
 49
1.57623377
 49
-17.3385787
 53
100.45140076
 43
1.57023568
 44
-0.13737749
 45
-15.19777228
 46
-18.11197244
 79
     2
 49
1.67449124
 49
-18.41940522
 53
46.18420029
 43
0.0
 44
5.25411576
 45
-28.03703353
 46
4.34827878
 79
     2
 49
2.95543872
 49
-32.50983238
 53
96.63559723
 43
2.33641885
 44
4.89175692
 45
-24.55412615
 46
-25.59063404
 79
     2
 49
2.51173697
 49
-27.62910426
 53
351.1842041
 43
0.0
 44
5.25411576
 45
24.55410288
 46
25.59065715
 79
     2
 49
2.36435249
 49
-26.00786805
 53
21.0
 43
2.62705699
 44
3.94058615
 45
-15.68109068
 46
10.57702905
 79
     2
 49
1.97029307
 49
-21.67322338
 53
326.0
 43
2.62705699
 44
3.94058615
 45
6.39203268
 46
19.05010734
 79
     2
 49
1.57623377
 49
-17.3385787
 53
71.45140076
 43
3.93381357
 44
3.05916555
 45
-22.07312962
 46
-8.47306182
 79
     2
 49
1.67449124
 49
-18.41940522
 53
37.5
 43
0.0
 44
0.0
 45
0.31944534
 46
8.74531245
 79
     6
 49
0.01875
 49
-17.12841332
 49
0.01875
 49
-17.60128498
 49
0.01875
 49
-17.40425348
 53
7.5
 43
0.0
 44
0.0
 45
6.91098818
 46
10.3614222
 79
     6
 49
0.01875
 49
-10.03535807
 49
0.01875
 49
-16.7343539
 49
0.01875
 49
-6.6333206
 53
-32.5
 43
-5.85833833
 44
0.0
 45
14.02382061
 46
-0.59253003
 79
     6
 49
0.01875
 49
-6.56764314
 49
0.01875
 49
-20.49104869
 49
0.01875
 49
-27.19004452
 53
-42.5
 43
-8.48539531
 44
0.0
 45
15.32063571
 46
2.62981542
 79
     6
 49
0.01875
 49
-8.53793621
 49
0.01875
 49
-13.60815793
 49
0.01875
 49
-19.30887222
 47
0.775229
 98
        1
 10
0.0
 20
0.0
  0
LWPOLYLINE
  5
619
100
AcDbEntity
  8
Ech.1_5
 62
   254
  6
CONTINUOUS
370
    -3
100
AcDbPolyline
 90
        4
 70
     1
 43
0.0
 10
42790.43928398
 20
-8657.88236341
 10
42840.43928398
 20
-8657.88236341
 10
42840.43928398
 20
-8547.38327798
 10
42790.43928398
 20
-8547.38327798
  0
LWPOLYLINE
  5
61A
102
{ACAD_REACTORS
330
61B
102
}
100
AcDbEntity
  8
Ech.1_5
 62
     9
  6
CONTINUOUS
370
    -3
100
AcDbPolyline
 90
        4
 70
     1
 43
0.0
 10
42777.43928398
 20
-8657.88236341
 10
42790.43928398
 20
-8657.88236341
 10
42790.43928398
 20
-8547.38327798
 10
42777.43928398
 20
-8547.38327798
  0
HATCH
  5
61B
100
AcDbEntity
  8
Ech.1_5
 62
     9
  6
CONTINUOUS
100
AcDbHatch
 10
0.0
 20
0.0
 30
0.0
210
0.0
220
0.0
230
1.0
  2
DOTS2
 70
     0
 71
     1
 91
        1
 92
        7
 72
     0
 73
     1
 93
        4
 10
42777.43928398
 20
-8657.88236341
 10
42790.43928398
 20
-8657.88236341
 10
42790.43928398
 20
-8547.38327798
 10
42777.43928398
 20
-8547.38327798
 97
        1
330
61A
 75
     0
 76
     2
 52
0.0
 41
4.72440952
 77
     0
 78
     1
 53
0.0
 43
0.0
 44
0.0
 45
3.75
 46
3.535
 79
     2
 49
0.0
 49
-3.535
 47
0.775229
 98
        1
 10
0.0
 20
0.0
  0
LWPOLYLINE
  5
61C
100
AcDbEntity
  8
Ech.1_5
 62
   254
  6
CONTINUOUS
370
    -3
100
AcDbPolyline
 90
        4
 70
     1
 43
0.0
 10
42838.43928398
 20
-8657.88236341
 10
42537.93555118
 20
-8657.88236341
 10
42537.93555118
 20
-8707.88236341
 10
42838.43928398
 20
-8707.88236341
  0
LWPOLYLINE
  5
61D
102
{ACAD_REACTORS
330
61E
102
}
100
AcDbEntity
  8
Ech.1_5
 62
     9
  6
CONTINUOUS
370
    -3
100
AcDbPolyline
 90
       12
 70
     1
 43
0.0
 10
42808.43928373
 20
-8699.88236341
 10
42808.43928373
 20
-8705.87825212
 10
42838.43928398
 20
-8705.88236341
 10
42838.43928398
 20
-8657.88236341
 10
42808.43928373
 20
-8657.88236341
 10
42808.43928373
 20
-8663.88236341
 10
42810.43928373
 20
-8663.88236341
 10
42810.43928373
 20
-8659.88236341
 10
42836.43928373
 20
-8659.88236341
 10
42836.43928373
 20
-8703.88236341
 10
42810.43928373
 20
-8703.88236341
 10
42810.43928373
 20
-8699.88236341
  0
HATCH
  5
61E
100
AcDbEntity
  8
Ech.1_5
 62
     9
  6
CONTINUOUS
100
AcDbHatch
 10
0.0
 20
0.0
 30
0.0
210
0.0
220
0.0
230
1.0
  2
SOLID
 70
     1
 71
     1
 91
        1
 92
        7
 72
     0
 73
     1
 93
       12
 10
42808.43928373
 20
-8699.88236341
 10
42808.43928373
 20
-8705.87825212
 10
42838.43928398
 20
-8705.88236341
 10
42838.43928398
 20
-8657.88236341
 10
42808.43928373
 20
-8657.88236341
 10
42808.43928373
 20
-8663.88236341
 10
42810.43928373
 20
-8663.88236341
 10
42810.43928373
 20
-8659.88236341
 10
42836.43928373
 20
-8659.88236341
 10
42836.43928373
 20
-8703.88236341
 10
42810.43928373
 20
-8703.88236341
 10
42810.43928373
 20
-8699.88236341
 97
        1
330
61D
 75
     0
 76
     2
 47
0.775229
 98
        1
 10
0.0
 20
0.0
  0
LWPOLYLINE
  5
61F
102
{ACAD_REACTORS
330
620
102
}
100
AcDbEntity
  8
Ech.1_5
 62
     9
  6
CONTINUOUS
370
    -3
100
AcDbPolyline
 90
        4
 70
     1
 43
0.0
 10
42777.43928398
 20
-8657.88236341
 10
42777.43928398
 20
-8644.88236341
 10
42537.93555118
 20
-8644.88236341
 10
42537.93555118
 20
-8657.88236341
  0
HATCH
  5
620
100
AcDbEntity
  8
Ech.1_5
 62
     9
  6
CONTINUOUS
100
AcDbHatch
 10
0.0
 20
0.0
 30
0.0
210
0.0
220
0.0
230
1.0
  2
DOTS2
 70
     0
 71
     1
 91
        1
 92
        7
 72
     0
 73
     1
 93
        4
 10
42777.43928398
 20
-8657.88236341
 10
42777.43928398
 20
-8644.88236341
 10
42537.93555118
 20
-8644.88236341
 10
42537.93555118
 20
-8657.88236341
 97
        1
330
61F
 75
     0
 76
     2
 52
0.0
 41
4.72440952
 77
     0
 78
     1
 53
0.0
 43
0.0
 44
0.0
 45
3.75
 46
3.535
 79
     2
 49
0.0
 49
-3.535
 47
0.775229
 98
        1
 10
0.0
 20
0.0
  0
LWPOLYLINE
  5
621
102
{ACAD_REACTORS
330
622
102
}
100
AcDbEntity
  8
Ech.1_5
 62
     9
  6
CONTINUOUS
370
    -3
100
AcDbPolyline
 90
       12
 70
     1
 43
0.0
 10
42832.43928398
 20
-8627.88236341
 10
42838.43517269
 20
-8627.88236341
 10
42838.43928398
 20
-8657.88236341
 10
42790.43928398
 20
-8657.88236341
 10
42790.43928398
 20
-8627.88236341
 10
42796.43928398
 20
-8627.88236341
 10
42796.43928398
 20
-8629.88236341
 10
42792.43928398
 20
-8629.88236341
 10
42792.43928398
 20
-8655.88236341
 10
42836.43928398
 20
-8655.88236341
 10
42836.43928398
 20
-8629.88236341
 10
42832.43928398
 20
-8629.88236341
  0
HATCH
  5
622
100
AcDbEntity
  8
Ech.1_5
 62
     9
  6
CONTINUOUS
100
AcDbHatch
 10
0.0
 20
0.0
 30
0.0
210
0.0
220
0.0
230
1.0
  2
SOLID
 70
     1
 71
     1
 91
        1
 92
        7
 72
     0
 73
     1
 93
       12
 10
42832.43928398
 20
-8627.88236341
 10
42838.43517269
 20
-8627.88236341
 10
42838.43928398
 20
-8657.88236341
 10
42790.43928398
 20
-8657.88236341
 10
42790.43928398
 20
-8627.88236341
 10
42796.43928398
 20
-8627.88236341
 10
42796.43928398
 20
-8629.88236341
 10
42792.43928398
 20
-8629.88236341
 10
42792.43928398
 20
-8655.88236341
 10
42836.43928398
 20
-8655.88236341
 10
42836.43928398
 20
-8629.88236341
 10
42832.43928398
 20
-8629.88236341
 97
        1
330
621
 75
     0
 76
     2
 47
0.775229
 98
        1
 10
0.0
 20
0.0
  0
LWPOLYLINE
  5
623
100
AcDbEntity
  8
Ech.1_5
 62
     9
  6
CONTINUOUS
370
    -3
100
AcDbPolyline
 90
       72
 70
     0
 43
0.0
 10
42537.93555118
 20
-8699.54903007
 42
1.14028181
 10
42554.3182651
 20
-8697.39219984
 10
42546.55283727
 20
-8668.37252697
 42
-1.30322619
 10
42562.65159843
 20
-8668.37252697
 10
42554.8861706
 20
-8697.39219984
 42
1.30322619
 10
42570.98493177
 20
-8697.39219984
 10
42563.21950393
 20
-8668.37252697
 42
-1.30322619
 10
42579.3182651
 20
-8668.37252697
 10
42571.55283727
 20
-8697.39219984
 42
1.30322619
 10
42587.65159843
 20
-8697.39219984
 10
42579.8861706
 20
-8668.37252697
 42
-1.30322619
 10
42595.98493177
 20
-8668.37252697
 10
42588.21950393
 20
-8697.39219984
 42
1.30322619
 10
42604.3182651
 20
-8697.39219984
 10
42596.55283727
 20
-8668.37252697
 42
-1.30322619
 10
42612.65159843
 20
-8668.37252697
 10
42604.8861706
 20
-8697.39219984
 42
1.30322619
 10
42620.98493177
 20
-8697.39219984
 10
42613.21950393
 20
-8668.37252697
 42
-1.30322619
 10
42629.3182651
 20
-8668.37252697
 10
42621.55283727
 20
-8697.39219984
 42
1.30322619
 10
42637.65159843
 20
-8697.39219984
 10
42629.8861706
 20
-8668.37252697
 42
-1.30322619
 10
42645.98493177
 20
-8668.37252697
 10
42638.21950393
 20
-8697.39219984
 42
1.30322619
 10
42654.3182651
 20
-8697.39219984
 10
42646.55283727
 20
-8668.37252697
 42
-1.30322619
 10
42662.65159843
 20
-8668.37252697
 10
42654.8861706
 20
-8697.39219984
 42
1.30322619
 10
42670.98493177
 20
-8697.39219984
 10
42663.21950393
 20
-8668.37252697
 42
-1.30322619
 10
42679.3182651
 20
-8668.37252697
 10
42671.55283727
 20
-8697.39219984
 42
1.30322619
 10
42687.65159843
 20
-8697.39219984
 10
42679.8861706
 20
-8668.37252697
 42
-1.30322619
 10
42695.98493177
 20
-8668.37252697
 10
42688.21950393
 20
-8697.39219984
 42
1.30322619
 10
42704.3182651
 20
-8697.39219984
 10
42696.55283727
 20
-8668.37252697
 42
-1.30322619
 10
42712.65159843
 20
-8668.37252697
 10
42704.8861706
 20
-8697.39219984
 42
1.30322619
 10
42720.98493177
 20
-8697.39219984
 10
42713.21950393
 20
-8668.37252697
 42
-1.30322619
 10
42729.3182651
 20
-8668.37252697
 10
42721.55283727
 20
-8697.39219984
 42
1.30322619
 10
42737.65159843
 20
-8697.39219984
 10
42729.8861706
 20
-8668.37252697
 42
-1.30322619
 10
42745.98493177
 20
-8668.37252697
 10
42738.21950393
 20
-8697.39219984
 42
1.30322619
 10
42754.3182651
 20
-8697.39219984
 10
42746.55283727
 20
-8668.37252697
 42
-1.30322619
 10
42762.65159843
 20
-8668.37252697
 10
42754.8861706
 20
-8697.39219984
 42
1.30322619
 10
42770.98493177
 20
-8697.39219984
 10
42763.21950393
 20
-8668.37252697
 42
-1.30322619
 10
42779.3182651
 20
-8668.37252697
 10
42771.55283727
 20
-8697.39219984
 42
1.30322619
 10
42787.65159843
 20
-8697.39219984
 10
42779.8861706
 20
-8668.37252697
 42
-1.30322619
 10
42795.98493177
 20
-8668.37252697
 10
42788.21950393
 20
-8697.39219984
 42
1.30322619
 10
42804.3182651
 20
-8697.39219984
 10
42796.55283727
 20
-8668.37252697
 42
-1.30322619
 10
42812.65159843
 20
-8668.37252697
 10
42804.8861706
 20
-8697.39219984
 42
1.30322619
 10
42820.98493177
 20
-8697.39219984
 10
42813.21950393
 20
-8668.37252697
 42
-1.30322619
 10
42829.3182651
 20
-8668.37252697
 10
42821.55283727
 20
-8697.39219984
 42
1.30322619
 10
42837.65159843
 20
-8697.39219984
 10
42829.8861706
 20
-8668.37252697
 42
-0.51208687
 10
42838.43928398
 20
-8657.89760215
  0
LWPOLYLINE
  5
624
100
AcDbEntity
  8
Ech.1_5
 62
     9
  6
CONTINUOUS
370
    -3
100
AcDbPolyline
 90
       26
 70
     0
 43
0.0
 10
42798.77261731
 20
-8547.38327798
 42
1.14028181
 10
42800.92944754
 20
-8563.7659919
 10
42829.94912041
 20
-8556.00056406
 42
-1.30322619
 10
42829.94912041
 20
-8572.09932523
 10
42800.92944754
 20
-8564.3338974
 42
1.30322619
 10
42800.92944754
 20
-8580.43265857
 10
42829.94912041
 20
-8572.66723073
 42
-1.30322619
 10
42829.94912041
 20
-8588.7659919
 10
42800.92944754
 20
-8581.00056406
 42
1.30322619
 10
42800.92944754
 20
-8597.09932523
 10
42829.94912041
 20
-8589.3338974
 42
-1.30322619
 10
42829.94912041
 20
-8605.43265857
 10
42800.92944754
 20
-8597.66723073
 42
1.30322619
 10
42800.92944754
 20
-8613.7659919
 10
42829.94912041
 20
-8606.00056406
 42
-1.30322619
 10
42829.94912041
 20
-8622.09932523
 10
42800.92944754
 20
-8614.3338974
 42
1.30322619
 10
42800.92944754
 20
-8630.43265857
 10
42829.94912041
 20
-8622.66723073
 42
-1.30322619
 10
42829.94912041
 20
-8638.7659919
 10
42800.92944754
 20
-8631.00056406
 42
1.30322619
 10
42800.92944754
 20
-8647.09932523
 10
42829.94912041
 20
-8639.3338974
 42
-1.30322619
 10
42829.94912041
 20
-8655.43265857
 10
42800.92944754
 20
-8647.66723073
 42
0.57772025
 10
42790.72563264
 20
-8657.88236341
  0
LWPOLYLINE
  5
625
100
AcDbEntity
  8
Ech.1_5
 62
   254
  6
CONTINUOUS
370
    -3
100
AcDbPolyline
 90
        4
 70
     1
 43
0.0
 10
43355.43928398
 20
-8657.88236341
 10
43305.43928398
 20
-8657.88236341
 10
43305.43928398
 20
-8547.38327798
 10
43355.43928398
 20
-8547.38327798
  0
LWPOLYLINE
  5
626
102
{ACAD_REACTORS
330
627
102
}
100
AcDbEntity
  8
Ech.1_5
 62
     9
  6
CONTINUOUS
370
    -3
100
AcDbPolyline
 90
        4
 70
     1
 43
0.0
 10
43368.43928398
 20
-8657.88236341
 10
43355.43928398
 20
-8657.88236341
 10
43355.43928398
 20
-8547.38327798
 10
43368.43928398
 20
-8547.38327798
  0
HATCH
  5
627
100
AcDbEntity
  8
Ech.1_5
 62
     9
  6
CONTINUOUS
100
AcDbHatch
 10
0.0
 20
0.0
 30
0.0
210
0.0
220
0.0
230
1.0
  2
DOTS2
 70
     0
 71
     1
 91
        1
 92
        7
 72
     0
 73
     1
 93
        4
 10
43368.43928398
 20
-8657.88236341
 10
43355.43928398
 20
-8657.88236341
 10
43355.43928398
 20
-8547.38327798
 10
43368.43928398
 20
-8547.38327798
 97
        1
330
626
 75
     0
 76
     2
 52
0.0
 41
4.72440952
 77
     0
 78
     1
 53
0.0
 43
0.0
 44
0.0
 45
3.75
 46
3.535
 79
     2
 49
0.0
 49
-3.535
 47
0.775229
 98
        1
 10
0.0
 20
0.0
  0
LWPOLYLINE
  5
628
100
AcDbEntity
  8
Ech.1_5
 62
   254
  6
CONTINUOUS
370
    -3
100
AcDbPolyline
 90
        4
 70
     1
 43
0.0
 10
43307.43928398
 20
-8657.88236341
 10
43607.94301677
 20
-8657.88236341
 10
43607.94301677
 20
-8707.88236341
 10
43307.43928398
 20
-8707.88236341
  0
LWPOLYLINE
  5
629
102
{ACAD_REACTORS
330
62A
102
}
100
AcDbEntity
  8
Ech.1_5
 62
     9
  6
CONTINUOUS
370
    -3
100
AcDbPolyline
 90
       12
 70
     1
 43
0.0
 10
43337.43928423
 20
-8699.88236341
 10
43337.43928423
 20
-8705.87825212
 10
43307.43928398
 20
-8705.88236341
 10
43307.43928398
 20
-8657.88236341
 10
43337.43928423
 20
-8657.88236341
 10
43337.43928423
 20
-8663.88236341
 10
43335.43928423
 20
-8663.88236341
 10
43335.43928423
 20
-8659.88236341
 10
43309.43928423
 20
-8659.88236341
 10
43309.43928423
 20
-8703.88236341
 10
43335.43928423
 20
-8703.88236341
 10
43335.43928423
 20
-8699.88236341
  0
HATCH
  5
62A
100
AcDbEntity
  8
Ech.1_5
 62
     9
  6
CONTINUOUS
100
AcDbHatch
 10
0.0
 20
0.0
 30
0.0
210
0.0
220
0.0
230
1.0
  2
SOLID
 70
     1
 71
     1
 91
        1
 92
        7
 72
     0
 73
     1
 93
       12
 10
43337.43928423
 20
-8699.88236341
 10
43337.43928423
 20
-8705.87825212
 10
43307.43928398
 20
-8705.88236341
 10
43307.43928398
 20
-8657.88236341
 10
43337.43928423
 20
-8657.88236341
 10
43337.43928423
 20
-8663.88236341
 10
43335.43928423
 20
-8663.88236341
 10
43335.43928423
 20
-8659.88236341
 10
43309.43928423
 20
-8659.88236341
 10
43309.43928423
 20
-8703.88236341
 10
43335.43928423
 20
-8703.88236341
 10
43335.43928423
 20
-8699.88236341
 97
        1
330
629
 75
     0
 76
     2
 47
0.775229
 98
        1
 10
0.0
 20
0.0
  0
LWPOLYLINE
  5
62B
102
{ACAD_REACTORS
330
62C
102
}
100
AcDbEntity
  8
Ech.1_5
 62
     9
  6
CONTINUOUS
370
    -3
100
AcDbPolyline
 90
        4
 70
     1
 43
0.0
 10
43368.43928398
 20
-8657.88236341
 10
43368.43928398
 20
-8644.88236341
 10
43607.94301677
 20
-8644.88236341
 10
43607.94301677
 20
-8657.88236341
  0
HATCH
  5
62C
100
AcDbEntity
  8
Ech.1_5
 62
     9
  6
CONTINUOUS
100
AcDbHatch
 10
0.0
 20
0.0
 30
0.0
210
0.0
220
0.0
230
1.0
  2
DOTS2
 70
     0
 71
     1
 91
        1
 92
        7
 72
     0
 73
     1
 93
        4
 10
43368.43928398
 20
-8657.88236341
 10
43368.43928398
 20
-8644.88236341
 10
43607.94301677
 20
-8644.88236341
 10
43607.94301677
 20
-8657.88236341
 97
        1
330
62B
 75
     0
 76
     2
 52
0.0
 41
4.72440952
 77
     0
 78
     1
 53
0.0
 43
0.0
 44
0.0
 45
3.75
 46
3.535
 79
     2
 49
0.0
 49
-3.535
 47
0.775229
 98
        1
 10
0.0
 20
0.0
  0
LWPOLYLINE
  5
62D
102
{ACAD_REACTORS
330
62E
102
}
100
AcDbEntity
  8
Ech.1_5
 62
     9
  6
CONTINUOUS
370
    -3
100
AcDbPolyline
 90
       12
 70
     1
 43
0.0
 10
43313.43928398
 20
-8627.88236341
 10
43307.44339527
 20
-8627.88236341
 10
43307.43928398
 20
-8657.88236341
 10
43355.43928398
 20
-8657.88236341
 10
43355.43928398
 20
-8627.88236341
 10
43349.43928398
 20
-8627.88236341
 10
43349.43928398
 20
-8629.88236341
 10
43353.43928398
 20
-8629.88236341
 10
43353.43928398
 20
-8655.88236341
 10
43309.43928398
 20
-8655.88236341
 10
43309.43928398
 20
-8629.88236341
 10
43313.43928398
 20
-8629.88236341
  0
HATCH
  5
62E
100
AcDbEntity
  8
Ech.1_5
 62
     9
  6
CONTINUOUS
100
AcDbHatch
 10
0.0
 20
0.0
 30
0.0
210
0.0
220
0.0
230
1.0
  2
SOLID
 70
     1
 71
     1
 91
        1
 92
        7
 72
     0
 73
     1
 93
       12
 10
43313.43928398
 20
-8627.88236341
 10
43307.44339527
 20
-8627.88236341
 10
43307.43928398
 20
-8657.88236341
 10
43355.43928398
 20
-8657.88236341
 10
43355.43928398
 20
-8627.88236341
 10
43349.43928398
 20
-8627.88236341
 10
43349.43928398
 20
-8629.88236341
 10
43353.43928398
 20
-8629.88236341
 10
43353.43928398
 20
-8655.88236341
 10
43309.43928398
 20
-8655.88236341
 10
43309.43928398
 20
-8629.88236341
 10
43313.43928398
 20
-8629.88236341
 97
        1
330
62D
 75
     0
 76
     2
 47
0.775229
 98
        1
 10
0.0
 20
0.0
  0
LWPOLYLINE
  5
62F
100
AcDbEntity
  8
Ech.1_5
 62
     9
  6
CONTINUOUS
370
    -3
100
AcDbPolyline
 90
       72
 70
     0
 43
0.0
 10
43607.94301677
 20
-8699.54903007
 42
-1.14028181
 10
43591.56030285
 20
-8697.39219984
 10
43599.32573069
 20
-8668.37252697
 42
1.30322619
 10
43583.22696952
 20
-8668.37252697
 10
43590.99239736
 20
-8697.39219984
 42
-1.30322619
 10
43574.89363619
 20
-8697.39219984
 10
43582.65906402
 20
-8668.37252697
 42
1.30322619
 10
43566.56030285
 20
-8668.37252697
 10
43574.32573069
 20
-8697.39219984
 42
-1.30322619
 10
43558.22696952
 20
-8697.39219984
 10
43565.99239736
 20
-8668.37252697
 42
1.30322619
 10
43549.89363619
 20
-8668.37252697
 10
43557.65906402
 20
-8697.39219984
 42
-1.30322619
 10
43541.56030285
 20
-8697.39219984
 10
43549.32573069
 20
-8668.37252697
 42
1.30322619
 10
43533.22696952
 20
-8668.37252697
 10
43540.99239736
 20
-8697.39219984
 42
-1.30322619
 10
43524.89363619
 20
-8697.39219984
 10
43532.65906402
 20
-8668.37252697
 42
1.30322619
 10
43516.56030285
 20
-8668.37252697
 10
43524.32573069
 20
-8697.39219984
 42
-1.30322619
 10
43508.22696952
 20
-8697.39219984
 10
43515.99239736
 20
-8668.37252697
 42
1.30322619
 10
43499.89363619
 20
-8668.37252697
 10
43507.65906402
 20
-8697.39219984
 42
-1.30322619
 10
43491.56030285
 20
-8697.39219984
 10
43499.32573069
 20
-8668.37252697
 42
1.30322619
 10
43483.22696952
 20
-8668.37252697
 10
43490.99239736
 20
-8697.39219984
 42
-1.30322619
 10
43474.89363619
 20
-8697.39219984
 10
43482.65906402
 20
-8668.37252697
 42
1.30322619
 10
43466.56030285
 20
-8668.37252697
 10
43474.32573069
 20
-8697.39219984
 42
-1.30322619
 10
43458.22696952
 20
-8697.39219984
 10
43465.99239736
 20
-8668.37252697
 42
1.30322619
 10
43449.89363619
 20
-8668.37252697
 10
43457.65906402
 20
-8697.39219984
 42
-1.30322619
 10
43441.56030285
 20
-8697.39219984
 10
43449.32573069
 20
-8668.37252697
 42
1.30322619
 10
43433.22696952
 20
-8668.37252697
 10
43440.99239736
 20
-8697.39219984
 42
-1.30322619
 10
43424.89363619
 20
-8697.39219984
 10
43432.65906402
 20
-8668.37252697
 42
1.30322619
 10
43416.56030285
 20
-8668.37252697
 10
43424.32573069
 20
-8697.39219984
 42
-1.30322619
 10
43408.22696952
 20
-8697.39219984
 10
43415.99239736
 20
-8668.37252697
 42
1.30322619
 10
43399.89363619
 20
-8668.37252697
 10
43407.65906402
 20
-8697.39219984
 42
-1.30322619
 10
43391.56030286
 20
-8697.39219984
 10
43399.32573069
 20
-8668.37252697
 42
1.30322619
 10
43383.22696952
 20
-8668.37252697
 10
43390.99239736
 20
-8697.39219984
 42
-1.30322619
 10
43374.89363619
 20
-8697.39219984
 10
43382.65906402
 20
-8668.37252697
 42
1.30322619
 10
43366.56030286
 20
-8668.37252697
 10
43374.32573069
 20
-8697.39219984
 42
-1.30322619
 10
43358.22696952
 20
-8697.39219984
 10
43365.99239736
 20
-8668.37252697
 42
1.30322619
 10
43349.89363619
 20
-8668.37252697
 10
43357.65906402
 20
-8697.39219984
 42
-1.30322619
 10
43341.56030286
 20
-8697.39219984
 10
43349.32573069
 20
-8668.37252697
 42
1.30322619
 10
43333.22696952
 20
-8668.37252697
 10
43340.99239736
 20
-8697.39219984
 42
-1.30322619
 10
43324.89363619
 20
-8697.39219984
 10
43332.65906402
 20
-8668.37252697
 42
1.30322619
 10
43316.56030286
 20
-8668.37252697
 10
43324.32573069
 20
-8697.39219984
 42
-1.30322619
 10
43308.22696952
 20
-8697.39219984
 10
43315.99239736
 20
-8668.37252697
 42
0.51208687
 10
43307.43928398
 20
-8657.89760215
  0
LWPOLYLINE
  5
630
100
AcDbEntity
  8
Ech.1_5
 62
     9
  6
CONTINUOUS
370
    -3
100
AcDbPolyline
 90
       26
 70
     0
 43
0.0
 10
43347.10595064
 20
-8547.38327798
 42
-1.14028181
 10
43344.94912041
 20
-8563.7659919
 10
43315.92944754
 20
-8556.00056406
 42
1.30322619
 10
43315.92944754
 20
-8572.09932523
 10
43344.94912041
 20
-8564.3338974
 42
-1.30322619
 10
43344.94912041
 20
-8580.43265857
 10
43315.92944754
 20
-8572.66723073
 42
1.30322619
 10
43315.92944754
 20
-8588.7659919
 10
43344.94912041
 20
-8581.00056406
 42
-1.30322619
 10
43344.94912041
 20
-8597.09932523
 10
43315.92944754
 20
-8589.3338974
 42
1.30322619
 10
43315.92944754
 20
-8605.43265857
 10
43344.94912041
 20
-8597.66723073
 42
-1.30322619
 10
43344.94912041
 20
-8613.7659919
 10
43315.92944754
 20
-8606.00056406
 42
1.30322619
 10
43315.92944754
 20
-8622.09932523
 10
43344.94912041
 20
-8614.3338974
 42
-1.30322619
 10
43344.94912041
 20
-8630.43265857
 10
43315.92944754
 20
-8622.66723073
 42
1.30322619
 10
43315.92944754
 20
-8638.7659919
 10
43344.94912041
 20
-8631.00056406
 42
-1.30322619
 10
43344.94912041
 20
-8647.09932523
 10
43315.92944754
 20
-8639.3338974
 42
1.30322619
 10
43315.92944754
 20
-8655.43265857
 10
43344.94912041
 20
-8647.66723073
 42
-0.57772025
 10
43355.15293532
 20
-8657.88236341
  0
LWPOLYLINE
  5
631
100
AcDbEntity
  8
Ech.1_5
 62
     1
  6
CADWORK_22
 48
-5.0
370
    35
100
AcDbPolyline
 90
        3
 70
     0
 43
0.0
 10
43060.41550589
 20
-9042.76415904
 10
43060.42511655
 20
-8957.88278114
 10
42537.92827287
 20
-8957.88278114
  0
LWPOLYLINE
  5
632
100
AcDbEntity
  8
Ech.1_5
 62
     1
  6
CADWORK_22
 48
-5.0
370
    35
100
AcDbPolyline
 90
        3
 70
     0
 43
0.0
 10
43085.43211794
 20
-9042.76415904
 10
43085.42250728
 20
-8957.88278114
 10
43607.9262533
 20
-8957.88278114
  0
LWPOLYLINE
  5
633
100
AcDbEntity
  8
Ech.1_5
 62
   190
  6
CONTINUOUS
370
    -3
100
AcDbPolyline
 90
       58
 70
     0
 43
0.0
 10
43064.59393695
 20
-8991.70437875
 42
1.14028181
 10
43065.67290949
 20
-8999.89996979
 10
43080.190246
 20
-8996.01524891
 42
-1.30322619
 10
43080.190246
 20
-9004.06879019
 10
43065.67290949
 20
-9000.18406931
 42
1.30322619
 10
43065.67290949
 20
-9008.23761059
 10
43080.190246
 20
-9004.35288971
 42
-1.30322619
 10
43080.190246
 20
-9012.40643098
 10
43065.67290949
 20
-9008.52171011
 42
1.30322619
 10
43065.67290949
 20
-9016.57525138
 10
43080.190246
 20
-9012.69053051
 42
-1.30322619
 10
43080.190246
 20
-9020.74407178
 10
43065.67290949
 20
-9016.85935091
 42
1.30322619
 10
43065.67290949
 20
-9024.91289218
 10
43080.190246
 20
-9021.0281713
 42
-1.30322619
 10
43080.190246
 20
-9029.08171258
 10
43065.67290949
 20
-9025.1969917
 42
1.30322619
 10
43065.67290949
 20
-9033.25053298
 10
43080.190246
 20
-9029.3658121
 42
-1.30322619
 10
43080.190246
 20
-9037.41935338
 10
43065.67290949
 20
-9033.5346325
 42
1.30322619
 10
43065.67290949
 20
-9041.58817377
 10
43080.190246
 20
-9037.7034529
 42
-1.30322619
 10
43080.190246
 20
-9045.75699417
 10
43065.67290949
 20
-9041.8722733
 42
1.30322619
 10
43065.67290949
 20
-9049.92581457
 10
43080.190246
 20
-9046.0410937
 42
-1.30322619
 10
43080.190246
 20
-9054.09463497
 10
43065.67290949
 20
-9050.20991409
 42
1.30322619
 10
43065.67290949
 20
-9058.26345537
 10
43080.190246
 20
-9054.37873449
 42
-1.30322619
 10
43080.190246
 20
-9062.43227577
 10
43065.67290949
 20
-9058.54755489
 42
1.30322619
 10
43065.67290949
 20
-9066.60109617
 10
43080.190246
 20
-9062.71637529
 42
-1.30322619
 10
43080.190246
 20
-9070.76991657
 10
43065.67290949
 20
-9066.88519569
 42
1.30322619
 10
43065.67290949
 20
-9074.93873696
 10
43080.190246
 20
-9071.05401609
 42
-1.30322619
 10
43080.190246
 20
-9079.10755736
 10
43065.67290949
 20
-9075.22283649
 42
1.30322619
 10
43065.67290949
 20
-9083.27637776
 10
43080.190246
 20
-9079.39165689
 42
-1.30322619
 10
43080.190246
 20
-9087.44519816
 10
43065.67290949
 20
-9083.56047728
 42
1.30322619
 10
43065.67290949
 20
-9091.61401856
 10
43080.190246
 20
-9087.72929768
 42
-1.30322619
 10
43080.190246
 20
-9095.78283896
 10
43065.67290949
 20
-9091.89811808
 42
1.30322619
 10
43065.67290949
 20
-9099.95165936
 10
43080.190246
 20
-9096.06693848
 42
-1.30322619
 10
43080.190246
 20
-9104.12047975
 10
43065.67290949
 20
-9100.23575888
 42
1.30322619
 10
43065.67290949
 20
-9108.28930015
 10
43080.190246
 20
-9104.40457928
 42
-1.30322619
 10
43080.190246
 20
-9112.45812055
 10
43065.67290949
 20
-9108.57339968
 42
0.9484404
 10
43063.09566916
 20
-9116.49044757
  0
LWPOLYLINE
  5
634
100
AcDbEntity
  8
Ech.1_5
 62
     7
  6
CONTINUOUS
370
    50
100
AcDbPolyline
 90
        5
 70
     0
 43
0.0
 10
43140.22448653
 20
-9196.68957537
 10
43063.77344704
 20
-9196.68957537
 10
43060.43928398
 20
-9196.68957537
 10
43060.43917067
 20
-9174.71923369
 10
43010.43928398
 20
-9174.71923369
  0
LWPOLYLINE
  5
635
100
AcDbEntity
  8
Ech.1_5
 62
   190
  6
CONTINUOUS
370
    -3
100
AcDbPolyline
 90
        6
 70
     0
 43
0.0
 10
42537.93584906
 20
-9212.76190101
 10
42537.93889079
 20
-9038.76190101
 10
42555.9162392
 20
-9022.27639782
 10
42519.96053919
 20
-9036.38633739
 10
42537.93889079
 20
-9019.89998352
 10
42537.93555118
 20
-8606.18452859
  0
LWPOLYLINE
  5
636
100
AcDbEntity
  8
Ech.1_5
 62
   190
  6
CONTINUOUS
370
    -3
100
AcDbPolyline
 90
        6
 70
     0
 43
0.0
 10
43607.9373538
 20
-9211.76190101
 10
43607.93431207
 20
-9037.76190101
 10
43589.95696366
 20
-9021.27639782
 10
43625.91266367
 20
-9035.38633739
 10
43607.93431207
 20
-9018.89998352
 10
43607.93765168
 20
-8606.18452859
  0
LWPOLYLINE
  5
637
100
AcDbEntity
  8
Ech.1_5
 62
   190
  6
CONTINUOUS
370
    -3
100
AcDbPolyline
 90
        6
 70
     0
 43
0.0
 10
43379.38404499
 20
-8547.38631971
 10
43082.36981739
 20
-8547.38327798
 10
43065.88431419
 20
-8529.40592957
 10
43079.99425377
 20
-8565.36162959
 10
43063.50789989
 20
-8547.38327798
 10
42754.8026343
 20
-8547.38661759
  0
LWPOLYLINE
  5
638
100
AcDbEntity
  8
Ech.1_5
 62
   190
100
AcDbPolyline
 90
        5
 70
     0
 43
0.0
 10
42397.73016347
 20
-8537.63434598
 10
42532.15894246
 20
-8537.63434598
 10
42532.15894246
 20
-8594.35730479
 10
42397.73016347
 20
-8594.35730479
 10
42397.73016347
 20
-8537.63434598
  0
HATCH
  5
639
100
AcDbEntity
  8
Ech.1_5
 62
   190
100
AcDbHatch
 10
0.0
 20
0.0
 30
0.0
210
0.0
220
0.0
230
1.0
  2
SOLID
 70
     1
 71
     0
 91
        1
 92
        7
 72
     0
 73
     1
 93
        4
 10
42416.01020926
 20
-8571.29115711
 10
42466.01020926
 20
-8571.29115711
 10
42466.01020926
 20
-8563.87601958
 10
42416.01020926
 20
-8563.87601958
 97
        0
 75
     0
 76
     2
 47
0.775229
 98
        1
 10
0.0
 20
0.0
  0
LWPOLYLINE
  5
63A
100
AcDbEntity
  8
Ech.1_5
 62
   190
100
AcDbPolyline
 90
        5
 70
     0
 43
0.0
 10
42416.01020926
 20
-8571.29115711
 10
42466.01020926
 20
-8571.29115711
 10
42466.01020926
 20
-8563.87601958
 10
42416.01020926
 20
-8563.87601958
 10
42416.01020926
 20
-8571.29115711
  0
LWPOLYLINE
  5
63B
100
AcDbEntity
  8
Ech.1_5
 62
   190
100
AcDbPolyline
 90
        5
 70
     0
 43
0.0
 10
42466.01020926
 20
-8571.29115711
 10
42516.01020926
 20
-8571.29115711
 10
42516.01020926
 20
-8563.87601958
 10
42466.01020926
 20
-8563.87601958
 10
42466.01020926
 20
-8571.29115711
  0
TEXT
  5
63C
100
AcDbEntity
  8
Ech.1_5
 62
   190
100
AcDbText
 10
42427.30450188
 20
-8554.29001649
 30
0.0
 40
8.00000012
  1
Echelle en mm
  7
ARIAL
 50
0.0
 41
1.0
 51
0.0
100
AcDbText
  0
TEXT
  5
63D
100
AcDbEntity
  8
Ech.1_5
 62
   190
100
AcDbText
 10
42413.32391713
 20
-8582.49985202
 30
0.0
 40
8.00000012
  1
0
  7
ARIAL
 50
0.0
 41
1.0
 51
0.0
100
AcDbText
  0
TEXT
  5
63E
100
AcDbEntity
  8
Ech.1_5
 62
   190
100
AcDbText
 10
42499.92097503
 20
-8582.49985202
 30
0.0
 40
8.00000012
  1
100
  7
ARIAL
 50
0.0
 41
1.0
 51
0.0
100
AcDbText
  0
TEXT
  5
63F
100
AcDbEntity
  8
Ech.1_5
 62
   190
100
AcDbText
 10
42461.18054346
 20
-8582.49985202
 30
0.0
 40
8.00000012
  1
50
  7
ARIAL
 50
0.0
 41
1.0
 51
0.0
100
AcDbText
  0
ENDSEC
  0
SECTION
  2
OBJECTS
  0
DICTIONARY
  5
1
100
AcDbDictionary
  3
ACAD_GROUP
350
2
  3
ACAD_MLINESTYLE
350
3
  0
DICTIONARY
  5
2
102
{CDWK_REACTORS
330
1
102
}
100
AcDbDictionary
  0
DICTIONARY
  5
3
102
{CDWK_REACTORS
330
1
102
}
100
AcDbDictionary
  3
STANDARD
350
4
  0
MLINESTYLE
  5
4
102
{CDWK_REACTORS
330
3
102
}
100
AcDbMlineStyle
  2
STANDARD
 70
     0
  3

 62
     0
 51
90.0
 52
90.0
 71
     2
 49
0.5
 62
   256
  6
BYLAYER
 49
-0.5
 62
   256
  6
BYLAYER
  0
ENDSEC
  0
EOF
