  0
SECTION
  2
HEADER
  9
$ACADVER
  1
AC1014
  9
$DWGCODEPAGE
  3
ANSI_1252
  9
$INSBASE
 10
0.0
 20
0.0
 30
0.0
  9
$EXTMIN
 10
1033.98771282
 20
-21718.34332712
  9
$EXTMAX
 10
122326.07664696
 20
2240.3362527
  9
$LIMMIN
 10
1033.98771282
 20
-21718.34332712
  9
$LIMMAX
 10
122326.07664696
 20
2240.3362527
  9
$ORTHOMODE
 70
     0
  9
$REGENMODE
 70
     1
  9
$FILLMODE
 70
     1
  9
$QTEXTMODE
 70
     0
  9
$MIRRTEXT
 70
     1
  9
$DRAGMODE
 70
     2
  9
$LTSCALE
 40
5.0
  9
$OSMODE
 70
     0
  9
$ATTMODE
 70
     1
  9
$TEXTSIZE
 40
3.5
  9
$TRACEWID
 40
1.0
  9
$TEXTSTYLE
  7
STANDARD
  9
$CLAYER
  8
0
  9
$CELTYPE
  6
BYLAYER
  9
$CECOLOR
 62
   256
  9
$DIMSCALE
 40
1.0
  9
$DIMASZ
 40
2.0
  9
$DIMEXO
 40
5.0
  9
$DIMDLI
 40
10.0
  9
$DIMRND
 40
0.0
  9
$DIMDLE
 40
2.0
  9
$DIMEXE
 40
2.0
  9
$DIMTP
 40
0.0
  9
$DIMTM
 40
0.0
  9
$DIMTXT
 40
2.5
  9
$DIMCEN
 40
1.5
  9
$DIMTSZ
 40
0.0
  9
$DIMTOL
 70
     0
  9
$DIMLIM
 70
     0
  9
$DIMTIH
 70
     1
  9
$DIMTOH
 70
     0
  9
$DIMSE1
 70
     0
  9
$DIMSE2
 70
     0
  9
$DIMTAD
 70
     1
  9
$DIMZIN
 70
     8
  9
$DIMBLK
  1

  9
$DIMASO
 70
     1
  9
$DIMSHO
 70
     1
  9
$DIMPOST
  1

  9
$DIMAPOST
  1

  9
$DIMALT
 70
     0
  9
$DIMALTD
 70
     2
  9
$DIMALTF
 40
25.4
  9
$DIMLFAC
 40
1.0
  9
$DIMTOFL
 70
     0
  9
$DIMTVP
 40
0.0
  9
$DIMTIX
 70
     0
  9
$DIMSOXD
 70
     0
  9
$DIMSAH
 70
     0
  9
$DIMBLK1
  1

  9
$DIMBLK2
  1

  9
$DIMSTYLE
  2
*UNNAMED
  9
$DIMCLRD
 70
   190
  9
$DIMCLRE
 70
   190
  9
$DIMCLRT
 70
   190
  9
$DIMTFAC
 40
1.0
  9
$DIMGAP
 40
0.09
  9
$DIMUNIT
 70
     2
  9
$LUNITS
 70
     2
  9
$LUPREC
 70
     6
  9
$AXISMODE
 70
     0
  9
$AXISUNIT
 10
0.0
 20
0.0
  9
$SKETCHINC
 40
0.1
  9
$FILLETRAD
 40
0.0
  9
$AUNITS
 70
     0
  9
$AUPREC
 70
     0
  9
$MENU
  1
ACAD
  9
$ELEVATION
 40
0.0
  9
$PELEVATION
 40
0.0
  9
$THICKNESS
 40
0.0
  9
$LIMCHECK
 70
     0
  9
$BLIPMODE
 70
     1
  9
$CHAMFERA
 40
0.0
  9
$CHAMFERB
 40
0.0
  9
$SKPOLY
 70
     1
  9
$TDCREATE
 40
2457808.0000000000
  9
$TDUPDATE
 40
2457808.0000000000
  9
$TDINDWG
 40
0.0
  9
$TDUSRTIMER
 40
0.0
  9
$USRTIMER
 70
     1
  9
$ANGBASE
 50
0.0
  9
$ANGDIR
 70
     0
  9
$PDMODE
 70
     0
  9
$PDSIZE
 40
0.0
  9
$PLINEWID
 40
0.0
  9
$COORDS
 70
     2
  9
$SPLFRAME
 70
     0
  9
$SPLINETYPE
 70
     6
  9
$SPLINESEGS
 70
     8
  9
$ATTDIA
 70
     1
  9
$ATTREQ
 70
     1
  9
$HANDLING
 70
     1
  9
$HANDSEED
  5
     65F
  9
$SURFTAB1
 70
     6
  9
$SURFTAB2
 70
     6
  9
$SURFTYPE
 70
     6
  9
$SURFU
 70
     6
  9
$SURFV
 70
     6
  9
$UCSNAME
  2

  9
$UCSORG
 10
0.0
 20
0.0
 30
0.0
  9
$UCSXDIR
 10
1.0
 20
0.0
 30
0.0
  9
$UCSYDIR
 10
0.0
 20
1.0
 30
0.0
  9
$PUCSNAME
  2

  9
$PUCSORG
 10
0.0
 20
0.0
 30
0.0
  9
$PUCSXDIR
 10
1.0
 20
0.0
 30
0.0
  9
$PUCSYDIR
 10
0.0
 20
1.0
 30
0.0
  9
$USERI1
 70
     0
  9
$USERI2
 70
     0
  9
$USERI3
 70
     0
  9
$USERI4
 70
     0
  9
$USERI5
 70
     0
  9
$USERR1
 40
0.0
  9
$USERR2
 40
0.0
  9
$USERR3
 40
0.0
  9
$USERR4
 40
0.0
  9
$USERR5
 40
0.0
  9
$WORLDVIEW
 70
     1
  9
$SHADEDGE
 70
     3
  9
$SHADEDIF
 70
    70
  9
$TILEMODE
 70
     1
  9
$MAXACTVP
 70
    16
  9
$PINSBASE
 10
0.0
 20
0.0
 30
0.0
  9
$PLIMCHECK
 70
     0
  9
$PEXTMIN
 10
1.0000000000000E+20
 20
1.0000000000000E+20
 30
1.0000000000000E+20
  9
$PEXTMAX
 10
-1.0000000000000E+20
 20
-1.0000000000000E+20
 30
-1.0000000000000E+20
  9
$PLIMMIN
 10
0.0
 20
0.0
  9
$UNITMODE
 70
     0
  9
$VISRETAIN
 70
     0
  9
$MEASUREMENT
 70
     1
  0
ENDSEC
  0
SECTION
  2
TABLES
  0
TABLE
  2
VPORT
  5
4A2
100
AcDbSymbolTable
 70
     1
  0
ENDTAB
  0
TABLE
  2
STYLE
  5
4A3
100
AcDbSymbolTable
 70
     3
  0
STYLE
  5
4A4
100
AcDbSymbolTableRecord
100
AcDbTextStyleTableRecord
  2
STANDARD
 70
     0
 40
0.0
 41
1.0
 50
0.0
 71
     0
 42
3.5
  3
MONOTXT
  4

  0
STYLE
  5
4A5
100
AcDbSymbolTableRecord
100
AcDbTextStyleTableRecord
  2
SYMAP
 70
     0
 40
0.0
 41
1.0
 50
0.0
 71
     0
 42
3.5
  3
SYMAP
  4

  0
STYLE
  5
4A6
100
AcDbSymbolTableRecord
100
AcDbTextStyleTableRecord
  2
CADWORK1
 70
     0
 40
0.0
 41
1.0
 50
0.0
 71
     0
 42
3.5
  3
MONOTXT
  4

  0
STYLE
  5
4A7
100
AcDbSymbolTableRecord
100
AcDbTextStyleTableRecord
  2
MONOTXT
 70
     0
 40
0.0
 41
1.0
 50
0.0
 71
     0
 42
3.5
  3
MONOTXT
  4

  0
STYLE
  5
4A8
100
AcDbSymbolTableRecord
100
AcDbTextStyleTableRecord
  2
ARIAL
 70
     0
 40
0.0
 41
1.0
 50
0.0
 71
     0
 42
3.5
  3

  4

1001
ACAD
1000
Arial
1071
        0
  0
ENDTAB
  0
TABLE
  2
LTYPE
  5
4A9
100
AcDbSymbolTable
 70
    15
  0
LTYPE
  5
4AA
100
AcDbSymbolTableRecord
100
AcDbLinetypeTableRecord
  2
BYBLOCK
 70
    64
  3

 72
    65
 73
     0
 40
0.0
  0
LTYPE
  5
4AB
100
AcDbSymbolTableRecord
100
AcDbLinetypeTableRecord
  2
BYLAYER
 70
    64
  3

 72
    65
 73
     0
 40
0.0
  0
LTYPE
  5
4AC
100
AcDbSymbolTableRecord
100
AcDbLinetypeTableRecord
  2
CONTINUOUS
 70
    64
  3
Solid line
 72
    65
 73
     0
 40
0.0
  0
LTYPE
  5
4AD
100
AcDbSymbolTableRecord
100
AcDbLinetypeTableRecord
  2
DOT2
 70
    64
  3
...............................................
 72
    65
 73
     2
 40
1.25
 49
0.0
 74
     0
 49
-1.25
 74
     0
  0
LTYPE
  5
4AE
100
AcDbSymbolTableRecord
100
AcDbLinetypeTableRecord
  2
CADWORK_13
 70
    64
  3
13 =======================================
 72
    65
 73
     2
 40
4.0
 49
2.0
 74
     0
 49
-2.0
 74
     0
  0
LTYPE
  5
4AF
100
AcDbSymbolTableRecord
100
AcDbLinetypeTableRecord
  2
DASHDOT
 70
    64
  3
 __ . __ . __ . __ . __ . __ . __ . __ . __ . __
 72
    65
 73
     4
 40
10.0
 49
5.0
 74
     0
 49
-2.5
 74
     0
 49
0.0
 74
     0
 49
-2.5
 74
     0
  0
LTYPE
  5
4B0
100
AcDbSymbolTableRecord
100
AcDbLinetypeTableRecord
  2
CENTER
 70
    64
  3
 ____ _ ____ _ ____ _ ____ _ ____ _ ____ _ ____
 72
    65
 73
     4
 40
20.0
 49
12.5
 74
     0
 49
-2.5
 74
     0
 49
2.5
 74
     0
 49
-2.5
 74
     0
  0
LTYPE
  5
4B1
100
AcDbSymbolTableRecord
100
AcDbLinetypeTableRecord
  2
DASHEDX2
 70
    64
  3
____  ____  ____  ____  ____  ____  ____  ____
 72
    65
 73
     2
 40
3.75
 49
2.5
 74
     0
 49
-1.25
 74
     0
  0
LTYPE
  5
4B2
100
AcDbSymbolTableRecord
100
AcDbLinetypeTableRecord
  2
CADWORK_22
 70
    64
  3
22 =======================================
 72
    65
 73
     0
 40
0.0
  0
LTYPE
  5
4B3
100
AcDbSymbolTableRecord
100
AcDbLinetypeTableRecord
  2
DAL
 70
    64
  3
Solid line (for MAPS)
 72
    65
 73
     0
 40
0.0
  0
LTYPE
  5
4B4
100
AcDbSymbolTableRecord
100
AcDbLinetypeTableRecord
  2
MUR
 70
    64
  3
Solid line (for MAPS)
 72
    65
 73
     0
 40
0.0
  0
LTYPE
  5
4B5
100
AcDbSymbolTableRecord
100
AcDbLinetypeTableRecord
  2
SOM
 70
    64
  3
Solid line (for MAPS)
 72
    65
 73
     0
 40
0.0
  0
LTYPE
  5
4B6
100
AcDbSymbolTableRecord
100
AcDbLinetypeTableRecord
  2
COL
 70
    64
  3
Solid line (for MAPS)
 72
    65
 73
     0
 40
0.0
  0
LTYPE
  5
4B7
100
AcDbSymbolTableRecord
100
AcDbLinetypeTableRecord
  2
LGN
 70
    64
  3
Solid line (for MAPS)
 72
    65
 73
     0
 40
0.0
  0
LTYPE
  5
4B8
100
AcDbSymbolTableRecord
100
AcDbLinetypeTableRecord
  2
PNT
 70
    64
  3
Solid line (for MAPS)
 72
    65
 73
     0
 40
0.0
  0
ENDTAB
  0
TABLE
  2
LAYER
  5
4B9
100
AcDbSymbolTable
 70
    32
  0
LAYER
  5
4BA
100
AcDbSymbolTableRecord
100
AcDbLayerTableRecord
  2
Standard
 70
     0
 62
     7
  6
CONTINUOUS
370
    -3
  0
LAYER
  5
4BB
100
AcDbSymbolTableRecord
100
AcDbLayerTableRecord
  2
Ech.1_1
 70
     0
 62
     7
  6
CONTINUOUS
370
    -3
  0
LAYER
  5
4BC
100
AcDbSymbolTableRecord
100
AcDbLayerTableRecord
  2
Ech.1_2
 70
     0
 62
     7
  6
CONTINUOUS
370
    -3
  0
LAYER
  5
4BD
100
AcDbSymbolTableRecord
100
AcDbLayerTableRecord
  2
Ech.1_5
 70
     0
 62
     7
  6
CONTINUOUS
370
    -3
  0
LAYER
  5
4BE
100
AcDbSymbolTableRecord
100
AcDbLayerTableRecord
  2
Ech.1_10
 70
     0
 62
     7
  6
CONTINUOUS
370
    -3
  0
LAYER
  5
4BF
100
AcDbSymbolTableRecord
100
AcDbLayerTableRecord
  2
Ech.1_20
 70
     0
 62
     7
  6
CONTINUOUS
370
    -3
  0
LAYER
  5
4C0
100
AcDbSymbolTableRecord
100
AcDbLayerTableRecord
  2
Ech.1_25
 70
     0
 62
     7
  6
CONTINUOUS
370
    -3
  0
LAYER
  5
4C1
100
AcDbSymbolTableRecord
100
AcDbLayerTableRecord
  2
Ech.1_33
 70
     0
 62
     7
  6
CONTINUOUS
370
    -3
  0
LAYER
  5
4C2
100
AcDbSymbolTableRecord
100
AcDbLayerTableRecord
  2
Ech.1_50
 70
     0
 62
     7
  6
CONTINUOUS
370
    -3
  0
LAYER
  5
4C3
100
AcDbSymbolTableRecord
100
AcDbLayerTableRecord
  2
Ech.1_75
 70
     0
 62
     7
  6
CONTINUOUS
370
    -3
  0
LAYER
  5
4C4
100
AcDbSymbolTableRecord
100
AcDbLayerTableRecord
  2
Ech.1_100
 70
     0
 62
     7
  6
CONTINUOUS
370
    -3
  0
LAYER
  5
4C5
100
AcDbSymbolTableRecord
100
AcDbLayerTableRecord
  2
Ech.1_200
 70
     0
 62
     7
  6
CONTINUOUS
370
    -3
  0
LAYER
  5
4C6
100
AcDbSymbolTableRecord
100
AcDbLayerTableRecord
  2
Ech.1_500
 70
     0
 62
     7
  6
CONTINUOUS
370
    -3
  0
LAYER
  5
4C7
100
AcDbSymbolTableRecord
100
AcDbLayerTableRecord
  2
Ech.1_1000
 70
     0
 62
     7
  6
CONTINUOUS
370
    -3
  0
LAYER
  5
4C8
100
AcDbSymbolTableRecord
100
AcDbLayerTableRecord
  2
Cadres traceur
 70
     0
 62
     7
  6
CONTINUOUS
370
    18
  0
LAYER
  5
4C9
100
AcDbSymbolTableRecord
100
AcDbLayerTableRecord
  2
Cadres laser
 70
     0
 62
     7
  6
CONTINUOUS
370
    18
  0
LAYER
  5
4CA
100
AcDbSymbolTableRecord
100
AcDbLayerTableRecord
  2
Légende d_aide
 70
     0
 62
     7
  6
CONTINUOUS
370
    18
  0
LAYER
  5
4CB
100
AcDbSymbolTableRecord
100
AcDbLayerTableRecord
  2
hachures ok
 70
     0
 62
     7
  6
CONTINUOUS
370
    18
  0
LAYER
  5
4CC
100
AcDbSymbolTableRecord
100
AcDbLayerTableRecord
  2
ossature bois
 70
     0
 62
     7
  6
CONTINUOUS
370
    18
  0
LAYER
  5
4CD
100
AcDbSymbolTableRecord
100
AcDbLayerTableRecord
  2
VR
 70
     0
 62
     7
  6
CONTINUOUS
370
    25
  0
LAYER
  5
4CE
100
AcDbSymbolTableRecord
100
AcDbLayerTableRecord
  2
Calque1
 70
     0
 62
     7
  6
CONTINUOUS
370
     9
  0
LAYER
  5
4CF
100
AcDbSymbolTableRecord
100
AcDbLayerTableRecord
  2
0
 70
     0
 62
     7
  6
CONTINUOUS
370
    -3
  0
LAYER
  5
4D0
100
AcDbSymbolTableRecord
100
AcDbLayerTableRecord
  2
menuiserie
 70
     0
 62
     7
  6
CONTINUOUS
370
    -3
  0
LAYER
  5
4D1
100
AcDbSymbolTableRecord
100
AcDbLayerTableRecord
  2
cotation
 70
     0
 62
   250
  6
CONTINUOUS
370
     9
  0
LAYER
  5
4D2
100
AcDbSymbolTableRecord
100
AcDbLayerTableRecord
  2
Defpoints
 70
     0
 62
    10
  6
CONTINUOUS
370
    -3
  0
LAYER
  5
4D3
100
AcDbSymbolTableRecord
100
AcDbLayerTableRecord
  2
HACHURE
 70
     0
 62
   254
  6
CONTINUOUS
370
    25
  0
LAYER
  5
4D4
100
AcDbSymbolTableRecord
100
AcDbLayerTableRecord
  2
mat1
 70
     0
 62
     7
  6
CONTINUOUS
370
    30
  0
LAYER
  5
4D5
100
AcDbSymbolTableRecord
100
AcDbLayerTableRecord
  2
mat2
 70
     0
 62
     7
  6
CONTINUOUS
370
     5
  0
LAYER
  5
4D6
100
AcDbSymbolTableRecord
100
AcDbLayerTableRecord
  2
hach
 70
     0
 62
     8
  6
CONTINUOUS
370
     5
  0
LAYER
  5
4D7
100
AcDbSymbolTableRecord
100
AcDbLayerTableRecord
  2
menuiseries
 70
     0
 62
     7
  6
CONTINUOUS
370
     9
  0
LAYER
  5
4D8
100
AcDbSymbolTableRecord
100
AcDbLayerTableRecord
  2
BétonMétal
 70
     0
 62
     7
  6
CONTINUOUS
370
    80
  0
LAYER
  5
4D9
100
AcDbSymbolTableRecord
100
AcDbLayerTableRecord
  2
bois
 70
     0
 62
     7
  6
CONTINUOUS
370
    60
  0
ENDTAB
  0
TABLE
  2
VIEW
  5
4DA
100
AcDbSymbolTable
 70
     0
  0
ENDTAB
  0
TABLE
  2
UCS
  5
4DB
100
AcDbSymbolTable
 70
     0
  0
ENDTAB
  0
TABLE
  2
APPID
  5
4DC
100
AcDbSymbolTable
 70
     1
  0
APPID
  5
4DD
100
AcDbSymbolTableRecord
100
AcDbRegAppTableRecord
  2
ACAD
 70
     0
  0
ENDTAB
  0
TABLE
  2
DIMSTYLE
  5
4DE
100
AcDbSymbolTable
 70
     0
  0
ENDTAB
  0
TABLE
  2
BLOCK_RECORD
  5
4DF
100
AcDbSymbolTable
 70
     0
  0
BLOCK_RECORD
  5
4E0
100
AcDbSymbolTableRecord
100
AcDbBlockTableRecord
  2
*MODEL_SPACE
  0
BLOCK_RECORD
  5
4E1
100
AcDbSymbolTableRecord
100
AcDbBlockTableRecord
  2
*PAPER_SPACE
  0
BLOCK_RECORD
  5
4E2
100
AcDbSymbolTableRecord
100
AcDbBlockTableRecord
  2
CDWK_EXTR_0
  0
BLOCK_RECORD
  5
4E3
100
AcDbSymbolTableRecord
100
AcDbBlockTableRecord
  2
CDWK_EXTR_1D
  0
BLOCK_RECORD
  5
4E4
100
AcDbSymbolTableRecord
100
AcDbBlockTableRecord
  2
CDWK_EXTR_1G
  0
BLOCK_RECORD
  5
4E5
100
AcDbSymbolTableRecord
100
AcDbBlockTableRecord
  2
CDWK_EXTR_2
  0
BLOCK_RECORD
  5
4E6
100
AcDbSymbolTableRecord
100
AcDbBlockTableRecord
  2
CDWK_EXTR_3
  0
BLOCK_RECORD
  5
4E7
100
AcDbSymbolTableRecord
100
AcDbBlockTableRecord
  2
CDWK_EXTR_4
  0
BLOCK_RECORD
  5
4E8
100
AcDbSymbolTableRecord
100
AcDbBlockTableRecord
  2
CDWK_PTTYP0
  0
BLOCK_RECORD
  5
4E9
100
AcDbSymbolTableRecord
100
AcDbBlockTableRecord
  2
CDWK_PTTYP1
  0
BLOCK_RECORD
  5
4EA
100
AcDbSymbolTableRecord
100
AcDbBlockTableRecord
  2
CDWK_PTTYP2
  0
BLOCK_RECORD
  5
4EB
100
AcDbSymbolTableRecord
100
AcDbBlockTableRecord
  2
CDWK_PTTYP3
  0
BLOCK_RECORD
  5
4EC
100
AcDbSymbolTableRecord
100
AcDbBlockTableRecord
  2
CDWK_PTTYP4
  0
BLOCK_RECORD
  5
4ED
100
AcDbSymbolTableRecord
100
AcDbBlockTableRecord
  2
CDWK_PTTYP5
  0
BLOCK_RECORD
  5
4EE
100
AcDbSymbolTableRecord
100
AcDbBlockTableRecord
  2
CDWK_PTTYP6
  0
BLOCK_RECORD
  5
4EF
100
AcDbSymbolTableRecord
100
AcDbBlockTableRecord
  2
CDWK_PTTYP7
  0
BLOCK_RECORD
  5
4F0
100
AcDbSymbolTableRecord
100
AcDbBlockTableRecord
  2
CDWK_PTTYP8
  0
BLOCK_RECORD
  5
4F1
100
AcDbSymbolTableRecord
100
AcDbBlockTableRecord
  2
CDWK_PTTYP9
  0
BLOCK_RECORD
  5
4F2
100
AcDbSymbolTableRecord
100
AcDbBlockTableRecord
  2
CDWK_PTTYP10
  0
BLOCK_RECORD
  5
4F3
100
AcDbSymbolTableRecord
100
AcDbBlockTableRecord
  2
CDWK_PTTYP11
  0
BLOCK_RECORD
  5
4F4
100
AcDbSymbolTableRecord
100
AcDbBlockTableRecord
  2
CDWK_PTTYP12
  0
BLOCK_RECORD
  5
4F5
100
AcDbSymbolTableRecord
100
AcDbBlockTableRecord
  2
CDWK_PTTYP13
  0
BLOCK_RECORD
  5
4F6
100
AcDbSymbolTableRecord
100
AcDbBlockTableRecord
  2
CDWK_PTTYP14
  0
BLOCK_RECORD
  5
4F7
100
AcDbSymbolTableRecord
100
AcDbBlockTableRecord
  2
CDWK_PTTYP15
  0
BLOCK_RECORD
  5
4F8
100
AcDbSymbolTableRecord
100
AcDbBlockTableRecord
  2
CDWK_PTTYP16
  0
BLOCK_RECORD
  5
4F9
100
AcDbSymbolTableRecord
100
AcDbBlockTableRecord
  2
CDWK_PTTYP17
  0
BLOCK_RECORD
  5
4FA
100
AcDbSymbolTableRecord
100
AcDbBlockTableRecord
  2
CDWK_PTTYP18
  0
BLOCK_RECORD
  5
4FB
100
AcDbSymbolTableRecord
100
AcDbBlockTableRecord
  2
CDWK_PTTYP19
  0
BLOCK_RECORD
  5
4FC
100
AcDbSymbolTableRecord
100
AcDbBlockTableRecord
  2
CDWK_PTTYP20
  0
BLOCK_RECORD
  5
4FD
100
AcDbSymbolTableRecord
100
AcDbBlockTableRecord
  2
CDWK_PTTYP21
  0
BLOCK_RECORD
  5
4FE
100
AcDbSymbolTableRecord
100
AcDbBlockTableRecord
  2
CDWK_PTTYP22
  0
BLOCK_RECORD
  5
4FF
100
AcDbSymbolTableRecord
100
AcDbBlockTableRecord
  2
CDWK_PTTYP23
  0
BLOCK_RECORD
  5
500
100
AcDbSymbolTableRecord
100
AcDbBlockTableRecord
  2
CDWK_PTTYP24
  0
BLOCK_RECORD
  5
501
100
AcDbSymbolTableRecord
100
AcDbBlockTableRecord
  2
CDWK_PTTYP25
  0
BLOCK_RECORD
  5
502
100
AcDbSymbolTableRecord
100
AcDbBlockTableRecord
  2
CDWK_PTTYP26
  0
BLOCK_RECORD
  5
503
100
AcDbSymbolTableRecord
100
AcDbBlockTableRecord
  2
CDWK_PTTYP27
  0
BLOCK_RECORD
  5
504
100
AcDbSymbolTableRecord
100
AcDbBlockTableRecord
  2
CDWK_PTTYP28
  0
BLOCK_RECORD
  5
505
100
AcDbSymbolTableRecord
100
AcDbBlockTableRecord
  2
CDWK_PTTYP29
  0
BLOCK_RECORD
  5
506
100
AcDbSymbolTableRecord
100
AcDbBlockTableRecord
  2
CDWK_PTTYP30
  0
BLOCK_RECORD
  5
507
100
AcDbSymbolTableRecord
100
AcDbBlockTableRecord
  2
CDWK_PTTYP31
  0
BLOCK_RECORD
  5
508
100
AcDbSymbolTableRecord
100
AcDbBlockTableRecord
  2
CDWK_PTTYP32
  0
BLOCK_RECORD
  5
509
100
AcDbSymbolTableRecord
100
AcDbBlockTableRecord
  2
CDWK_PTTYP33
  0
BLOCK_RECORD
  5
50A
100
AcDbSymbolTableRecord
100
AcDbBlockTableRecord
  2
CDWK_PTTYP34
  0
BLOCK_RECORD
  5
50B
100
AcDbSymbolTableRecord
100
AcDbBlockTableRecord
  2
CDWK_PTTYP35
  0
BLOCK_RECORD
  5
50C
100
AcDbSymbolTableRecord
100
AcDbBlockTableRecord
  2
CDWK_PTTYP36
  0
BLOCK_RECORD
  5
50D
100
AcDbSymbolTableRecord
100
AcDbBlockTableRecord
  2
CDWK_PTTYP37
  0
BLOCK_RECORD
  5
50E
100
AcDbSymbolTableRecord
100
AcDbBlockTableRecord
  2
CDWK_PTTYP38
  0
BLOCK_RECORD
  5
50F
100
AcDbSymbolTableRecord
100
AcDbBlockTableRecord
  2
*X1
  0
BLOCK_RECORD
  5
510
100
AcDbSymbolTableRecord
100
AcDbBlockTableRecord
  2
*X2
  0
BLOCK_RECORD
  5
511
100
AcDbSymbolTableRecord
100
AcDbBlockTableRecord
  2
*D11
  0
ENDTAB
  0
ENDSEC
  0
SECTION
  2
BLOCKS
  0
BLOCK
  5
512
100
AcDbEntity
  8
0
100
AcDbBlockBegin
  2
*MODEL_SPACE
 70
     0
 10
0.0
 20
0.0
 30
0.0
  3
*MODEL_SPACE
  1

  0
ENDBLK
  5
513
100
AcDbEntity
100
AcDbBlockEnd
  0
BLOCK
  5
514
100
AcDbEntity
  8
0
100
AcDbBlockBegin
  2
*PAPER_SPACE
 70
     0
 10
0.0
 20
0.0
 30
0.0
  3
*PAPER_SPACE
  1

  0
ENDBLK
  5
515
100
AcDbEntity
100
AcDbBlockEnd
  0
BLOCK
  5
516
100
AcDbEntity
  8
0
100
AcDbBlockBegin
  2
CDWK_EXTR_0
 70
     0
 10
0.0
 20
0.0
 30
0.0
  3
CDWK_EXTR_0
  1

  4
Cadwork line-extremity
  0
LINE
  5
517
100
AcDbEntity
  8
0
 62
     0
370
    -2
100
AcDbLine
 10
0.0
 20
0.0
 30
0.0
 11
2.0
 21
0.5
 31
0.0
  0
LINE
  5
518
100
AcDbEntity
  8
0
 62
     0
370
    -2
100
AcDbLine
 10
0.0
 20
0.0
 30
0.0
 11
2.0
 21
-0.5
 31
0.0
  0
LINE
  5
519
100
AcDbEntity
  8
0
 62
     0
370
    -2
100
AcDbLine
 10
2.0
 20
0.5
 30
0.0
 11
2.0
 21
-0.5
 31
0.0
  0
ENDBLK
  5
51A
100
AcDbEntity
100
AcDbBlockEnd
  0
BLOCK
  5
51B
100
AcDbEntity
  8
0
100
AcDbBlockBegin
  2
CDWK_EXTR_1D
 70
     0
 10
0.0
 20
0.0
 30
0.0
  3
CDWK_EXTR_1D
  1

  4
Cadwork line-extremity
  0
LINE
  5
51C
100
AcDbEntity
  8
0
 62
     0
370
    -2
100
AcDbLine
 10
0.0
 20
0.0
 30
0.0
 11
0.0
 21
1.0
 31
0.0
  0
LINE
  5
51D
100
AcDbEntity
  8
0
 62
     0
370
    -2
100
AcDbLine
 10
0.0
 20
1.0
 30
0.0
 11
0.5
 21
1.5
 31
0.0
  0
LINE
  5
51E
100
AcDbEntity
  8
0
 62
     0
370
    -2
100
AcDbLine
 10
0.5
 20
1.5
 30
0.0
 11
1.5
 21
1.5
 31
0.0
  0
ENDBLK
  5
51F
100
AcDbEntity
100
AcDbBlockEnd
  0
BLOCK
  5
520
100
AcDbEntity
  8
0
100
AcDbBlockBegin
  2
CDWK_EXTR_1G
 70
     0
 10
0.0
 20
0.0
 30
0.0
  3
CDWK_EXTR_1G
  1

  4
Cadwork line-extremity
  0
LINE
  5
521
100
AcDbEntity
  8
0
 62
     0
370
    -2
100
AcDbLine
 10
0.0
 20
0.0
 30
0.0
 11
0.0
 21
-1.0
 31
0.0
  0
LINE
  5
522
100
AcDbEntity
  8
0
 62
     0
370
    -2
100
AcDbLine
 10
0.0
 20
-1.0
 30
0.0
 11
0.5
 21
-1.5
 31
0.0
  0
LINE
  5
523
100
AcDbEntity
  8
0
 62
     0
370
    -2
100
AcDbLine
 10
0.5
 20
-1.5
 30
0.0
 11
1.5
 21
-1.5
 31
0.0
  0
ENDBLK
  5
524
100
AcDbEntity
100
AcDbBlockEnd
  0
BLOCK
  5
525
100
AcDbEntity
  8
0
100
AcDbBlockBegin
  2
CDWK_EXTR_2
 70
     0
 10
0.0
 20
0.0
 30
0.0
  3
CDWK_EXTR_2
  1

  4
Cadwork line-extremity
  0
SOLID
  5
526
100
AcDbEntity
  8
0
 62
     0
100
AcDbTrace
 10
0.0
 20
0.0
 11
2.0
 21
0.5
 12
2.0
 22
-0.5
 13
2.0
 23
-0.5
  0
ENDBLK
  5
527
100
AcDbEntity
100
AcDbBlockEnd
  0
BLOCK
  5
528
100
AcDbEntity
  8
0
100
AcDbBlockBegin
  2
CDWK_EXTR_3
 70
     0
 10
0.0
 20
0.0
 30
0.0
  3
CDWK_EXTR_3
  1

  4
Cadwork line-extremity
  0
SOLID
  5
529
100
AcDbEntity
  8
0
 62
     0
100
AcDbTrace
 10
0.0
 20
0.0
 11
2.0
 21
0.5
 12
2.0
 22
-0.5
 13
2.0
 23
-0.5
  0
LINE
  5
52A
100
AcDbEntity
  8
0
 62
     0
370
    -2
100
AcDbLine
 10
0.0
 20
1.0
 30
0.0
 11
0.0
 21
-1.0
 31
0.0
  0
ENDBLK
  5
52B
100
AcDbEntity
100
AcDbBlockEnd
  0
BLOCK
  5
52C
100
AcDbEntity
  8
0
100
AcDbBlockBegin
  2
CDWK_EXTR_4
 70
     0
 10
0.0
 20
0.0
 30
0.0
  3
CDWK_EXTR_4
  1

  4
Cadwork line-extremity
  0
HATCH
  5
52D
100
AcDbEntity
  8
0
 62
     0
370
    -2
100
AcDbHatch
 10
0.0
 20
0.0
 30
0.0
210
0.0
220
0.0
230
1.0
  2
SOLID
 70
     1
 71
     0
 91
        1
 92
        1
 93
        1
 72
     2
 10
0.0
 20
0.0
 40
0.5
 50
0.0
 51
360.0
 73
     1
 97
        0
 75
     0
 76
     1
 98
        1
 10
0.0
 20
0.0
  0
ENDBLK
  5
52E
100
AcDbEntity
100
AcDbBlockEnd
  0
BLOCK
  5
52F
100
AcDbEntity
  8
0
100
AcDbBlockBegin
  2
CDWK_PTTYP0
 70
     0
 10
0.0
 20
0.0
 30
0.0
  3
CDWK_PTTYP0
  1

  4
Cadwork point
  0
POINT
  5
530
100
AcDbEntity
  8
0
 62
     0
100
AcDbPoint
 10
0.0
 20
0.0
 30
0.0
  0
ENDBLK
  5
531
100
AcDbEntity
100
AcDbBlockEnd
  0
BLOCK
  5
532
100
AcDbEntity
  8
0
100
AcDbBlockBegin
  2
CDWK_PTTYP1
 70
     0
 10
0.0
 20
0.0
 30
0.0
  3
CDWK_PTTYP1
  1

  4
Cadwork node
  0
LINE
  5
533
100
AcDbEntity
  8
0
 62
     0
370
    -2
100
AcDbLine
 10
-0.5
 20
0.5
 30
0.0
 11
0.5
 21
0.5
 31
0.0
  0
LINE
  5
534
100
AcDbEntity
  8
0
 62
     0
370
    -2
100
AcDbLine
 10
0.5
 20
0.5
 30
0.0
 11
0.5
 21
-0.5
 31
0.0
  0
LINE
  5
535
100
AcDbEntity
  8
0
 62
     0
370
    -2
100
AcDbLine
 10
0.5
 20
-0.5
 30
0.0
 11
-0.5
 21
-0.5
 31
0.0
  0
LINE
  5
536
100
AcDbEntity
  8
0
 62
     0
370
    -2
100
AcDbLine
 10
-0.5
 20
-0.5
 30
0.0
 11
-0.5
 21
0.5
 31
0.0
  0
ENDBLK
  5
537
100
AcDbEntity
100
AcDbBlockEnd
  0
BLOCK
  5
538
100
AcDbEntity
  8
0
100
AcDbBlockBegin
  2
CDWK_PTTYP2
 70
     0
 10
0.0
 20
0.0
 30
0.0
  3
CDWK_PTTYP2
  1

  4
Cadwork node
  0
LINE
  5
539
100
AcDbEntity
  8
0
 62
     0
370
    -2
100
AcDbLine
 10
0.0
 20
0.5
 30
0.0
 11
0.0
 21
-0.5
 31
0.0
  0
LINE
  5
53A
100
AcDbEntity
  8
0
 62
     0
370
    -2
100
AcDbLine
 10
-0.5
 20
0.0
 30
0.0
 11
0.5
 21
0.0
 31
0.0
  0
ENDBLK
  5
53B
100
AcDbEntity
100
AcDbBlockEnd
  0
BLOCK
  5
53C
100
AcDbEntity
  8
0
100
AcDbBlockBegin
  2
CDWK_PTTYP3
 70
     0
 10
0.0
 20
0.0
 30
0.0
  3
CDWK_PTTYP3
  1

  4
Cadwork node
  0
CIRCLE
  5
53D
100
AcDbEntity
  8
0
 62
     0
370
    -2
100
AcDbCircle
 10
0.0
 20
0.0
 30
0.0
 40
0.5
  0
ENDBLK
  5
53E
100
AcDbEntity
100
AcDbBlockEnd
  0
BLOCK
  5
53F
100
AcDbEntity
  8
0
100
AcDbBlockBegin
  2
CDWK_PTTYP4
 70
     0
 10
0.0
 20
0.0
 30
0.0
  3
CDWK_PTTYP4
  1

  4
Cadwork node
  0
HATCH
  5
540
100
AcDbEntity
  8
0
 62
     0
370
    -2
100
AcDbHatch
 10
0.0
 20
0.0
 30
0.0
210
0.0
220
0.0
230
1.0
  2
SOLID
 70
     1
 71
     0
 91
        1
 92
        1
 93
        1
 72
     2
 10
0.0
 20
0.0
 40
0.5
 50
0.0
 51
360.0
 73
     1
 97
        0
 75
     0
 76
     1
 98
        1
 10
0.0
 20
0.0
  0
ENDBLK
  5
541
100
AcDbEntity
100
AcDbBlockEnd
  0
BLOCK
  5
542
100
AcDbEntity
  8
0
100
AcDbBlockBegin
  2
CDWK_PTTYP5
 70
     0
 10
0.0
 20
0.0
 30
0.0
  3
CDWK_PTTYP5
  1

  4
Cadwork node
  0
LINE
  5
543
100
AcDbEntity
  8
0
 62
     0
370
    -2
100
AcDbLine
 10
-0.5
 20
0.5
 30
0.0
 11
0.5
 21
0.5
 31
0.0
  0
LINE
  5
544
100
AcDbEntity
  8
0
 62
     0
370
    -2
100
AcDbLine
 10
0.5
 20
0.5
 30
0.0
 11
0.5
 21
-0.5
 31
0.0
  0
LINE
  5
545
100
AcDbEntity
  8
0
 62
     0
370
    -2
100
AcDbLine
 10
0.5
 20
-0.5
 30
0.0
 11
-0.5
 21
-0.5
 31
0.0
  0
LINE
  5
546
100
AcDbEntity
  8
0
 62
     0
370
    -2
100
AcDbLine
 10
-0.5
 20
-0.5
 30
0.0
 11
-0.5
 21
0.5
 31
0.0
  0
SOLID
  5
547
100
AcDbEntity
  8
0
 62
     0
100
AcDbTrace
 10
-0.5
 20
-0.5
 11
-0.5
 21
0.0
 12
0.0
 22
-0.5
 13
0.0
 23
0.0
  0
SOLID
  5
548
100
AcDbEntity
  8
0
 62
     0
100
AcDbTrace
 10
0.0
 20
0.0
 11
0.0
 21
0.5
 12
0.5
 22
0.0
 13
0.5
 23
0.5
  0
ENDBLK
  5
549
100
AcDbEntity
100
AcDbBlockEnd
  0
BLOCK
  5
54A
100
AcDbEntity
  8
0
100
AcDbBlockBegin
  2
CDWK_PTTYP6
 70
     0
 10
0.0
 20
0.0
 30
0.0
  3
CDWK_PTTYP6
  1

  4
Cadwork node
  0
LINE
  5
54B
100
AcDbEntity
  8
0
 62
     0
370
    -2
100
AcDbLine
 10
-0.5
 20
0.5
 30
0.0
 11
0.5
 21
0.5
 31
0.0
  0
LINE
  5
54C
100
AcDbEntity
  8
0
 62
     0
370
    -2
100
AcDbLine
 10
0.5
 20
0.5
 30
0.0
 11
0.5
 21
-0.5
 31
0.0
  0
LINE
  5
54D
100
AcDbEntity
  8
0
 62
     0
370
    -2
100
AcDbLine
 10
0.5
 20
-0.5
 30
0.0
 11
-0.5
 21
-0.5
 31
0.0
  0
LINE
  5
54E
100
AcDbEntity
  8
0
 62
     0
370
    -2
100
AcDbLine
 10
-0.5
 20
-0.5
 30
0.0
 11
-0.5
 21
0.5
 31
0.0
  0
SOLID
  5
54F
100
AcDbEntity
  8
0
 62
     0
100
AcDbTrace
 10
-0.5
 20
-0.5
 11
-0.5
 21
0.5
 12
0.5
 22
0.5
 13
0.5
 23
0.5
  0
ENDBLK
  5
550
100
AcDbEntity
100
AcDbBlockEnd
  0
BLOCK
  5
551
100
AcDbEntity
  8
0
100
AcDbBlockBegin
  2
CDWK_PTTYP7
 70
     0
 10
0.0
 20
0.0
 30
0.0
  3
CDWK_PTTYP7
  1

  4
Cadwork node
  0
LINE
  5
552
100
AcDbEntity
  8
0
 62
     0
370
    -2
100
AcDbLine
 10
-0.5
 20
0.5
 30
0.0
 11
0.5
 21
0.5
 31
0.0
  0
LINE
  5
553
100
AcDbEntity
  8
0
 62
     0
370
    -2
100
AcDbLine
 10
0.5
 20
0.5
 30
0.0
 11
0.5
 21
-0.5
 31
0.0
  0
LINE
  5
554
100
AcDbEntity
  8
0
 62
     0
370
    -2
100
AcDbLine
 10
0.5
 20
-0.5
 30
0.0
 11
-0.5
 21
-0.5
 31
0.0
  0
LINE
  5
555
100
AcDbEntity
  8
0
 62
     0
370
    -2
100
AcDbLine
 10
-0.5
 20
-0.5
 30
0.0
 11
-0.5
 21
0.5
 31
0.0
  0
LINE
  5
556
100
AcDbEntity
  8
0
 62
     0
370
    -2
100
AcDbLine
 10
0.0
 20
0.5
 30
0.0
 11
0.0
 21
-0.5
 31
0.0
  0
LINE
  5
557
100
AcDbEntity
  8
0
 62
     0
370
    -2
100
AcDbLine
 10
-0.5
 20
0.0
 30
0.0
 11
0.5
 21
0.0
 31
0.0
  0
ENDBLK
  5
558
100
AcDbEntity
100
AcDbBlockEnd
  0
BLOCK
  5
559
100
AcDbEntity
  8
0
100
AcDbBlockBegin
  2
CDWK_PTTYP8
 70
     0
 10
0.0
 20
0.0
 30
0.0
  3
CDWK_PTTYP8
  1

  4
Cadwork node
  0
SOLID
  5
55A
100
AcDbEntity
  8
0
 62
     0
100
AcDbTrace
 10
-0.5
 20
0.5
 11
0.5
 21
0.5
 12
-0.5
 22
-0.5
 13
0.5
 23
-0.5
  0
ENDBLK
  5
55B
100
AcDbEntity
100
AcDbBlockEnd
  0
BLOCK
  5
55C
100
AcDbEntity
  8
0
100
AcDbBlockBegin
  2
CDWK_PTTYP9
 70
     0
 10
0.0
 20
0.0
 30
0.0
  3
CDWK_PTTYP9
  1

  4
Cadwork node
  0
CIRCLE
  5
55D
100
AcDbEntity
  8
0
 62
     0
370
    -2
100
AcDbCircle
 10
0.0
 20
0.0
 30
0.0
 40
0.5
  0
CIRCLE
  5
55E
100
AcDbEntity
  8
0
 62
     0
370
    -2
100
AcDbCircle
 10
0.0
 20
0.0
 30
0.0
 40
0.16666667
  0
ENDBLK
  5
55F
100
AcDbEntity
100
AcDbBlockEnd
  0
BLOCK
  5
560
100
AcDbEntity
  8
0
100
AcDbBlockBegin
  2
CDWK_PTTYP10
 70
     0
 10
0.0
 20
0.0
 30
0.0
  3
CDWK_PTTYP10
  1

  4
Cadwork node
  0
CIRCLE
  5
561
100
AcDbEntity
  8
0
 62
     0
370
    -2
100
AcDbCircle
 10
0.0
 20
0.0
 30
0.0
 40
0.5
  0
ENDBLK
  5
562
100
AcDbEntity
100
AcDbBlockEnd
  0
BLOCK
  5
563
100
AcDbEntity
  8
0
100
AcDbBlockBegin
  2
CDWK_PTTYP11
 70
     0
 10
0.0
 20
0.0
 30
0.0
  3
CDWK_PTTYP11
  1

  4
Cadwork node
  0
CIRCLE
  5
564
100
AcDbEntity
  8
0
 62
     0
370
    -2
100
AcDbCircle
 10
0.0
 20
0.0
 30
0.0
 40
0.5
  0
CIRCLE
  5
565
100
AcDbEntity
  8
0
 62
     0
370
    -2
100
AcDbCircle
 10
0.0
 20
0.0
 30
0.0
 40
0.25
  0
ENDBLK
  5
566
100
AcDbEntity
100
AcDbBlockEnd
  0
BLOCK
  5
567
100
AcDbEntity
  8
0
100
AcDbBlockBegin
  2
CDWK_PTTYP12
 70
     0
 10
0.0
 20
0.0
 30
0.0
  3
CDWK_PTTYP12
  1

  4
Cadwork node
  0
CIRCLE
  5
568
100
AcDbEntity
  8
0
 62
     0
370
    -2
100
AcDbCircle
 10
0.0
 20
0.0
 30
0.0
 40
0.5
  0
CIRCLE
  5
569
100
AcDbEntity
  8
0
 62
     0
370
    -2
100
AcDbCircle
 10
0.25
 20
0.0
 30
0.0
 40
0.25
  0
ENDBLK
  5
56A
100
AcDbEntity
100
AcDbBlockEnd
  0
BLOCK
  5
56B
100
AcDbEntity
  8
0
100
AcDbBlockBegin
  2
CDWK_PTTYP13
 70
     0
 10
0.0
 20
0.0
 30
0.0
  3
CDWK_PTTYP13
  1

  4
Cadwork node
  0
CIRCLE
  5
56C
100
AcDbEntity
  8
0
 62
     0
370
    -2
100
AcDbCircle
 10
0.0
 20
0.0
 30
0.0
 40
0.5
  0
CIRCLE
  5
56D
100
AcDbEntity
  8
0
 62
     0
370
    -2
100
AcDbCircle
 10
0.25
 20
0.0
 30
0.0
 40
0.25
  0
CIRCLE
  5
56E
100
AcDbEntity
  8
0
 62
     0
370
    -2
100
AcDbCircle
 10
-0.25
 20
0.0
 30
0.0
 40
0.25
  0
ENDBLK
  5
56F
100
AcDbEntity
100
AcDbBlockEnd
  0
BLOCK
  5
570
100
AcDbEntity
  8
0
100
AcDbBlockBegin
  2
CDWK_PTTYP14
 70
     0
 10
0.0
 20
0.0
 30
0.0
  3
CDWK_PTTYP14
  1

  4
Cadwork node
  0
POINT
  5
571
100
AcDbEntity
  8
0
 62
     0
100
AcDbPoint
 10
0.0
 20
0.0
 30
0.0
  0
ENDBLK
  5
572
100
AcDbEntity
100
AcDbBlockEnd
  0
BLOCK
  5
573
100
AcDbEntity
  8
0
100
AcDbBlockBegin
  2
CDWK_PTTYP15
 70
     0
 10
0.0
 20
0.0
 30
0.0
  3
CDWK_PTTYP15
  1

  4
Cadwork node
  0
POINT
  5
574
100
AcDbEntity
  8
0
 62
     0
100
AcDbPoint
 10
0.0
 20
0.0
 30
0.0
  0
ENDBLK
  5
575
100
AcDbEntity
100
AcDbBlockEnd
  0
BLOCK
  5
576
100
AcDbEntity
  8
0
100
AcDbBlockBegin
  2
CDWK_PTTYP16
 70
     0
 10
0.0
 20
0.0
 30
0.0
  3
CDWK_PTTYP16
  1

  4
Cadwork node
  0
LINE
  5
577
100
AcDbEntity
  8
0
 62
     0
370
    -2
100
AcDbLine
 10
-0.5
 20
-0.28867513
 30
0.0
 11
0.5
 21
-0.28867513
 31
0.0
  0
LINE
  5
578
100
AcDbEntity
  8
0
 62
     0
370
    -2
100
AcDbLine
 10
0.5
 20
-0.28867513
 30
0.0
 11
0.0
 21
0.57735027
 31
0.0
  0
LINE
  5
579
100
AcDbEntity
  8
0
 62
     0
370
    -2
100
AcDbLine
 10
0.0
 20
0.57735027
 30
0.0
 11
-0.5
 21
-0.28867513
 31
0.0
  0
CIRCLE
  5
57A
100
AcDbEntity
  8
0
 62
     0
370
    -2
100
AcDbCircle
 10
0.0
 20
0.0
 30
0.0
 40
0.28867513
  0
ENDBLK
  5
57B
100
AcDbEntity
100
AcDbBlockEnd
  0
BLOCK
  5
57C
100
AcDbEntity
  8
0
100
AcDbBlockBegin
  2
CDWK_PTTYP17
 70
     0
 10
0.0
 20
0.0
 30
0.0
  3
CDWK_PTTYP17
  1

  4
Cadwork node
  0
CIRCLE
  5
57D
100
AcDbEntity
  8
0
 62
     0
370
    -2
100
AcDbCircle
 10
0.0
 20
0.0
 30
0.0
 40
0.5
  0
HATCH
  5
57E
100
AcDbEntity
  8
0
 62
     0
370
    -2
100
AcDbHatch
 10
0.0
 20
0.0
 30
0.0
210
0.0
220
0.0
230
1.0
  2
SOLID
 70
     1
 71
     0
 91
        1
 92
        1
 93
        1
 72
     2
 10
0.0
 20
0.0
 40
0.25
 50
0.0
 51
360.0
 73
     1
 97
        0
 75
     0
 76
     1
 98
        1
 10
0.0
 20
0.0
  0
ENDBLK
  5
57F
100
AcDbEntity
100
AcDbBlockEnd
  0
BLOCK
  5
580
100
AcDbEntity
  8
0
100
AcDbBlockBegin
  2
CDWK_PTTYP18
 70
     0
 10
0.0
 20
0.0
 30
0.0
  3
CDWK_PTTYP18
  1

  4
Cadwork node
  0
CIRCLE
  5
581
100
AcDbEntity
  8
0
 62
     0
370
    -2
100
AcDbCircle
 10
0.0
 20
0.0
 30
0.0
 40
0.5
  0
CIRCLE
  5
582
100
AcDbEntity
  8
0
 62
     0
370
    -2
100
AcDbCircle
 10
0.0
 20
0.0
 30
0.0
 40
0.2
  0
ENDBLK
  5
583
100
AcDbEntity
100
AcDbBlockEnd
  0
BLOCK
  5
584
100
AcDbEntity
  8
0
100
AcDbBlockBegin
  2
CDWK_PTTYP19
 70
     0
 10
0.0
 20
0.0
 30
0.0
  3
CDWK_PTTYP19
  1

  4
Cadwork node
  0
CIRCLE
  5
585
100
AcDbEntity
  8
0
 62
     0
370
    -2
100
AcDbCircle
 10
0.0
 20
0.0
 30
0.0
 40
0.4
  0
CIRCLE
  5
586
100
AcDbEntity
  8
0
 62
     0
370
    -2
100
AcDbCircle
 10
0.0
 20
0.0
 30
0.0
 40
0.25
  0
LINE
  5
587
100
AcDbEntity
  8
0
 62
     0
370
    -2
100
AcDbLine
 10
-0.25
 20
0.0
 30
0.0
 11
0.25
 21
0.0
 31
0.0
  0
ENDBLK
  5
588
100
AcDbEntity
100
AcDbBlockEnd
  0
BLOCK
  5
589
100
AcDbEntity
  8
0
100
AcDbBlockBegin
  2
CDWK_PTTYP20
 70
     0
 10
0.0
 20
0.0
 30
0.0
  3
CDWK_PTTYP20
  1

  4
Cadwork node
  0
CIRCLE
  5
58A
100
AcDbEntity
  8
0
 62
     0
370
    -2
100
AcDbCircle
 10
0.0
 20
0.0
 30
0.0
 40
0.5
  0
CIRCLE
  5
58B
100
AcDbEntity
  8
0
 62
     0
370
    -2
100
AcDbCircle
 10
0.0
 20
0.0
 30
0.0
 40
0.3
  0
ENDBLK
  5
58C
100
AcDbEntity
100
AcDbBlockEnd
  0
BLOCK
  5
58D
100
AcDbEntity
  8
0
100
AcDbBlockBegin
  2
CDWK_PTTYP21
 70
     0
 10
0.0
 20
0.0
 30
0.0
  3
CDWK_PTTYP21
  1

  4
Cadwork node
  0
CIRCLE
  5
58E
100
AcDbEntity
  8
0
 62
     0
370
    -2
100
AcDbCircle
 10
0.0
 20
0.0
 30
0.0
 40
0.5
  0
LINE
  5
58F
100
AcDbEntity
  8
0
 62
     0
370
    -2
100
AcDbLine
 10
-0.5
 20
0.0
 30
0.0
 11
0.5
 21
0.0
 31
0.0
  0
ENDBLK
  5
590
100
AcDbEntity
100
AcDbBlockEnd
  0
BLOCK
  5
591
100
AcDbEntity
  8
0
100
AcDbBlockBegin
  2
CDWK_PTTYP22
 70
     0
 10
0.0
 20
0.0
 30
0.0
  3
CDWK_PTTYP22
  1

  4
Cadwork node
  0
POINT
  5
592
100
AcDbEntity
  8
0
 62
     0
100
AcDbPoint
 10
0.0
 20
0.0
 30
0.0
  0
ENDBLK
  5
593
100
AcDbEntity
100
AcDbBlockEnd
  0
BLOCK
  5
594
100
AcDbEntity
  8
0
100
AcDbBlockBegin
  2
CDWK_PTTYP23
 70
     0
 10
0.0
 20
0.0
 30
0.0
  3
CDWK_PTTYP23
  1

  4
Cadwork node
  0
POINT
  5
595
100
AcDbEntity
  8
0
 62
     0
100
AcDbPoint
 10
0.0
 20
0.0
 30
0.0
  0
ENDBLK
  5
596
100
AcDbEntity
100
AcDbBlockEnd
  0
BLOCK
  5
597
100
AcDbEntity
  8
0
100
AcDbBlockBegin
  2
CDWK_PTTYP24
 70
     0
 10
0.0
 20
0.0
 30
0.0
  3
CDWK_PTTYP24
  1

  4
Cadwork node
  0
POINT
  5
598
100
AcDbEntity
  8
0
 62
     0
100
AcDbPoint
 10
0.0
 20
0.0
 30
0.0
  0
ENDBLK
  5
599
100
AcDbEntity
100
AcDbBlockEnd
  0
BLOCK
  5
59A
100
AcDbEntity
  8
0
100
AcDbBlockBegin
  2
CDWK_PTTYP25
 70
     0
 10
0.0
 20
0.0
 30
0.0
  3
CDWK_PTTYP25
  1

  4
Cadwork node
  0
LINE
  5
59B
100
AcDbEntity
  8
0
 62
     0
370
    -2
100
AcDbLine
 10
-0.43290044
 20
-0.25
 30
0.0
 11
0.43290044
 21
-0.25
 31
0.0
  0
LINE
  5
59C
100
AcDbEntity
  8
0
 62
     0
370
    -2
100
AcDbLine
 10
-0.43290044
 20
-0.25
 30
0.0
 11
0.0
 21
0.5
 31
0.0
  0
LINE
  5
59D
100
AcDbEntity
  8
0
 62
     0
370
    -2
100
AcDbLine
 10
0.43290044
 20
-0.25
 30
0.0
 11
0.0
 21
0.5
 31
0.0
  0
CIRCLE
  5
59E
100
AcDbEntity
  8
0
 62
     0
370
    -2
100
AcDbCircle
 10
0.0
 20
0.0
 30
0.0
 40
0.5
  0
ENDBLK
  5
59F
100
AcDbEntity
100
AcDbBlockEnd
  0
BLOCK
  5
5A0
100
AcDbEntity
  8
0
100
AcDbBlockBegin
  2
CDWK_PTTYP26
 70
     0
 10
0.0
 20
0.0
 30
0.0
  3
CDWK_PTTYP26
  1

  4
Cadwork node
  0
LINE
  5
5A1
100
AcDbEntity
  8
0
 62
     0
370
    -2
100
AcDbLine
 10
-0.5
 20
-0.28850001
 30
0.0
 11
0.5
 21
-0.28850001
 31
0.0
  0
LINE
  5
5A2
100
AcDbEntity
  8
0
 62
     0
370
    -2
100
AcDbLine
 10
-0.5
 20
-0.28850001
 30
0.0
 11
0.0
 21
0.57736721
 31
0.0
  0
LINE
  5
5A3
100
AcDbEntity
  8
0
 62
     0
370
    -2
100
AcDbLine
 10
0.5
 20
-0.28850001
 30
0.0
 11
0.0
 21
0.57736721
 31
0.0
  0
CIRCLE
  5
5A4
100
AcDbEntity
  8
0
 62
     0
370
    -2
100
AcDbCircle
 10
0.0
 20
0.0
 30
0.0
 40
0.1312336
  0
ENDBLK
  5
5A5
100
AcDbEntity
100
AcDbBlockEnd
  0
BLOCK
  5
5A6
100
AcDbEntity
  8
0
100
AcDbBlockBegin
  2
CDWK_PTTYP27
 70
     0
 10
0.0
 20
0.0
 30
0.0
  3
CDWK_PTTYP27
  1

  4
Cadwork node
  0
LINE
  5
5A7
100
AcDbEntity
  8
0
 62
     0
370
    -2
100
AcDbLine
 10
-0.43290044
 20
-0.25
 30
0.0
 11
0.43290044
 21
-0.25
 31
0.0
  0
LINE
  5
5A8
100
AcDbEntity
  8
0
 62
     0
370
    -2
100
AcDbLine
 10
-0.43290044
 20
-0.25
 30
0.0
 11
0.0
 21
0.5
 31
0.0
  0
LINE
  5
5A9
100
AcDbEntity
  8
0
 62
     0
370
    -2
100
AcDbLine
 10
0.43290044
 20
-0.25
 30
0.0
 11
0.0
 21
0.5
 31
0.0
  0
CIRCLE
  5
5AA
100
AcDbEntity
  8
0
 62
     0
370
    -2
100
AcDbCircle
 10
0.0
 20
0.0
 30
0.0
 40
0.5
  0
CIRCLE
  5
5AB
100
AcDbEntity
  8
0
 62
     0
370
    -2
100
AcDbCircle
 10
0.0
 20
0.0
 30
0.0
 40
0.1312336
  0
ENDBLK
  5
5AC
100
AcDbEntity
100
AcDbBlockEnd
  0
BLOCK
  5
5AD
100
AcDbEntity
  8
0
100
AcDbBlockBegin
  2
CDWK_PTTYP28
 70
     0
 10
0.0
 20
0.0
 30
0.0
  3
CDWK_PTTYP28
  1

  4
Cadwork node
  0
POINT
  5
5AE
100
AcDbEntity
  8
0
 62
     0
100
AcDbPoint
 10
0.0
 20
0.0
 30
0.0
  0
ENDBLK
  5
5AF
100
AcDbEntity
100
AcDbBlockEnd
  0
BLOCK
  5
5B0
100
AcDbEntity
  8
0
100
AcDbBlockBegin
  2
CDWK_PTTYP29
 70
     0
 10
0.0
 20
0.0
 30
0.0
  3
CDWK_PTTYP29
  1

  4
Cadwork node
  0
CIRCLE
  5
5B1
100
AcDbEntity
  8
0
 62
     0
370
    -2
100
AcDbCircle
 10
0.0
 20
0.0
 30
0.0
 40
0.5
  0
CIRCLE
  5
5B2
100
AcDbEntity
  8
0
 62
     0
370
    -2
100
AcDbCircle
 10
0.0
 20
0.0
 30
0.0
 40
0.375
  0
CIRCLE
  5
5B3
100
AcDbEntity
  8
0
 62
     0
370
    -2
100
AcDbCircle
 10
0.0
 20
0.0
 30
0.0
 40
0.21875
  0
ENDBLK
  5
5B4
100
AcDbEntity
100
AcDbBlockEnd
  0
BLOCK
  5
5B5
100
AcDbEntity
  8
0
100
AcDbBlockBegin
  2
CDWK_PTTYP30
 70
     0
 10
0.0
 20
0.0
 30
0.0
  3
CDWK_PTTYP30
  1

  4
Cadwork node
  0
LINE
  5
5B6
100
AcDbEntity
  8
0
 62
     0
370
    -2
100
AcDbLine
 10
0.17680339
 20
0.17680339
 30
0.0
 11
0.5
 21
0.5
 31
0.0
  0
LINE
  5
5B7
100
AcDbEntity
  8
0
 62
     0
370
    -2
100
AcDbLine
 10
-0.17680339
 20
0.17680339
 30
0.0
 11
-0.5
 21
0.5
 31
0.0
  0
LINE
  5
5B8
100
AcDbEntity
  8
0
 62
     0
370
    -2
100
AcDbLine
 10
0.17680339
 20
-0.17680339
 30
0.0
 11
0.5
 21
-0.5
 31
0.0
  0
LINE
  5
5B9
100
AcDbEntity
  8
0
 62
     0
370
    -2
100
AcDbLine
 10
-0.17680339
 20
-0.17680339
 30
0.0
 11
-0.5
 21
-0.5
 31
0.0
  0
ENDBLK
  5
5BA
100
AcDbEntity
100
AcDbBlockEnd
  0
BLOCK
  5
5BB
100
AcDbEntity
  8
0
100
AcDbBlockBegin
  2
CDWK_PTTYP31
 70
     0
 10
0.0
 20
0.0
 30
0.0
  3
CDWK_PTTYP31
  1

  4
Cadwork node
  0
CIRCLE
  5
5BC
100
AcDbEntity
  8
0
 62
     0
370
    -2
100
AcDbCircle
 10
0.0
 20
0.0
 30
0.0
 40
0.075
  0
LINE
  5
5BD
100
AcDbEntity
  8
0
 62
     0
370
    -2
100
AcDbLine
 10
0.075
 20
0.0
 30
0.0
 11
0.5
 21
0.0
 31
0.0
  0
LINE
  5
5BE
100
AcDbEntity
  8
0
 62
     0
370
    -2
100
AcDbLine
 10
-0.075
 20
0.0
 30
0.0
 11
-0.5
 21
0.0
 31
0.0
  0
LINE
  5
5BF
100
AcDbEntity
  8
0
 62
     0
370
    -2
100
AcDbLine
 10
0.0
 20
0.075
 30
0.0
 11
0.0
 21
0.5
 31
0.0
  0
LINE
  5
5C0
100
AcDbEntity
  8
0
 62
     0
370
    -2
100
AcDbLine
 10
0.0
 20
-0.075
 30
0.0
 11
0.0
 21
-0.5
 31
0.0
  0
ENDBLK
  5
5C1
100
AcDbEntity
100
AcDbBlockEnd
  0
BLOCK
  5
5C2
100
AcDbEntity
  8
0
100
AcDbBlockBegin
  2
CDWK_PTTYP32
 70
     0
 10
0.0
 20
0.0
 30
0.0
  3
CDWK_PTTYP32
  1

  4
Cadwork node
  0
CIRCLE
  5
5C3
100
AcDbEntity
  8
0
 62
     0
370
    -2
100
AcDbCircle
 10
0.0
 20
0.0
 30
0.0
 40
0.5
  0
CIRCLE
  5
5C4
100
AcDbEntity
  8
0
 62
     0
370
    -2
100
AcDbCircle
 10
0.0
 20
0.0
 30
0.0
 40
0.16666667
  0
LINE
  5
5C5
100
AcDbEntity
  8
0
 62
     0
370
    -2
100
AcDbLine
 10
0.11786893
 20
0.11786893
 30
0.0
 11
0.35360678
 21
0.35360678
 31
0.0
  0
LINE
  5
5C6
100
AcDbEntity
  8
0
 62
     0
370
    -2
100
AcDbLine
 10
-0.11786893
 20
0.11786893
 30
0.0
 11
-0.35360678
 21
0.35360678
 31
0.0
  0
LINE
  5
5C7
100
AcDbEntity
  8
0
 62
     0
370
    -2
100
AcDbLine
 10
0.11786893
 20
-0.11786893
 30
0.0
 11
0.35360678
 21
-0.35360678
 31
0.0
  0
LINE
  5
5C8
100
AcDbEntity
  8
0
 62
     0
370
    -2
100
AcDbLine
 10
-0.11786893
 20
-0.11786893
 30
0.0
 11
-0.35360678
 21
-0.35360678
 31
0.0
  0
ENDBLK
  5
5C9
100
AcDbEntity
100
AcDbBlockEnd
  0
BLOCK
  5
5CA
100
AcDbEntity
  8
0
100
AcDbBlockBegin
  2
CDWK_PTTYP33
 70
     0
 10
0.0
 20
0.0
 30
0.0
  3
CDWK_PTTYP33
  1

  4
Cadwork node
  0
CIRCLE
  5
5CB
100
AcDbEntity
  8
0
 62
     0
370
    -2
100
AcDbCircle
 10
0.0
 20
0.0
 30
0.0
 40
0.5
  0
LINE
  5
5CC
100
AcDbEntity
  8
0
 62
     0
370
    -2
100
AcDbLine
 10
0.0
 20
0.5
 30
0.0
 11
0.0
 21
-0.5
 31
0.0
  0
LINE
  5
5CD
100
AcDbEntity
  8
0
 62
     0
370
    -2
100
AcDbLine
 10
-0.5
 20
0.0
 30
0.0
 11
0.5
 21
0.0
 31
0.0
  0
ENDBLK
  5
5CE
100
AcDbEntity
100
AcDbBlockEnd
  0
BLOCK
  5
5CF
100
AcDbEntity
  8
0
100
AcDbBlockBegin
  2
CDWK_PTTYP34
 70
     0
 10
0.0
 20
0.0
 30
0.0
  3
CDWK_PTTYP34
  1

  4
Cadwork node
  0
CIRCLE
  5
5D0
100
AcDbEntity
  8
0
 62
     0
370
    -2
100
AcDbCircle
 10
0.0
 20
0.0
 30
0.0
 40
0.5
  0
LINE
  5
5D1
100
AcDbEntity
  8
0
 62
     0
370
    -2
100
AcDbLine
 10
-0.30360678
 20
-0.40360678
 30
0.0
 11
0.40360678
 21
0.30360678
 31
0.0
  0
LINE
  5
5D2
100
AcDbEntity
  8
0
 62
     0
370
    -2
100
AcDbLine
 10
-0.40360678
 20
-0.30360678
 30
0.0
 11
0.30360678
 21
0.40360678
 31
0.0
  0
ENDBLK
  5
5D3
100
AcDbEntity
100
AcDbBlockEnd
  0
BLOCK
  5
5D4
100
AcDbEntity
  8
0
100
AcDbBlockBegin
  2
CDWK_PTTYP35
 70
     0
 10
0.0
 20
0.0
 30
0.0
  3
CDWK_PTTYP35
  1

  4
Cadwork node
  0
CIRCLE
  5
5D5
100
AcDbEntity
  8
0
 62
     0
370
    -2
100
AcDbCircle
 10
0.0
 20
0.0
 30
0.0
 40
0.21431634
  0
LINE
  5
5D6
100
AcDbEntity
  8
0
 62
     0
370
    -2
100
AcDbLine
 10
0.0
 20
0.21431634
 30
0.0
 11
0.0
 21
0.5
 31
0.0
  0
LINE
  5
5D7
100
AcDbEntity
  8
0
 62
     0
370
    -2
100
AcDbLine
 10
0.0
 20
-0.21431634
 30
0.0
 11
0.0
 21
-0.5
 31
0.0
  0
ENDBLK
  5
5D8
100
AcDbEntity
100
AcDbBlockEnd
  0
BLOCK
  5
5D9
100
AcDbEntity
  8
0
100
AcDbBlockBegin
  2
CDWK_PTTYP36
 70
     0
 10
0.0
 20
0.0
 30
0.0
  3
CDWK_PTTYP36
  1

  4
Cadwork node
  0
LINE
  5
5DA
100
AcDbEntity
  8
0
 62
     0
370
    -2
100
AcDbLine
 10
-0.5
 20
-0.16666667
 30
0.0
 11
0.5
 21
-0.16666667
 31
0.0
  0
LINE
  5
5DB
100
AcDbEntity
  8
0
 62
     0
370
    -2
100
AcDbLine
 10
0.5
 20
-0.16666667
 30
0.0
 11
0.5
 21
0.16666667
 31
0.0
  0
LINE
  5
5DC
100
AcDbEntity
  8
0
 62
     0
370
    -2
100
AcDbLine
 10
0.5
 20
0.16666667
 30
0.0
 11
-0.5
 21
0.16666667
 31
0.0
  0
LINE
  5
5DD
100
AcDbEntity
  8
0
 62
     0
370
    -2
100
AcDbLine
 10
-0.5
 20
0.16666667
 30
0.0
 11
-0.5
 21
-0.16666667
 31
0.0
  0
SOLID
  5
5DE
100
AcDbEntity
  8
0
 62
     0
100
AcDbTrace
 10
-0.5
 20
-0.16666667
 11
0.5
 21
0.16666667
 12
0.5
 22
-0.16666667
 13
0.5
 23
-0.16666667
  0
ENDBLK
  5
5DF
100
AcDbEntity
100
AcDbBlockEnd
  0
BLOCK
  5
5E0
100
AcDbEntity
  8
0
100
AcDbBlockBegin
  2
CDWK_PTTYP37
 70
     0
 10
0.0
 20
0.0
 30
0.0
  3
CDWK_PTTYP37
  1

  4
Cadwork node
  0
CIRCLE
  5
5E1
100
AcDbEntity
  8
0
 62
     0
370
    -2
100
AcDbCircle
 10
0.0
 20
0.0
 30
0.0
 40
0.5
  0
SOLID
  5
5E2
100
AcDbEntity
  8
0
 62
     0
100
AcDbTrace
 10
0.0
 20
0.0
 11
0.35350001
 21
0.35350001
 12
0.5
 22
0.0
 13
0.46200001
 23
0.19149999
  0
SOLID
  5
5E3
100
AcDbEntity
  8
0
 62
     0
100
AcDbTrace
 10
0.0
 20
0.0
 11
0.35350001
 21
-0.35350001
 12
0.5
 22
0.0
 13
0.46200001
 23
-0.19149999
  0
SOLID
  5
5E4
100
AcDbEntity
  8
0
 62
     0
100
AcDbTrace
 10
0.0
 20
0.0
 11
0.0
 21
-0.5
 12
0.35350001
 22
-0.35350001
 13
0.19149999
 23
-0.46200001
  0
SOLID
  5
5E5
100
AcDbEntity
  8
0
 62
     0
100
AcDbTrace
 10
0.0
 20
0.0
 11
0.0
 21
-0.5
 12
-0.35350001
 22
-0.35350001
 13
-0.19149999
 23
-0.46200001
  0
ENDBLK
  5
5E6
100
AcDbEntity
100
AcDbBlockEnd
  0
BLOCK
  5
5E7
100
AcDbEntity
  8
0
100
AcDbBlockBegin
  2
CDWK_PTTYP38
 70
     0
 10
0.0
 20
0.0
 30
0.0
  3
CDWK_PTTYP38
  1

  4
Cadwork node
  0
CIRCLE
  5
5E8
100
AcDbEntity
  8
0
 62
     0
370
    -2
100
AcDbCircle
 10
0.0
 20
0.0
 30
0.0
 40
0.5
  0
SOLID
  5
5E9
100
AcDbEntity
  8
0
 62
     0
100
AcDbTrace
 10
0.0
 20
0.0
 11
0.35350001
 21
0.35350001
 12
0.0
 22
0.5
 13
0.19149999
 23
0.46200001
  0
SOLID
  5
5EA
100
AcDbEntity
  8
0
 62
     0
100
AcDbTrace
 10
0.0
 20
0.0
 11
0.5
 21
0.0
 12
0.35350001
 22
0.35350001
 13
0.46200001
 23
0.19149999
  0
SOLID
  5
5EB
100
AcDbEntity
  8
0
 62
     0
100
AcDbTrace
 10
0.0
 20
0.0
 11
0.0
 21
-0.5
 12
-0.35350001
 22
-0.35350001
 13
-0.19149999
 23
-0.46200001
  0
SOLID
  5
5EC
100
AcDbEntity
  8
0
 62
     0
100
AcDbTrace
 10
0.0
 20
0.0
 11
-0.5
 21
0.0
 12
-0.35350001
 22
-0.35350001
 13
-0.46200001
 23
-0.19149999
  0
ENDBLK
  5
5ED
100
AcDbEntity
100
AcDbBlockEnd
  0
BLOCK
  5
5EE
100
AcDbEntity
  8
Ech.1_5
100
AcDbBlockBegin
  2
*X1
 70
     1
 10
0.0
 20
0.0
 30
0.0
  3
*X1
  1

  4
Cadwork hatch
  0
LINE
  5
5EF
100
AcDbEntity
  8
Ech.1_5
 62
   190
  6
CONTINUOUS
370
    -2
100
AcDbLine
 10
41218.57939929
 20
-8541.4700662
 30
0.0
 11
41038.58171569
 21
-8496.47183592
 31
0.0
  0
LINE
  5
5F0
100
AcDbEntity
  8
Ech.1_5
 62
   190
  6
CONTINUOUS
370
    -2
100
AcDbLine
 10
41218.57939929
 20
-8496.47183592
 30
0.0
 11
41038.58171569
 21
-8541.4700662
 31
0.0
  0
ENDBLK
  5
5F1
100
AcDbEntity
100
AcDbBlockEnd
  0
BLOCK
  5
5F2
100
AcDbEntity
  8
Ech.1_5
100
AcDbBlockBegin
  2
*X2
 70
     1
 10
0.0
 20
0.0
 30
0.0
  3
*X2
  1

  4
Cadwork hatch
  0
LINE
  5
5F3
100
AcDbEntity
  8
Ech.1_5
 62
   190
  6
CONTINUOUS
370
    -2
100
AcDbLine
 10
41218.57939929
 20
-8639.46986337
 30
0.0
 11
41038.58171569
 21
-8594.46925186
 31
0.0
  0
LINE
  5
5F4
100
AcDbEntity
  8
Ech.1_5
 62
   190
  6
CONTINUOUS
370
    -2
100
AcDbLine
 10
41218.57939929
 20
-8594.46925186
 30
0.0
 11
41038.58171569
 21
-8639.46986337
 31
0.0
  0
ENDBLK
  5
5F5
100
AcDbEntity
100
AcDbBlockEnd
  0
BLOCK
  5
5F6
100
AcDbEntity
  8
Ech.1_5
100
AcDbBlockBegin
  2
*D11
 70
     1
 10
0.0
 20
0.0
 30
0.0
  3
*D11
  1

  4
Cadwork dimension
  0
TEXT
  5
5F7
100
AcDbEntity
  8
Ech.1_5
 62
   190
370
    18
100
AcDbText
 10
41264.51158223
 20
-8455.72522166
 30
0.0
 40
12.5
  1
min 200
  7
ARIAL
 50
89.9999975
 41
1.0
 51
0.0
100
AcDbText
  0
LINE
  5
5F8
100
AcDbEntity
  8
Ech.1_5
 62
   190
370
    -2
100
AcDbLine
 10
41274.51158223
 20
-8541.47008422
 30
0.0
 11
41251.37922038
 21
-8541.47008422
 31
0.0
  0
LINE
  5
5F9
100
AcDbEntity
  8
Ech.1_5
 62
   190
370
    -2
100
AcDbLine
 10
41274.51158223
 20
-8341.47008422
 30
0.0
 11
41251.37922038
 21
-8341.47008422
 31
0.0
  0
LINE
  5
5FA
100
AcDbEntity
  8
Ech.1_5
 62
   190
370
    -2
100
AcDbLine
 10
41269.51158223
 20
-8546.47008422
 30
0.0
 11
41269.51158223
 21
-8336.47008422
 31
0.0
  0
LINE
  5
5FB
100
AcDbEntity
  8
Ech.1_5
 62
   190
370
    -2
100
AcDbLine
 10
41272.01158223
 20
-8543.97008422
 30
0.0
 11
41267.01158223
 21
-8538.97008422
 31
0.0
  0
LINE
  5
5FC
100
AcDbEntity
  8
Ech.1_5
 62
   190
370
    -2
100
AcDbLine
 10
41272.01158223
 20
-8343.97008422
 30
0.0
 11
41267.01158223
 21
-8338.97008422
 31
0.0
  0
ENDBLK
  5
5FD
100
AcDbEntity
100
AcDbBlockEnd
  0
ENDSEC
  0
SECTION
  2
ENTITIES
  0
INSERT
  5
5FE
100
AcDbEntity
  8
Ech.1_5
 62
     0
100
AcDbBlockReference
  2
*X1
 10
0.0
 20
0.0
 30
0.0
  0
INSERT
  5
5FF
100
AcDbEntity
  8
Ech.1_5
 62
     0
100
AcDbBlockReference
  2
*X2
 10
0.0
 20
0.0
 30
0.0
  0
LWPOLYLINE
  5
600
100
AcDbEntity
  8
Ech.1_5
 62
   190
  6
CONTINUOUS
370
    -3
100
AcDbPolyline
 90
        4
 70
     1
 43
0.0
 10
41218.5818535
 20
-8341.47008422
 10
41218.5818535
 20
-8541.47008422
 10
41238.5818535
 20
-8541.47008422
 10
41238.5818535
 20
-8341.47008422
  0
LWPOLYLINE
  5
601
100
AcDbEntity
  8
Ech.1_5
 62
   190
  6
CONTINUOUS
370
    -3
100
AcDbPolyline
 90
      120
 70
     0
 43
0.0
 10
41235.24852017
 20
-8541.47008422
 42
1.14028181
 10
41234.38578808
 20
-8534.91699865
 10
41222.77791893
 20
-8538.02316978
 42
-1.30322619
 10
41222.77791893
 20
-8531.58366532
 10
41234.38578808
 20
-8534.68983645
 42
1.30322619
 10
41234.38578808
 20
-8528.25033198
 10
41222.77791893
 20
-8531.35650312
 42
-1.30322619
 10
41222.77791893
 20
-8524.91699865
 10
41234.38578808
 20
-8528.02316978
 42
1.30322619
 10
41234.38578808
 20
-8521.58366532
 10
41222.77791893
 20
-8524.68983645
 42
-1.30322619
 10
41222.77791893
 20
-8518.25033198
 10
41234.38578808
 20
-8521.35650312
 42
1.30322619
 10
41234.38578808
 20
-8514.91699865
 10
41222.77791893
 20
-8518.02316978
 42
-1.30322619
 10
41222.77791893
 20
-8511.58366532
 10
41234.38578808
 20
-8514.68983645
 42
1.30322619
 10
41234.38578808
 20
-8508.25033198
 10
41222.77791893
 20
-8511.35650312
 42
-1.30322619
 10
41222.77791893
 20
-8504.91699865
 10
41234.38578808
 20
-8508.02316978
 42
1.30322619
 10
41234.38578808
 20
-8501.58366532
 10
41222.77791893
 20
-8504.68983645
 42
-1.30322619
 10
41222.77791893
 20
-8498.25033198
 10
41234.38578808
 20
-8501.35650312
 42
1.30322619
 10
41234.38578808
 20
-8494.91699865
 10
41222.77791893
 20
-8498.02316978
 42
-1.30322619
 10
41222.77791893
 20
-8491.58366532
 10
41234.38578808
 20
-8494.68983645
 42
1.30322619
 10
41234.38578808
 20
-8488.25033198
 10
41222.77791893
 20
-8491.35650312
 42
-1.30322619
 10
41222.77791893
 20
-8484.91699865
 10
41234.38578808
 20
-8488.02316978
 42
1.30322619
 10
41234.38578808
 20
-8481.58366532
 10
41222.77791893
 20
-8484.68983645
 42
-1.30322619
 10
41222.77791893
 20
-8478.25033198
 10
41234.38578808
 20
-8481.35650312
 42
1.30322619
 10
41234.38578808
 20
-8474.91699865
 10
41222.77791893
 20
-8478.02316978
 42
-1.30322619
 10
41222.77791893
 20
-8471.58366532
 10
41234.38578808
 20
-8474.68983645
 42
1.30322619
 10
41234.38578808
 20
-8468.25033198
 10
41222.77791893
 20
-8471.35650312
 42
-1.30322619
 10
41222.77791893
 20
-8464.91699865
 10
41234.38578808
 20
-8468.02316978
 42
1.30322619
 10
41234.38578808
 20
-8461.58366532
 10
41222.77791893
 20
-8464.68983645
 42
-1.30322619
 10
41222.77791893
 20
-8458.25033198
 10
41234.38578808
 20
-8461.35650312
 42
1.30322619
 10
41234.38578808
 20
-8454.91699865
 10
41222.77791893
 20
-8458.02316978
 42
-1.30322619
 10
41222.77791893
 20
-8451.58366532
 10
41234.38578808
 20
-8454.68983645
 42
1.30322619
 10
41234.38578808
 20
-8448.25033198
 10
41222.77791893
 20
-8451.35650312
 42
-1.30322619
 10
41222.77791893
 20
-8444.91699865
 10
41234.38578808
 20
-8448.02316978
 42
1.30322619
 10
41234.38578808
 20
-8441.58366532
 10
41222.77791893
 20
-8444.68983645
 42
-1.30322619
 10
41222.77791893
 20
-8438.25033198
 10
41234.38578808
 20
-8441.35650312
 42
1.30322619
 10
41234.38578808
 20
-8434.91699865
 10
41222.77791893
 20
-8438.02316978
 42
-1.30322619
 10
41222.77791893
 20
-8431.58366532
 10
41234.38578808
 20
-8434.68983645
 42
1.30322619
 10
41234.38578808
 20
-8428.25033198
 10
41222.77791893
 20
-8431.35650312
 42
-1.30322619
 10
41222.77791893
 20
-8424.91699865
 10
41234.38578808
 20
-8428.02316978
 42
1.30322619
 10
41234.38578808
 20
-8421.58366532
 10
41222.77791893
 20
-8424.68983645
 42
-1.30322619
 10
41222.77791893
 20
-8418.25033198
 10
41234.38578808
 20
-8421.35650312
 42
1.30322619
 10
41234.38578808
 20
-8414.91699865
 10
41222.77791893
 20
-8418.02316978
 42
-1.30322619
 10
41222.77791893
 20
-8411.58366532
 10
41234.38578808
 20
-8414.68983645
 42
1.30322619
 10
41234.38578808
 20
-8408.25033198
 10
41222.77791893
 20
-8411.35650312
 42
-1.30322619
 10
41222.77791893
 20
-8404.91699865
 10
41234.38578808
 20
-8408.02316978
 42
1.30322619
 10
41234.38578808
 20
-8401.58366532
 10
41222.77791893
 20
-8404.68983645
 42
-1.30322619
 10
41222.77791893
 20
-8398.25033198
 10
41234.38578808
 20
-8401.35650312
 42
1.30322619
 10
41234.38578808
 20
-8394.91699865
 10
41222.77791893
 20
-8398.02316978
 42
-1.30322619
 10
41222.77791893
 20
-8391.58366532
 10
41234.38578808
 20
-8394.68983645
 42
1.30322619
 10
41234.38578808
 20
-8388.25033198
 10
41222.77791893
 20
-8391.35650312
 42
-1.30322619
 10
41222.77791893
 20
-8384.91699865
 10
41234.38578808
 20
-8388.02316978
 42
1.30322619
 10
41234.38578808
 20
-8381.58366532
 10
41222.77791893
 20
-8384.68983645
 42
-1.30322619
 10
41222.77791893
 20
-8378.25033198
 10
41234.38578808
 20
-8381.35650312
 42
1.30322619
 10
41234.38578808
 20
-8374.91699865
 10
41222.77791893
 20
-8378.02316978
 42
-1.30322619
 10
41222.77791893
 20
-8371.58366532
 10
41234.38578808
 20
-8374.68983645
 42
1.30322619
 10
41234.38578808
 20
-8368.25033198
 10
41222.77791893
 20
-8371.35650312
 42
-1.30322619
 10
41222.77791893
 20
-8364.91699865
 10
41234.38578808
 20
-8368.02316978
 42
1.30322619
 10
41234.38578808
 20
-8361.58366532
 10
41222.77791893
 20
-8364.68983645
 42
-1.30322619
 10
41222.77791893
 20
-8358.25033198
 10
41234.38578808
 20
-8361.35650312
 42
1.30322619
 10
41234.38578808
 20
-8354.91699865
 10
41222.77791893
 20
-8358.02316978
 42
-1.30322619
 10
41222.77791893
 20
-8351.58366532
 10
41234.38578808
 20
-8354.68983645
 42
1.30322619
 10
41234.38578808
 20
-8348.25033198
 10
41222.77791893
 20
-8351.35650312
 42
-1.30322619
 10
41222.77791893
 20
-8344.91699865
 10
41234.38578808
 20
-8348.02316978
 42
1.30322619
 10
41234.38578808
 20
-8341.58366532
 10
41222.77791893
 20
-8344.68983645
 42
-0.52586277
 10
41218.5818535
 20
-8341.47008422
  0
LWPOLYLINE
  5
602
100
AcDbEntity
  8
Ech.1_5
 62
   190
  6
CONTINUOUS
370
    -3
100
AcDbPolyline
 90
        4
 70
     1
 43
0.0
 10
41218.5818535
 20
-8541.47008422
 10
41218.5818535
 20
-8741.47008422
 10
41238.5818535
 20
-8741.47008422
 10
41238.5818535
 20
-8541.47008422
  0
LWPOLYLINE
  5
603
100
AcDbEntity
  8
Ech.1_5
 62
   190
  6
CONTINUOUS
370
    -3
100
AcDbPolyline
 90
      120
 70
     0
 43
0.0
 10
41235.24852017
 20
-8741.47008422
 42
1.14028181
 10
41234.38578808
 20
-8734.91699865
 10
41222.77791893
 20
-8738.02316978
 42
-1.30322619
 10
41222.77791893
 20
-8731.58366532
 10
41234.38578808
 20
-8734.68983645
 42
1.30322619
 10
41234.38578808
 20
-8728.25033198
 10
41222.77791893
 20
-8731.35650312
 42
-1.30322619
 10
41222.77791893
 20
-8724.91699865
 10
41234.38578808
 20
-8728.02316978
 42
1.30322619
 10
41234.38578808
 20
-8721.58366532
 10
41222.77791893
 20
-8724.68983645
 42
-1.30322619
 10
41222.77791893
 20
-8718.25033198
 10
41234.38578808
 20
-8721.35650312
 42
1.30322619
 10
41234.38578808
 20
-8714.91699865
 10
41222.77791893
 20
-8718.02316978
 42
-1.30322619
 10
41222.77791893
 20
-8711.58366532
 10
41234.38578808
 20
-8714.68983645
 42
1.30322619
 10
41234.38578808
 20
-8708.25033198
 10
41222.77791893
 20
-8711.35650312
 42
-1.30322619
 10
41222.77791893
 20
-8704.91699865
 10
41234.38578808
 20
-8708.02316978
 42
1.30322619
 10
41234.38578808
 20
-8701.58366532
 10
41222.77791893
 20
-8704.68983645
 42
-1.30322619
 10
41222.77791893
 20
-8698.25033198
 10
41234.38578808
 20
-8701.35650312
 42
1.30322619
 10
41234.38578808
 20
-8694.91699865
 10
41222.77791893
 20
-8698.02316978
 42
-1.30322619
 10
41222.77791893
 20
-8691.58366532
 10
41234.38578808
 20
-8694.68983645
 42
1.30322619
 10
41234.38578808
 20
-8688.25033198
 10
41222.77791893
 20
-8691.35650312
 42
-1.30322619
 10
41222.77791893
 20
-8684.91699865
 10
41234.38578808
 20
-8688.02316978
 42
1.30322619
 10
41234.38578808
 20
-8681.58366532
 10
41222.77791893
 20
-8684.68983645
 42
-1.30322619
 10
41222.77791893
 20
-8678.25033198
 10
41234.38578808
 20
-8681.35650312
 42
1.30322619
 10
41234.38578808
 20
-8674.91699865
 10
41222.77791893
 20
-8678.02316978
 42
-1.30322619
 10
41222.77791893
 20
-8671.58366532
 10
41234.38578808
 20
-8674.68983645
 42
1.30322619
 10
41234.38578808
 20
-8668.25033198
 10
41222.77791893
 20
-8671.35650312
 42
-1.30322619
 10
41222.77791893
 20
-8664.91699865
 10
41234.38578808
 20
-8668.02316978
 42
1.30322619
 10
41234.38578808
 20
-8661.58366532
 10
41222.77791893
 20
-8664.68983645
 42
-1.30322619
 10
41222.77791893
 20
-8658.25033198
 10
41234.38578808
 20
-8661.35650312
 42
1.30322619
 10
41234.38578808
 20
-8654.91699865
 10
41222.77791893
 20
-8658.02316978
 42
-1.30322619
 10
41222.77791893
 20
-8651.58366532
 10
41234.38578808
 20
-8654.68983645
 42
1.30322619
 10
41234.38578808
 20
-8648.25033198
 10
41222.77791893
 20
-8651.35650312
 42
-1.30322619
 10
41222.77791893
 20
-8644.91699865
 10
41234.38578808
 20
-8648.02316978
 42
1.30322619
 10
41234.38578808
 20
-8641.58366532
 10
41222.77791893
 20
-8644.68983645
 42
-1.30322619
 10
41222.77791893
 20
-8638.25033198
 10
41234.38578808
 20
-8641.35650312
 42
1.30322619
 10
41234.38578808
 20
-8634.91699865
 10
41222.77791893
 20
-8638.02316978
 42
-1.30322619
 10
41222.77791893
 20
-8631.58366532
 10
41234.38578808
 20
-8634.68983645
 42
1.30322619
 10
41234.38578808
 20
-8628.25033198
 10
41222.77791893
 20
-8631.35650312
 42
-1.30322619
 10
41222.77791893
 20
-8624.91699865
 10
41234.38578808
 20
-8628.02316978
 42
1.30322619
 10
41234.38578808
 20
-8621.58366532
 10
41222.77791893
 20
-8624.68983645
 42
-1.30322619
 10
41222.77791893
 20
-8618.25033198
 10
41234.38578808
 20
-8621.35650312
 42
1.30322619
 10
41234.38578808
 20
-8614.91699865
 10
41222.77791893
 20
-8618.02316978
 42
-1.30322619
 10
41222.77791893
 20
-8611.58366532
 10
41234.38578808
 20
-8614.68983645
 42
1.30322619
 10
41234.38578808
 20
-8608.25033198
 10
41222.77791893
 20
-8611.35650312
 42
-1.30322619
 10
41222.77791893
 20
-8604.91699865
 10
41234.38578808
 20
-8608.02316978
 42
1.30322619
 10
41234.38578808
 20
-8601.58366532
 10
41222.77791893
 20
-8604.68983645
 42
-1.30322619
 10
41222.77791893
 20
-8598.25033198
 10
41234.38578808
 20
-8601.35650312
 42
1.30322619
 10
41234.38578808
 20
-8594.91699865
 10
41222.77791893
 20
-8598.02316978
 42
-1.30322619
 10
41222.77791893
 20
-8591.58366532
 10
41234.38578808
 20
-8594.68983645
 42
1.30322619
 10
41234.38578808
 20
-8588.25033198
 10
41222.77791893
 20
-8591.35650312
 42
-1.30322619
 10
41222.77791893
 20
-8584.91699865
 10
41234.38578808
 20
-8588.02316978
 42
1.30322619
 10
41234.38578808
 20
-8581.58366532
 10
41222.77791893
 20
-8584.68983645
 42
-1.30322619
 10
41222.77791893
 20
-8578.25033198
 10
41234.38578808
 20
-8581.35650312
 42
1.30322619
 10
41234.38578808
 20
-8574.91699865
 10
41222.77791893
 20
-8578.02316978
 42
-1.30322619
 10
41222.77791893
 20
-8571.58366532
 10
41234.38578808
 20
-8574.68983645
 42
1.30322619
 10
41234.38578808
 20
-8568.25033198
 10
41222.77791893
 20
-8571.35650312
 42
-1.30322619
 10
41222.77791893
 20
-8564.91699865
 10
41234.38578808
 20
-8568.02316978
 42
1.30322619
 10
41234.38578808
 20
-8561.58366532
 10
41222.77791893
 20
-8564.68983645
 42
-1.30322619
 10
41222.77791893
 20
-8558.25033198
 10
41234.38578808
 20
-8561.35650312
 42
1.30322619
 10
41234.38578808
 20
-8554.91699865
 10
41222.77791893
 20
-8558.02316978
 42
-1.30322619
 10
41222.77791893
 20
-8551.58366532
 10
41234.38578808
 20
-8554.68983645
 42
1.30322619
 10
41234.38578808
 20
-8548.25033198
 10
41222.77791893
 20
-8551.35650312
 42
-1.30322619
 10
41222.77791893
 20
-8544.91699865
 10
41234.38578808
 20
-8548.02316978
 42
1.30322619
 10
41234.38578808
 20
-8541.58366532
 10
41222.77791893
 20
-8544.68983645
 42
-0.52586277
 10
41218.5818535
 20
-8541.47008422
  0
LWPOLYLINE
  5
604
100
AcDbEntity
  8
Ech.1_5
 62
   190
  6
CONTINUOUS
370
    -3
100
AcDbPolyline
 90
        4
 70
     1
 43
0.0
 10
41083.57761548
 20
-8595.24229102
 10
41116.78146073
 20
-8595.24140745
 10
41116.78146073
 20
-8585.80874739
 10
41083.57761548
 20
-8585.80963096
  0
LWPOLYLINE
  5
605
100
AcDbEntity
  8
Ech.1_5
 62
   190
  6
CONTINUOUS
370
    -3
100
AcDbPolyline
 90
        4
 70
     0
 43
0.0
 10
41116.78146073
 20
-8585.80874739
 10
41083.57761548
 20
-8595.24229102
 10
41083.57761548
 20
-8585.80963096
 10
41116.78146073
 20
-8595.24140745
  0
LWPOLYLINE
  5
606
100
AcDbEntity
  8
Ech.1_5
 62
     9
  6
CONTINUOUS
370
    -3
100
AcDbPolyline
 90
        6
 70
     0
 43
0.0
 10
41724.0329464
 20
-8420.47008422
 10
41724.03442222
 20
-8555.57758429
 10
41742.01177062
 20
-8572.06308749
 10
41706.05607061
 20
-8557.95314696
 10
41724.03442222
 20
-8574.43950179
 10
41724.03359993
 20
-8751.46999839
  0
LINE
  5
607
100
AcDbEntity
  8
Ech.1_5
 62
   190
  6
CONTINUOUS
370
    -3
100
AcDbLine
 10
41218.5818535
 20
-8409.47008422
 30
0.0
 11
41218.5818535
 21
-8176.06818297
 31
0.0
  0
LINE
  5
608
100
AcDbEntity
  8
Ech.1_5
 62
   190
  6
CONTINUOUS
370
    -3
100
AcDbLine
 10
41218.5818535
 20
-8783.47008422
 30
0.0
 11
41218.5818535
 21
-8960.27340393
 31
0.0
  0
LWPOLYLINE
  5
609
100
AcDbEntity
  8
Ech.1_5
 62
   190
  6
CONTINUOUS
370
    -3
100
AcDbPolyline
 90
        8
 70
     1
 43
0.0
 10
41119.87727422
 20
-8176.06693843
 10
41103.39092013
 20
-8194.04529002
 10
41117.50086015
 20
-8158.0895901
 10
41101.015357
 20
-8176.06693843
 10
41038.5818535
 20
-8176.06718924
 10
41038.5818535
 20
-8541.47008422
 10
41218.5818535
 20
-8541.47008422
 10
41218.5818535
 20
-8176.06733897
  0
LWPOLYLINE
  5
60A
100
AcDbEntity
  8
Ech.1_5
 62
   190
  6
CONTINUOUS
370
    -3
100
AcDbPolyline
 90
        9
 70
     1
 43
0.0
 10
41152.65432748
 20
-8960.27503376
 10
41169.14068156
 20
-8942.29668216
 10
41155.03074154
 20
-8978.25238208
 10
41171.5162447
 20
-8960.27503376
 10
41218.5818535
 20
-8960.27340393
 10
41218.5818535
 20
-8857.47008231
 10
41218.5818535
 20
-8594.47008422
 10
41038.5818535
 20
-8594.47008422
 10
41038.5818535
 20
-8960.27474193
  0
ARC
  5
60B
100
AcDbEntity
  8
Ech.1_5
 62
   190
  6
CONTINUOUS
370
    -3
100
AcDbCircle
 10
41188.58185895
 20
-8596.06763972
 30
0.0
 40
30.00002939
100
AcDbArc
 50
254.99996969
 51
270.00612887
  0
LWPOLYLINE
  5
60C
100
AcDbEntity
  8
Ech.1_5
 62
   190
  6
CONTINUOUS
370
    -3
100
AcDbPolyline
 90
        4
 70
     0
 43
0.0
 10
41058.92251567
 20
-8594.47008422
 42
0.08211149
 10
41068.57863895
 20
-8596.06766894
 42
0.06557045
 10
41076.34644234
 20
-8595.04543879
 10
41078.49656229
 20
-8594.47008422
  0
ARC
  5
60D
100
AcDbEntity
  8
Ech.1_5
 62
   190
  6
CONTINUOUS
370
    -3
100
AcDbCircle
 10
41188.58185362
 20
-8536.06766861
 30
0.0
 40
29.99999984
100
AcDbArc
 50
333.46482228
 51
89.99386095
  0
LWPOLYLINE
  5
60E
100
AcDbEntity
  8
Ech.1_5
 62
   190
  6
CONTINUOUS
370
    -3
100
AcDbPolyline
 90
       10
 70
     0
 43
0.0
 10
41068.5818535
 20
-8176.06766799
 42
0.99994964
 10
41068.57883192
 20
-8236.06766799
 42
0.06556901
 10
41076.34644234
 20
-8235.04543879
 10
41180.81726467
 20
-8207.08989814
 42
-1.14022017
 10
41188.58506802
 20
-8266.06766894
 42
-0.99989285
 10
41188.58506802
 20
-8326.06766894
 42
-0.99989285
 10
41188.58506802
 20
-8386.06766894
 42
-0.99989285
 10
41188.58506802
 20
-8446.06766894
 42
-0.99989285
 10
41188.58506802
 20
-8506.06766894
 42
-0.55733055
 10
41215.42166075
 20
-8549.47008422
  0
LWPOLYLINE
  5
60F
100
AcDbEntity
  8
Ech.1_5
 62
   190
  6
CONTINUOUS
370
    -3
100
AcDbPolyline
 90
       36
 70
     0
 43
0.0
 10
41180.81726467
 20
-8445.04543879
 10
41076.34644234
 20
-8417.08989814
 42
0.06551677
 10
41068.5850684
 20
-8416.06766894
 42
1.0
 10
41068.57863895
 20
-8476.06766894
 42
0.06557045
 10
41076.34644234
 20
-8475.04543879
 10
41180.81726467
 20
-8447.08989814
 42
-0.06551677
 10
41188.57863864
 20
-8446.06766894
 42
1.0
 10
41188.58506802
 20
-8386.06766894
 42
-0.06557045
 10
41180.81726467
 20
-8385.04543879
 10
41076.34644234
 20
-8357.08989814
 42
0.06551677
 10
41068.5850684
 20
-8356.06766894
 42
0.99999999
 10
41068.57863895
 20
-8416.06766894
 42
0.06557045
 10
41076.34644234
 20
-8415.04543879
 10
41180.81726467
 20
-8387.08989814
 42
-0.06551677
 10
41188.57863864
 20
-8386.06766894
 42
0.99999999
 10
41188.58506802
 20
-8326.06766894
 42
-0.06557045
 10
41180.81726467
 20
-8325.04543879
 10
41076.34644234
 20
-8297.08989814
 42
0.06551677
 10
41068.5850684
 20
-8296.06766894
 42
1.0
 10
41068.57863895
 20
-8356.06766894
 42
0.06557045
 10
41076.34644234
 20
-8355.04543879
 10
41180.81726467
 20
-8327.08989814
 42
-0.06551677
 10
41188.57863864
 20
-8326.06766894
 42
1.0
 10
41188.58506802
 20
-8266.06766894
 42
-0.06557045
 10
41180.81726467
 20
-8265.04543879
 10
41076.34644234
 20
-8237.08989814
 42
0.06551831
 10
41068.58487556
 20
-8236.06766799
 42
0.99999677
 10
41068.57863895
 20
-8296.06766894
 42
0.06557045
 10
41076.34644234
 20
-8295.04543879
 10
41180.81726467
 20
-8267.08989814
 42
-0.06551677
 10
41188.57863864
 20
-8266.06766894
 42
-1.00010716
 10
41188.57863864
 20
-8326.06766894
 42
-1.00010716
 10
41188.57863864
 20
-8386.06766894
 42
-1.00010716
 10
41188.57863864
 20
-8446.06766894
 42
-1.00010716
 10
41188.57863864
 20
-8506.06766894
 42
1.0
 10
41188.58506802
 20
-8446.06766894
  0
ARC
  5
610
100
AcDbEntity
  8
Ech.1_5
 62
   190
  6
CONTINUOUS
370
    -3
100
AcDbCircle
 10
41188.58185895
 20
-8416.06763974
 30
0.0
 40
30.00002938
100
AcDbArc
 50
254.99996969
 51
270.00612887
  0
LWPOLYLINE
  5
611
100
AcDbEntity
  8
Ech.1_5
 62
   190
  6
CONTINUOUS
370
    -3
100
AcDbPolyline
 90
        9
 70
     0
 43
0.0
 10
41180.81726467
 20
-8505.04543879
 10
41076.34644234
 20
-8477.08989814
 42
0.06551677
 10
41068.5850684
 20
-8476.06766894
 42
0.99999999
 10
41068.57863895
 20
-8536.06766894
 42
0.06557045
 10
41076.34644234
 20
-8535.04543879
 10
41180.81726467
 20
-8507.08989814
 42
-0.06551677
 10
41188.57863864
 20
-8506.06766894
 42
-0.46833096
 10
41218.09140965
 20
-8541.47008422
 42
0.46826564
 10
41188.58506802
 20
-8506.06766894
  0
ARC
  5
612
100
AcDbEntity
  8
Ech.1_5
 62
   190
  6
CONTINUOUS
370
    -3
100
AcDbCircle
 10
41188.58185895
 20
-8476.06763973
 30
0.0
 40
30.00002938
100
AcDbArc
 50
254.99996969
 51
270.00612887
  0
LWPOLYLINE
  5
613
100
AcDbEntity
  8
Ech.1_5
 62
   190
  6
CONTINUOUS
370
    -3
100
AcDbPolyline
 90
        4
 70
     0
 43
0.0
 10
41092.71534922
 20
-8541.47008422
 10
41076.34644234
 20
-8537.08989814
 42
0.06551676
 10
41068.5850684
 20
-8536.06766894
 42
0.15359944
 10
41051.40748733
 20
-8541.47008422
  0
LWPOLYLINE
  5
614
100
AcDbEntity
  8
Ech.1_5
 62
   190
  6
CONTINUOUS
370
    -3
100
AcDbPolyline
 90
        4
 70
     1
 43
0.0
 10
41218.5818535
 20
-8541.47008422
 10
41218.5818535
 20
-8496.47008422
 10
41038.5818535
 20
-8496.47008422
 10
41038.5818535
 20
-8541.47008422
  0
LWPOLYLINE
  5
615
100
AcDbEntity
  8
Ech.1_5
 62
   190
  6
CONTINUOUS
370
    -3
100
AcDbPolyline
 90
        4
 70
     1
 43
0.0
 10
41218.5818535
 20
-8639.47008422
 10
41218.5818535
 20
-8594.47008422
 10
41038.5818535
 20
-8594.47008422
 10
41038.5818535
 20
-8639.47008422
  0
LWPOLYLINE
  5
616
100
AcDbEntity
  8
Ech.1_5
 62
     9
  6
CONTINUOUS
370
    -3
100
AcDbPolyline
 90
        3
 70
     0
 43
0.0
 10
41371.0818535
 20
-8454.47008708
 10
41248.5818535
 20
-8454.47008708
 10
41248.5818535
 20
-8474.47008708
  0
LWPOLYLINE
  5
617
102
{ACAD_REACTORS
330
618
102
}
100
AcDbEntity
  8
Ech.1_5
 62
     7
  6
CONTINUOUS
370
     5
100
AcDbPolyline
 90
        4
 70
     1
 43
0.0
 10
41050.02689715
 20
-8594.47008422
 10
41075.85142823
 20
-8594.47008422
 10
41075.85142823
 20
-8585.03742411
 10
41050.02689715
 20
-8585.03742411
  0
HATCH
  5
618
100
AcDbEntity
  8
Ech.1_5
 62
     2
  6
CONTINUOUS
100
AcDbHatch
 10
0.0
 20
0.0
 30
0.0
210
0.0
220
0.0
230
1.0
  2
SOLID
 70
     1
 71
     1
 91
        1
 92
        7
 72
     0
 73
     1
 93
        4
 10
41050.02689715
 20
-8594.47008422
 10
41075.85142823
 20
-8594.47008422
 10
41075.85142823
 20
-8585.03742411
 10
41050.02689715
 20
-8585.03742411
 97
        1
330
617
 75
     0
 76
     2
 47
0.775229
 98
        1
 10
0.0
 20
0.0
  0
HATCH
  5
619
100
AcDbEntity
  8
Ech.1_5
 62
     7
100
AcDbHatch
 10
0.0
 20
0.0
 30
0.0
210
0.0
220
0.0
230
1.0
  2
ANSI37
 70
     0
 71
     0
 91
        1
 92
        7
 72
     0
 73
     1
 93
        4
 10
41050.02689715
 20
-8594.47008422
 10
41075.85142823
 20
-8594.47008422
 10
41075.85142823
 20
-8585.03742411
 10
41050.02689715
 20
-8585.03742411
 97
        0
 75
     0
 76
     2
 52
0.0
 41
1.87498831
 77
     0
 78
     2
 53
45.0
 43
0.0
 44
0.0
 45
4.20946876
 46
-4.20946876
 79
     0
 53
-45.0
 43
0.0
 44
0.0
 45
4.20946876
 46
4.20946876
 79
     0
 47
0.775229
 98
        1
 10
0.0
 20
0.0
  0
LWPOLYLINE
  5
61A
102
{ACAD_REACTORS
330
61B
102
}
100
AcDbEntity
  8
Ech.1_5
 62
     7
  6
CONTINUOUS
370
     5
100
AcDbPolyline
 90
        4
 70
     1
 43
0.0
 10
41180.88718718
 20
-8550.01767447
 10
41206.71171826
 20
-8550.01767447
 10
41206.71171826
 20
-8540.58501437
 10
41180.88718718
 20
-8540.58501437
  0
HATCH
  5
61B
100
AcDbEntity
  8
Ech.1_5
 62
     2
  6
CONTINUOUS
100
AcDbHatch
 10
0.0
 20
0.0
 30
0.0
210
0.0
220
0.0
230
1.0
  2
SOLID
 70
     1
 71
     1
 91
        1
 92
        7
 72
     0
 73
     1
 93
        4
 10
41180.88718718
 20
-8550.01767447
 10
41206.71171826
 20
-8550.01767447
 10
41206.71171826
 20
-8540.58501437
 10
41180.88718718
 20
-8540.58501437
 97
        1
330
61A
 75
     0
 76
     2
 47
0.775229
 98
        1
 10
0.0
 20
0.0
  0
HATCH
  5
61C
100
AcDbEntity
  8
Ech.1_5
 62
     7
100
AcDbHatch
 10
0.0
 20
0.0
 30
0.0
210
0.0
220
0.0
230
1.0
  2
ANSI37
 70
     0
 71
     0
 91
        1
 92
        7
 72
     0
 73
     1
 93
        4
 10
41180.88718718
 20
-8550.01767447
 10
41206.71171826
 20
-8550.01767447
 10
41206.71171826
 20
-8540.58501437
 10
41180.88718718
 20
-8540.58501437
 97
        0
 75
     0
 76
     2
 52
0.0
 41
1.87498831
 77
     0
 78
     2
 53
45.0
 43
0.0
 44
0.0
 45
4.20946876
 46
-4.20946876
 79
     0
 53
-45.0
 43
0.0
 44
0.0
 45
4.20946876
 46
4.20946876
 79
     0
 47
0.775229
 98
        1
 10
0.0
 20
0.0
  0
LWPOLYLINE
  5
61D
102
{ACAD_REACTORS
330
61E
102
}
100
AcDbEntity
  8
Ech.1_5
 62
     9
  6
CONTINUOUS
370
    -3
100
AcDbPolyline
 90
       11
 70
     1
 43
0.0
 38
2500.0
 39
-2500.0
 10
41238.5818535
 20
-8474.47008708
 10
41238.5818535
 20
-8654.47159102
 10
41724.03400901
 20
-8654.47159102
 10
41724.03442222
 20
-8574.43950179
 10
41706.05607061
 20
-8557.95314696
 10
41742.01177062
 20
-8572.06308749
 10
41724.03442222
 20
-8555.57758429
 10
41724.03345578
 20
-8474.47008708
 10
41724.03321747
 20
-8454.47008708
 10
41371.0818535
 20
-8454.47008708
 10
41238.5818535
 20
-8454.47008708
  0
HATCH
  5
61E
100
AcDbEntity
  8
Ech.1_5
 62
     9
  6
CONTINUOUS
100
AcDbHatch
 10
0.0
 20
0.0
 30
0.0
210
0.0
220
0.0
230
1.0
  2
AR-CONC
 70
     0
 71
     1
 91
        1
 92
        7
 72
     0
 73
     1
 93
       11
 10
41238.5818535
 20
-8474.47008708
 10
41238.5818535
 20
-8654.47159102
 10
41724.03400901
 20
-8654.47159102
 10
41724.03442222
 20
-8574.43950179
 10
41706.05607061
 20
-8557.95314696
 10
41742.01177062
 20
-8572.06308749
 10
41724.03442222
 20
-8555.57758429
 10
41724.03345578
 20
-8474.47008708
 10
41724.03321747
 20
-8454.47008708
 10
41371.0818535
 20
-8454.47008708
 10
41238.5818535
 20
-8454.47008708
 97
        1
330
61D
 75
     0
 76
     2
 52
0.0
 41
0.11811097
 77
     0
 78
    13
 53
50.0
 43
0.0
 44
0.0
 45
-18.84283637
 46
1.64853443
 79
     2
 49
1.97029307
 49
-21.67322338
 53
355.0
 43
0.0
 44
0.0
 45
-3.64507756
 46
19.76051824
 79
     2
 49
1.57623377
 49
-17.3385787
 53
100.45140076
 43
1.57023568
 44
-0.13737749
 45
-15.19777228
 46
-18.11197244
 79
     2
 49
1.67449124
 49
-18.41940522
 53
46.18420029
 43
0.0
 44
5.25411576
 45
-28.03703353
 46
4.34827878
 79
     2
 49
2.95543872
 49
-32.50983238
 53
96.63559723
 43
2.33641885
 44
4.89175692
 45
-24.55412615
 46
-25.59063404
 79
     2
 49
2.51173697
 49
-27.62910426
 53
351.1842041
 43
0.0
 44
5.25411576
 45
24.55410288
 46
25.59065715
 79
     2
 49
2.36435249
 49
-26.00786805
 53
21.0
 43
2.62705699
 44
3.94058615
 45
-15.68109068
 46
10.57702905
 79
     2
 49
1.97029307
 49
-21.67322338
 53
326.0
 43
2.62705699
 44
3.94058615
 45
6.39203268
 46
19.05010734
 79
     2
 49
1.57623377
 49
-17.3385787
 53
71.45140076
 43
3.93381357
 44
3.05916555
 45
-22.07312962
 46
-8.47306182
 79
     2
 49
1.67449124
 49
-18.41940522
 53
37.5
 43
0.0
 44
0.0
 45
0.31944534
 46
8.74531245
 79
     6
 49
0.01875
 49
-17.12841332
 49
0.01875
 49
-17.60128498
 49
0.01875
 49
-17.40425348
 53
7.5
 43
0.0
 44
0.0
 45
6.91098818
 46
10.3614222
 79
     6
 49
0.01875
 49
-10.03535807
 49
0.01875
 49
-16.7343539
 49
0.01875
 49
-6.6333206
 53
-32.5
 43
-5.85833833
 44
0.0
 45
14.02382061
 46
-0.59253003
 79
     6
 49
0.01875
 49
-6.56764314
 49
0.01875
 49
-20.49104869
 49
0.01875
 49
-27.19004452
 53
-42.5
 43
-8.48539531
 44
0.0
 45
15.32063571
 46
2.62981542
 79
     6
 49
0.01875
 49
-8.53793621
 49
0.01875
 49
-13.60815793
 49
0.01875
 49
-19.30887222
 47
0.775229
 98
        1
 10
0.0
 20
0.0
  0
3DFACE
  5
61F
102
{ACAD_REACTORS
330
620
102
}
100
AcDbEntity
  8
Ech.1_5
 62
     9
  6
CONTINUOUS
370
    -3
100
AcDbFace
 70
     0
 10
41238.5818535
 20
-8176.0676371
 30
2500.0
 11
41238.5818535
 21
-8454.47008708
 31
2500.0
 12
41438.5818535
 22
-8454.49946876
 32
2500.0
 13
41438.5818535
 23
-8176.06754858
 33
2500.0
  0
HATCH
  5
620
100
AcDbEntity
  8
Ech.1_5
 62
     9
  6
CONTINUOUS
100
AcDbHatch
 10
0.0
 20
0.0
 30
0.0
210
0.0
220
0.0
230
1.0
  2
AR-CONC
 70
     0
 71
     1
 91
        1
 92
        7
 72
     0
 73
     1
 93
        4
 10
41238.5818535
 20
-8176.0676371
 10
41238.5818535
 20
-8454.47008708
 10
41438.5818535
 20
-8454.49946876
 10
41438.5818535
 20
-8176.06754858
 97
        1
330
61F
 75
     0
 76
     2
 52
0.0
 41
0.11811097
 77
     0
 78
    13
 53
50.0
 43
0.0
 44
0.0
 45
-18.84283637
 46
1.64853443
 79
     2
 49
1.97029307
 49
-21.67322338
 53
355.0
 43
0.0
 44
0.0
 45
-3.64507756
 46
19.76051824
 79
     2
 49
1.57623377
 49
-17.3385787
 53
100.45140076
 43
1.57023568
 44
-0.13737749
 45
-15.19777228
 46
-18.11197244
 79
     2
 49
1.67449124
 49
-18.41940522
 53
46.18420029
 43
0.0
 44
5.25411576
 45
-28.03703353
 46
4.34827878
 79
     2
 49
2.95543872
 49
-32.50983238
 53
96.63559723
 43
2.33641885
 44
4.89175692
 45
-24.55412615
 46
-25.59063404
 79
     2
 49
2.51173697
 49
-27.62910426
 53
351.1842041
 43
0.0
 44
5.25411576
 45
24.55410288
 46
25.59065715
 79
     2
 49
2.36435249
 49
-26.00786805
 53
21.0
 43
2.62705699
 44
3.94058615
 45
-15.68109068
 46
10.57702905
 79
     2
 49
1.97029307
 49
-21.67322338
 53
326.0
 43
2.62705699
 44
3.94058615
 45
6.39203268
 46
19.05010734
 79
     2
 49
1.57623377
 49
-17.3385787
 53
71.45140076
 43
3.93381357
 44
3.05916555
 45
-22.07312962
 46
-8.47306182
 79
     2
 49
1.67449124
 49
-18.41940522
 53
37.5
 43
0.0
 44
0.0
 45
0.31944534
 46
8.74531245
 79
     6
 49
0.01875
 49
-17.12841332
 49
0.01875
 49
-17.60128498
 49
0.01875
 49
-17.40425348
 53
7.5
 43
0.0
 44
0.0
 45
6.91098818
 46
10.3614222
 79
     6
 49
0.01875
 49
-10.03535807
 49
0.01875
 49
-16.7343539
 49
0.01875
 49
-6.6333206
 53
-32.5
 43
-5.85833833
 44
0.0
 45
14.02382061
 46
-0.59253003
 79
     6
 49
0.01875
 49
-6.56764314
 49
0.01875
 49
-20.49104869
 49
0.01875
 49
-27.19004452
 53
-42.5
 43
-8.48539531
 44
0.0
 45
15.32063571
 46
2.62981542
 79
     6
 49
0.01875
 49
-8.53793621
 49
0.01875
 49
-13.60815793
 49
0.01875
 49
-19.30887222
 47
0.775229
 98
        1
 10
0.0
 20
0.0
  0
3DFACE
  5
621
102
{ACAD_REACTORS
330
622
102
}
100
AcDbEntity
  8
Ech.1_5
 62
     9
  6
CONTINUOUS
370
    -3
100
AcDbFace
 70
     0
 10
41238.5818535
 20
-8654.47167954
 30
2500.0
 11
41238.5818535
 21
-8960.27340393
 31
2500.0
 12
41438.5818535
 22
-8960.30278497
 32
2500.0
 13
41438.5818535
 23
-8654.47159102
 33
2500.0
  0
HATCH
  5
622
100
AcDbEntity
  8
Ech.1_5
 62
     9
  6
CONTINUOUS
100
AcDbHatch
 10
0.0
 20
0.0
 30
0.0
210
0.0
220
0.0
230
1.0
  2
AR-CONC
 70
     0
 71
     1
 91
        1
 92
        7
 72
     0
 73
     1
 93
        4
 10
41238.5818535
 20
-8654.47167954
 10
41238.5818535
 20
-8960.27340393
 10
41438.5818535
 20
-8960.30278497
 10
41438.5818535
 20
-8654.47159102
 97
        1
330
621
 75
     0
 76
     2
 52
0.0
 41
0.11811097
 77
     0
 78
    13
 53
50.0
 43
0.0
 44
0.0
 45
-18.84283637
 46
1.64853443
 79
     2
 49
1.97029307
 49
-21.67322338
 53
355.0
 43
0.0
 44
0.0
 45
-3.64507756
 46
19.76051824
 79
     2
 49
1.57623377
 49
-17.3385787
 53
100.45140076
 43
1.57023568
 44
-0.13737749
 45
-15.19777228
 46
-18.11197244
 79
     2
 49
1.67449124
 49
-18.41940522
 53
46.18420029
 43
0.0
 44
5.25411576
 45
-28.03703353
 46
4.34827878
 79
     2
 49
2.95543872
 49
-32.50983238
 53
96.63559723
 43
2.33641885
 44
4.89175692
 45
-24.55412615
 46
-25.59063404
 79
     2
 49
2.51173697
 49
-27.62910426
 53
351.1842041
 43
0.0
 44
5.25411576
 45
24.55410288
 46
25.59065715
 79
     2
 49
2.36435249
 49
-26.00786805
 53
21.0
 43
2.62705699
 44
3.94058615
 45
-15.68109068
 46
10.57702905
 79
     2
 49
1.97029307
 49
-21.67322338
 53
326.0
 43
2.62705699
 44
3.94058615
 45
6.39203268
 46
19.05010734
 79
     2
 49
1.57623377
 49
-17.3385787
 53
71.45140076
 43
3.93381357
 44
3.05916555
 45
-22.07312962
 46
-8.47306182
 79
     2
 49
1.67449124
 49
-18.41940522
 53
37.5
 43
0.0
 44
0.0
 45
0.31944534
 46
8.74531245
 79
     6
 49
0.01875
 49
-17.12841332
 49
0.01875
 49
-17.60128498
 49
0.01875
 49
-17.40425348
 53
7.5
 43
0.0
 44
0.0
 45
6.91098818
 46
10.3614222
 79
     6
 49
0.01875
 49
-10.03535807
 49
0.01875
 49
-16.7343539
 49
0.01875
 49
-6.6333206
 53
-32.5
 43
-5.85833833
 44
0.0
 45
14.02382061
 46
-0.59253003
 79
     6
 49
0.01875
 49
-6.56764314
 49
0.01875
 49
-20.49104869
 49
0.01875
 49
-27.19004452
 53
-42.5
 43
-8.48539531
 44
0.0
 45
15.32063571
 46
2.62981542
 79
     6
 49
0.01875
 49
-8.53793621
 49
0.01875
 49
-13.60815793
 49
0.01875
 49
-19.30887222
 47
0.775229
 98
        1
 10
0.0
 20
0.0
  0
LWPOLYLINE
  5
623
100
AcDbEntity
  8
Ech.1_5
 62
   190
  6
CONTINUOUS
370
    35
100
AcDbPolyline
 90
        4
 70
     0
 43
0.0
 10
41039.18061842
 20
-8586.30103156
 10
41118.5818535
 20
-8541.47008422
 10
41118.5818535
 20
-8586.47008422
 10
41038.5818535
 20
-8541.47008422
  0
LWPOLYLINE
  5
624
100
AcDbEntity
  8
Ech.1_5
 62
   190
  6
CONTINUOUS
370
    35
100
AcDbPolyline
 90
        4
 70
     0
 43
0.0
 10
41139.13805027
 20
-8594.30103156
 10
41218.53928535
 20
-8549.47008422
 10
41218.53928535
 20
-8594.47008422
 10
41138.53928535
 20
-8549.47008422
  0
LWPOLYLINE
  5
625
100
AcDbEntity
  8
Ech.1_5
 62
     5
  6
CONTINUOUS
370
    -3
100
AcDbPolyline
 90
       12
 70
     0
 43
0.0
 10
41138.53928535
 20
-8594.47008422
 10
41158.36085325
 20
-8594.47008422
 10
41158.36089121
 20
-8594.46903422
 10
41184.18542229
 20
-8594.46903422
 10
41184.18538433
 20
-8594.47008422
 10
41218.53928535
 20
-8594.47008422
 10
41218.53928535
 20
-8549.47008422
 10
41200.50082994
 20
-8549.47008422
 10
41200.50082994
 20
-8549.47008422
 10
41174.50082994
 20
-8549.47008422
 10
41174.50082994
 20
-8549.47008422
 10
41138.53928535
 20
-8549.47008422
  0
LINE
  5
626
100
AcDbEntity
  8
Ech.1_5
 62
   150
  6
CONTINUOUS
370
    50
100
AcDbLine
 10
41138.53928535
 20
-8549.47008422
 30
2500.0
 11
41138.53928535
 21
-8594.47008422
 31
2500.0
  0
LWPOLYLINE
  5
627
100
AcDbEntity
  8
Ech.1_5
 62
     1
  6
CADWORK_22
 48
-5.0
370
    35
100
AcDbPolyline
 90
        3
 70
     0
 43
0.0
 10
41133.7004756
 20
-8496.46047356
 10
41218.5818535
 20
-8496.47008422
 10
41218.5818535
 20
-8176.06733897
  0
LINE
  5
628
100
AcDbEntity
  8
Ech.1_5
 62
     1
  6
CADWORK_22
 48
-5.0
370
    35
100
AcDbLine
 10
41218.53928535
 20
-8549.47008422
 30
0.0
 11
41218.53928535
 21
-8960.27340393
 31
0.0
  0
LWPOLYLINE
  5
629
100
AcDbEntity
  8
Ech.1_5
 62
     1
  6
CADWORK_22
 48
-5.0
370
    35
100
AcDbPolyline
 90
        3
 70
     0
 43
0.0
 10
41133.65790745
 20
-8549.46047356
 10
41218.53928535
 20
-8549.47008422
 10
41218.53928535
 20
-8545.4478618
  0
LWPOLYLINE
  5
62A
100
AcDbEntity
  8
Ech.1_5
 62
     7
  6
CONTINUOUS
370
   120
100
AcDbPolyline
 90
        3
 70
     0
 43
5.0
 10
41238.5818535
 20
-8400.97008422
 10
41238.5818535
 20
-8549.47008422
 10
41149.1882411
 20
-8549.47008422
  0
LWPOLYLINE
  5
62B
100
AcDbEntity
  8
Ech.1_5
 62
   190
  6
CONTINUOUS
370
    -3
100
AcDbPolyline
 90
        5
 70
     0
 43
0.0
 10
40809.16217272
 20
-9507.61891747
 10
41794.16217272
 20
-9507.61891747
 10
41794.16217272
 20
-8152.61891747
 10
40809.16217272
 20
-8152.61891747
 10
40809.16217272
 20
-9507.61891747
  0
LWPOLYLINE
  5
62C
102
{ACAD_REACTORS
330
62D
102
}
100
AcDbEntity
  8
Ech.1_5
 62
     7
  6
CONTINUOUS
370
    -3
100
AcDbPolyline
 90
        4
 70
     1
 43
0.0
 10
41029.5818535
 20
-8571.41710272
 10
41038.5818535
 20
-8571.41710272
 10
41038.5818535
 20
-8176.06718924
 10
41029.5818535
 20
-8176.06718924
  0
HATCH
  5
62D
100
AcDbEntity
  8
Ech.1_5
 62
   190
  6
CONTINUOUS
100
AcDbHatch
 10
0.0
 20
0.0
 30
0.0
210
0.0
220
0.0
230
1.0
  2
CDWK10A
 70
     0
 71
     1
 91
        1
 92
        7
 72
     0
 73
     1
 93
        4
 10
41029.5818535
 20
-8571.41710272
 10
41038.5818535
 20
-8571.41710272
 10
41038.5818535
 20
-8176.06718924
 10
41029.5818535
 20
-8176.06718924
 97
        1
330
62C
 75
     0
 76
     2
 52
0.0
 41
1.0
 77
     0
 78
     3
 53
45.0
 43
0.0
 44
0.0
 45
0.0
 46
42.00000167
 79
     0
 53
45.0
 43
0.0
 44
10.80000043
 45
0.0
 46
42.00000167
 79
     0
 53
45.0
 43
0.0
 44
21.60000086
 45
0.0
 46
42.00000167
 79
     0
 47
0.775229
 98
        1
 10
0.0
 20
0.0
  0
LWPOLYLINE
  5
62E
100
AcDbEntity
  8
Ech.1_5
 62
     9
100
AcDbPolyline
 90
       27
 70
     0
 43
0.0
 10
40991.45523638
 20
-8767.38461211
 10
40991.5818535
 20
-8767.0501385
 10
40991.5818535
 20
-8739.66667464
 10
40998.5818535
 20
-8739.66667464
 10
40998.5818535
 20
-8748.66667464
 10
41004.5818535
 20
-8748.66667464
 10
41004.5818535
 20
-8721.66667464
 10
41000.5818535
 20
-8717.66667464
 10
41004.5818535
 20
-8713.66667464
 10
41004.5818535
 20
-8649.66667464
 10
41000.5818535
 20
-8645.66667464
 10
41004.5818535
 20
-8641.66667464
 10
41004.5818535
 20
-8606.66667464
 10
40997.5818535
 20
-8606.66667464
 10
40997.5818535
 20
-8600.66667464
 10
40995.0818535
 20
-8595.66667464
 10
40992.5818535
 20
-8600.66667464
 10
40992.5818535
 20
-8631.59560683
 10
40992.20125116
 20
-8633.50902369
 10
40986.0463196
 20
-8640.20220854
 10
40984.5818535
 20
-8643.73774245
 10
40984.5818535
 20
-8762.82448676
 10
40985.5421759
 20
-8764.45435527
 10
40990.27829676
 20
-8767.42570498
 10
40990.69029812
 20
-8767.66667464
 10
40991.00411561
 20
-8767.66667464
 10
40991.45523638
 20
-8767.38461211
  0
LWPOLYLINE
  5
62F
100
AcDbEntity
  8
Ech.1_5
 62
     9
100
AcDbPolyline
 90
       27
 70
     0
 43
0.0
 10
40991.45523638
 20
-8912.38461211
 10
40991.5818535
 20
-8912.0501385
 10
40991.5818535
 20
-8884.66667464
 10
40998.5818535
 20
-8884.66667464
 10
40998.5818535
 20
-8893.66667464
 10
41004.5818535
 20
-8893.66667464
 10
41004.5818535
 20
-8866.66667464
 10
41000.5818535
 20
-8862.66667464
 10
41004.5818535
 20
-8858.66667464
 10
41004.5818535
 20
-8794.66667464
 10
41000.5818535
 20
-8790.66667464
 10
41004.5818535
 20
-8786.66667464
 10
41004.5818535
 20
-8751.66667464
 10
40997.5818535
 20
-8751.66667464
 10
40997.5818535
 20
-8745.66667464
 10
40995.0818535
 20
-8740.66667464
 10
40992.5818535
 20
-8745.66667464
 10
40992.5818535
 20
-8776.59560683
 10
40992.20125116
 20
-8778.50902369
 10
40986.0463196
 20
-8785.20220854
 10
40984.5818535
 20
-8788.73774245
 10
40984.5818535
 20
-8907.82448676
 10
40985.5421759
 20
-8909.45435527
 10
40990.27829676
 20
-8912.42570498
 10
40990.69029812
 20
-8912.66667464
 10
40991.00411561
 20
-8912.66667464
 10
40991.45523638
 20
-8912.38461211
  0
LWPOLYLINE
  5
630
102
{ACAD_REACTORS
330
631
102
}
100
AcDbEntity
  8
Ech.1_5
 62
     7
  6
CONTINUOUS
370
    -3
100
AcDbPolyline
 90
        4
 70
     1
 43
0.0
 10
41038.5818535
 20
-8573.41710272
 10
41029.5818535
 20
-8573.41710272
 10
41029.5818535
 20
-8960.27474193
 10
41038.5818535
 20
-8960.27474193
  0
HATCH
  5
631
100
AcDbEntity
  8
Ech.1_5
 62
   190
  6
CONTINUOUS
100
AcDbHatch
 10
0.0
 20
0.0
 30
0.0
210
0.0
220
0.0
230
1.0
  2
CDWK10A
 70
     0
 71
     1
 91
        1
 92
        7
 72
     0
 73
     1
 93
        4
 10
41038.5818535
 20
-8573.41710272
 10
41029.5818535
 20
-8573.41710272
 10
41029.5818535
 20
-8960.27474193
 10
41038.5818535
 20
-8960.27474193
 97
        1
330
630
 75
     0
 76
     2
 52
0.0
 41
1.0
 77
     0
 78
     3
 53
45.0
 43
0.0
 44
0.0
 45
0.0
 46
42.00000167
 79
     0
 53
45.0
 43
0.0
 44
10.80000043
 45
0.0
 46
42.00000167
 79
     0
 53
45.0
 43
0.0
 44
21.60000086
 45
0.0
 46
42.00000167
 79
     0
 47
0.775229
 98
        1
 10
0.0
 20
0.0
  0
LWPOLYLINE
  5
632
100
AcDbEntity
  8
Ech.1_5
 62
     9
100
AcDbPolyline
 90
       14
 70
     0
 43
0.0
 10
41004.5818535
 20
-8960.27432994
 10
41004.5818535
 20
-8939.66667464
 10
41000.5818535
 20
-8935.66667464
 10
41004.5818535
 20
-8931.66667464
 10
41004.5818535
 20
-8896.66667464
 10
40997.5818535
 20
-8896.66667464
 10
40997.5818535
 20
-8890.66667464
 10
40995.0818535
 20
-8885.66667464
 10
40992.5818535
 20
-8890.66667464
 10
40992.5818535
 20
-8921.59560683
 10
40992.20125116
 20
-8923.50902369
 10
40986.0463196
 20
-8930.20220854
 10
40984.5818535
 20
-8933.73774245
 10
40984.5818535
 20
-8960.27432994
  0
LINE
  5
633
100
AcDbEntity
  8
Ech.1_5
 62
   150
  6
CADWORK_22
370
    35
100
AcDbLine
 10
41029.5818535
 20
-8517.38558486
 30
0.0
 11
41029.5818535
 21
-8960.27351551
 31
0.0
  0
LWPOLYLINE
  5
634
100
AcDbEntity
  8
Ech.1_5
 62
   150
  6
CADWORK_22
370
    35
100
AcDbPolyline
 90
        4
 70
     0
 43
0.0
 10
41029.55542867
 20
-8175.9978142
 10
41029.56500679
 20
-8508.99624827
 10
41024.56529889
 20
-8517.88719657
 10
41024.56708888
 20
-8563.33061888
  0
LWPOLYLINE
  5
635
100
AcDbEntity
  8
Ech.1_5
 62
     9
  6
CONTINUOUS
370
     5
100
AcDbPolyline
 90
        5
 70
     0
 43
0.0
 10
41004.5818535
 20
-8960.27432994
 10
41029.5818535
 20
-8960.27424793
 10
41029.5818535
 20
-8175.99754718
 10
41004.5818535
 20
-8175.9978142
 10
41004.5818535
 20
-8530.89930632
  0
LINE
  5
636
100
AcDbEntity
  8
Ech.1_5
 62
     9
  6
CONTINUOUS
370
     5
100
AcDbLine
 10
41004.5818535
 20
-8600.89930537
 30
0.0
 11
41004.5818535
 21
-8960.27432994
 31
0.0
  0
LINE
  5
637
100
AcDbEntity
  8
Ech.1_5
 62
     9
  6
CONTINUOUS
370
    -3
100
AcDbLine
 10
41004.5818535
 20
-8530.89930632
 30
0.0
 11
41028.10827834
 21
-8530.89930632
 31
0.0
  0
LINE
  5
638
100
AcDbEntity
  8
Ech.1_5
 62
     9
  6
CONTINUOUS
370
    -3
100
AcDbLine
 10
41004.5818535
 20
-8600.89930632
 30
0.0
 11
41028.10827834
 21
-8600.89930632
 31
0.0
  0
LWPOLYLINE
  5
639
100
AcDbEntity
  8
Ech.1_5
 62
     7
  6
CONTINUOUS
370
    50
100
AcDbPolyline
 90
        5
 70
     0
 43
0.0
 10
41027.5818535
 20
-8535.89930632
 10
41027.5818535
 20
-8570.89930632
 10
40976.05542867
 20
-8590.89930632
 10
40976.05542867
 20
-8620.89930632
 10
40978.25844201
 20
-8615.64027598
  0
LWPOLYLINE
  5
63A
100
AcDbEntity
  8
Ech.1_5
 62
     5
  6
CONTINUOUS
370
    -3
100
AcDbPolyline
 90
        5
 70
     0
 43
0.0
 10
41038.5818535
 20
-8541.47008422
 10
41038.5818535
 20
-8496.47008422
 10
41218.5818535
 20
-8496.47008422
 10
41218.5818535
 20
-8541.47008422
 10
41038.5818535
 20
-8541.47008422
  0
LWPOLYLINE
  5
63B
100
AcDbEntity
  8
Ech.1_5
 62
     5
  6
CONTINUOUS
370
    -3
100
AcDbPolyline
 90
        5
 70
     0
 43
0.0
 10
41038.5818535
 20
-8639.47008422
 10
41038.5818535
 20
-8594.47008422
 10
41218.5818535
 20
-8594.47008422
 10
41218.5818535
 20
-8639.47008422
 10
41038.5818535
 20
-8639.47008422
  0
LWPOLYLINE
  5
63C
100
AcDbEntity
  8
Ech.1_5
 62
     5
  6
CONTINUOUS
370
    -3
100
AcDbPolyline
 90
       12
 70
     0
 43
0.0
 10
41038.5818535
 20
-8586.47008422
 10
41058.4034214
 20
-8586.47008422
 10
41058.40345936
 20
-8586.46903422
 10
41084.22799044
 20
-8586.46903422
 10
41084.22795248
 20
-8586.47008422
 10
41118.5818535
 20
-8586.47008422
 10
41118.5818535
 20
-8541.47008422
 10
41100.54339809
 20
-8541.47008422
 10
41100.54339809
 20
-8541.47008422
 10
41074.54339809
 20
-8541.47008422
 10
41074.54339809
 20
-8541.47008422
 10
41038.5818535
 20
-8541.47008422
  0
LINE
  5
63D
100
AcDbEntity
  8
Ech.1_5
 62
   150
  6
CONTINUOUS
370
    50
100
AcDbLine
 10
41038.5818535
 20
-8541.47008422
 30
2500.0
 11
41038.5818535
 21
-8586.47008422
 31
2500.0
  0
LWPOLYLINE
  5
63E
102
{ACAD_REACTORS
330
63F
102
}
100
AcDbEntity
  8
Ech.1_5
 62
     9
  6
CONTINUOUS
370
    -3
100
AcDbPolyline
 90
        4
 70
     1
 43
0.0
 10
41724.0329464
 20
-8454.47159102
 10
41724.0329464
 20
-8440.47159067
 10
41527.70844503
 20
-8440.47159102
 10
41527.70844503
 20
-8454.47159102
  0
HATCH
  5
63F
100
AcDbEntity
  8
Ech.1_5
 62
     9
  6
CONTINUOUS
100
AcDbHatch
 10
0.0
 20
0.0
 30
0.0
210
0.0
220
0.0
230
1.0
  2
ANSI31
 70
     0
 71
     1
 91
        1
 92
        7
 72
     0
 73
     1
 93
        4
 10
41724.0329464
 20
-8454.47159102
 10
41724.0329464
 20
-8440.47159067
 10
41527.70844503
 20
-8440.47159102
 10
41527.70844503
 20
-8454.47159102
 97
        1
330
63E
 75
     0
 76
     2
 52
90.0
 41
3.14962605
 77
     0
 78
     1
 53
-45.0
 43
0.0
 44
0.0
 45
7.07106781
 46
7.07106781
 79
     0
 47
0.775229
 98
        1
 10
0.0
 20
0.0
  0
LWPOLYLINE
  5
640
100
AcDbEntity
  8
Ech.1_5
 62
   254
  6
CONTINUOUS
370
    -3
100
AcDbPolyline
 90
        4
 70
     1
 43
0.0
 10
41507.85566275
 20
-8176.06776049
 10
41457.85566275
 20
-8176.06776049
 10
41457.85566275
 20
-8454.47008708
 10
41507.85566275
 20
-8454.47008708
  0
LWPOLYLINE
  5
641
100
AcDbEntity
  8
Ech.1_5
 62
     9
  6
CONTINUOUS
100
AcDbPolyline
 90
        6
 70
     0
 43
0.0
 10
41520.85707794
 20
-8374.80481818
 10
41523.85566274
 20
-8374.80488684
 42
-0.41421356
 10
41533.85566274
 20
-8384.80488684
 10
41533.85566274
 20
-8440.46966078
 10
41520.85566275
 20
-8440.46966269
 10
41520.85566275
 20
-8374.8048897
  0
LWPOLYLINE
  5
642
102
{ACAD_REACTORS
330
643
102
}
100
AcDbEntity
  8
Ech.1_5
 62
     9
  6
CONTINUOUS
370
    -3
100
AcDbPolyline
 90
        4
 70
     1
 43
0.0
 10
41507.85566275
 20
-8444.46966269
 10
41520.85566275
 20
-8444.46966269
 10
41520.85566275
 20
-8176.06776049
 10
41507.85566275
 20
-8176.06776049
  0
HATCH
  5
643
100
AcDbEntity
  8
Ech.1_5
 62
     9
  6
CONTINUOUS
100
AcDbHatch
 10
0.0
 20
0.0
 30
0.0
210
0.0
220
0.0
230
1.0
  2
DOTS2
 70
     0
 71
     1
 91
        1
 92
        7
 72
     0
 73
     1
 93
        4
 10
41507.85566275
 20
-8444.46966269
 10
41520.85566275
 20
-8444.46966269
 10
41520.85566275
 20
-8176.06776049
 10
41507.85566275
 20
-8176.06776049
 97
        1
330
642
 75
     0
 76
     2
 52
0.0
 41
4.72440952
 77
     0
 78
     1
 53
0.0
 43
0.0
 44
0.0
 45
3.75
 46
3.535
 79
     2
 49
0.0
 49
-3.535
 47
0.775229
 98
        1
 10
0.0
 20
0.0
  0
LWPOLYLINE
  5
644
102
{ACAD_REACTORS
330
645
102
}
100
AcDbEntity
  8
Ech.1_5
 62
     9
  6
CONTINUOUS
370
    -3
100
AcDbPolyline
 90
       12
 70
     1
 43
0.0
 10
41459.85435705
 20
-8419.37626174
 10
41457.85566275
 20
-8419.37626174
 10
41457.85566275
 20
-8449.37626174
 10
41507.75345307
 20
-8449.37626174
 10
41507.75345307
 20
-8419.37626174
 10
41505.75345307
 20
-8419.37626174
 10
41505.75345307
 20
-8421.37626174
 10
41505.75345307
 20
-8421.37626174
 10
41505.75345307
 20
-8447.37626174
 10
41459.85435705
 20
-8447.37626174
 10
41459.85435705
 20
-8421.37626174
 10
41459.85435705
 20
-8421.37626174
  0
HATCH
  5
645
100
AcDbEntity
  8
Ech.1_5
 62
     9
  6
CONTINUOUS
100
AcDbHatch
 10
0.0
 20
0.0
 30
0.0
210
0.0
220
0.0
230
1.0
  2
SOLID
 70
     1
 71
     1
 91
        1
 92
        7
 72
     0
 73
     1
 93
       10
 10
41459.85435705
 20
-8419.37626174
 10
41457.85566275
 20
-8419.37626174
 10
41457.85566275
 20
-8449.37626174
 10
41507.75345307
 20
-8449.37626174
 10
41507.75345307
 20
-8419.37626174
 10
41505.75345307
 20
-8419.37626174
 10
41505.75345307
 20
-8421.37626174
 10
41505.75345307
 20
-8447.37626174
 10
41459.85435705
 20
-8447.37626174
 10
41459.85435705
 20
-8421.37626174
 97
        1
330
644
 75
     0
 76
     2
 47
0.775229
 98
        1
 10
0.0
 20
0.0
  0
LWPOLYLINE
  5
646
100
AcDbEntity
  8
Ech.1_5
 62
   254
  6
CONTINUOUS
370
    -3
100
AcDbPolyline
 90
        5
 70
     1
 43
0.0
 10
41457.85566275
 20
-8654.47167954
 10
41457.85566275
 20
-8960.29121098
 10
41507.58835677
 20
-8960.29051194
 10
41507.85566275
 20
-8960.29053292
 10
41507.85566275
 20
-8654.47167954
  0
LWPOLYLINE
  5
647
100
AcDbEntity
  8
Ech.1_5
 62
     9
  6
CONTINUOUS
370
    -3
100
AcDbPolyline
 90
      117
 70
     0
 43
0.0
 10
41466.18899608
 20
-8654.47167954
 42
1.14028178
 10
41468.34582632
 20
-8670.85439381
 10
41497.36549919
 20
-8663.08896622
 42
-1.14022143
 10
41499.52320514
 20
-8679.47167954
 42
-0.06556941
 10
41497.36549919
 20
-8679.18772683
 10
41468.34582632
 20
-8671.42229924
 42
1.14022141
 10
41466.18812038
 20
-8687.80501256
 42
0.06556985
 10
41468.34582632
 20
-8687.5210608
 10
41497.36549919
 20
-8679.75563225
 42
-0.06551739
 10
41499.52145376
 20
-8679.47167954
 42
-1.1403422
 10
41497.36549919
 20
-8695.85439381
 10
41468.34582632
 20
-8688.08896622
 42
0.06551695
 10
41466.18987173
 20
-8687.80501256
 42
0.99999997
 10
41466.18812039
 20
-8704.47167954
 42
0.06556941
 10
41468.34582632
 20
-8704.18772683
 10
41497.36549919
 20
-8696.42229924
 42
-1.14022141
 10
41499.52320513
 20
-8712.80501256
 42
-0.06556985
 10
41497.36549919
 20
-8712.5210608
 10
41468.34582632
 20
-8704.75563225
 42
0.06551739
 10
41466.18987171
 20
-8704.47167954
 42
1.1403422
 10
41468.34582632
 20
-8720.85439381
 10
41497.36549919
 20
-8713.08896622
 42
-0.06551695
 10
41499.52145378
 20
-8712.80501256
 42
-0.99999997
 10
41499.52320513
 20
-8729.47167954
 42
-0.06556941
 10
41497.36549919
 20
-8729.18772683
 10
41468.34582632
 20
-8721.42229924
 42
1.14022141
 10
41466.18812038
 20
-8737.80501256
 42
0.06556985
 10
41468.34582632
 20
-8737.5210608
 10
41497.36549919
 20
-8729.75563225
 42
-0.06551739
 10
41499.52145377
 20
-8729.47167954
 42
-1.1403422
 10
41497.36549919
 20
-8745.85439381
 10
41468.34582632
 20
-8738.08896622
 42
0.06551695
 10
41466.18987172
 20
-8737.80501256
 42
0.99999997
 10
41466.18812038
 20
-8754.47167954
 42
0.06556941
 10
41468.34582632
 20
-8754.18772683
 10
41497.36549919
 20
-8746.42229924
 42
-1.14022141
 10
41499.52320513
 20
-8762.80501256
 42
-0.06556985
 10
41497.36549919
 20
-8762.5210608
 10
41468.34582632
 20
-8754.75563225
 42
0.06551739
 10
41466.18987172
 20
-8754.47167954
 42
1.1403422
 10
41468.34582632
 20
-8770.85439381
 10
41497.36549919
 20
-8763.08896622
 42
-0.06551695
 10
41499.52145377
 20
-8762.80501256
 42
-0.99999997
 10
41499.52320512
 20
-8779.47167954
 42
-0.06556941
 10
41497.36549919
 20
-8779.18772683
 10
41468.34582632
 20
-8771.42229924
 42
1.14022141
 10
41466.18812039
 20
-8787.80501256
 42
0.06556985
 10
41468.34582632
 20
-8787.5210608
 10
41497.36549919
 20
-8779.75563225
 42
-0.06551739
 10
41499.52145378
 20
-8779.47167954
 42
-1.1403422
 10
41497.36549919
 20
-8795.85439381
 10
41468.34582632
 20
-8788.08896622
 42
0.06551695
 10
41466.18987172
 20
-8787.80501256
 42
0.99999997
 10
41466.18812037
 20
-8804.47167954
 42
0.06556941
 10
41468.34582632
 20
-8804.18772683
 10
41497.36549919
 20
-8796.42229924
 42
-1.14022141
 10
41499.52320514
 20
-8812.80501256
 42
-0.06556985
 10
41497.36549919
 20
-8812.5210608
 10
41468.34582632
 20
-8804.75563225
 42
0.06551739
 10
41466.18987173
 20
-8804.47167954
 42
1.1403422
 10
41468.34582632
 20
-8820.85439381
 10
41497.36549919
 20
-8813.08896622
 42
-0.06551695
 10
41499.52145376
 20
-8812.80501256
 42
-0.99999997
 10
41499.52320513
 20
-8829.47167954
 42
-0.06556941
 10
41497.36549919
 20
-8829.18772683
 10
41468.34582632
 20
-8821.42229924
 42
1.14022142
 10
41466.18812039
 20
-8837.80501256
 42
0.06556985
 10
41468.34582632
 20
-8837.5210608
 10
41497.36549919
 20
-8829.75563225
 42
-0.06551739
 10
41499.52145377
 20
-8829.47167954
 42
-1.1403422
 10
41497.36549919
 20
-8845.85439381
 10
41468.34582632
 20
-8838.08896622
 42
0.06551695
 10
41466.18987171
 20
-8837.80501256
 42
0.99999997
 10
41466.18812038
 20
-8854.47167954
 42
0.06556941
 10
41468.34582632
 20
-8854.18772683
 10
41497.36549919
 20
-8846.42229924
 42
-1.14022141
 10
41499.52320513
 20
-8862.80501256
 42
-0.06556985
 10
41497.36549919
 20
-8862.5210608
 10
41468.34582632
 20
-8854.75563225
 42
0.06551739
 10
41466.18987172
 20
-8854.47167954
 42
1.1403422
 10
41468.34582632
 20
-8870.85439381
 10
41497.36549919
 20
-8863.08896622
 42
-0.06551695
 10
41499.52145377
 20
-8862.80501256
 42
-0.99999997
 10
41499.52320514
 20
-8879.47167954
 42
-0.06556941
 10
41497.36549919
 20
-8879.18772683
 10
41468.34582632
 20
-8871.42229924
 42
1.14022141
 10
41466.18812039
 20
-8887.80501256
 42
0.06556985
 10
41468.34582632
 20
-8887.5210608
 10
41497.36549919
 20
-8879.75563225
 42
-0.06551739
 10
41499.52145376
 20
-8879.47167954
 42
-1.1403422
 10
41497.36549919
 20
-8895.85439381
 10
41468.34582632
 20
-8888.08896622
 42
0.06551695
 10
41466.18987172
 20
-8887.80501256
 42
0.99999997
 10
41466.18812039
 20
-8904.47167954
 42
0.06556941
 10
41468.34582632
 20
-8904.18772683
 10
41497.36549919
 20
-8896.42229924
 42
-1.14022141
 10
41499.52320513
 20
-8912.80501256
 42
-0.06556985
 10
41497.36549919
 20
-8912.5210608
 10
41468.34582632
 20
-8904.75563225
 42
0.06551739
 10
41466.18987171
 20
-8904.47167954
 42
1.1403422
 10
41468.34582632
 20
-8920.85439381
 10
41497.36549919
 20
-8913.08896622
 42
-0.06551695
 10
41499.52145378
 20
-8912.80501256
 42
-0.99999997
 10
41499.52320514
 20
-8929.47167954
 42
-0.06556941
 10
41497.36549919
 20
-8929.18772683
 10
41468.34582632
 20
-8921.42229924
 42
1.14022141
 10
41466.18812038
 20
-8937.80501256
 42
0.06556985
 10
41468.34582632
 20
-8937.5210608
 10
41497.36549919
 20
-8929.75563225
 42
-0.06551739
 10
41499.52145376
 20
-8929.47167954
 42
-1.1403422
 10
41497.36549919
 20
-8945.85439381
 10
41468.34582632
 20
-8938.08896622
 42
0.06551695
 10
41466.18987173
 20
-8937.80501256
 42
0.99999997
 10
41466.18812038
 20
-8954.47167954
 42
0.06556941
 10
41468.34582632
 20
-8954.18772683
 10
41497.36549919
 20
-8946.42229924
 42
-0.76240205
 10
41505.48766997
 20
-8960.2905415
  0
LWPOLYLINE
  5
648
102
{ACAD_REACTORS
330
649
102
}
100
AcDbEntity
  8
Ech.1_5
 62
     9
  6
CONTINUOUS
370
    -3
100
AcDbPolyline
 90
        4
 70
     1
 43
0.0
 10
41507.85566275
 20
-8960.29051194
 10
41520.85566275
 20
-8960.29051194
 10
41520.85566275
 20
-8654.47017464
 10
41507.85566275
 20
-8654.47017464
  0
HATCH
  5
649
100
AcDbEntity
  8
Ech.1_5
 62
     9
  6
CONTINUOUS
100
AcDbHatch
 10
0.0
 20
0.0
 30
0.0
210
0.0
220
0.0
230
1.0
  2
DOTS2
 70
     0
 71
     1
 91
        1
 92
        7
 72
     0
 73
     1
 93
        4
 10
41507.85566275
 20
-8960.29051194
 10
41520.85566275
 20
-8960.29051194
 10
41520.85566275
 20
-8654.47017464
 10
41507.85566275
 20
-8654.47017464
 97
        1
330
648
 75
     0
 76
     2
 52
0.0
 41
4.72440952
 77
     0
 78
     1
 53
0.0
 43
0.0
 44
0.0
 45
3.75
 46
3.535
 79
     2
 49
0.0
 49
-3.535
 47
0.775229
 98
        1
 10
0.0
 20
0.0
  0
LWPOLYLINE
  5
64A
102
{ACAD_REACTORS
330
64B
102
}
100
AcDbEntity
  8
Ech.1_5
 62
     9
  6
CONTINUOUS
370
    -3
100
AcDbPolyline
 90
       12
 70
     1
 43
0.0
 10
41459.85435705
 20
-8684.47167954
 10
41457.85566275
 20
-8684.47167954
 10
41457.85566275
 20
-8654.47167954
 10
41507.75345307
 20
-8654.47167954
 10
41507.75345307
 20
-8684.47167954
 10
41505.75345307
 20
-8684.47167954
 10
41505.75345307
 20
-8682.47167954
 10
41505.75345307
 20
-8682.47167954
 10
41505.75345307
 20
-8656.47167954
 10
41459.85435705
 20
-8656.47167954
 10
41459.85435705
 20
-8682.47167954
 10
41459.85435705
 20
-8682.47167954
  0
HATCH
  5
64B
100
AcDbEntity
  8
Ech.1_5
 62
     9
  6
CONTINUOUS
100
AcDbHatch
 10
0.0
 20
0.0
 30
0.0
210
0.0
220
0.0
230
1.0
  2
SOLID
 70
     1
 71
     1
 91
        1
 92
        7
 72
     0
 73
     1
 93
       10
 10
41459.85435705
 20
-8684.47167954
 10
41457.85566275
 20
-8684.47167954
 10
41457.85566275
 20
-8654.47167954
 10
41507.75345307
 20
-8654.47167954
 10
41507.75345307
 20
-8684.47167954
 10
41505.75345307
 20
-8684.47167954
 10
41505.75345307
 20
-8682.47167954
 10
41505.75345307
 20
-8656.47167954
 10
41459.85435705
 20
-8656.47167954
 10
41459.85435705
 20
-8682.47167954
 97
        1
330
64A
 75
     0
 76
     2
 47
0.775229
 98
        1
 10
0.0
 20
0.0
  0
LWPOLYLINE
  5
64C
100
AcDbEntity
  8
Ech.1_5
 62
     9
  6
CONTINUOUS
370
    -3
100
AcDbPolyline
 90
       66
 70
     0
 43
0.0
 10
41466.18899608
 20
-8176.06776049
 42
1.14028181
 10
41468.34582632
 20
-8192.45047441
 10
41497.36549919
 20
-8184.68504658
 42
-1.30322619
 10
41497.36549919
 20
-8200.78380774
 10
41468.34582632
 20
-8193.01837991
 42
1.30322619
 10
41468.34582632
 20
-8209.11714108
 10
41497.36549919
 20
-8201.35171324
 42
-1.30322619
 10
41497.36549919
 20
-8217.45047441
 10
41468.34582632
 20
-8209.68504658
 42
1.30322619
 10
41468.34582632
 20
-8225.78380774
 10
41497.36549919
 20
-8218.01837991
 42
-1.30322619
 10
41497.36549919
 20
-8234.11714108
 10
41468.34582632
 20
-8226.35171324
 42
1.30322619
 10
41468.34582632
 20
-8242.45047441
 10
41497.36549919
 20
-8234.68504658
 42
-1.30322619
 10
41497.36549919
 20
-8250.78380774
 10
41468.34582632
 20
-8243.01837991
 42
1.30322619
 10
41468.34582632
 20
-8259.11714108
 10
41497.36549919
 20
-8251.35171324
 42
-1.30322619
 10
41497.36549919
 20
-8267.45047441
 10
41468.34582632
 20
-8259.68504658
 42
1.30322619
 10
41468.34582632
 20
-8275.78380774
 10
41497.36549919
 20
-8268.01837991
 42
-1.30322619
 10
41497.36549919
 20
-8284.11714108
 10
41468.34582632
 20
-8276.35171324
 42
1.30322619
 10
41468.34582632
 20
-8292.45047441
 10
41497.36549919
 20
-8284.68504658
 42
-1.30322619
 10
41497.36549919
 20
-8300.78380774
 10
41468.34582632
 20
-8293.01837991
 42
1.30322619
 10
41468.34582632
 20
-8309.11714108
 10
41497.36549919
 20
-8301.35171324
 42
-1.30322619
 10
41497.36549919
 20
-8317.45047441
 10
41468.34582632
 20
-8309.68504658
 42
1.30322619
 10
41468.34582632
 20
-8325.78380774
 10
41497.36549919
 20
-8318.01837991
 42
-1.30322619
 10
41497.36549919
 20
-8334.11714108
 10
41468.34582632
 20
-8326.35171324
 42
1.30322619
 10
41468.34582632
 20
-8342.45047441
 10
41497.36549919
 20
-8334.68504658
 42
-1.30322619
 10
41497.36549919
 20
-8350.78380774
 10
41468.34582632
 20
-8343.01837991
 42
1.30322619
 10
41468.34582632
 20
-8359.11714108
 10
41497.36549919
 20
-8351.35171324
 42
-1.30322619
 10
41497.36549919
 20
-8367.45047441
 10
41468.34582632
 20
-8359.68504658
 42
1.30322619
 10
41468.34582632
 20
-8375.78380774
 10
41497.36549919
 20
-8368.01837991
 42
-1.30322619
 10
41497.36549919
 20
-8384.11714108
 10
41468.34582632
 20
-8376.35171324
 42
1.30322619
 10
41468.34582632
 20
-8392.45047441
 10
41497.36549919
 20
-8384.68504658
 42
-1.30322619
 10
41497.36549919
 20
-8400.78380774
 10
41468.34582632
 20
-8393.01837991
 42
1.30322619
 10
41468.34582632
 20
-8409.11714108
 10
41497.36549919
 20
-8401.35171324
 42
-1.30322619
 10
41497.36549919
 20
-8417.45047441
 10
41468.34582632
 20
-8409.68504658
 42
1.30322619
 10
41468.34582632
 20
-8425.78380774
 10
41497.36549919
 20
-8418.01837991
 42
-1.30322619
 10
41497.36549919
 20
-8434.11714108
 10
41468.34582632
 20
-8426.35171324
 42
1.30322619
 10
41468.34582632
 20
-8442.45047441
 10
41497.36549919
 20
-8434.68504658
 42
-1.30322619
 10
41497.36549919
 20
-8450.78380774
 10
41468.34582632
 20
-8443.01837991
 42
0.63154379
 10
41458.5818535
 20
-8454.47008708
  0
LWPOLYLINE
  5
64D
100
AcDbEntity
  8
Ech.1_5
 62
     9
  6
CONTINUOUS
100
AcDbPolyline
 90
       22
 70
     0
 43
0.0
 10
40992.5135062
 20
-8176.06841471
 10
40992.20125116
 20
-8177.63822653
 10
40986.0463196
 20
-8184.33141139
 10
40984.5818535
 20
-8187.86694529
 10
40984.5818535
 20
-8306.9536896
 10
40985.5421759
 20
-8308.58355811
 10
40990.27829676
 20
-8311.55490782
 10
40990.69029812
 20
-8311.79587748
 10
40991.00411561
 20
-8311.79587748
 10
40991.45523638
 20
-8311.51381495
 10
40991.5818535
 20
-8311.17934134
 10
40991.5818535
 20
-8283.79587748
 10
40998.5818535
 20
-8283.79587748
 10
40998.5818535
 20
-8293.79587748
 10
41004.5818535
 20
-8293.79587748
 10
41004.5818535
 20
-8265.79587748
 10
41000.5818535
 20
-8261.79587748
 10
41004.5818535
 20
-8257.79587748
 10
41004.5818535
 20
-8193.79587748
 10
41000.5818535
 20
-8189.79587748
 10
41004.5818535
 20
-8185.79587748
 10
41004.5818535
 20
-8176.06841471
  0
LWPOLYLINE
  5
64E
100
AcDbEntity
  8
Ech.1_5
 62
     9
  6
CONTINUOUS
100
AcDbPolyline
 90
       27
 70
     0
 43
0.0
 10
40991.45523638
 20
-8456.51381495
 10
40991.5818535
 20
-8456.17934134
 10
40991.5818535
 20
-8428.79587748
 10
40998.5818535
 20
-8428.79587748
 10
40998.5818535
 20
-8438.79587748
 10
41004.5818535
 20
-8438.79587748
 10
41004.5818535
 20
-8410.79587748
 10
41000.5818535
 20
-8406.79587748
 10
41004.5818535
 20
-8402.79587748
 10
41004.5818535
 20
-8338.79587748
 10
41000.5818535
 20
-8334.79587748
 10
41004.5818535
 20
-8330.79587748
 10
41004.5818535
 20
-8294.79587748
 10
40997.5818535
 20
-8294.79587748
 10
40997.5818535
 20
-8289.79587748
 10
40995.0818535
 20
-8284.79587748
 10
40992.5818535
 20
-8289.79587748
 10
40992.5818535
 20
-8320.72480967
 10
40992.20125116
 20
-8322.63822653
 10
40986.0463196
 20
-8329.33141139
 10
40984.5818535
 20
-8332.86694529
 10
40984.5818535
 20
-8451.9536896
 10
40985.5421759
 20
-8453.58355811
 10
40990.27829676
 20
-8456.55490782
 10
40990.69029812
 20
-8456.79587748
 10
40991.00411561
 20
-8456.79587748
 10
40991.45523638
 20
-8456.51381495
  0
LWPOLYLINE
  5
64F
100
AcDbEntity
  8
Ech.1_5
 62
     9
  6
BYBLOCK
100
AcDbPolyline
 90
       23
 70
     0
 43
0.0
 10
40984.5818535
 20
-8574.27746108
 10
40984.5818535
 20
-8477.86694529
 10
40986.0463196
 20
-8474.33141139
 10
40992.20125116
 20
-8467.63822653
 10
40992.5818535
 20
-8465.72480967
 10
40992.5818535
 20
-8434.79587748
 10
40995.0818535
 20
-8429.79587748
 10
40997.5818535
 20
-8434.79587748
 10
40997.5818535
 20
-8439.79587748
 10
41004.5818535
 20
-8439.79587748
 10
41004.5818535
 20
-8475.79587748
 10
41000.5818535
 20
-8479.79587748
 10
41004.5818535
 20
-8483.79587748
 10
41004.5818535
 20
-8547.79587748
 10
41000.5818535
 20
-8551.79587748
 10
41004.5818535
 20
-8555.79587748
 10
41004.5818535
 20
-8555.79587748
 10
40992.3379399
 20
-8571.6931515
 10
40989.52114307
 20
-8575.35042956
 10
40988.43168302
 20
-8575.89930632
 10
40985.67630251
 20
-8575.89930632
 10
40984.5818535
 20
-8574.27746108
 10
40984.5818535
 20
-8568.968833
  0
LWPOLYLINE
  5
650
100
AcDbEntity
  8
Ech.1_5
 62
     7
  6
DASHDOT
370
     5
100
AcDbPolyline
 90
        4
 70
     1
 43
0.0
 10
41580.75897405
 20
-9234.21248299
 10
41765.31300978
 20
-9234.21248299
 10
41765.31300978
 20
-9056.94349121
 10
41580.75897405
 20
-9056.94349121
  0
LWPOLYLINE
  5
651
100
AcDbEntity
  8
Ech.1_5
 62
   190
  6
CONTINUOUS
370
    -3
100
AcDbPolyline
 90
        6
 70
     0
 43
0.0
 10
41579.8621541
 20
-8960.27340393
 10
41171.5162447
 20
-8960.27503376
 10
41155.03074154
 20
-8978.25238208
 10
41169.14068156
 20
-8942.29668216
 10
41152.65432748
 20
-8960.27503376
 10
40966.05542867
 20
-8960.27424793
  0
LWPOLYLINE
  5
652
100
AcDbEntity
  8
Ech.1_5
 62
   190
  6
CONTINUOUS
370
    -3
100
AcDbPolyline
 90
        6
 70
     0
 43
0.0
 10
40966.05542867
 20
-8176.06841471
 10
41101.015357
 20
-8176.06693843
 10
41117.50086015
 20
-8158.0895901
 10
41103.39092013
 20
-8194.04529002
 10
41119.87727422
 20
-8176.06693843
 10
41552.6179559
 20
-8176.06776049
  0
LWPOLYLINE
  5
653
100
AcDbEntity
  8
Ech.1_5
 62
   190
  6
CONTINUOUS
370
    -3
100
AcDbPolyline
 90
        3
 70
     0
 43
0.0
 10
41655.48078418
 20
-9108.46893633
 10
41549.69637105
 20
-9202.58647969
 10
41529.69637105
 20
-9202.58647969
  0
INSERT
  5
654
100
AcDbEntity
  8
Ech.1_5
 62
   190
  6
CONTINUOUS
370
    -3
100
AcDbBlockReference
  2
CDWK_EXTR_4
 10
41655.48078418
 20
-9108.46893633
 30
0.0
 41
5.0
 42
5.0
 43
5.0
 50
221.65983777
  0
LWPOLYLINE
  5
655
100
AcDbEntity
  8
Ech.1_5
 62
   190
  6
CONTINUOUS
370
    -3
100
AcDbPolyline
 90
       20
 70
     0
 43
0.0
 10
41068.57475881
 20
-8639.47008422
 42
1.14028181
 10
41076.3375114
 20
-8698.43390668
 10
41180.78362745
 20
-8670.48497767
 42
-1.30322619
 10
41180.78362745
 20
-8728.42681199
 10
41076.3375114
 20
-8700.47788298
 42
1.30322619
 10
41076.3375114
 20
-8758.4197173
 10
41180.78362745
 20
-8730.47078829
 42
-1.30322619
 10
41180.78362745
 20
-8788.41262261
 10
41076.3375114
 20
-8760.4636936
 42
1.30322619
 10
41076.3375114
 20
-8818.40552792
 10
41180.78362745
 20
-8790.45659891
 42
-1.30322619
 10
41180.78362745
 20
-8848.39843323
 10
41076.3375114
 20
-8820.44950422
 42
1.30322619
 10
41076.3375114
 20
-8878.39133853
 10
41180.78362745
 20
-8850.44240952
 42
-1.30322619
 10
41180.78362745
 20
-8908.38424384
 10
41076.3375114
 20
-8880.43531483
 42
1.30322619
 10
41076.3375114
 20
-8938.37714915
 10
41180.78362745
 20
-8910.42822014
 42
-0.76116467
 10
41210.08201331
 20
-8960.27474193
  0
LWPOLYLINE
  5
656
100
AcDbEntity
  8
Ech.1_5
 62
   190
100
AcDbPolyline
 90
        5
 70
     0
 43
0.0
 10
40829.50205453
 20
-8199.07959805
 10
40963.93083351
 20
-8199.07959805
 10
40963.93083351
 20
-8255.80255687
 10
40829.50205453
 20
-8255.80255687
 10
40829.50205453
 20
-8199.07959805
  0
HATCH
  5
657
100
AcDbEntity
  8
Ech.1_5
 62
   190
100
AcDbHatch
 10
0.0
 20
0.0
 30
0.0
210
0.0
220
0.0
230
1.0
  2
SOLID
 70
     1
 71
     0
 91
        1
 92
        7
 72
     0
 73
     1
 93
        4
 10
40847.78210031
 20
-8232.73640918
 10
40897.78210031
 20
-8232.73640918
 10
40897.78210031
 20
-8225.32127165
 10
40847.78210031
 20
-8225.32127165
 97
        0
 75
     0
 76
     2
 47
0.775229
 98
        1
 10
0.0
 20
0.0
  0
LWPOLYLINE
  5
658
100
AcDbEntity
  8
Ech.1_5
 62
   190
100
AcDbPolyline
 90
        5
 70
     0
 43
0.0
 10
40847.78210031
 20
-8232.73640918
 10
40897.78210031
 20
-8232.73640918
 10
40897.78210031
 20
-8225.32127165
 10
40847.78210031
 20
-8225.32127165
 10
40847.78210031
 20
-8232.73640918
  0
LWPOLYLINE
  5
659
100
AcDbEntity
  8
Ech.1_5
 62
   190
100
AcDbPolyline
 90
        5
 70
     0
 43
0.0
 10
40897.78210031
 20
-8232.73640918
 10
40947.78210031
 20
-8232.73640918
 10
40947.78210031
 20
-8225.32127165
 10
40897.78210031
 20
-8225.32127165
 10
40897.78210031
 20
-8232.73640918
  0
TEXT
  5
65A
100
AcDbEntity
  8
Ech.1_5
 62
   190
100
AcDbText
 10
40859.07639294
 20
-8215.73526857
 30
0.0
 40
8.00000012
  1
Echelle en mm
  7
ARIAL
 50
0.0
 41
1.0
 51
0.0
100
AcDbText
  0
TEXT
  5
65B
100
AcDbEntity
  8
Ech.1_5
 62
   190
100
AcDbText
 10
40845.09580819
 20
-8243.9451041
 30
0.0
 40
8.00000012
  1
0
  7
ARIAL
 50
0.0
 41
1.0
 51
0.0
100
AcDbText
  0
TEXT
  5
65C
100
AcDbEntity
  8
Ech.1_5
 62
   190
100
AcDbText
 10
40931.69286608
 20
-8243.9451041
 30
0.0
 40
8.00000012
  1
100
  7
ARIAL
 50
0.0
 41
1.0
 51
0.0
100
AcDbText
  0
TEXT
  5
65D
100
AcDbEntity
  8
Ech.1_5
 62
   190
100
AcDbText
 10
40892.95243452
 20
-8243.9451041
 30
0.0
 40
8.00000012
  1
50
  7
ARIAL
 50
0.0
 41
1.0
 51
0.0
100
AcDbText
  0
INSERT
  5
65E
100
AcDbEntity
  8
Ech.1_5
 62
     0
370
    -3
100
AcDbBlockReference
  2
*D11
 10
0.0
 20
0.0
 30
0.0
  0
ENDSEC
  0
SECTION
  2
OBJECTS
  0
DICTIONARY
  5
1
100
AcDbDictionary
  3
ACAD_GROUP
350
2
  3
ACAD_MLINESTYLE
350
3
  0
DICTIONARY
  5
2
102
{CDWK_REACTORS
330
1
102
}
100
AcDbDictionary
  0
DICTIONARY
  5
3
102
{CDWK_REACTORS
330
1
102
}
100
AcDbDictionary
  3
STANDARD
350
4
  0
MLINESTYLE
  5
4
102
{CDWK_REACTORS
330
3
102
}
100
AcDbMlineStyle
  2
STANDARD
 70
     0
  3

 62
     0
 51
90.0
 52
90.0
 71
     2
 49
0.5
 62
   256
  6
BYLAYER
 49
-0.5
 62
   256
  6
BYLAYER
  0
ENDSEC
  0
EOF
