  0
SECTION
  2
HEADER
  9
$ACADVER
  1
AC1014
  9
$DWGCODEPAGE
  3
ANSI_1252
  9
$INSBASE
 10
0.0
 20
0.0
 30
0.0
  9
$EXTMIN
 10
1033.98771282
 20
-21718.34332712
  9
$EXTMAX
 10
122326.07664696
 20
2240.3362527
  9
$LIMMIN
 10
1033.98771282
 20
-21718.34332712
  9
$LIMMAX
 10
122326.07664696
 20
2240.3362527
  9
$ORTHOMODE
 70
     0
  9
$REGENMODE
 70
     1
  9
$FILLMODE
 70
     1
  9
$QTEXTMODE
 70
     0
  9
$MIRRTEXT
 70
     1
  9
$DRAGMODE
 70
     2
  9
$LTSCALE
 40
5.0
  9
$OSMODE
 70
     0
  9
$ATTMODE
 70
     1
  9
$TEXTSIZE
 40
3.5
  9
$TRACEWID
 40
1.0
  9
$TEXTSTYLE
  7
STANDARD
  9
$CLAYER
  8
0
  9
$CELTYPE
  6
BYLAYER
  9
$CECOLOR
 62
   256
  9
$DIMSCALE
 40
1.0
  9
$DIMASZ
 40
2.0
  9
$DIMEXO
 40
5.0
  9
$DIMDLI
 40
10.0
  9
$DIMRND
 40
0.0
  9
$DIMDLE
 40
2.0
  9
$DIMEXE
 40
2.0
  9
$DIMTP
 40
0.0
  9
$DIMTM
 40
0.0
  9
$DIMTXT
 40
2.5
  9
$DIMCEN
 40
1.5
  9
$DIMTSZ
 40
0.0
  9
$DIMTOL
 70
     0
  9
$DIMLIM
 70
     0
  9
$DIMTIH
 70
     1
  9
$DIMTOH
 70
     0
  9
$DIMSE1
 70
     0
  9
$DIMSE2
 70
     0
  9
$DIMTAD
 70
     1
  9
$DIMZIN
 70
     8
  9
$DIMBLK
  1

  9
$DIMASO
 70
     1
  9
$DIMSHO
 70
     1
  9
$DIMPOST
  1

  9
$DIMAPOST
  1

  9
$DIMALT
 70
     0
  9
$DIMALTD
 70
     2
  9
$DIMALTF
 40
25.4
  9
$DIMLFAC
 40
1.0
  9
$DIMTOFL
 70
     0
  9
$DIMTVP
 40
0.0
  9
$DIMTIX
 70
     0
  9
$DIMSOXD
 70
     0
  9
$DIMSAH
 70
     0
  9
$DIMBLK1
  1

  9
$DIMBLK2
  1

  9
$DIMSTYLE
  2
*UNNAMED
  9
$DIMCLRD
 70
   190
  9
$DIMCLRE
 70
   190
  9
$DIMCLRT
 70
   190
  9
$DIMTFAC
 40
1.0
  9
$DIMGAP
 40
0.09
  9
$DIMUNIT
 70
     2
  9
$LUNITS
 70
     2
  9
$LUPREC
 70
     6
  9
$AXISMODE
 70
     0
  9
$AXISUNIT
 10
0.0
 20
0.0
  9
$SKETCHINC
 40
0.1
  9
$FILLETRAD
 40
0.0
  9
$AUNITS
 70
     0
  9
$AUPREC
 70
     0
  9
$MENU
  1
ACAD
  9
$ELEVATION
 40
0.0
  9
$PELEVATION
 40
0.0
  9
$THICKNESS
 40
0.0
  9
$LIMCHECK
 70
     0
  9
$BLIPMODE
 70
     1
  9
$CHAMFERA
 40
0.0
  9
$CHAMFERB
 40
0.0
  9
$SKPOLY
 70
     1
  9
$TDCREATE
 40
2457808.0000000000
  9
$TDUPDATE
 40
2457808.0000000000
  9
$TDINDWG
 40
0.0
  9
$TDUSRTIMER
 40
0.0
  9
$USRTIMER
 70
     1
  9
$ANGBASE
 50
0.0
  9
$ANGDIR
 70
     0
  9
$PDMODE
 70
     0
  9
$PDSIZE
 40
0.0
  9
$PLINEWID
 40
0.0
  9
$COORDS
 70
     2
  9
$SPLFRAME
 70
     0
  9
$SPLINETYPE
 70
     6
  9
$SPLINESEGS
 70
     8
  9
$ATTDIA
 70
     1
  9
$ATTREQ
 70
     1
  9
$HANDLING
 70
     1
  9
$HANDSEED
  5
     636
  9
$SURFTAB1
 70
     6
  9
$SURFTAB2
 70
     6
  9
$SURFTYPE
 70
     6
  9
$SURFU
 70
     6
  9
$SURFV
 70
     6
  9
$UCSNAME
  2

  9
$UCSORG
 10
0.0
 20
0.0
 30
0.0
  9
$UCSXDIR
 10
1.0
 20
0.0
 30
0.0
  9
$UCSYDIR
 10
0.0
 20
1.0
 30
0.0
  9
$PUCSNAME
  2

  9
$PUCSORG
 10
0.0
 20
0.0
 30
0.0
  9
$PUCSXDIR
 10
1.0
 20
0.0
 30
0.0
  9
$PUCSYDIR
 10
0.0
 20
1.0
 30
0.0
  9
$USERI1
 70
     0
  9
$USERI2
 70
     0
  9
$USERI3
 70
     0
  9
$USERI4
 70
     0
  9
$USERI5
 70
     0
  9
$USERR1
 40
0.0
  9
$USERR2
 40
0.0
  9
$USERR3
 40
0.0
  9
$USERR4
 40
0.0
  9
$USERR5
 40
0.0
  9
$WORLDVIEW
 70
     1
  9
$SHADEDGE
 70
     3
  9
$SHADEDIF
 70
    70
  9
$TILEMODE
 70
     1
  9
$MAXACTVP
 70
    16
  9
$PINSBASE
 10
0.0
 20
0.0
 30
0.0
  9
$PLIMCHECK
 70
     0
  9
$PEXTMIN
 10
1.0000000000000E+20
 20
1.0000000000000E+20
 30
1.0000000000000E+20
  9
$PEXTMAX
 10
-1.0000000000000E+20
 20
-1.0000000000000E+20
 30
-1.0000000000000E+20
  9
$PLIMMIN
 10
0.0
 20
0.0
  9
$UNITMODE
 70
     0
  9
$VISRETAIN
 70
     0
  9
$MEASUREMENT
 70
     1
  0
ENDSEC
  0
SECTION
  2
TABLES
  0
TABLE
  2
VPORT
  5
4A2
100
AcDbSymbolTable
 70
     1
  0
ENDTAB
  0
TABLE
  2
STYLE
  5
4A3
100
AcDbSymbolTable
 70
     3
  0
STYLE
  5
4A4
100
AcDbSymbolTableRecord
100
AcDbTextStyleTableRecord
  2
STANDARD
 70
     0
 40
0.0
 41
1.0
 50
0.0
 71
     0
 42
3.5
  3
MONOTXT
  4

  0
STYLE
  5
4A5
100
AcDbSymbolTableRecord
100
AcDbTextStyleTableRecord
  2
SYMAP
 70
     0
 40
0.0
 41
1.0
 50
0.0
 71
     0
 42
3.5
  3
SYMAP
  4

  0
STYLE
  5
4A6
100
AcDbSymbolTableRecord
100
AcDbTextStyleTableRecord
  2
CADWORK1
 70
     0
 40
0.0
 41
1.0
 50
0.0
 71
     0
 42
3.5
  3
MONOTXT
  4

  0
STYLE
  5
4A7
100
AcDbSymbolTableRecord
100
AcDbTextStyleTableRecord
  2
MONOTXT
 70
     0
 40
0.0
 41
1.0
 50
0.0
 71
     0
 42
3.5
  3
MONOTXT
  4

  0
STYLE
  5
4A8
100
AcDbSymbolTableRecord
100
AcDbTextStyleTableRecord
  2
ARIAL
 70
     0
 40
0.0
 41
1.0
 50
0.0
 71
     0
 42
3.5
  3

  4

1001
ACAD
1000
Arial
1071
        0
  0
ENDTAB
  0
TABLE
  2
LTYPE
  5
4A9
100
AcDbSymbolTable
 70
    15
  0
LTYPE
  5
4AA
100
AcDbSymbolTableRecord
100
AcDbLinetypeTableRecord
  2
BYBLOCK
 70
    64
  3

 72
    65
 73
     0
 40
0.0
  0
LTYPE
  5
4AB
100
AcDbSymbolTableRecord
100
AcDbLinetypeTableRecord
  2
BYLAYER
 70
    64
  3

 72
    65
 73
     0
 40
0.0
  0
LTYPE
  5
4AC
100
AcDbSymbolTableRecord
100
AcDbLinetypeTableRecord
  2
CONTINUOUS
 70
    64
  3
Solid line
 72
    65
 73
     0
 40
0.0
  0
LTYPE
  5
4AD
100
AcDbSymbolTableRecord
100
AcDbLinetypeTableRecord
  2
DOT2
 70
    64
  3
...............................................
 72
    65
 73
     2
 40
1.25
 49
0.0
 74
     0
 49
-1.25
 74
     0
  0
LTYPE
  5
4AE
100
AcDbSymbolTableRecord
100
AcDbLinetypeTableRecord
  2
CADWORK_13
 70
    64
  3
13 =======================================
 72
    65
 73
     2
 40
4.0
 49
2.0
 74
     0
 49
-2.0
 74
     0
  0
LTYPE
  5
4AF
100
AcDbSymbolTableRecord
100
AcDbLinetypeTableRecord
  2
DASHDOT
 70
    64
  3
 __ . __ . __ . __ . __ . __ . __ . __ . __ . __
 72
    65
 73
     4
 40
10.0
 49
5.0
 74
     0
 49
-2.5
 74
     0
 49
0.0
 74
     0
 49
-2.5
 74
     0
  0
LTYPE
  5
4B0
100
AcDbSymbolTableRecord
100
AcDbLinetypeTableRecord
  2
CENTER
 70
    64
  3
 ____ _ ____ _ ____ _ ____ _ ____ _ ____ _ ____
 72
    65
 73
     4
 40
20.0
 49
12.5
 74
     0
 49
-2.5
 74
     0
 49
2.5
 74
     0
 49
-2.5
 74
     0
  0
LTYPE
  5
4B1
100
AcDbSymbolTableRecord
100
AcDbLinetypeTableRecord
  2
DASHEDX2
 70
    64
  3
____  ____  ____  ____  ____  ____  ____  ____
 72
    65
 73
     2
 40
3.75
 49
2.5
 74
     0
 49
-1.25
 74
     0
  0
LTYPE
  5
4B2
100
AcDbSymbolTableRecord
100
AcDbLinetypeTableRecord
  2
CADWORK_22
 70
    64
  3
22 =======================================
 72
    65
 73
     0
 40
0.0
  0
LTYPE
  5
4B3
100
AcDbSymbolTableRecord
100
AcDbLinetypeTableRecord
  2
DAL
 70
    64
  3
Solid line (for MAPS)
 72
    65
 73
     0
 40
0.0
  0
LTYPE
  5
4B4
100
AcDbSymbolTableRecord
100
AcDbLinetypeTableRecord
  2
MUR
 70
    64
  3
Solid line (for MAPS)
 72
    65
 73
     0
 40
0.0
  0
LTYPE
  5
4B5
100
AcDbSymbolTableRecord
100
AcDbLinetypeTableRecord
  2
SOM
 70
    64
  3
Solid line (for MAPS)
 72
    65
 73
     0
 40
0.0
  0
LTYPE
  5
4B6
100
AcDbSymbolTableRecord
100
AcDbLinetypeTableRecord
  2
COL
 70
    64
  3
Solid line (for MAPS)
 72
    65
 73
     0
 40
0.0
  0
LTYPE
  5
4B7
100
AcDbSymbolTableRecord
100
AcDbLinetypeTableRecord
  2
LGN
 70
    64
  3
Solid line (for MAPS)
 72
    65
 73
     0
 40
0.0
  0
LTYPE
  5
4B8
100
AcDbSymbolTableRecord
100
AcDbLinetypeTableRecord
  2
PNT
 70
    64
  3
Solid line (for MAPS)
 72
    65
 73
     0
 40
0.0
  0
ENDTAB
  0
TABLE
  2
LAYER
  5
4B9
100
AcDbSymbolTable
 70
    32
  0
LAYER
  5
4BA
100
AcDbSymbolTableRecord
100
AcDbLayerTableRecord
  2
Standard
 70
     0
 62
     7
  6
CONTINUOUS
370
    -3
  0
LAYER
  5
4BB
100
AcDbSymbolTableRecord
100
AcDbLayerTableRecord
  2
Ech.1_1
 70
     0
 62
     7
  6
CONTINUOUS
370
    -3
  0
LAYER
  5
4BC
100
AcDbSymbolTableRecord
100
AcDbLayerTableRecord
  2
Ech.1_2
 70
     0
 62
     7
  6
CONTINUOUS
370
    -3
  0
LAYER
  5
4BD
100
AcDbSymbolTableRecord
100
AcDbLayerTableRecord
  2
Ech.1_5
 70
     0
 62
     7
  6
CONTINUOUS
370
    -3
  0
LAYER
  5
4BE
100
AcDbSymbolTableRecord
100
AcDbLayerTableRecord
  2
Ech.1_10
 70
     0
 62
     7
  6
CONTINUOUS
370
    -3
  0
LAYER
  5
4BF
100
AcDbSymbolTableRecord
100
AcDbLayerTableRecord
  2
Ech.1_20
 70
     0
 62
     7
  6
CONTINUOUS
370
    -3
  0
LAYER
  5
4C0
100
AcDbSymbolTableRecord
100
AcDbLayerTableRecord
  2
Ech.1_25
 70
     0
 62
     7
  6
CONTINUOUS
370
    -3
  0
LAYER
  5
4C1
100
AcDbSymbolTableRecord
100
AcDbLayerTableRecord
  2
Ech.1_33
 70
     0
 62
     7
  6
CONTINUOUS
370
    -3
  0
LAYER
  5
4C2
100
AcDbSymbolTableRecord
100
AcDbLayerTableRecord
  2
Ech.1_50
 70
     0
 62
     7
  6
CONTINUOUS
370
    -3
  0
LAYER
  5
4C3
100
AcDbSymbolTableRecord
100
AcDbLayerTableRecord
  2
Ech.1_75
 70
     0
 62
     7
  6
CONTINUOUS
370
    -3
  0
LAYER
  5
4C4
100
AcDbSymbolTableRecord
100
AcDbLayerTableRecord
  2
Ech.1_100
 70
     0
 62
     7
  6
CONTINUOUS
370
    -3
  0
LAYER
  5
4C5
100
AcDbSymbolTableRecord
100
AcDbLayerTableRecord
  2
Ech.1_200
 70
     0
 62
     7
  6
CONTINUOUS
370
    -3
  0
LAYER
  5
4C6
100
AcDbSymbolTableRecord
100
AcDbLayerTableRecord
  2
Ech.1_500
 70
     0
 62
     7
  6
CONTINUOUS
370
    -3
  0
LAYER
  5
4C7
100
AcDbSymbolTableRecord
100
AcDbLayerTableRecord
  2
Ech.1_1000
 70
     0
 62
     7
  6
CONTINUOUS
370
    -3
  0
LAYER
  5
4C8
100
AcDbSymbolTableRecord
100
AcDbLayerTableRecord
  2
Cadres traceur
 70
     0
 62
     7
  6
CONTINUOUS
370
    18
  0
LAYER
  5
4C9
100
AcDbSymbolTableRecord
100
AcDbLayerTableRecord
  2
Cadres laser
 70
     0
 62
     7
  6
CONTINUOUS
370
    18
  0
LAYER
  5
4CA
100
AcDbSymbolTableRecord
100
AcDbLayerTableRecord
  2
Légende d_aide
 70
     0
 62
     7
  6
CONTINUOUS
370
    18
  0
LAYER
  5
4CB
100
AcDbSymbolTableRecord
100
AcDbLayerTableRecord
  2
hachures ok
 70
     0
 62
     7
  6
CONTINUOUS
370
    18
  0
LAYER
  5
4CC
100
AcDbSymbolTableRecord
100
AcDbLayerTableRecord
  2
ossature bois
 70
     0
 62
     7
  6
CONTINUOUS
370
    18
  0
LAYER
  5
4CD
100
AcDbSymbolTableRecord
100
AcDbLayerTableRecord
  2
VR
 70
     0
 62
     7
  6
CONTINUOUS
370
    25
  0
LAYER
  5
4CE
100
AcDbSymbolTableRecord
100
AcDbLayerTableRecord
  2
Calque1
 70
     0
 62
     7
  6
CONTINUOUS
370
     9
  0
LAYER
  5
4CF
100
AcDbSymbolTableRecord
100
AcDbLayerTableRecord
  2
0
 70
     0
 62
     7
  6
CONTINUOUS
370
    -3
  0
LAYER
  5
4D0
100
AcDbSymbolTableRecord
100
AcDbLayerTableRecord
  2
menuiserie
 70
     0
 62
     7
  6
CONTINUOUS
370
    -3
  0
LAYER
  5
4D1
100
AcDbSymbolTableRecord
100
AcDbLayerTableRecord
  2
cotation
 70
     0
 62
   250
  6
CONTINUOUS
370
     9
  0
LAYER
  5
4D2
100
AcDbSymbolTableRecord
100
AcDbLayerTableRecord
  2
Defpoints
 70
     0
 62
    10
  6
CONTINUOUS
370
    -3
  0
LAYER
  5
4D3
100
AcDbSymbolTableRecord
100
AcDbLayerTableRecord
  2
HACHURE
 70
     0
 62
   254
  6
CONTINUOUS
370
    25
  0
LAYER
  5
4D4
100
AcDbSymbolTableRecord
100
AcDbLayerTableRecord
  2
mat1
 70
     0
 62
     7
  6
CONTINUOUS
370
    30
  0
LAYER
  5
4D5
100
AcDbSymbolTableRecord
100
AcDbLayerTableRecord
  2
mat2
 70
     0
 62
     7
  6
CONTINUOUS
370
     5
  0
LAYER
  5
4D6
100
AcDbSymbolTableRecord
100
AcDbLayerTableRecord
  2
hach
 70
     0
 62
     8
  6
CONTINUOUS
370
     5
  0
LAYER
  5
4D7
100
AcDbSymbolTableRecord
100
AcDbLayerTableRecord
  2
menuiseries
 70
     0
 62
     7
  6
CONTINUOUS
370
     9
  0
LAYER
  5
4D8
100
AcDbSymbolTableRecord
100
AcDbLayerTableRecord
  2
BétonMétal
 70
     0
 62
     7
  6
CONTINUOUS
370
    80
  0
LAYER
  5
4D9
100
AcDbSymbolTableRecord
100
AcDbLayerTableRecord
  2
bois
 70
     0
 62
     7
  6
CONTINUOUS
370
    60
  0
ENDTAB
  0
TABLE
  2
VIEW
  5
4DA
100
AcDbSymbolTable
 70
     0
  0
ENDTAB
  0
TABLE
  2
UCS
  5
4DB
100
AcDbSymbolTable
 70
     0
  0
ENDTAB
  0
TABLE
  2
APPID
  5
4DC
100
AcDbSymbolTable
 70
     1
  0
APPID
  5
4DD
100
AcDbSymbolTableRecord
100
AcDbRegAppTableRecord
  2
ACAD
 70
     0
  0
ENDTAB
  0
TABLE
  2
DIMSTYLE
  5
4DE
100
AcDbSymbolTable
 70
     0
  0
ENDTAB
  0
TABLE
  2
BLOCK_RECORD
  5
4DF
100
AcDbSymbolTable
 70
     0
  0
BLOCK_RECORD
  5
4E0
100
AcDbSymbolTableRecord
100
AcDbBlockTableRecord
  2
*MODEL_SPACE
  0
BLOCK_RECORD
  5
4E1
100
AcDbSymbolTableRecord
100
AcDbBlockTableRecord
  2
*PAPER_SPACE
  0
BLOCK_RECORD
  5
4E2
100
AcDbSymbolTableRecord
100
AcDbBlockTableRecord
  2
CDWK_EXTR_0
  0
BLOCK_RECORD
  5
4E3
100
AcDbSymbolTableRecord
100
AcDbBlockTableRecord
  2
CDWK_EXTR_1D
  0
BLOCK_RECORD
  5
4E4
100
AcDbSymbolTableRecord
100
AcDbBlockTableRecord
  2
CDWK_EXTR_1G
  0
BLOCK_RECORD
  5
4E5
100
AcDbSymbolTableRecord
100
AcDbBlockTableRecord
  2
CDWK_EXTR_2
  0
BLOCK_RECORD
  5
4E6
100
AcDbSymbolTableRecord
100
AcDbBlockTableRecord
  2
CDWK_EXTR_3
  0
BLOCK_RECORD
  5
4E7
100
AcDbSymbolTableRecord
100
AcDbBlockTableRecord
  2
CDWK_EXTR_4
  0
BLOCK_RECORD
  5
4E8
100
AcDbSymbolTableRecord
100
AcDbBlockTableRecord
  2
CDWK_PTTYP0
  0
BLOCK_RECORD
  5
4E9
100
AcDbSymbolTableRecord
100
AcDbBlockTableRecord
  2
CDWK_PTTYP1
  0
BLOCK_RECORD
  5
4EA
100
AcDbSymbolTableRecord
100
AcDbBlockTableRecord
  2
CDWK_PTTYP2
  0
BLOCK_RECORD
  5
4EB
100
AcDbSymbolTableRecord
100
AcDbBlockTableRecord
  2
CDWK_PTTYP3
  0
BLOCK_RECORD
  5
4EC
100
AcDbSymbolTableRecord
100
AcDbBlockTableRecord
  2
CDWK_PTTYP4
  0
BLOCK_RECORD
  5
4ED
100
AcDbSymbolTableRecord
100
AcDbBlockTableRecord
  2
CDWK_PTTYP5
  0
BLOCK_RECORD
  5
4EE
100
AcDbSymbolTableRecord
100
AcDbBlockTableRecord
  2
CDWK_PTTYP6
  0
BLOCK_RECORD
  5
4EF
100
AcDbSymbolTableRecord
100
AcDbBlockTableRecord
  2
CDWK_PTTYP7
  0
BLOCK_RECORD
  5
4F0
100
AcDbSymbolTableRecord
100
AcDbBlockTableRecord
  2
CDWK_PTTYP8
  0
BLOCK_RECORD
  5
4F1
100
AcDbSymbolTableRecord
100
AcDbBlockTableRecord
  2
CDWK_PTTYP9
  0
BLOCK_RECORD
  5
4F2
100
AcDbSymbolTableRecord
100
AcDbBlockTableRecord
  2
CDWK_PTTYP10
  0
BLOCK_RECORD
  5
4F3
100
AcDbSymbolTableRecord
100
AcDbBlockTableRecord
  2
CDWK_PTTYP11
  0
BLOCK_RECORD
  5
4F4
100
AcDbSymbolTableRecord
100
AcDbBlockTableRecord
  2
CDWK_PTTYP12
  0
BLOCK_RECORD
  5
4F5
100
AcDbSymbolTableRecord
100
AcDbBlockTableRecord
  2
CDWK_PTTYP13
  0
BLOCK_RECORD
  5
4F6
100
AcDbSymbolTableRecord
100
AcDbBlockTableRecord
  2
CDWK_PTTYP14
  0
BLOCK_RECORD
  5
4F7
100
AcDbSymbolTableRecord
100
AcDbBlockTableRecord
  2
CDWK_PTTYP15
  0
BLOCK_RECORD
  5
4F8
100
AcDbSymbolTableRecord
100
AcDbBlockTableRecord
  2
CDWK_PTTYP16
  0
BLOCK_RECORD
  5
4F9
100
AcDbSymbolTableRecord
100
AcDbBlockTableRecord
  2
CDWK_PTTYP17
  0
BLOCK_RECORD
  5
4FA
100
AcDbSymbolTableRecord
100
AcDbBlockTableRecord
  2
CDWK_PTTYP18
  0
BLOCK_RECORD
  5
4FB
100
AcDbSymbolTableRecord
100
AcDbBlockTableRecord
  2
CDWK_PTTYP19
  0
BLOCK_RECORD
  5
4FC
100
AcDbSymbolTableRecord
100
AcDbBlockTableRecord
  2
CDWK_PTTYP20
  0
BLOCK_RECORD
  5
4FD
100
AcDbSymbolTableRecord
100
AcDbBlockTableRecord
  2
CDWK_PTTYP21
  0
BLOCK_RECORD
  5
4FE
100
AcDbSymbolTableRecord
100
AcDbBlockTableRecord
  2
CDWK_PTTYP22
  0
BLOCK_RECORD
  5
4FF
100
AcDbSymbolTableRecord
100
AcDbBlockTableRecord
  2
CDWK_PTTYP23
  0
BLOCK_RECORD
  5
500
100
AcDbSymbolTableRecord
100
AcDbBlockTableRecord
  2
CDWK_PTTYP24
  0
BLOCK_RECORD
  5
501
100
AcDbSymbolTableRecord
100
AcDbBlockTableRecord
  2
CDWK_PTTYP25
  0
BLOCK_RECORD
  5
502
100
AcDbSymbolTableRecord
100
AcDbBlockTableRecord
  2
CDWK_PTTYP26
  0
BLOCK_RECORD
  5
503
100
AcDbSymbolTableRecord
100
AcDbBlockTableRecord
  2
CDWK_PTTYP27
  0
BLOCK_RECORD
  5
504
100
AcDbSymbolTableRecord
100
AcDbBlockTableRecord
  2
CDWK_PTTYP28
  0
BLOCK_RECORD
  5
505
100
AcDbSymbolTableRecord
100
AcDbBlockTableRecord
  2
CDWK_PTTYP29
  0
BLOCK_RECORD
  5
506
100
AcDbSymbolTableRecord
100
AcDbBlockTableRecord
  2
CDWK_PTTYP30
  0
BLOCK_RECORD
  5
507
100
AcDbSymbolTableRecord
100
AcDbBlockTableRecord
  2
CDWK_PTTYP31
  0
BLOCK_RECORD
  5
508
100
AcDbSymbolTableRecord
100
AcDbBlockTableRecord
  2
CDWK_PTTYP32
  0
BLOCK_RECORD
  5
509
100
AcDbSymbolTableRecord
100
AcDbBlockTableRecord
  2
CDWK_PTTYP33
  0
BLOCK_RECORD
  5
50A
100
AcDbSymbolTableRecord
100
AcDbBlockTableRecord
  2
CDWK_PTTYP34
  0
BLOCK_RECORD
  5
50B
100
AcDbSymbolTableRecord
100
AcDbBlockTableRecord
  2
CDWK_PTTYP35
  0
BLOCK_RECORD
  5
50C
100
AcDbSymbolTableRecord
100
AcDbBlockTableRecord
  2
CDWK_PTTYP36
  0
BLOCK_RECORD
  5
50D
100
AcDbSymbolTableRecord
100
AcDbBlockTableRecord
  2
CDWK_PTTYP37
  0
BLOCK_RECORD
  5
50E
100
AcDbSymbolTableRecord
100
AcDbBlockTableRecord
  2
CDWK_PTTYP38
  0
ENDTAB
  0
ENDSEC
  0
SECTION
  2
BLOCKS
  0
BLOCK
  5
50F
100
AcDbEntity
  8
0
100
AcDbBlockBegin
  2
*MODEL_SPACE
 70
     0
 10
0.0
 20
0.0
 30
0.0
  3
*MODEL_SPACE
  1

  0
ENDBLK
  5
510
100
AcDbEntity
100
AcDbBlockEnd
  0
BLOCK
  5
511
100
AcDbEntity
  8
0
100
AcDbBlockBegin
  2
*PAPER_SPACE
 70
     0
 10
0.0
 20
0.0
 30
0.0
  3
*PAPER_SPACE
  1

  0
ENDBLK
  5
512
100
AcDbEntity
100
AcDbBlockEnd
  0
BLOCK
  5
513
100
AcDbEntity
  8
0
100
AcDbBlockBegin
  2
CDWK_EXTR_0
 70
     0
 10
0.0
 20
0.0
 30
0.0
  3
CDWK_EXTR_0
  1

  4
Cadwork line-extremity
  0
LINE
  5
514
100
AcDbEntity
  8
0
 62
     0
370
    -2
100
AcDbLine
 10
0.0
 20
0.0
 30
0.0
 11
2.0
 21
0.5
 31
0.0
  0
LINE
  5
515
100
AcDbEntity
  8
0
 62
     0
370
    -2
100
AcDbLine
 10
0.0
 20
0.0
 30
0.0
 11
2.0
 21
-0.5
 31
0.0
  0
LINE
  5
516
100
AcDbEntity
  8
0
 62
     0
370
    -2
100
AcDbLine
 10
2.0
 20
0.5
 30
0.0
 11
2.0
 21
-0.5
 31
0.0
  0
ENDBLK
  5
517
100
AcDbEntity
100
AcDbBlockEnd
  0
BLOCK
  5
518
100
AcDbEntity
  8
0
100
AcDbBlockBegin
  2
CDWK_EXTR_1D
 70
     0
 10
0.0
 20
0.0
 30
0.0
  3
CDWK_EXTR_1D
  1

  4
Cadwork line-extremity
  0
LINE
  5
519
100
AcDbEntity
  8
0
 62
     0
370
    -2
100
AcDbLine
 10
0.0
 20
0.0
 30
0.0
 11
0.0
 21
1.0
 31
0.0
  0
LINE
  5
51A
100
AcDbEntity
  8
0
 62
     0
370
    -2
100
AcDbLine
 10
0.0
 20
1.0
 30
0.0
 11
0.5
 21
1.5
 31
0.0
  0
LINE
  5
51B
100
AcDbEntity
  8
0
 62
     0
370
    -2
100
AcDbLine
 10
0.5
 20
1.5
 30
0.0
 11
1.5
 21
1.5
 31
0.0
  0
ENDBLK
  5
51C
100
AcDbEntity
100
AcDbBlockEnd
  0
BLOCK
  5
51D
100
AcDbEntity
  8
0
100
AcDbBlockBegin
  2
CDWK_EXTR_1G
 70
     0
 10
0.0
 20
0.0
 30
0.0
  3
CDWK_EXTR_1G
  1

  4
Cadwork line-extremity
  0
LINE
  5
51E
100
AcDbEntity
  8
0
 62
     0
370
    -2
100
AcDbLine
 10
0.0
 20
0.0
 30
0.0
 11
0.0
 21
-1.0
 31
0.0
  0
LINE
  5
51F
100
AcDbEntity
  8
0
 62
     0
370
    -2
100
AcDbLine
 10
0.0
 20
-1.0
 30
0.0
 11
0.5
 21
-1.5
 31
0.0
  0
LINE
  5
520
100
AcDbEntity
  8
0
 62
     0
370
    -2
100
AcDbLine
 10
0.5
 20
-1.5
 30
0.0
 11
1.5
 21
-1.5
 31
0.0
  0
ENDBLK
  5
521
100
AcDbEntity
100
AcDbBlockEnd
  0
BLOCK
  5
522
100
AcDbEntity
  8
0
100
AcDbBlockBegin
  2
CDWK_EXTR_2
 70
     0
 10
0.0
 20
0.0
 30
0.0
  3
CDWK_EXTR_2
  1

  4
Cadwork line-extremity
  0
SOLID
  5
523
100
AcDbEntity
  8
0
 62
     0
100
AcDbTrace
 10
0.0
 20
0.0
 11
2.0
 21
0.5
 12
2.0
 22
-0.5
 13
2.0
 23
-0.5
  0
ENDBLK
  5
524
100
AcDbEntity
100
AcDbBlockEnd
  0
BLOCK
  5
525
100
AcDbEntity
  8
0
100
AcDbBlockBegin
  2
CDWK_EXTR_3
 70
     0
 10
0.0
 20
0.0
 30
0.0
  3
CDWK_EXTR_3
  1

  4
Cadwork line-extremity
  0
SOLID
  5
526
100
AcDbEntity
  8
0
 62
     0
100
AcDbTrace
 10
0.0
 20
0.0
 11
2.0
 21
0.5
 12
2.0
 22
-0.5
 13
2.0
 23
-0.5
  0
LINE
  5
527
100
AcDbEntity
  8
0
 62
     0
370
    -2
100
AcDbLine
 10
0.0
 20
1.0
 30
0.0
 11
0.0
 21
-1.0
 31
0.0
  0
ENDBLK
  5
528
100
AcDbEntity
100
AcDbBlockEnd
  0
BLOCK
  5
529
100
AcDbEntity
  8
0
100
AcDbBlockBegin
  2
CDWK_EXTR_4
 70
     0
 10
0.0
 20
0.0
 30
0.0
  3
CDWK_EXTR_4
  1

  4
Cadwork line-extremity
  0
HATCH
  5
52A
100
AcDbEntity
  8
0
 62
     0
370
    -2
100
AcDbHatch
 10
0.0
 20
0.0
 30
0.0
210
0.0
220
0.0
230
1.0
  2
SOLID
 70
     1
 71
     0
 91
        1
 92
        1
 93
        1
 72
     2
 10
0.0
 20
0.0
 40
0.5
 50
0.0
 51
360.0
 73
     1
 97
        0
 75
     0
 76
     1
 98
        1
 10
0.0
 20
0.0
  0
ENDBLK
  5
52B
100
AcDbEntity
100
AcDbBlockEnd
  0
BLOCK
  5
52C
100
AcDbEntity
  8
0
100
AcDbBlockBegin
  2
CDWK_PTTYP0
 70
     0
 10
0.0
 20
0.0
 30
0.0
  3
CDWK_PTTYP0
  1

  4
Cadwork point
  0
POINT
  5
52D
100
AcDbEntity
  8
0
 62
     0
100
AcDbPoint
 10
0.0
 20
0.0
 30
0.0
  0
ENDBLK
  5
52E
100
AcDbEntity
100
AcDbBlockEnd
  0
BLOCK
  5
52F
100
AcDbEntity
  8
0
100
AcDbBlockBegin
  2
CDWK_PTTYP1
 70
     0
 10
0.0
 20
0.0
 30
0.0
  3
CDWK_PTTYP1
  1

  4
Cadwork node
  0
LINE
  5
530
100
AcDbEntity
  8
0
 62
     0
370
    -2
100
AcDbLine
 10
-0.5
 20
0.5
 30
0.0
 11
0.5
 21
0.5
 31
0.0
  0
LINE
  5
531
100
AcDbEntity
  8
0
 62
     0
370
    -2
100
AcDbLine
 10
0.5
 20
0.5
 30
0.0
 11
0.5
 21
-0.5
 31
0.0
  0
LINE
  5
532
100
AcDbEntity
  8
0
 62
     0
370
    -2
100
AcDbLine
 10
0.5
 20
-0.5
 30
0.0
 11
-0.5
 21
-0.5
 31
0.0
  0
LINE
  5
533
100
AcDbEntity
  8
0
 62
     0
370
    -2
100
AcDbLine
 10
-0.5
 20
-0.5
 30
0.0
 11
-0.5
 21
0.5
 31
0.0
  0
ENDBLK
  5
534
100
AcDbEntity
100
AcDbBlockEnd
  0
BLOCK
  5
535
100
AcDbEntity
  8
0
100
AcDbBlockBegin
  2
CDWK_PTTYP2
 70
     0
 10
0.0
 20
0.0
 30
0.0
  3
CDWK_PTTYP2
  1

  4
Cadwork node
  0
LINE
  5
536
100
AcDbEntity
  8
0
 62
     0
370
    -2
100
AcDbLine
 10
0.0
 20
0.5
 30
0.0
 11
0.0
 21
-0.5
 31
0.0
  0
LINE
  5
537
100
AcDbEntity
  8
0
 62
     0
370
    -2
100
AcDbLine
 10
-0.5
 20
0.0
 30
0.0
 11
0.5
 21
0.0
 31
0.0
  0
ENDBLK
  5
538
100
AcDbEntity
100
AcDbBlockEnd
  0
BLOCK
  5
539
100
AcDbEntity
  8
0
100
AcDbBlockBegin
  2
CDWK_PTTYP3
 70
     0
 10
0.0
 20
0.0
 30
0.0
  3
CDWK_PTTYP3
  1

  4
Cadwork node
  0
CIRCLE
  5
53A
100
AcDbEntity
  8
0
 62
     0
370
    -2
100
AcDbCircle
 10
0.0
 20
0.0
 30
0.0
 40
0.5
  0
ENDBLK
  5
53B
100
AcDbEntity
100
AcDbBlockEnd
  0
BLOCK
  5
53C
100
AcDbEntity
  8
0
100
AcDbBlockBegin
  2
CDWK_PTTYP4
 70
     0
 10
0.0
 20
0.0
 30
0.0
  3
CDWK_PTTYP4
  1

  4
Cadwork node
  0
HATCH
  5
53D
100
AcDbEntity
  8
0
 62
     0
370
    -2
100
AcDbHatch
 10
0.0
 20
0.0
 30
0.0
210
0.0
220
0.0
230
1.0
  2
SOLID
 70
     1
 71
     0
 91
        1
 92
        1
 93
        1
 72
     2
 10
0.0
 20
0.0
 40
0.5
 50
0.0
 51
360.0
 73
     1
 97
        0
 75
     0
 76
     1
 98
        1
 10
0.0
 20
0.0
  0
ENDBLK
  5
53E
100
AcDbEntity
100
AcDbBlockEnd
  0
BLOCK
  5
53F
100
AcDbEntity
  8
0
100
AcDbBlockBegin
  2
CDWK_PTTYP5
 70
     0
 10
0.0
 20
0.0
 30
0.0
  3
CDWK_PTTYP5
  1

  4
Cadwork node
  0
LINE
  5
540
100
AcDbEntity
  8
0
 62
     0
370
    -2
100
AcDbLine
 10
-0.5
 20
0.5
 30
0.0
 11
0.5
 21
0.5
 31
0.0
  0
LINE
  5
541
100
AcDbEntity
  8
0
 62
     0
370
    -2
100
AcDbLine
 10
0.5
 20
0.5
 30
0.0
 11
0.5
 21
-0.5
 31
0.0
  0
LINE
  5
542
100
AcDbEntity
  8
0
 62
     0
370
    -2
100
AcDbLine
 10
0.5
 20
-0.5
 30
0.0
 11
-0.5
 21
-0.5
 31
0.0
  0
LINE
  5
543
100
AcDbEntity
  8
0
 62
     0
370
    -2
100
AcDbLine
 10
-0.5
 20
-0.5
 30
0.0
 11
-0.5
 21
0.5
 31
0.0
  0
SOLID
  5
544
100
AcDbEntity
  8
0
 62
     0
100
AcDbTrace
 10
-0.5
 20
-0.5
 11
-0.5
 21
0.0
 12
0.0
 22
-0.5
 13
0.0
 23
0.0
  0
SOLID
  5
545
100
AcDbEntity
  8
0
 62
     0
100
AcDbTrace
 10
0.0
 20
0.0
 11
0.0
 21
0.5
 12
0.5
 22
0.0
 13
0.5
 23
0.5
  0
ENDBLK
  5
546
100
AcDbEntity
100
AcDbBlockEnd
  0
BLOCK
  5
547
100
AcDbEntity
  8
0
100
AcDbBlockBegin
  2
CDWK_PTTYP6
 70
     0
 10
0.0
 20
0.0
 30
0.0
  3
CDWK_PTTYP6
  1

  4
Cadwork node
  0
LINE
  5
548
100
AcDbEntity
  8
0
 62
     0
370
    -2
100
AcDbLine
 10
-0.5
 20
0.5
 30
0.0
 11
0.5
 21
0.5
 31
0.0
  0
LINE
  5
549
100
AcDbEntity
  8
0
 62
     0
370
    -2
100
AcDbLine
 10
0.5
 20
0.5
 30
0.0
 11
0.5
 21
-0.5
 31
0.0
  0
LINE
  5
54A
100
AcDbEntity
  8
0
 62
     0
370
    -2
100
AcDbLine
 10
0.5
 20
-0.5
 30
0.0
 11
-0.5
 21
-0.5
 31
0.0
  0
LINE
  5
54B
100
AcDbEntity
  8
0
 62
     0
370
    -2
100
AcDbLine
 10
-0.5
 20
-0.5
 30
0.0
 11
-0.5
 21
0.5
 31
0.0
  0
SOLID
  5
54C
100
AcDbEntity
  8
0
 62
     0
100
AcDbTrace
 10
-0.5
 20
-0.5
 11
-0.5
 21
0.5
 12
0.5
 22
0.5
 13
0.5
 23
0.5
  0
ENDBLK
  5
54D
100
AcDbEntity
100
AcDbBlockEnd
  0
BLOCK
  5
54E
100
AcDbEntity
  8
0
100
AcDbBlockBegin
  2
CDWK_PTTYP7
 70
     0
 10
0.0
 20
0.0
 30
0.0
  3
CDWK_PTTYP7
  1

  4
Cadwork node
  0
LINE
  5
54F
100
AcDbEntity
  8
0
 62
     0
370
    -2
100
AcDbLine
 10
-0.5
 20
0.5
 30
0.0
 11
0.5
 21
0.5
 31
0.0
  0
LINE
  5
550
100
AcDbEntity
  8
0
 62
     0
370
    -2
100
AcDbLine
 10
0.5
 20
0.5
 30
0.0
 11
0.5
 21
-0.5
 31
0.0
  0
LINE
  5
551
100
AcDbEntity
  8
0
 62
     0
370
    -2
100
AcDbLine
 10
0.5
 20
-0.5
 30
0.0
 11
-0.5
 21
-0.5
 31
0.0
  0
LINE
  5
552
100
AcDbEntity
  8
0
 62
     0
370
    -2
100
AcDbLine
 10
-0.5
 20
-0.5
 30
0.0
 11
-0.5
 21
0.5
 31
0.0
  0
LINE
  5
553
100
AcDbEntity
  8
0
 62
     0
370
    -2
100
AcDbLine
 10
0.0
 20
0.5
 30
0.0
 11
0.0
 21
-0.5
 31
0.0
  0
LINE
  5
554
100
AcDbEntity
  8
0
 62
     0
370
    -2
100
AcDbLine
 10
-0.5
 20
0.0
 30
0.0
 11
0.5
 21
0.0
 31
0.0
  0
ENDBLK
  5
555
100
AcDbEntity
100
AcDbBlockEnd
  0
BLOCK
  5
556
100
AcDbEntity
  8
0
100
AcDbBlockBegin
  2
CDWK_PTTYP8
 70
     0
 10
0.0
 20
0.0
 30
0.0
  3
CDWK_PTTYP8
  1

  4
Cadwork node
  0
SOLID
  5
557
100
AcDbEntity
  8
0
 62
     0
100
AcDbTrace
 10
-0.5
 20
0.5
 11
0.5
 21
0.5
 12
-0.5
 22
-0.5
 13
0.5
 23
-0.5
  0
ENDBLK
  5
558
100
AcDbEntity
100
AcDbBlockEnd
  0
BLOCK
  5
559
100
AcDbEntity
  8
0
100
AcDbBlockBegin
  2
CDWK_PTTYP9
 70
     0
 10
0.0
 20
0.0
 30
0.0
  3
CDWK_PTTYP9
  1

  4
Cadwork node
  0
CIRCLE
  5
55A
100
AcDbEntity
  8
0
 62
     0
370
    -2
100
AcDbCircle
 10
0.0
 20
0.0
 30
0.0
 40
0.5
  0
CIRCLE
  5
55B
100
AcDbEntity
  8
0
 62
     0
370
    -2
100
AcDbCircle
 10
0.0
 20
0.0
 30
0.0
 40
0.16666667
  0
ENDBLK
  5
55C
100
AcDbEntity
100
AcDbBlockEnd
  0
BLOCK
  5
55D
100
AcDbEntity
  8
0
100
AcDbBlockBegin
  2
CDWK_PTTYP10
 70
     0
 10
0.0
 20
0.0
 30
0.0
  3
CDWK_PTTYP10
  1

  4
Cadwork node
  0
CIRCLE
  5
55E
100
AcDbEntity
  8
0
 62
     0
370
    -2
100
AcDbCircle
 10
0.0
 20
0.0
 30
0.0
 40
0.5
  0
ENDBLK
  5
55F
100
AcDbEntity
100
AcDbBlockEnd
  0
BLOCK
  5
560
100
AcDbEntity
  8
0
100
AcDbBlockBegin
  2
CDWK_PTTYP11
 70
     0
 10
0.0
 20
0.0
 30
0.0
  3
CDWK_PTTYP11
  1

  4
Cadwork node
  0
CIRCLE
  5
561
100
AcDbEntity
  8
0
 62
     0
370
    -2
100
AcDbCircle
 10
0.0
 20
0.0
 30
0.0
 40
0.5
  0
CIRCLE
  5
562
100
AcDbEntity
  8
0
 62
     0
370
    -2
100
AcDbCircle
 10
0.0
 20
0.0
 30
0.0
 40
0.25
  0
ENDBLK
  5
563
100
AcDbEntity
100
AcDbBlockEnd
  0
BLOCK
  5
564
100
AcDbEntity
  8
0
100
AcDbBlockBegin
  2
CDWK_PTTYP12
 70
     0
 10
0.0
 20
0.0
 30
0.0
  3
CDWK_PTTYP12
  1

  4
Cadwork node
  0
CIRCLE
  5
565
100
AcDbEntity
  8
0
 62
     0
370
    -2
100
AcDbCircle
 10
0.0
 20
0.0
 30
0.0
 40
0.5
  0
CIRCLE
  5
566
100
AcDbEntity
  8
0
 62
     0
370
    -2
100
AcDbCircle
 10
0.25
 20
0.0
 30
0.0
 40
0.25
  0
ENDBLK
  5
567
100
AcDbEntity
100
AcDbBlockEnd
  0
BLOCK
  5
568
100
AcDbEntity
  8
0
100
AcDbBlockBegin
  2
CDWK_PTTYP13
 70
     0
 10
0.0
 20
0.0
 30
0.0
  3
CDWK_PTTYP13
  1

  4
Cadwork node
  0
CIRCLE
  5
569
100
AcDbEntity
  8
0
 62
     0
370
    -2
100
AcDbCircle
 10
0.0
 20
0.0
 30
0.0
 40
0.5
  0
CIRCLE
  5
56A
100
AcDbEntity
  8
0
 62
     0
370
    -2
100
AcDbCircle
 10
0.25
 20
0.0
 30
0.0
 40
0.25
  0
CIRCLE
  5
56B
100
AcDbEntity
  8
0
 62
     0
370
    -2
100
AcDbCircle
 10
-0.25
 20
0.0
 30
0.0
 40
0.25
  0
ENDBLK
  5
56C
100
AcDbEntity
100
AcDbBlockEnd
  0
BLOCK
  5
56D
100
AcDbEntity
  8
0
100
AcDbBlockBegin
  2
CDWK_PTTYP14
 70
     0
 10
0.0
 20
0.0
 30
0.0
  3
CDWK_PTTYP14
  1

  4
Cadwork node
  0
POINT
  5
56E
100
AcDbEntity
  8
0
 62
     0
100
AcDbPoint
 10
0.0
 20
0.0
 30
0.0
  0
ENDBLK
  5
56F
100
AcDbEntity
100
AcDbBlockEnd
  0
BLOCK
  5
570
100
AcDbEntity
  8
0
100
AcDbBlockBegin
  2
CDWK_PTTYP15
 70
     0
 10
0.0
 20
0.0
 30
0.0
  3
CDWK_PTTYP15
  1

  4
Cadwork node
  0
POINT
  5
571
100
AcDbEntity
  8
0
 62
     0
100
AcDbPoint
 10
0.0
 20
0.0
 30
0.0
  0
ENDBLK
  5
572
100
AcDbEntity
100
AcDbBlockEnd
  0
BLOCK
  5
573
100
AcDbEntity
  8
0
100
AcDbBlockBegin
  2
CDWK_PTTYP16
 70
     0
 10
0.0
 20
0.0
 30
0.0
  3
CDWK_PTTYP16
  1

  4
Cadwork node
  0
LINE
  5
574
100
AcDbEntity
  8
0
 62
     0
370
    -2
100
AcDbLine
 10
-0.5
 20
-0.28867513
 30
0.0
 11
0.5
 21
-0.28867513
 31
0.0
  0
LINE
  5
575
100
AcDbEntity
  8
0
 62
     0
370
    -2
100
AcDbLine
 10
0.5
 20
-0.28867513
 30
0.0
 11
0.0
 21
0.57735027
 31
0.0
  0
LINE
  5
576
100
AcDbEntity
  8
0
 62
     0
370
    -2
100
AcDbLine
 10
0.0
 20
0.57735027
 30
0.0
 11
-0.5
 21
-0.28867513
 31
0.0
  0
CIRCLE
  5
577
100
AcDbEntity
  8
0
 62
     0
370
    -2
100
AcDbCircle
 10
0.0
 20
0.0
 30
0.0
 40
0.28867513
  0
ENDBLK
  5
578
100
AcDbEntity
100
AcDbBlockEnd
  0
BLOCK
  5
579
100
AcDbEntity
  8
0
100
AcDbBlockBegin
  2
CDWK_PTTYP17
 70
     0
 10
0.0
 20
0.0
 30
0.0
  3
CDWK_PTTYP17
  1

  4
Cadwork node
  0
CIRCLE
  5
57A
100
AcDbEntity
  8
0
 62
     0
370
    -2
100
AcDbCircle
 10
0.0
 20
0.0
 30
0.0
 40
0.5
  0
HATCH
  5
57B
100
AcDbEntity
  8
0
 62
     0
370
    -2
100
AcDbHatch
 10
0.0
 20
0.0
 30
0.0
210
0.0
220
0.0
230
1.0
  2
SOLID
 70
     1
 71
     0
 91
        1
 92
        1
 93
        1
 72
     2
 10
0.0
 20
0.0
 40
0.25
 50
0.0
 51
360.0
 73
     1
 97
        0
 75
     0
 76
     1
 98
        1
 10
0.0
 20
0.0
  0
ENDBLK
  5
57C
100
AcDbEntity
100
AcDbBlockEnd
  0
BLOCK
  5
57D
100
AcDbEntity
  8
0
100
AcDbBlockBegin
  2
CDWK_PTTYP18
 70
     0
 10
0.0
 20
0.0
 30
0.0
  3
CDWK_PTTYP18
  1

  4
Cadwork node
  0
CIRCLE
  5
57E
100
AcDbEntity
  8
0
 62
     0
370
    -2
100
AcDbCircle
 10
0.0
 20
0.0
 30
0.0
 40
0.5
  0
CIRCLE
  5
57F
100
AcDbEntity
  8
0
 62
     0
370
    -2
100
AcDbCircle
 10
0.0
 20
0.0
 30
0.0
 40
0.2
  0
ENDBLK
  5
580
100
AcDbEntity
100
AcDbBlockEnd
  0
BLOCK
  5
581
100
AcDbEntity
  8
0
100
AcDbBlockBegin
  2
CDWK_PTTYP19
 70
     0
 10
0.0
 20
0.0
 30
0.0
  3
CDWK_PTTYP19
  1

  4
Cadwork node
  0
CIRCLE
  5
582
100
AcDbEntity
  8
0
 62
     0
370
    -2
100
AcDbCircle
 10
0.0
 20
0.0
 30
0.0
 40
0.4
  0
CIRCLE
  5
583
100
AcDbEntity
  8
0
 62
     0
370
    -2
100
AcDbCircle
 10
0.0
 20
0.0
 30
0.0
 40
0.25
  0
LINE
  5
584
100
AcDbEntity
  8
0
 62
     0
370
    -2
100
AcDbLine
 10
-0.25
 20
0.0
 30
0.0
 11
0.25
 21
0.0
 31
0.0
  0
ENDBLK
  5
585
100
AcDbEntity
100
AcDbBlockEnd
  0
BLOCK
  5
586
100
AcDbEntity
  8
0
100
AcDbBlockBegin
  2
CDWK_PTTYP20
 70
     0
 10
0.0
 20
0.0
 30
0.0
  3
CDWK_PTTYP20
  1

  4
Cadwork node
  0
CIRCLE
  5
587
100
AcDbEntity
  8
0
 62
     0
370
    -2
100
AcDbCircle
 10
0.0
 20
0.0
 30
0.0
 40
0.5
  0
CIRCLE
  5
588
100
AcDbEntity
  8
0
 62
     0
370
    -2
100
AcDbCircle
 10
0.0
 20
0.0
 30
0.0
 40
0.3
  0
ENDBLK
  5
589
100
AcDbEntity
100
AcDbBlockEnd
  0
BLOCK
  5
58A
100
AcDbEntity
  8
0
100
AcDbBlockBegin
  2
CDWK_PTTYP21
 70
     0
 10
0.0
 20
0.0
 30
0.0
  3
CDWK_PTTYP21
  1

  4
Cadwork node
  0
CIRCLE
  5
58B
100
AcDbEntity
  8
0
 62
     0
370
    -2
100
AcDbCircle
 10
0.0
 20
0.0
 30
0.0
 40
0.5
  0
LINE
  5
58C
100
AcDbEntity
  8
0
 62
     0
370
    -2
100
AcDbLine
 10
-0.5
 20
0.0
 30
0.0
 11
0.5
 21
0.0
 31
0.0
  0
ENDBLK
  5
58D
100
AcDbEntity
100
AcDbBlockEnd
  0
BLOCK
  5
58E
100
AcDbEntity
  8
0
100
AcDbBlockBegin
  2
CDWK_PTTYP22
 70
     0
 10
0.0
 20
0.0
 30
0.0
  3
CDWK_PTTYP22
  1

  4
Cadwork node
  0
POINT
  5
58F
100
AcDbEntity
  8
0
 62
     0
100
AcDbPoint
 10
0.0
 20
0.0
 30
0.0
  0
ENDBLK
  5
590
100
AcDbEntity
100
AcDbBlockEnd
  0
BLOCK
  5
591
100
AcDbEntity
  8
0
100
AcDbBlockBegin
  2
CDWK_PTTYP23
 70
     0
 10
0.0
 20
0.0
 30
0.0
  3
CDWK_PTTYP23
  1

  4
Cadwork node
  0
POINT
  5
592
100
AcDbEntity
  8
0
 62
     0
100
AcDbPoint
 10
0.0
 20
0.0
 30
0.0
  0
ENDBLK
  5
593
100
AcDbEntity
100
AcDbBlockEnd
  0
BLOCK
  5
594
100
AcDbEntity
  8
0
100
AcDbBlockBegin
  2
CDWK_PTTYP24
 70
     0
 10
0.0
 20
0.0
 30
0.0
  3
CDWK_PTTYP24
  1

  4
Cadwork node
  0
POINT
  5
595
100
AcDbEntity
  8
0
 62
     0
100
AcDbPoint
 10
0.0
 20
0.0
 30
0.0
  0
ENDBLK
  5
596
100
AcDbEntity
100
AcDbBlockEnd
  0
BLOCK
  5
597
100
AcDbEntity
  8
0
100
AcDbBlockBegin
  2
CDWK_PTTYP25
 70
     0
 10
0.0
 20
0.0
 30
0.0
  3
CDWK_PTTYP25
  1

  4
Cadwork node
  0
LINE
  5
598
100
AcDbEntity
  8
0
 62
     0
370
    -2
100
AcDbLine
 10
-0.43290044
 20
-0.25
 30
0.0
 11
0.43290044
 21
-0.25
 31
0.0
  0
LINE
  5
599
100
AcDbEntity
  8
0
 62
     0
370
    -2
100
AcDbLine
 10
-0.43290044
 20
-0.25
 30
0.0
 11
0.0
 21
0.5
 31
0.0
  0
LINE
  5
59A
100
AcDbEntity
  8
0
 62
     0
370
    -2
100
AcDbLine
 10
0.43290044
 20
-0.25
 30
0.0
 11
0.0
 21
0.5
 31
0.0
  0
CIRCLE
  5
59B
100
AcDbEntity
  8
0
 62
     0
370
    -2
100
AcDbCircle
 10
0.0
 20
0.0
 30
0.0
 40
0.5
  0
ENDBLK
  5
59C
100
AcDbEntity
100
AcDbBlockEnd
  0
BLOCK
  5
59D
100
AcDbEntity
  8
0
100
AcDbBlockBegin
  2
CDWK_PTTYP26
 70
     0
 10
0.0
 20
0.0
 30
0.0
  3
CDWK_PTTYP26
  1

  4
Cadwork node
  0
LINE
  5
59E
100
AcDbEntity
  8
0
 62
     0
370
    -2
100
AcDbLine
 10
-0.5
 20
-0.28850001
 30
0.0
 11
0.5
 21
-0.28850001
 31
0.0
  0
LINE
  5
59F
100
AcDbEntity
  8
0
 62
     0
370
    -2
100
AcDbLine
 10
-0.5
 20
-0.28850001
 30
0.0
 11
0.0
 21
0.57736721
 31
0.0
  0
LINE
  5
5A0
100
AcDbEntity
  8
0
 62
     0
370
    -2
100
AcDbLine
 10
0.5
 20
-0.28850001
 30
0.0
 11
0.0
 21
0.57736721
 31
0.0
  0
CIRCLE
  5
5A1
100
AcDbEntity
  8
0
 62
     0
370
    -2
100
AcDbCircle
 10
0.0
 20
0.0
 30
0.0
 40
0.1312336
  0
ENDBLK
  5
5A2
100
AcDbEntity
100
AcDbBlockEnd
  0
BLOCK
  5
5A3
100
AcDbEntity
  8
0
100
AcDbBlockBegin
  2
CDWK_PTTYP27
 70
     0
 10
0.0
 20
0.0
 30
0.0
  3
CDWK_PTTYP27
  1

  4
Cadwork node
  0
LINE
  5
5A4
100
AcDbEntity
  8
0
 62
     0
370
    -2
100
AcDbLine
 10
-0.43290044
 20
-0.25
 30
0.0
 11
0.43290044
 21
-0.25
 31
0.0
  0
LINE
  5
5A5
100
AcDbEntity
  8
0
 62
     0
370
    -2
100
AcDbLine
 10
-0.43290044
 20
-0.25
 30
0.0
 11
0.0
 21
0.5
 31
0.0
  0
LINE
  5
5A6
100
AcDbEntity
  8
0
 62
     0
370
    -2
100
AcDbLine
 10
0.43290044
 20
-0.25
 30
0.0
 11
0.0
 21
0.5
 31
0.0
  0
CIRCLE
  5
5A7
100
AcDbEntity
  8
0
 62
     0
370
    -2
100
AcDbCircle
 10
0.0
 20
0.0
 30
0.0
 40
0.5
  0
CIRCLE
  5
5A8
100
AcDbEntity
  8
0
 62
     0
370
    -2
100
AcDbCircle
 10
0.0
 20
0.0
 30
0.0
 40
0.1312336
  0
ENDBLK
  5
5A9
100
AcDbEntity
100
AcDbBlockEnd
  0
BLOCK
  5
5AA
100
AcDbEntity
  8
0
100
AcDbBlockBegin
  2
CDWK_PTTYP28
 70
     0
 10
0.0
 20
0.0
 30
0.0
  3
CDWK_PTTYP28
  1

  4
Cadwork node
  0
POINT
  5
5AB
100
AcDbEntity
  8
0
 62
     0
100
AcDbPoint
 10
0.0
 20
0.0
 30
0.0
  0
ENDBLK
  5
5AC
100
AcDbEntity
100
AcDbBlockEnd
  0
BLOCK
  5
5AD
100
AcDbEntity
  8
0
100
AcDbBlockBegin
  2
CDWK_PTTYP29
 70
     0
 10
0.0
 20
0.0
 30
0.0
  3
CDWK_PTTYP29
  1

  4
Cadwork node
  0
CIRCLE
  5
5AE
100
AcDbEntity
  8
0
 62
     0
370
    -2
100
AcDbCircle
 10
0.0
 20
0.0
 30
0.0
 40
0.5
  0
CIRCLE
  5
5AF
100
AcDbEntity
  8
0
 62
     0
370
    -2
100
AcDbCircle
 10
0.0
 20
0.0
 30
0.0
 40
0.375
  0
CIRCLE
  5
5B0
100
AcDbEntity
  8
0
 62
     0
370
    -2
100
AcDbCircle
 10
0.0
 20
0.0
 30
0.0
 40
0.21875
  0
ENDBLK
  5
5B1
100
AcDbEntity
100
AcDbBlockEnd
  0
BLOCK
  5
5B2
100
AcDbEntity
  8
0
100
AcDbBlockBegin
  2
CDWK_PTTYP30
 70
     0
 10
0.0
 20
0.0
 30
0.0
  3
CDWK_PTTYP30
  1

  4
Cadwork node
  0
LINE
  5
5B3
100
AcDbEntity
  8
0
 62
     0
370
    -2
100
AcDbLine
 10
0.17680339
 20
0.17680339
 30
0.0
 11
0.5
 21
0.5
 31
0.0
  0
LINE
  5
5B4
100
AcDbEntity
  8
0
 62
     0
370
    -2
100
AcDbLine
 10
-0.17680339
 20
0.17680339
 30
0.0
 11
-0.5
 21
0.5
 31
0.0
  0
LINE
  5
5B5
100
AcDbEntity
  8
0
 62
     0
370
    -2
100
AcDbLine
 10
0.17680339
 20
-0.17680339
 30
0.0
 11
0.5
 21
-0.5
 31
0.0
  0
LINE
  5
5B6
100
AcDbEntity
  8
0
 62
     0
370
    -2
100
AcDbLine
 10
-0.17680339
 20
-0.17680339
 30
0.0
 11
-0.5
 21
-0.5
 31
0.0
  0
ENDBLK
  5
5B7
100
AcDbEntity
100
AcDbBlockEnd
  0
BLOCK
  5
5B8
100
AcDbEntity
  8
0
100
AcDbBlockBegin
  2
CDWK_PTTYP31
 70
     0
 10
0.0
 20
0.0
 30
0.0
  3
CDWK_PTTYP31
  1

  4
Cadwork node
  0
CIRCLE
  5
5B9
100
AcDbEntity
  8
0
 62
     0
370
    -2
100
AcDbCircle
 10
0.0
 20
0.0
 30
0.0
 40
0.075
  0
LINE
  5
5BA
100
AcDbEntity
  8
0
 62
     0
370
    -2
100
AcDbLine
 10
0.075
 20
0.0
 30
0.0
 11
0.5
 21
0.0
 31
0.0
  0
LINE
  5
5BB
100
AcDbEntity
  8
0
 62
     0
370
    -2
100
AcDbLine
 10
-0.075
 20
0.0
 30
0.0
 11
-0.5
 21
0.0
 31
0.0
  0
LINE
  5
5BC
100
AcDbEntity
  8
0
 62
     0
370
    -2
100
AcDbLine
 10
0.0
 20
0.075
 30
0.0
 11
0.0
 21
0.5
 31
0.0
  0
LINE
  5
5BD
100
AcDbEntity
  8
0
 62
     0
370
    -2
100
AcDbLine
 10
0.0
 20
-0.075
 30
0.0
 11
0.0
 21
-0.5
 31
0.0
  0
ENDBLK
  5
5BE
100
AcDbEntity
100
AcDbBlockEnd
  0
BLOCK
  5
5BF
100
AcDbEntity
  8
0
100
AcDbBlockBegin
  2
CDWK_PTTYP32
 70
     0
 10
0.0
 20
0.0
 30
0.0
  3
CDWK_PTTYP32
  1

  4
Cadwork node
  0
CIRCLE
  5
5C0
100
AcDbEntity
  8
0
 62
     0
370
    -2
100
AcDbCircle
 10
0.0
 20
0.0
 30
0.0
 40
0.5
  0
CIRCLE
  5
5C1
100
AcDbEntity
  8
0
 62
     0
370
    -2
100
AcDbCircle
 10
0.0
 20
0.0
 30
0.0
 40
0.16666667
  0
LINE
  5
5C2
100
AcDbEntity
  8
0
 62
     0
370
    -2
100
AcDbLine
 10
0.11786893
 20
0.11786893
 30
0.0
 11
0.35360678
 21
0.35360678
 31
0.0
  0
LINE
  5
5C3
100
AcDbEntity
  8
0
 62
     0
370
    -2
100
AcDbLine
 10
-0.11786893
 20
0.11786893
 30
0.0
 11
-0.35360678
 21
0.35360678
 31
0.0
  0
LINE
  5
5C4
100
AcDbEntity
  8
0
 62
     0
370
    -2
100
AcDbLine
 10
0.11786893
 20
-0.11786893
 30
0.0
 11
0.35360678
 21
-0.35360678
 31
0.0
  0
LINE
  5
5C5
100
AcDbEntity
  8
0
 62
     0
370
    -2
100
AcDbLine
 10
-0.11786893
 20
-0.11786893
 30
0.0
 11
-0.35360678
 21
-0.35360678
 31
0.0
  0
ENDBLK
  5
5C6
100
AcDbEntity
100
AcDbBlockEnd
  0
BLOCK
  5
5C7
100
AcDbEntity
  8
0
100
AcDbBlockBegin
  2
CDWK_PTTYP33
 70
     0
 10
0.0
 20
0.0
 30
0.0
  3
CDWK_PTTYP33
  1

  4
Cadwork node
  0
CIRCLE
  5
5C8
100
AcDbEntity
  8
0
 62
     0
370
    -2
100
AcDbCircle
 10
0.0
 20
0.0
 30
0.0
 40
0.5
  0
LINE
  5
5C9
100
AcDbEntity
  8
0
 62
     0
370
    -2
100
AcDbLine
 10
0.0
 20
0.5
 30
0.0
 11
0.0
 21
-0.5
 31
0.0
  0
LINE
  5
5CA
100
AcDbEntity
  8
0
 62
     0
370
    -2
100
AcDbLine
 10
-0.5
 20
0.0
 30
0.0
 11
0.5
 21
0.0
 31
0.0
  0
ENDBLK
  5
5CB
100
AcDbEntity
100
AcDbBlockEnd
  0
BLOCK
  5
5CC
100
AcDbEntity
  8
0
100
AcDbBlockBegin
  2
CDWK_PTTYP34
 70
     0
 10
0.0
 20
0.0
 30
0.0
  3
CDWK_PTTYP34
  1

  4
Cadwork node
  0
CIRCLE
  5
5CD
100
AcDbEntity
  8
0
 62
     0
370
    -2
100
AcDbCircle
 10
0.0
 20
0.0
 30
0.0
 40
0.5
  0
LINE
  5
5CE
100
AcDbEntity
  8
0
 62
     0
370
    -2
100
AcDbLine
 10
-0.30360678
 20
-0.40360678
 30
0.0
 11
0.40360678
 21
0.30360678
 31
0.0
  0
LINE
  5
5CF
100
AcDbEntity
  8
0
 62
     0
370
    -2
100
AcDbLine
 10
-0.40360678
 20
-0.30360678
 30
0.0
 11
0.30360678
 21
0.40360678
 31
0.0
  0
ENDBLK
  5
5D0
100
AcDbEntity
100
AcDbBlockEnd
  0
BLOCK
  5
5D1
100
AcDbEntity
  8
0
100
AcDbBlockBegin
  2
CDWK_PTTYP35
 70
     0
 10
0.0
 20
0.0
 30
0.0
  3
CDWK_PTTYP35
  1

  4
Cadwork node
  0
CIRCLE
  5
5D2
100
AcDbEntity
  8
0
 62
     0
370
    -2
100
AcDbCircle
 10
0.0
 20
0.0
 30
0.0
 40
0.21431634
  0
LINE
  5
5D3
100
AcDbEntity
  8
0
 62
     0
370
    -2
100
AcDbLine
 10
0.0
 20
0.21431634
 30
0.0
 11
0.0
 21
0.5
 31
0.0
  0
LINE
  5
5D4
100
AcDbEntity
  8
0
 62
     0
370
    -2
100
AcDbLine
 10
0.0
 20
-0.21431634
 30
0.0
 11
0.0
 21
-0.5
 31
0.0
  0
ENDBLK
  5
5D5
100
AcDbEntity
100
AcDbBlockEnd
  0
BLOCK
  5
5D6
100
AcDbEntity
  8
0
100
AcDbBlockBegin
  2
CDWK_PTTYP36
 70
     0
 10
0.0
 20
0.0
 30
0.0
  3
CDWK_PTTYP36
  1

  4
Cadwork node
  0
LINE
  5
5D7
100
AcDbEntity
  8
0
 62
     0
370
    -2
100
AcDbLine
 10
-0.5
 20
-0.16666667
 30
0.0
 11
0.5
 21
-0.16666667
 31
0.0
  0
LINE
  5
5D8
100
AcDbEntity
  8
0
 62
     0
370
    -2
100
AcDbLine
 10
0.5
 20
-0.16666667
 30
0.0
 11
0.5
 21
0.16666667
 31
0.0
  0
LINE
  5
5D9
100
AcDbEntity
  8
0
 62
     0
370
    -2
100
AcDbLine
 10
0.5
 20
0.16666667
 30
0.0
 11
-0.5
 21
0.16666667
 31
0.0
  0
LINE
  5
5DA
100
AcDbEntity
  8
0
 62
     0
370
    -2
100
AcDbLine
 10
-0.5
 20
0.16666667
 30
0.0
 11
-0.5
 21
-0.16666667
 31
0.0
  0
SOLID
  5
5DB
100
AcDbEntity
  8
0
 62
     0
100
AcDbTrace
 10
-0.5
 20
-0.16666667
 11
0.5
 21
0.16666667
 12
0.5
 22
-0.16666667
 13
0.5
 23
-0.16666667
  0
ENDBLK
  5
5DC
100
AcDbEntity
100
AcDbBlockEnd
  0
BLOCK
  5
5DD
100
AcDbEntity
  8
0
100
AcDbBlockBegin
  2
CDWK_PTTYP37
 70
     0
 10
0.0
 20
0.0
 30
0.0
  3
CDWK_PTTYP37
  1

  4
Cadwork node
  0
CIRCLE
  5
5DE
100
AcDbEntity
  8
0
 62
     0
370
    -2
100
AcDbCircle
 10
0.0
 20
0.0
 30
0.0
 40
0.5
  0
SOLID
  5
5DF
100
AcDbEntity
  8
0
 62
     0
100
AcDbTrace
 10
0.0
 20
0.0
 11
0.35350001
 21
0.35350001
 12
0.5
 22
0.0
 13
0.46200001
 23
0.19149999
  0
SOLID
  5
5E0
100
AcDbEntity
  8
0
 62
     0
100
AcDbTrace
 10
0.0
 20
0.0
 11
0.35350001
 21
-0.35350001
 12
0.5
 22
0.0
 13
0.46200001
 23
-0.19149999
  0
SOLID
  5
5E1
100
AcDbEntity
  8
0
 62
     0
100
AcDbTrace
 10
0.0
 20
0.0
 11
0.0
 21
-0.5
 12
0.35350001
 22
-0.35350001
 13
0.19149999
 23
-0.46200001
  0
SOLID
  5
5E2
100
AcDbEntity
  8
0
 62
     0
100
AcDbTrace
 10
0.0
 20
0.0
 11
0.0
 21
-0.5
 12
-0.35350001
 22
-0.35350001
 13
-0.19149999
 23
-0.46200001
  0
ENDBLK
  5
5E3
100
AcDbEntity
100
AcDbBlockEnd
  0
BLOCK
  5
5E4
100
AcDbEntity
  8
0
100
AcDbBlockBegin
  2
CDWK_PTTYP38
 70
     0
 10
0.0
 20
0.0
 30
0.0
  3
CDWK_PTTYP38
  1

  4
Cadwork node
  0
CIRCLE
  5
5E5
100
AcDbEntity
  8
0
 62
     0
370
    -2
100
AcDbCircle
 10
0.0
 20
0.0
 30
0.0
 40
0.5
  0
SOLID
  5
5E6
100
AcDbEntity
  8
0
 62
     0
100
AcDbTrace
 10
0.0
 20
0.0
 11
0.35350001
 21
0.35350001
 12
0.0
 22
0.5
 13
0.19149999
 23
0.46200001
  0
SOLID
  5
5E7
100
AcDbEntity
  8
0
 62
     0
100
AcDbTrace
 10
0.0
 20
0.0
 11
0.5
 21
0.0
 12
0.35350001
 22
0.35350001
 13
0.46200001
 23
0.19149999
  0
SOLID
  5
5E8
100
AcDbEntity
  8
0
 62
     0
100
AcDbTrace
 10
0.0
 20
0.0
 11
0.0
 21
-0.5
 12
-0.35350001
 22
-0.35350001
 13
-0.19149999
 23
-0.46200001
  0
SOLID
  5
5E9
100
AcDbEntity
  8
0
 62
     0
100
AcDbTrace
 10
0.0
 20
0.0
 11
-0.5
 21
0.0
 12
-0.35350001
 22
-0.35350001
 13
-0.46200001
 23
-0.19149999
  0
ENDBLK
  5
5EA
100
AcDbEntity
100
AcDbBlockEnd
  0
ENDSEC
  0
SECTION
  2
ENTITIES
  0
LWPOLYLINE
  5
5EB
100
AcDbEntity
  8
Ech.1_5
 62
   190
  6
CONTINUOUS
370
    -3
100
AcDbPolyline
 90
        4
 70
     1
 43
0.0
 10
34966.08971267
 20
-8982.46575971
 10
34966.08971267
 20
-8635.055643
 10
34996.08971267
 20
-8635.055643
 10
34996.08971267
 20
-8982.46575971
  0
LWPOLYLINE
  5
5EC
100
AcDbEntity
  8
Ech.1_5
 62
   190
  6
CONTINUOUS
370
    -3
100
AcDbPolyline
 90
        4
 70
     1
 43
0.0
 10
34966.08971267
 20
-8635.055643
 10
35196.08971267
 20
-8635.055643
 10
35196.08971267
 20
-8605.055643
 10
34966.08971267
 20
-8605.055643
  0
LWPOLYLINE
  5
5ED
100
AcDbEntity
  8
Ech.1_5
 62
   190
  6
CONTINUOUS
370
    -3
100
AcDbPolyline
 90
       10
 70
     1
 43
0.0
 10
34995.92868017
 20
-8999.34732715
 10
34995.89355642
 20
-8844.11420433
 10
35141.05456055
 20
-8844.12462417
 10
35141.08968634
 20
-9028.17854682
 10
35141.08971267
 20
-9235.06851546
 10
35114.26389287
 20
-9235.06851546
 10
35097.77753879
 20
-9253.04686705
 10
35111.88747881
 20
-9217.09116713
 10
35095.40197566
 20
-9235.06851546
 10
34995.92870854
 20
-9235.06851546
  0
LWPOLYLINE
  5
5EE
100
AcDbEntity
  8
Ech.1_5
 62
   190
  6
CONTINUOUS
370
    -3
100
AcDbPolyline
 90
        8
 70
     1
 43
0.0
 10
35486.2618273
 20
-8780.12462417
 10
35186.15869363
 20
-8780.12462417
 10
35186.15869363
 20
-8635.12462417
 10
35486.2618273
 20
-8635.12462417
 10
35486.2618273
 20
-8695.66468421
 10
35504.2391757
 20
-8712.15018741
 10
35468.28347569
 20
-8698.04024784
 10
35486.2618273
 20
-8714.52660171
  0
LWPOLYLINE
  5
5EF
100
AcDbEntity
  8
Ech.1_5
 62
   190
  6
CONTINUOUS
370
    -3
100
AcDbPolyline
 90
        4
 70
     1
 43
0.0
 10
35186.15869363
 20
-8635.12462417
 10
35186.15869363
 20
-8735.19360439
 10
35041.15605681
 20
-8735.19360439
 10
35041.15605681
 20
-8635.12462417
  0
LWPOLYLINE
  5
5F0
100
AcDbEntity
  8
Ech.1_5
 62
   190
  6
CONTINUOUS
370
    -3
100
AcDbPolyline
 90
       16
 70
     0
 43
0.0
 10
35186.15869363
 20
-8651.8027877
 42
1.14028181
 10
35153.37066389
 20
-8656.11942378
 10
35168.9122329
 20
-8714.19880477
 42
-1.30322619
 10
35136.6925004
 20
-8714.19880477
 10
35152.2340694
 20
-8656.11942378
 42
1.30322619
 10
35120.0143369
 20
-8656.11942378
 10
35135.55590591
 20
-8714.19880477
 42
-1.30322619
 10
35103.33617341
 20
-8714.19880477
 10
35118.87774241
 20
-8656.11942378
 42
1.30322619
 10
35086.65800991
 20
-8656.11942378
 10
35102.19957892
 20
-8714.19880477
 42
-1.30322619
 10
35069.97984642
 20
-8714.19880477
 10
35085.52141542
 20
-8656.11942378
 42
1.30322619
 10
35053.30168292
 20
-8656.11942378
 10
35068.84325193
 20
-8714.19880477
 42
-0.76005852
 10
35041.15869363
 20
-8730.52325717
  0
LINE
  5
5F1
100
AcDbEntity
  8
Ech.1_5
 62
     7
  6
CONTINUOUS
100
AcDbLine
 10
35486.2618273
 20
-8635.12462417
 30
0.0
 11
35379.19432099
 21
-8635.12462417
 31
0.0
  0
LWPOLYLINE
  5
5F2
100
AcDbEntity
  8
Ech.1_5
 62
   190
  6
CONTINUOUS
370
    -3
100
AcDbPolyline
 90
        4
 70
     0
 43
0.0
 10
35186.15869363
 20
-8735.12462417
 10
35041.15869363
 20
-8780.12462417
 10
35041.15869363
 20
-8735.12462417
 10
35186.15869363
 20
-8780.12462417
  0
LWPOLYLINE
  5
5F3
100
AcDbEntity
  8
Ech.1_5
 62
   190
  6
CONTINUOUS
370
    -3
100
AcDbPolyline
 90
        4
 70
     0
 43
0.0
 10
35041.08971267
 20
-8780.12462417
 10
34996.08971267
 20
-8635.055643
 10
35041.08971267
 20
-8635.055643
 10
34996.08971267
 20
-8780.12462417
  0
LINE
  5
5F4
100
AcDbEntity
  8
Ech.1_5
 62
     7
  6
CONTINUOUS
370
     9
100
AcDbLine
 10
35086.01284771
 20
-9023.28825275
 30
0.0
 11
35086.01284876
 21
-9022.35974971
 31
0.0
  0
LWPOLYLINE
  5
5F5
102
{ACAD_REACTORS
330
5F6
102
}
100
AcDbEntity
  8
Ech.1_5
 62
     7
  6
CONTINUOUS
370
     5
100
AcDbPolyline
 90
        4
 70
     1
 43
0.0
 10
35286.46672275
 20
-9200.85311924
 10
35312.29125383
 20
-9200.85311924
 10
35312.29125383
 20
-9191.42045913
 10
35286.46672275
 20
-9191.42045913
  0
HATCH
  5
5F6
100
AcDbEntity
  8
Ech.1_5
 62
     2
  6
CONTINUOUS
100
AcDbHatch
 10
0.0
 20
0.0
 30
0.0
210
0.0
220
0.0
230
1.0
  2
SOLID
 70
     1
 71
     1
 91
        1
 92
        7
 72
     0
 73
     1
 93
        4
 10
35286.46672275
 20
-9200.85311924
 10
35312.29125383
 20
-9200.85311924
 10
35312.29125383
 20
-9191.42045913
 10
35286.46672275
 20
-9191.42045913
 97
        1
330
5F5
 75
     0
 76
     2
 47
0.775229
 98
        1
 10
0.0
 20
0.0
  0
HATCH
  5
5F7
100
AcDbEntity
  8
Ech.1_5
 62
     7
100
AcDbHatch
 10
0.0
 20
0.0
 30
0.0
210
0.0
220
0.0
230
1.0
  2
ANSI37
 70
     0
 71
     0
 91
        1
 92
        7
 72
     0
 73
     1
 93
        4
 10
35286.46672275
 20
-9200.85311924
 10
35312.29125383
 20
-9200.85311924
 10
35312.29125383
 20
-9191.42045913
 10
35286.46672275
 20
-9191.42045913
 97
        0
 75
     0
 76
     2
 52
0.0
 41
1.87498831
 77
     0
 78
     2
 53
45.0
 43
0.0
 44
0.0
 45
4.20946876
 46
-4.20946876
 79
     0
 53
-45.0
 43
0.0
 44
0.0
 45
4.20946876
 46
4.20946876
 79
     0
 47
0.775229
 98
        1
 10
0.0
 20
0.0
  0
LWPOLYLINE
  5
5F8
100
AcDbEntity
  8
Ech.1_5
 62
   190
  6
CONTINUOUS
370
    -3
100
AcDbPolyline
 90
        4
 70
     0
 43
0.0
 10
35231.15869363
 20
-8780.12462417
 10
35186.15869363
 20
-8635.055643
 10
35231.15869363
 20
-8635.055643
 10
35186.15869363
 20
-8780.12462417
  0
LWPOLYLINE
  5
5F9
100
AcDbEntity
  8
Ech.1_5
 62
     5
  6
CONTINUOUS
370
    -3
100
AcDbPolyline
 90
        5
 70
     0
 43
0.0
 10
35141.08971267
 20
-8844.12462417
 10
34996.08971267
 20
-8844.12462417
 10
34996.08971267
 20
-8889.12462417
 10
35141.08971267
 20
-8889.12462417
 10
35141.08971267
 20
-8844.12462417
  0
LWPOLYLINE
  5
5FA
100
AcDbEntity
  8
Ech.1_5
 62
   190
  6
CONTINUOUS
370
    -3
100
AcDbPolyline
 90
        4
 70
     0
 43
0.0
 10
34996.08971267
 20
-8889.12462417
 10
35141.08971267
 20
-8844.12462417
 10
35141.08971267
 20
-8889.12462417
 10
34996.08971267
 20
-8844.12462417
  0
3DFACE
  5
5FB
102
{ACAD_REACTORS
330
5FC
102
}
100
AcDbEntity
  8
Ech.1_5
 62
     9
  6
CONTINUOUS
370
    -3
100
AcDbFace
 70
     0
 10
34766.08971267
 20
-9235.06851546
 30
2500.0
 11
34966.07743375
 21
-9235.06851546
 31
2500.0
 12
34966.09252878
 22
-8405.05564298
 32
2500.0
 13
34766.08971267
 23
-8405.05564298
 33
2500.0
  0
HATCH
  5
5FC
100
AcDbEntity
  8
Ech.1_5
 62
     9
  6
CONTINUOUS
100
AcDbHatch
 10
0.0
 20
0.0
 30
0.0
210
0.0
220
0.0
230
1.0
  2
AR-CONC
 70
     0
 71
     1
 91
        1
 92
        7
 72
     0
 73
     1
 93
        4
 10
34766.08971267
 20
-9235.06851546
 10
34966.07743375
 20
-9235.06851546
 10
34966.09252878
 20
-8405.05564298
 10
34766.08971267
 20
-8405.05564298
 97
        1
330
5FB
 75
     0
 76
     2
 52
0.0
 41
0.11811097
 77
     0
 78
    13
 53
50.0
 43
0.0
 44
0.0
 45
-18.84283637
 46
1.64853443
 79
     2
 49
1.97029307
 49
-21.67322338
 53
355.0
 43
0.0
 44
0.0
 45
-3.64507756
 46
19.76051824
 79
     2
 49
1.57623377
 49
-17.3385787
 53
100.45140076
 43
1.57023568
 44
-0.13737749
 45
-15.19777228
 46
-18.11197244
 79
     2
 49
1.67449124
 49
-18.41940522
 53
46.18420029
 43
0.0
 44
5.25411576
 45
-28.03703353
 46
4.34827878
 79
     2
 49
2.95543872
 49
-32.50983238
 53
96.63559723
 43
2.33641885
 44
4.89175692
 45
-24.55412615
 46
-25.59063404
 79
     2
 49
2.51173697
 49
-27.62910426
 53
351.1842041
 43
0.0
 44
5.25411576
 45
24.55410288
 46
25.59065715
 79
     2
 49
2.36435249
 49
-26.00786805
 53
21.0
 43
2.62705699
 44
3.94058615
 45
-15.68109068
 46
10.57702905
 79
     2
 49
1.97029307
 49
-21.67322338
 53
326.0
 43
2.62705699
 44
3.94058615
 45
6.39203268
 46
19.05010734
 79
     2
 49
1.57623377
 49
-17.3385787
 53
71.45140076
 43
3.93381357
 44
3.05916555
 45
-22.07312962
 46
-8.47306182
 79
     2
 49
1.67449124
 49
-18.41940522
 53
37.5
 43
0.0
 44
0.0
 45
0.31944534
 46
8.74531245
 79
     6
 49
0.01875
 49
-17.12841332
 49
0.01875
 49
-17.60128498
 49
0.01875
 49
-17.40425348
 53
7.5
 43
0.0
 44
0.0
 45
6.91098818
 46
10.3614222
 79
     6
 49
0.01875
 49
-10.03535807
 49
0.01875
 49
-16.7343539
 49
0.01875
 49
-6.6333206
 53
-32.5
 43
-5.85833833
 44
0.0
 45
14.02382061
 46
-0.59253003
 79
     6
 49
0.01875
 49
-6.56764314
 49
0.01875
 49
-20.49104869
 49
0.01875
 49
-27.19004452
 53
-42.5
 43
-8.48539531
 44
0.0
 45
15.32063571
 46
2.62981542
 79
     6
 49
0.01875
 49
-8.53793621
 49
0.01875
 49
-13.60815793
 49
0.01875
 49
-19.30887222
 47
0.775229
 98
        1
 10
0.0
 20
0.0
  0
3DFACE
  5
5FD
102
{ACAD_REACTORS
330
5FE
102
}
100
AcDbEntity
  8
Ech.1_5
 62
     9
  6
CONTINUOUS
370
    -3
100
AcDbFace
 70
     0
 10
34966.08971267
 20
-8405.05564298
 30
2500.0
 11
34966.08971267
 21
-8605.055643
 31
2500.0
 12
35486.2618273
 22
-8605.06550731
 32
2500.0
 13
35486.2618273
 23
-8405.05564298
 33
2500.0
  0
HATCH
  5
5FE
100
AcDbEntity
  8
Ech.1_5
 62
     9
  6
CONTINUOUS
100
AcDbHatch
 10
0.0
 20
0.0
 30
0.0
210
0.0
220
0.0
230
1.0
  2
AR-CONC
 70
     0
 71
     1
 91
        1
 92
        7
 72
     0
 73
     1
 93
        4
 10
34966.08971267
 20
-8405.05564298
 10
34966.08971267
 20
-8605.055643
 10
35486.2618273
 20
-8605.06550731
 10
35486.2618273
 20
-8405.05564298
 97
        1
330
5FD
 75
     0
 76
     2
 52
0.0
 41
0.11811097
 77
     0
 78
    13
 53
50.0
 43
0.0
 44
0.0
 45
-18.84283637
 46
1.64853443
 79
     2
 49
1.97029307
 49
-21.67322338
 53
355.0
 43
0.0
 44
0.0
 45
-3.64507756
 46
19.76051824
 79
     2
 49
1.57623377
 49
-17.3385787
 53
100.45140076
 43
1.57023568
 44
-0.13737749
 45
-15.19777228
 46
-18.11197244
 79
     2
 49
1.67449124
 49
-18.41940522
 53
46.18420029
 43
0.0
 44
5.25411576
 45
-28.03703353
 46
4.34827878
 79
     2
 49
2.95543872
 49
-32.50983238
 53
96.63559723
 43
2.33641885
 44
4.89175692
 45
-24.55412615
 46
-25.59063404
 79
     2
 49
2.51173697
 49
-27.62910426
 53
351.1842041
 43
0.0
 44
5.25411576
 45
24.55410288
 46
25.59065715
 79
     2
 49
2.36435249
 49
-26.00786805
 53
21.0
 43
2.62705699
 44
3.94058615
 45
-15.68109068
 46
10.57702905
 79
     2
 49
1.97029307
 49
-21.67322338
 53
326.0
 43
2.62705699
 44
3.94058615
 45
6.39203268
 46
19.05010734
 79
     2
 49
1.57623377
 49
-17.3385787
 53
71.45140076
 43
3.93381357
 44
3.05916555
 45
-22.07312962
 46
-8.47306182
 79
     2
 49
1.67449124
 49
-18.41940522
 53
37.5
 43
0.0
 44
0.0
 45
0.31944534
 46
8.74531245
 79
     6
 49
0.01875
 49
-17.12841332
 49
0.01875
 49
-17.60128498
 49
0.01875
 49
-17.40425348
 53
7.5
 43
0.0
 44
0.0
 45
6.91098818
 46
10.3614222
 79
     6
 49
0.01875
 49
-10.03535807
 49
0.01875
 49
-16.7343539
 49
0.01875
 49
-6.6333206
 53
-32.5
 43
-5.85833833
 44
0.0
 45
14.02382061
 46
-0.59253003
 79
     6
 49
0.01875
 49
-6.56764314
 49
0.01875
 49
-20.49104869
 49
0.01875
 49
-27.19004452
 53
-42.5
 43
-8.48539531
 44
0.0
 45
15.32063571
 46
2.62981542
 79
     6
 49
0.01875
 49
-8.53793621
 49
0.01875
 49
-13.60815793
 49
0.01875
 49
-19.30887222
 47
0.775229
 98
        1
 10
0.0
 20
0.0
  0
LWPOLYLINE
  5
5FF
100
AcDbEntity
  8
Ech.1_5
 62
   190
  6
CONTINUOUS
370
    35
100
AcDbPolyline
 90
        4
 70
     0
 43
0.0
 10
35075.82346489
 20
-8843.95557151
 10
35141.05456055
 20
-8799.12462417
 10
35141.05456055
 20
-8844.12462417
 10
35075.22469997
 20
-8799.12462417
  0
LWPOLYLINE
  5
600
100
AcDbEntity
  8
Ech.1_5
 62
     5
  6
CONTINUOUS
370
    -3
100
AcDbPolyline
 90
       12
 70
     0
 43
0.0
 10
35075.22469997
 20
-8844.12462417
 10
35080.87612844
 20
-8844.12462417
 10
35080.8761664
 20
-8844.12357418
 10
35106.70069749
 20
-8844.12357418
 10
35106.70065953
 20
-8844.12462417
 10
35141.05456055
 20
-8844.12462417
 10
35141.05456055
 20
-8799.12462417
 10
35123.01610513
 20
-8799.12462417
 10
35123.01610513
 20
-8799.12462417
 10
35097.01610513
 20
-8799.12462417
 10
35097.01610513
 20
-8799.12462417
 10
35075.22469997
 20
-8799.12462417
  0
LINE
  5
601
100
AcDbEntity
  8
Ech.1_5
 62
   150
  6
CONTINUOUS
370
    50
100
AcDbLine
 10
35075.22469997
 20
-8799.12462417
 30
2500.0
 11
35075.22469997
 21
-8844.12462417
 31
2500.0
  0
LWPOLYLINE
  5
602
100
AcDbEntity
  8
Ech.1_5
 62
   190
  6
CONTINUOUS
370
    35
100
AcDbPolyline
 90
        4
 70
     0
 43
0.0
 10
34996.68847758
 20
-8833.95557151
 10
35068.58971267
 20
-8789.12462417
 10
35068.58971267
 20
-8834.12462417
 10
34996.08971267
 20
-8789.12462417
  0
LWPOLYLINE
  5
603
100
AcDbEntity
  8
Ech.1_5
 62
     5
  6
CONTINUOUS
370
    -3
100
AcDbPolyline
 90
       12
 70
     0
 43
0.0
 10
34996.08971267
 20
-8834.12462417
 10
35001.74114114
 20
-8834.12462417
 10
35001.7411791
 20
-8834.12357418
 10
35027.56571018
 20
-8834.12357418
 10
35027.56567222
 20
-8834.12462417
 10
35068.58971267
 20
-8834.12462417
 10
35068.58971267
 20
-8789.12462417
 10
35043.88111783
 20
-8789.12462417
 10
35043.88111783
 20
-8789.12462417
 10
35017.88111783
 20
-8789.12462417
 10
35017.88111783
 20
-8789.12462417
 10
34996.08971267
 20
-8789.12462417
  0
LINE
  5
604
100
AcDbEntity
  8
Ech.1_5
 62
   150
  6
CONTINUOUS
370
    50
100
AcDbLine
 10
34996.08971267
 20
-8789.12462417
 30
2500.0
 11
34996.08971267
 21
-8834.12462417
 31
2500.0
  0
LINE
  5
605
100
AcDbEntity
  8
Ech.1_5
 62
     1
  6
CADWORK_22
 48
-5.0
370
    35
100
AcDbLine
 10
34995.96188256
 20
-8843.20415389
 30
0.0
 11
35068.46188256
 21
-8843.21236267
 31
0.0
  0
LINE
  5
606
100
AcDbEntity
  8
Ech.1_5
 62
     1
  6
CADWORK_22
 48
-5.0
370
    35
100
AcDbLine
 10
34996.08971267
 20
-8834.12462417
 30
0.0
 11
35068.58971267
 21
-8834.13283295
 31
0.0
  0
LWPOLYLINE
  5
607
102
{ACAD_REACTORS
330
608
102
}
100
AcDbEntity
  8
Ech.1_5
 62
     7
  6
CONTINUOUS
370
     5
100
AcDbPolyline
 90
        4
 70
     1
 43
0.0
 10
35043.23198062
 20
-8834.45898206
 10
35017.40744954
 20
-8834.45898206
 10
35017.40744954
 20
-8843.89164216
 10
35043.23198062
 20
-8843.89164216
  0
HATCH
  5
608
100
AcDbEntity
  8
Ech.1_5
 62
     2
  6
CONTINUOUS
100
AcDbHatch
 10
0.0
 20
0.0
 30
0.0
210
0.0
220
0.0
230
1.0
  2
SOLID
 70
     1
 71
     1
 91
        1
 92
        7
 72
     0
 73
     1
 93
        4
 10
35043.23198062
 20
-8834.45898206
 10
35017.40744954
 20
-8834.45898206
 10
35017.40744954
 20
-8843.89164216
 10
35043.23198062
 20
-8843.89164216
 97
        1
330
607
 75
     0
 76
     2
 47
0.775229
 98
        1
 10
0.0
 20
0.0
  0
HATCH
  5
609
100
AcDbEntity
  8
Ech.1_5
 62
     7
100
AcDbHatch
 10
0.0
 20
0.0
 30
0.0
210
0.0
220
0.0
230
1.0
  2
ANSI37
 70
     0
 71
     0
 91
        1
 92
        7
 72
     0
 73
     1
 93
        4
 10
35043.23198062
 20
-8834.45898206
 10
35017.40744954
 20
-8834.45898206
 10
35017.40744954
 20
-8843.89164216
 10
35043.23198062
 20
-8843.89164216
 97
        0
 75
     0
 76
     2
 52
0.0
 41
1.87498831
 77
     0
 78
     2
 53
45.0
 43
0.0
 44
0.0
 45
4.20946876
 46
-4.20946876
 79
     0
 53
-45.0
 43
0.0
 44
0.0
 45
4.20946876
 46
4.20946876
 79
     0
 47
0.775229
 98
        1
 10
0.0
 20
0.0
  0
LWPOLYLINE
  5
60A
100
AcDbEntity
  8
Ech.1_5
 62
   254
  6
CONTINUOUS
370
    -3
100
AcDbPolyline
 90
        4
 70
     1
 43
0.0
 10
34746.08971267
 20
-8385.05564298
 10
34746.08971267
 20
-8335.05564298
 10
35486.2618273
 20
-8335.05564298
 10
35486.2618273
 20
-8385.05564298
  0
LWPOLYLINE
  5
60B
102
{ACAD_REACTORS
330
60C
102
}
100
AcDbEntity
  8
Ech.1_5
 62
     9
  6
CONTINUOUS
370
    -3
100
AcDbPolyline
 90
        4
 70
     1
 43
0.0
 10
34683.08971267
 20
-8335.05564298
 10
34683.08971267
 20
-8322.05564298
 10
35486.2618273
 20
-8322.05564298
 10
35486.2618273
 20
-8335.05564298
  0
HATCH
  5
60C
100
AcDbEntity
  8
Ech.1_5
 62
     9
  6
CONTINUOUS
100
AcDbHatch
 10
0.0
 20
0.0
 30
0.0
210
0.0
220
0.0
230
1.0
  2
DOTS2
 70
     0
 71
     1
 91
        1
 92
        7
 72
     0
 73
     1
 93
        4
 10
34683.08971267
 20
-8335.05564298
 10
34683.08971267
 20
-8322.05564298
 10
35486.2618273
 20
-8322.05564298
 10
35486.2618273
 20
-8335.05564298
 97
        1
330
60B
 75
     0
 76
     2
 52
0.0
 41
4.72440952
 77
     0
 78
     1
 53
0.0
 43
0.0
 44
0.0
 45
3.75
 46
3.535
 79
     2
 49
0.0
 49
-3.535
 47
0.775229
 98
        1
 10
0.0
 20
0.0
  0
LWPOLYLINE
  5
60D
100
AcDbEntity
  8
Ech.1_5
 62
   254
  6
CONTINUOUS
370
    -3
100
AcDbPolyline
 90
        4
 70
     1
 43
0.0
 10
34746.08971267
 20
-8335.05564298
 10
34746.08971267
 20
-9235.06851546
 10
34696.08971267
 20
-9235.06851546
 10
34696.08971267
 20
-8335.05564298
  0
LWPOLYLINE
  5
60E
102
{ACAD_REACTORS
330
60F
102
}
100
AcDbEntity
  8
Ech.1_5
 62
     9
  6
CONTINUOUS
370
    -3
100
AcDbPolyline
 90
       12
 70
     1
 43
0.0
 10
34704.08971267
 20
-8365.05564323
 10
34698.09382396
 20
-8365.05564323
 10
34698.08971267
 20
-8335.05564298
 10
34746.08971267
 20
-8335.05564298
 10
34746.08971267
 20
-8365.05564323
 10
34740.08971267
 20
-8365.05564323
 10
34740.08971267
 20
-8363.05564323
 10
34744.08971267
 20
-8363.05564323
 10
34744.08971267
 20
-8337.05564323
 10
34700.08971267
 20
-8337.05564323
 10
34700.08971267
 20
-8363.05564323
 10
34704.08971267
 20
-8363.05564323
  0
HATCH
  5
60F
100
AcDbEntity
  8
Ech.1_5
 62
     9
  6
CONTINUOUS
100
AcDbHatch
 10
0.0
 20
0.0
 30
0.0
210
0.0
220
0.0
230
1.0
  2
SOLID
 70
     1
 71
     1
 91
        1
 92
        7
 72
     0
 73
     1
 93
       12
 10
34704.08971267
 20
-8365.05564323
 10
34698.09382396
 20
-8365.05564323
 10
34698.08971267
 20
-8335.05564298
 10
34746.08971267
 20
-8335.05564298
 10
34746.08971267
 20
-8365.05564323
 10
34740.08971267
 20
-8365.05564323
 10
34740.08971267
 20
-8363.05564323
 10
34744.08971267
 20
-8363.05564323
 10
34744.08971267
 20
-8337.05564323
 10
34700.08971267
 20
-8337.05564323
 10
34700.08971267
 20
-8363.05564323
 10
34704.08971267
 20
-8363.05564323
 97
        1
330
60E
 75
     0
 76
     2
 47
0.775229
 98
        1
 10
0.0
 20
0.0
  0
LWPOLYLINE
  5
610
102
{ACAD_REACTORS
330
611
102
}
100
AcDbEntity
  8
Ech.1_5
 62
     9
  6
CONTINUOUS
370
    -3
100
AcDbPolyline
 90
        4
 70
     1
 43
0.0
 10
34683.08971267
 20
-8335.05564298
 10
34696.08971267
 20
-8335.05564298
 10
34696.08971267
 20
-9235.06851546
 10
34683.08971267
 20
-9235.06851546
  0
HATCH
  5
611
100
AcDbEntity
  8
Ech.1_5
 62
     9
  6
CONTINUOUS
100
AcDbHatch
 10
0.0
 20
0.0
 30
0.0
210
0.0
220
0.0
230
1.0
  2
DOTS2
 70
     0
 71
     1
 91
        1
 92
        7
 72
     0
 73
     1
 93
        4
 10
34683.08971267
 20
-8335.05564298
 10
34696.08971267
 20
-8335.05564298
 10
34696.08971267
 20
-9235.06851546
 10
34683.08971267
 20
-9235.06851546
 97
        1
330
610
 75
     0
 76
     2
 52
0.0
 41
4.72440952
 77
     0
 78
     1
 53
0.0
 43
0.0
 44
0.0
 45
3.75
 46
3.535
 79
     2
 49
0.0
 49
-3.535
 47
0.775229
 98
        1
 10
0.0
 20
0.0
  0
LWPOLYLINE
  5
612
102
{ACAD_REACTORS
330
613
102
}
100
AcDbEntity
  8
Ech.1_5
 62
     9
  6
CONTINUOUS
370
    -3
100
AcDbPolyline
 90
       12
 70
     1
 43
0.0
 10
34776.08971267
 20
-8341.05564298
 10
34776.08971267
 20
-8335.05975427
 10
34746.08971267
 20
-8335.05564298
 10
34746.08971267
 20
-8383.05564298
 10
34776.08971267
 20
-8383.05564298
 10
34776.08971267
 20
-8377.05564298
 10
34774.08971267
 20
-8377.05564298
 10
34774.08971267
 20
-8381.05564298
 10
34748.08971267
 20
-8381.05564298
 10
34748.08971267
 20
-8337.05564298
 10
34774.08971267
 20
-8337.05564298
 10
34774.08971267
 20
-8341.05564298
  0
HATCH
  5
613
100
AcDbEntity
  8
Ech.1_5
 62
     9
  6
CONTINUOUS
100
AcDbHatch
 10
0.0
 20
0.0
 30
0.0
210
0.0
220
0.0
230
1.0
  2
SOLID
 70
     1
 71
     1
 91
        1
 92
        7
 72
     0
 73
     1
 93
       12
 10
34776.08971267
 20
-8341.05564298
 10
34776.08971267
 20
-8335.05975427
 10
34746.08971267
 20
-8335.05564298
 10
34746.08971267
 20
-8383.05564298
 10
34776.08971267
 20
-8383.05564298
 10
34776.08971267
 20
-8377.05564298
 10
34774.08971267
 20
-8377.05564298
 10
34774.08971267
 20
-8381.05564298
 10
34748.08971267
 20
-8381.05564298
 10
34748.08971267
 20
-8337.05564298
 10
34774.08971267
 20
-8337.05564298
 10
34774.08971267
 20
-8341.05564298
 97
        1
330
612
 75
     0
 76
     2
 47
0.775229
 98
        1
 10
0.0
 20
0.0
  0
LWPOLYLINE
  5
614
100
AcDbEntity
  8
Ech.1_5
 62
   190
  6
CONTINUOUS
370
    -3
100
AcDbPolyline
 90
       92
 70
     0
 43
0.0
 10
35196.08971267
 20
-8610.055643
 42
1.14028181
 10
35186.26008432
 20
-8611.34974114
 10
35190.91934102
 20
-8628.76154486
 42
-1.30322619
 10
35181.26008432
 20
-8628.76154486
 10
35185.91934102
 20
-8611.34974114
 42
1.30322619
 10
35176.26008432
 20
-8611.34974114
 10
35180.91934102
 20
-8628.76154486
 42
-1.30322619
 10
35171.26008432
 20
-8628.76154486
 10
35175.91934102
 20
-8611.34974114
 42
1.30322619
 10
35166.26008432
 20
-8611.34974114
 10
35170.91934102
 20
-8628.76154486
 42
-1.30322619
 10
35161.26008432
 20
-8628.76154486
 10
35165.91934102
 20
-8611.34974114
 42
1.30322619
 10
35156.26008432
 20
-8611.34974114
 10
35160.91934102
 20
-8628.76154486
 42
-1.30322619
 10
35151.26008432
 20
-8628.76154486
 10
35155.91934102
 20
-8611.34974114
 42
1.30322619
 10
35146.26008432
 20
-8611.34974114
 10
35150.91934102
 20
-8628.76154486
 42
-1.30322619
 10
35141.26008432
 20
-8628.76154486
 10
35145.91934102
 20
-8611.34974114
 42
1.30322619
 10
35136.26008432
 20
-8611.34974114
 10
35140.91934102
 20
-8628.76154486
 42
-1.30322619
 10
35131.26008432
 20
-8628.76154486
 10
35135.91934102
 20
-8611.34974114
 42
1.30322619
 10
35126.26008432
 20
-8611.34974114
 10
35130.91934102
 20
-8628.76154486
 42
-1.30322619
 10
35121.26008432
 20
-8628.76154486
 10
35125.91934102
 20
-8611.34974114
 42
1.30322619
 10
35116.26008432
 20
-8611.34974114
 10
35120.91934102
 20
-8628.76154486
 42
-1.30322619
 10
35111.26008432
 20
-8628.76154486
 10
35115.91934102
 20
-8611.34974114
 42
1.30322619
 10
35106.26008432
 20
-8611.34974114
 10
35110.91934102
 20
-8628.76154486
 42
-1.30322619
 10
35101.26008432
 20
-8628.76154486
 10
35105.91934102
 20
-8611.34974114
 42
1.30322619
 10
35096.26008432
 20
-8611.34974114
 10
35100.91934102
 20
-8628.76154486
 42
-1.30322619
 10
35091.26008432
 20
-8628.76154486
 10
35095.91934102
 20
-8611.34974114
 42
1.30322619
 10
35086.26008432
 20
-8611.34974114
 10
35090.91934102
 20
-8628.76154486
 42
-1.30322619
 10
35081.26008432
 20
-8628.76154486
 10
35085.91934102
 20
-8611.34974114
 42
1.30322619
 10
35076.26008432
 20
-8611.34974114
 10
35080.91934102
 20
-8628.76154486
 42
-1.30322619
 10
35071.26008432
 20
-8628.76154486
 10
35075.91934102
 20
-8611.34974114
 42
1.30322619
 10
35066.26008432
 20
-8611.34974114
 10
35070.91934102
 20
-8628.76154486
 42
-1.30322619
 10
35061.26008432
 20
-8628.76154486
 10
35065.91934102
 20
-8611.34974114
 42
1.30322619
 10
35056.26008432
 20
-8611.34974114
 10
35060.91934102
 20
-8628.76154486
 42
-1.30322619
 10
35051.26008432
 20
-8628.76154486
 10
35055.91934102
 20
-8611.34974114
 42
1.30322619
 10
35046.26008432
 20
-8611.34974114
 10
35050.91934102
 20
-8628.76154486
 42
-1.30322619
 10
35041.26008432
 20
-8628.76154486
 10
35045.91934102
 20
-8611.34974114
 42
1.30322619
 10
35036.26008432
 20
-8611.34974114
 10
35040.91934102
 20
-8628.76154486
 42
-1.30322619
 10
35031.26008432
 20
-8628.76154486
 10
35035.91934102
 20
-8611.34974114
 42
1.30322619
 10
35026.26008432
 20
-8611.34974114
 10
35030.91934102
 20
-8628.76154486
 42
-1.30322619
 10
35021.26008432
 20
-8628.76154486
 10
35025.91934102
 20
-8611.34974114
 42
1.30322619
 10
35016.26008432
 20
-8611.34974114
 10
35020.91934102
 20
-8628.76154486
 42
-1.30322619
 10
35011.26008432
 20
-8628.76154486
 10
35015.91934102
 20
-8611.34974114
 42
1.30322619
 10
35006.26008432
 20
-8611.34974114
 10
35010.91934102
 20
-8628.76154486
 42
-1.30322619
 10
35001.26008432
 20
-8628.76154486
 10
35005.91934102
 20
-8611.34974114
 42
1.30322619
 10
34996.26008432
 20
-8611.34974114
 10
35000.91934102
 20
-8628.76154486
 42
-1.30322619
 10
34991.26008432
 20
-8628.76154486
 10
34995.91934102
 20
-8611.34974114
 42
1.30322619
 10
34986.26008432
 20
-8611.34974114
 10
34990.91934102
 20
-8628.76154486
 42
-1.30322619
 10
34981.26008432
 20
-8628.76154486
 10
34985.91934102
 20
-8611.34974114
 42
1.30322619
 10
34976.26008432
 20
-8611.34974114
 10
34980.91934102
 20
-8628.76154486
 42
-1.30322619
 10
34971.26008432
 20
-8628.76154486
 10
34975.91934102
 20
-8611.34974114
 42
1.30322619
 10
34966.26008432
 20
-8611.34974114
 10
34970.91934102
 20
-8628.76154486
 42
-0.52586277
 10
34966.08971267
 20
-8635.055643
  0
LWPOLYLINE
  5
615
100
AcDbEntity
  8
Ech.1_5
 62
   190
  6
CONTINUOUS
370
    -3
100
AcDbPolyline
 90
      138
 70
     0
 43
0.0
 10
34971.58970231
 20
-8635.06283909
 42
1.14028181
 10
34972.86965079
 20
-8644.89430957
 10
34990.28812413
 20
-8640.26012191
 42
-1.30322619
 10
34990.27422235
 20
-8649.9193586
 10
34972.86916039
 20
-8645.23505216
 42
1.30322619
 10
34972.85525861
 20
-8654.89428886
 10
34990.27373195
 20
-8650.26010119
 42
-1.30322619
 10
34990.25983017
 20
-8659.91933789
 10
34972.8547682
 20
-8655.23503145
 42
1.30322619
 10
34972.84086643
 20
-8664.89426814
 10
34990.25933977
 20
-8660.26008048
 42
-1.30322619
 10
34990.24543799
 20
-8669.91931717
 10
34972.84037602
 20
-8665.23501074
 42
1.30322619
 10
34972.82647424
 20
-8674.89424743
 10
34990.24494759
 20
-8670.26005976
 42
-1.30322619
 10
34990.23104581
 20
-8679.91929646
 10
34972.82598384
 20
-8675.23499002
 42
1.30322619
 10
34972.81208206
 20
-8684.89422672
 10
34990.2305554
 20
-8680.26003905
 42
-1.30322619
 10
34990.21665363
 20
-8689.91927574
 10
34972.81159166
 20
-8685.23496931
 42
1.30322619
 10
34972.79768988
 20
-8694.894206
 10
34990.21616322
 20
-8690.26001834
 42
-1.30322619
 10
34990.20226144
 20
-8699.91925503
 10
34972.79719948
 20
-8695.2349486
 42
1.30322619
 10
34972.7832977
 20
-8704.89418529
 10
34990.20177104
 20
-8700.25999762
 42
-1.30322619
 10
34990.18786926
 20
-8709.91923432
 10
34972.78280729
 20
-8705.23492788
 42
1.30322619
 10
34972.76890552
 20
-8714.89416458
 10
34990.18737886
 20
-8710.25997691
 42
-1.30322619
 10
34990.17347708
 20
-8719.9192136
 10
34972.76841511
 20
-8715.23490717
 42
1.30322619
 10
34972.75451333
 20
-8724.89414386
 10
34990.17298668
 20
-8720.2599562
 42
-1.30322619
 10
34990.1590849
 20
-8729.91919289
 10
34972.75402293
 20
-8725.23488646
 42
1.30322619
 10
34972.74012115
 20
-8734.89412315
 10
34990.15859449
 20
-8730.25993548
 42
-1.30322619
 10
34990.14469272
 20
-8739.91917218
 10
34972.73963075
 20
-8735.23486574
 42
1.30322619
 10
34972.72572897
 20
-8744.89410244
 10
34990.14420231
 20
-8740.25991477
 42
-1.30322619
 10
34990.13030053
 20
-8749.91915146
 10
34972.72523857
 20
-8745.23484503
 42
1.30322619
 10
34972.71133679
 20
-8754.89408172
 10
34990.12981013
 20
-8750.25989406
 42
-1.30322619
 10
34990.11590835
 20
-8759.91913075
 10
34972.71084638
 20
-8755.23482431
 42
1.30322619
 10
34972.69694461
 20
-8764.89406101
 10
34990.11541795
 20
-8760.25987334
 42
-1.30322619
 10
34990.10151617
 20
-8769.91911004
 10
34972.6964542
 20
-8765.2348036
 42
1.30322619
 10
34972.68255242
 20
-8774.89404029
 10
34990.10102577
 20
-8770.25985263
 42
-1.30322619
 10
34990.08712399
 20
-8779.91908932
 10
34972.68206202
 20
-8775.23478289
 42
1.30322619
 10
34972.66816024
 20
-8784.89401958
 10
34990.08663358
 20
-8780.25983192
 42
-1.30322619
 10
34990.07273181
 20
-8789.91906861
 10
34972.66766984
 20
-8785.23476217
 42
1.30322619
 10
34972.65376806
 20
-8794.89399887
 10
34990.0722414
 20
-8790.2598112
 42
-1.30322619
 10
34990.05833962
 20
-8799.9190479
 10
34972.65327766
 20
-8795.23474146
 42
1.30322619
 10
34972.63937588
 20
-8804.89397815
 10
34990.05784922
 20
-8800.25979049
 42
-1.30322619
 10
34990.04394744
 20
-8809.91902718
 10
34972.63888547
 20
-8805.23472075
 42
1.30322619
 10
34972.6249837
 20
-8814.89395744
 10
34990.04345704
 20
-8810.25976978
 42
-1.30322619
 10
34990.02955526
 20
-8819.91900647
 10
34972.62449329
 20
-8815.23470003
 42
1.30322619
 10
34972.61059151
 20
-8824.89393673
 10
34990.02906486
 20
-8820.25974906
 42
-1.30322619
 10
34990.01516308
 20
-8829.91898576
 10
34972.61010111
 20
-8825.23467932
 42
1.30322619
 10
34972.59619933
 20
-8834.89391601
 10
34990.01467267
 20
-8830.25972835
 42
-1.30322619
 10
34990.0007709
 20
-8839.91896504
 10
34972.59570893
 20
-8835.23465861
 42
1.30322619
 10
34972.58180715
 20
-8844.8938953
 10
34990.00028049
 20
-8840.25970763
 42
-1.30322619
 10
34989.98637871
 20
-8849.91894433
 10
34972.58131675
 20
-8845.23463789
 42
1.30322619
 10
34972.56741497
 20
-8854.89387459
 10
34989.98588831
 20
-8850.25968692
 42
-1.30322619
 10
34989.97198653
 20
-8859.91892361
 10
34972.56692456
 20
-8855.23461718
 42
1.30322619
 10
34972.55302279
 20
-8864.89385387
 10
34989.97149613
 20
-8860.25966621
 42
-1.30322619
 10
34989.95759435
 20
-8869.9189029
 10
34972.55253238
 20
-8865.23459647
 42
1.30322619
 10
34972.5386306
 20
-8874.89383316
 10
34989.95710395
 20
-8870.25964549
 42
-1.30322619
 10
34989.94320217
 20
-8879.91888219
 10
34972.5381402
 20
-8875.23457575
 42
1.30322619
 10
34972.52423842
 20
-8884.89381245
 10
34989.94271176
 20
-8880.25962478
 42
-1.30322619
 10
34989.92880999
 20
-8889.91886147
 10
34972.52374802
 20
-8885.23455504
 42
1.30322619
 10
34972.50984624
 20
-8894.89379173
 10
34989.92831958
 20
-8890.25960407
 42
-1.30322619
 10
34989.9144178
 20
-8899.91884076
 10
34972.50935584
 20
-8895.23453433
 42
1.30322619
 10
34972.49545406
 20
-8904.89377102
 10
34989.9139274
 20
-8900.25958335
 42
-1.30322619
 10
34989.90002562
 20
-8909.91882005
 10
34972.49496365
 20
-8905.23451361
 42
1.30322619
 10
34972.48106188
 20
-8914.89375031
 10
34989.89953522
 20
-8910.25956264
 42
-1.30322619
 10
34989.88563344
 20
-8919.91879933
 10
34972.48057147
 20
-8915.2344929
 42
1.30322619
 10
34972.46666969
 20
-8924.89372959
 10
34989.88514304
 20
-8920.25954193
 42
-1.30322619
 10
34989.87124126
 20
-8929.91877862
 10
34972.46617929
 20
-8925.23447218
 42
1.30322619
 10
34972.45227751
 20
-8934.89370888
 10
34989.87075085
 20
-8930.25952121
 42
-1.30322619
 10
34989.85684908
 20
-8939.91875791
 10
34972.45178711
 20
-8935.23445147
 42
1.30322619
 10
34972.43788533
 20
-8944.89368816
 10
34989.85635867
 20
-8940.2595005
 42
-1.30322619
 10
34989.84245689
 20
-8949.91873719
 10
34972.43739493
 20
-8945.23443076
 42
1.30322619
 10
34972.42349315
 20
-8954.89366745
 10
34989.84196649
 20
-8950.25947979
 42
-1.30322619
 10
34989.82806471
 20
-8959.91871648
 10
34972.42300274
 20
-8955.23441004
 42
1.30322619
 10
34972.40910096
 20
-8964.89364674
 10
34989.82757431
 20
-8960.25945907
 42
-1.30322619
 10
34989.81367253
 20
-8969.91869577
 10
34972.40861056
 20
-8965.23438933
 42
1.30322619
 10
34972.39470878
 20
-8974.89362602
 10
34989.81318213
 20
-8970.25943836
 42
-1.30322619
 10
34989.79928035
 20
-8979.91867505
 10
34972.39421838
 20
-8975.23436862
 42
0.66080105
 10
34966.70931548
 20
-8982.46665145
  0
LWPOLYLINE
  5
616
100
AcDbEntity
  8
Ech.1_5
 62
     9
  6
CONTINUOUS
370
    -3
100
AcDbPolyline
 90
        5
 70
     0
 43
0.0
 10
35175.02336957
 20
-9235.06939475
 10
35195.02336957
 20
-9235.06939475
 10
35195.02336957
 20
-8818.12726203
 10
35175.02336957
 20
-8818.12726203
 10
35175.02336957
 20
-9235.06939475
  0
LWPOLYLINE
  5
617
100
AcDbEntity
  8
Ech.1_5
 62
     9
  6
CONTINUOUS
370
    -3
100
AcDbPolyline
 90
        5
 70
     0
 43
0.0
 10
35486.26446516
 20
-8834.12726203
 10
35486.26446516
 20
-8814.12726203
 10
35199.02336957
 20
-8814.12726203
 10
35199.02336957
 20
-8834.12726203
 10
35486.26446516
 20
-8834.12726203
  0
LWPOLYLINE
  5
618
100
AcDbEntity
  8
Ech.1_5
 62
     9
  6
CONTINUOUS
370
    40
100
AcDbPolyline
 90
        5
 70
     0
 43
0.0
 10
35175.02336957
 20
-8864.12989894
 10
35150.0207317
 20
-8864.12989894
 10
35150.0207317
 20
-8789.12462417
 10
35175.02336957
 20
-8789.12462417
 10
35175.02336957
 20
-8864.12989894
  0
LWPOLYLINE
  5
619
100
AcDbEntity
  8
Ech.1_5
 62
     9
  6
CONTINUOUS
370
    -3
100
AcDbPolyline
 90
        4
 70
     0
 43
0.0
 10
35150.0207317
 20
-8789.12462417
 10
35175.02336957
 20
-8864.12989894
 10
35150.0207317
 20
-8864.12989894
 10
35175.02336957
 20
-8789.12462417
  0
LWPOLYLINE
  5
61A
100
AcDbEntity
  8
Ech.1_5
 62
     9
  6
CONTINUOUS
370
    40
100
AcDbPolyline
 90
        5
 70
     0
 43
0.0
 10
35175.02336957
 20
-8814.12726203
 10
35175.02336957
 20
-8789.12462417
 10
35250.02864434
 20
-8789.12462417
 10
35250.02864434
 20
-8814.12726203
 10
35175.02336957
 20
-8814.12726203
  0
LWPOLYLINE
  5
61B
100
AcDbEntity
  8
Ech.1_5
 62
     9
  6
CONTINUOUS
370
    -3
100
AcDbPolyline
 90
        4
 70
     0
 43
0.0
 10
35250.02864434
 20
-8789.12462417
 10
35175.02336957
 20
-8814.12726203
 10
35175.02336957
 20
-8789.12462417
 10
35250.02864434
 20
-8814.12726203
  0
LWPOLYLINE
  5
61C
100
AcDbEntity
  8
Ech.1_5
 62
     5
  6
CONTINUOUS
370
    -3
100
AcDbPolyline
 90
        5
 70
     0
 43
0.0
 10
35041.15869363
 20
-8780.12462417
 10
35186.15869363
 20
-8780.12462417
 10
35186.15869363
 20
-8735.12462417
 10
35041.15869363
 20
-8735.12462417
 10
35041.15869363
 20
-8780.12462417
  0
LWPOLYLINE
  5
61D
100
AcDbEntity
  8
Ech.1_5
 62
     5
  6
CONTINUOUS
370
    -3
100
AcDbPolyline
 90
        5
 70
     0
 43
0.0
 10
34996.08971267
 20
-8635.055643
 10
34996.08971267
 20
-8780.12462417
 10
35041.08971267
 20
-8780.12462417
 10
35041.08971267
 20
-8635.055643
 10
34996.08971267
 20
-8635.055643
  0
LWPOLYLINE
  5
61E
100
AcDbEntity
  8
Ech.1_5
 62
     5
  6
CONTINUOUS
370
    -3
100
AcDbPolyline
 90
        5
 70
     0
 43
0.0
 10
35186.15869363
 20
-8635.055643
 10
35186.15869363
 20
-8780.12462417
 10
35231.15869363
 20
-8780.12462417
 10
35231.15869363
 20
-8635.055643
 10
35186.15869363
 20
-8635.055643
  0
LINE
  5
61F
100
AcDbEntity
  8
Ech.1_5
 62
     1
  6
CADWORK_22
 48
-5.0
370
    35
100
AcDbLine
 10
35486.2618273
 20
-8635.12462417
 30
0.0
 11
34998.08971267
 21
-8635.05586945
 31
0.0
  0
LWPOLYLINE
  5
620
100
AcDbEntity
  8
Ech.1_5
 62
     1
  6
CADWORK_22
 48
-5.0
370
    35
100
AcDbPolyline
 90
        3
 70
     0
 43
0.0
 10
34998.08971267
 20
-8635.05586945
 10
34996.08971267
 20
-8635.055643
 10
34996.08971267
 20
-8834.12462417
  0
LINE
  5
621
100
AcDbEntity
  8
Ech.1_5
 62
   150
  6
CADWORK_22
370
    35
100
AcDbLine
 10
35486.26446516
 20
-8789.12550346
 30
2500.0
 11
34998.09235053
 21
-8789.12550346
 31
2500.0
  0
LWPOLYLINE
  5
622
100
AcDbEntity
  8
Ech.1_5
 62
   150
  6
CADWORK_22
370
    35
100
AcDbPolyline
 90
        3
 70
     0
 43
0.0
 38
2500.0
 10
35150.09235053
 20
-9235.06939475
 10
35150.09235053
 20
-8798.82465086
 10
35075.16684843
 20
-8798.82465086
  0
LWPOLYLINE
  5
623
100
AcDbEntity
  8
Ech.1_5
 62
   190
  6
CONTINUOUS
370
    -3
100
AcDbPolyline
 90
        5
 70
     0
 43
0.0
 10
34611.02727815
 20
-9512.40601397
 10
35596.02727815
 20
-9512.40601397
 10
35596.02727815
 20
-8157.40601397
 10
34611.02727815
 20
-8157.40601397
 10
34611.02727815
 20
-9512.40601397
  0
LINE
  5
624
100
AcDbEntity
  8
Ech.1_5
 62
     1
  6
CADWORK_22
 48
-5.0
370
    35
100
AcDbLine
 10
34995.92870854
 20
-9235.06851546
 30
0.0
 11
34995.89355642
 21
-8844.11420433
 31
0.0
  0
LWPOLYLINE
  5
625
100
AcDbEntity
  8
Ech.1_5
 62
     9
  6
CONTINUOUS
370
    -3
100
AcDbPolyline
 90
      216
 70
     0
 43
0.0
 10
34704.423046
 20
-8335.05564298
 42
1.14028181
 10
34706.57987623
 20
-8351.43835689
 10
34735.5995491
 20
-8343.67292906
 42
-1.30322619
 10
34735.5995491
 20
-8359.77169023
 10
34706.57987623
 20
-8352.00626239
 42
1.30322619
 10
34706.57987623
 20
-8368.10502356
 10
34735.5995491
 20
-8360.33959572
 42
-1.30322619
 10
34735.5995491
 20
-8376.43835689
 10
34706.57987623
 20
-8368.67292906
 42
1.30322619
 10
34706.57987623
 20
-8384.77169023
 10
34735.5995491
 20
-8377.00626239
 42
-1.30322619
 10
34735.5995491
 20
-8393.10502356
 10
34706.57987623
 20
-8385.33959572
 42
1.30322619
 10
34706.57987623
 20
-8401.43835689
 10
34735.5995491
 20
-8393.67292906
 42
-1.30322619
 10
34735.5995491
 20
-8409.77169023
 10
34706.57987623
 20
-8402.00626239
 42
1.30322619
 10
34706.57987623
 20
-8418.10502356
 10
34735.5995491
 20
-8410.33959572
 42
-1.30322619
 10
34735.5995491
 20
-8426.43835689
 10
34706.57987623
 20
-8418.67292906
 42
1.30322619
 10
34706.57987623
 20
-8434.77169023
 10
34735.5995491
 20
-8427.00626239
 42
-1.30322619
 10
34735.5995491
 20
-8443.10502356
 10
34706.57987623
 20
-8435.33959572
 42
1.30322619
 10
34706.57987623
 20
-8451.43835689
 10
34735.5995491
 20
-8443.67292906
 42
-1.30322619
 10
34735.5995491
 20
-8459.77169023
 10
34706.57987623
 20
-8452.00626239
 42
1.30322619
 10
34706.57987623
 20
-8468.10502356
 10
34735.5995491
 20
-8460.33959572
 42
-1.30322619
 10
34735.5995491
 20
-8476.43835689
 10
34706.57987623
 20
-8468.67292906
 42
1.30322619
 10
34706.57987623
 20
-8484.77169023
 10
34735.5995491
 20
-8477.00626239
 42
-1.30322619
 10
34735.5995491
 20
-8493.10502356
 10
34706.57987623
 20
-8485.33959572
 42
1.30322619
 10
34706.57987623
 20
-8501.43835689
 10
34735.5995491
 20
-8493.67292906
 42
-1.30322619
 10
34735.5995491
 20
-8509.77169023
 10
34706.57987623
 20
-8502.00626239
 42
1.30322619
 10
34706.57987623
 20
-8518.10502356
 10
34735.5995491
 20
-8510.33959572
 42
-1.30322619
 10
34735.5995491
 20
-8526.43835689
 10
34706.57987623
 20
-8518.67292906
 42
1.30322619
 10
34706.57987623
 20
-8534.77169023
 10
34735.5995491
 20
-8527.00626239
 42
-1.30322619
 10
34735.5995491
 20
-8543.10502356
 10
34706.57987623
 20
-8535.33959572
 42
1.30322619
 10
34706.57987623
 20
-8551.43835689
 10
34735.5995491
 20
-8543.67292906
 42
-1.30322619
 10
34735.5995491
 20
-8559.77169023
 10
34706.57987623
 20
-8552.00626239
 42
1.30322619
 10
34706.57987623
 20
-8568.10502356
 10
34735.5995491
 20
-8560.33959572
 42
-1.30322619
 10
34735.5995491
 20
-8576.43835689
 10
34706.57987623
 20
-8568.67292906
 42
1.30322619
 10
34706.57987623
 20
-8584.77169023
 10
34735.5995491
 20
-8577.00626239
 42
-1.30322619
 10
34735.5995491
 20
-8593.10502356
 10
34706.57987623
 20
-8585.33959572
 42
1.30322619
 10
34706.57987623
 20
-8601.43835689
 10
34735.5995491
 20
-8593.67292906
 42
-1.30322619
 10
34735.5995491
 20
-8609.77169023
 10
34706.57987623
 20
-8602.00626239
 42
1.30322619
 10
34706.57987623
 20
-8618.10502356
 10
34735.5995491
 20
-8610.33959572
 42
-1.30322619
 10
34735.5995491
 20
-8626.43835689
 10
34706.57987623
 20
-8618.67292906
 42
1.30322619
 10
34706.57987623
 20
-8634.77169023
 10
34735.5995491
 20
-8627.00626239
 42
-1.30322619
 10
34735.5995491
 20
-8643.10502356
 10
34706.57987623
 20
-8635.33959572
 42
1.30322619
 10
34706.57987623
 20
-8651.43835689
 10
34735.5995491
 20
-8643.67292906
 42
-1.30322619
 10
34735.5995491
 20
-8659.77169023
 10
34706.57987623
 20
-8652.00626239
 42
1.30322619
 10
34706.57987623
 20
-8668.10502356
 10
34735.5995491
 20
-8660.33959572
 42
-1.30322619
 10
34735.5995491
 20
-8676.43835689
 10
34706.57987623
 20
-8668.67292906
 42
1.30322619
 10
34706.57987623
 20
-8684.77169023
 10
34735.5995491
 20
-8677.00626239
 42
-1.30322619
 10
34735.5995491
 20
-8693.10502356
 10
34706.57987623
 20
-8685.33959572
 42
1.30322619
 10
34706.57987623
 20
-8701.43835689
 10
34735.5995491
 20
-8693.67292906
 42
-1.30322619
 10
34735.5995491
 20
-8709.77169023
 10
34706.57987623
 20
-8702.00626239
 42
1.30322619
 10
34706.57987623
 20
-8718.10502356
 10
34735.5995491
 20
-8710.33959572
 42
-1.30322619
 10
34735.5995491
 20
-8726.43835689
 10
34706.57987623
 20
-8718.67292906
 42
1.30322619
 10
34706.57987623
 20
-8734.77169023
 10
34735.5995491
 20
-8727.00626239
 42
-1.30322619
 10
34735.5995491
 20
-8743.10502356
 10
34706.57987623
 20
-8735.33959572
 42
1.30322619
 10
34706.57987623
 20
-8751.43835689
 10
34735.5995491
 20
-8743.67292906
 42
-1.30322619
 10
34735.5995491
 20
-8759.77169023
 10
34706.57987623
 20
-8752.00626239
 42
1.30322619
 10
34706.57987623
 20
-8768.10502356
 10
34735.5995491
 20
-8760.33959572
 42
-1.30322619
 10
34735.5995491
 20
-8776.43835689
 10
34706.57987623
 20
-8768.67292906
 42
1.30322619
 10
34706.57987623
 20
-8784.77169023
 10
34735.5995491
 20
-8777.00626239
 42
-1.30322619
 10
34735.5995491
 20
-8793.10502356
 10
34706.57987623
 20
-8785.33959572
 42
1.30322619
 10
34706.57987623
 20
-8801.43835689
 10
34735.5995491
 20
-8793.67292906
 42
-1.30322619
 10
34735.5995491
 20
-8809.77169023
 10
34706.57987623
 20
-8802.00626239
 42
1.30322619
 10
34706.57987623
 20
-8818.10502356
 10
34735.5995491
 20
-8810.33959572
 42
-1.30322619
 10
34735.5995491
 20
-8826.43835689
 10
34706.57987623
 20
-8818.67292906
 42
1.30322619
 10
34706.57987623
 20
-8834.77169023
 10
34735.5995491
 20
-8827.00626239
 42
-1.30322619
 10
34735.5995491
 20
-8843.10502356
 10
34706.57987623
 20
-8835.33959572
 42
1.30322619
 10
34706.57987623
 20
-8851.43835689
 10
34735.5995491
 20
-8843.67292906
 42
-1.30322619
 10
34735.5995491
 20
-8859.77169023
 10
34706.57987623
 20
-8852.00626239
 42
1.30322619
 10
34706.57987623
 20
-8868.10502356
 10
34735.5995491
 20
-8860.33959572
 42
-1.30322619
 10
34735.5995491
 20
-8876.43835689
 10
34706.57987623
 20
-8868.67292906
 42
1.30322619
 10
34706.57987623
 20
-8884.77169023
 10
34735.5995491
 20
-8877.00626239
 42
-1.30322619
 10
34735.5995491
 20
-8893.10502356
 10
34706.57987623
 20
-8885.33959572
 42
1.30322619
 10
34706.57987623
 20
-8901.43835689
 10
34735.5995491
 20
-8893.67292906
 42
-1.30322619
 10
34735.5995491
 20
-8909.77169023
 10
34706.57987623
 20
-8902.00626239
 42
1.30322619
 10
34706.57987623
 20
-8918.10502356
 10
34735.5995491
 20
-8910.33959572
 42
-1.30322619
 10
34735.5995491
 20
-8926.43835689
 10
34706.57987623
 20
-8918.67292906
 42
1.30322619
 10
34706.57987623
 20
-8934.77169023
 10
34735.5995491
 20
-8927.00626239
 42
-1.30322619
 10
34735.5995491
 20
-8943.10502356
 10
34706.57987623
 20
-8935.33959572
 42
1.30322619
 10
34706.57987623
 20
-8951.43835689
 10
34735.5995491
 20
-8943.67292906
 42
-1.30322619
 10
34735.5995491
 20
-8959.77169023
 10
34706.57987623
 20
-8952.00626239
 42
1.30322619
 10
34706.57987623
 20
-8968.10502356
 10
34735.5995491
 20
-8960.33959572
 42
-1.30322619
 10
34735.5995491
 20
-8976.43835689
 10
34706.57987623
 20
-8968.67292906
 42
1.30322619
 10
34706.57987623
 20
-8984.77169023
 10
34735.5995491
 20
-8977.00626239
 42
-1.30322619
 10
34735.5995491
 20
-8993.10502356
 10
34706.57987623
 20
-8985.33959572
 42
1.30322619
 10
34706.57987623
 20
-9001.43835689
 10
34735.5995491
 20
-8993.67292906
 42
-1.30322619
 10
34735.5995491
 20
-9009.77169023
 10
34706.57987623
 20
-9002.00626239
 42
1.30322619
 10
34706.57987623
 20
-9018.10502356
 10
34735.5995491
 20
-9010.33959572
 42
-1.30322619
 10
34735.5995491
 20
-9026.43835689
 10
34706.57987623
 20
-9018.67292906
 42
1.30322619
 10
34706.57987623
 20
-9034.77169023
 10
34735.5995491
 20
-9027.00626239
 42
-1.30322619
 10
34735.5995491
 20
-9043.10502356
 10
34706.57987623
 20
-9035.33959572
 42
1.30322619
 10
34706.57987623
 20
-9051.43835689
 10
34735.5995491
 20
-9043.67292906
 42
-1.30322619
 10
34735.5995491
 20
-9059.77169023
 10
34706.57987623
 20
-9052.00626239
 42
1.30322619
 10
34706.57987623
 20
-9068.10502356
 10
34735.5995491
 20
-9060.33959572
 42
-1.30322619
 10
34735.5995491
 20
-9076.43835689
 10
34706.57987623
 20
-9068.67292906
 42
1.30322619
 10
34706.57987623
 20
-9084.77169023
 10
34735.5995491
 20
-9077.00626239
 42
-1.30322619
 10
34735.5995491
 20
-9093.10502356
 10
34706.57987623
 20
-9085.33959572
 42
1.30322619
 10
34706.57987623
 20
-9101.43835689
 10
34735.5995491
 20
-9093.67292906
 42
-1.30322619
 10
34735.5995491
 20
-9109.77169023
 10
34706.57987623
 20
-9102.00626239
 42
1.30322619
 10
34706.57987623
 20
-9118.10502356
 10
34735.5995491
 20
-9110.33959572
 42
-1.30322619
 10
34735.5995491
 20
-9126.43835689
 10
34706.57987623
 20
-9118.67292906
 42
1.30322619
 10
34706.57987623
 20
-9134.77169023
 10
34735.5995491
 20
-9127.00626239
 42
-1.30322619
 10
34735.5995491
 20
-9143.10502356
 10
34706.57987623
 20
-9135.33959572
 42
1.30322619
 10
34706.57987623
 20
-9151.43835689
 10
34735.5995491
 20
-9143.67292906
 42
-1.30322619
 10
34735.5995491
 20
-9159.77169023
 10
34706.57987623
 20
-9152.00626239
 42
1.30322619
 10
34706.57987623
 20
-9168.10502356
 10
34735.5995491
 20
-9160.33959572
 42
-1.30322619
 10
34735.5995491
 20
-9176.43835689
 10
34706.57987623
 20
-9168.67292906
 42
1.30322619
 10
34706.57987623
 20
-9184.77169023
 10
34735.5995491
 20
-9177.00626239
 42
-1.30322619
 10
34735.5995491
 20
-9193.10502356
 10
34706.57987623
 20
-9185.33959572
 42
1.30322619
 10
34706.57987623
 20
-9201.43835689
 10
34735.5995491
 20
-9193.67292906
 42
-1.30322619
 10
34735.5995491
 20
-9209.77169023
 10
34706.57987623
 20
-9202.00626239
 42
1.30322619
 10
34706.57987623
 20
-9218.10502356
 10
34735.5995491
 20
-9210.33959572
 42
-1.30322619
 10
34735.5995491
 20
-9226.43835689
 10
34706.57987623
 20
-9218.67292906
 42
1.30322619
 10
34706.57987623
 20
-9234.77169023
 10
34735.5995491
 20
-9227.00626239
 42
-0.49362579
 10
34746.08970273
 20
-9235.06851546
  0
LWPOLYLINE
  5
626
100
AcDbEntity
  8
Ech.1_5
 62
   190
  6
CONTINUOUS
370
    -3
100
AcDbPolyline
 90
       28
 70
     0
 43
0.0
 10
35116.89621198
 20
-9235.06851546
 42
1.14028181
 10
35110.63445914
 20
-9187.50589141
 10
35026.38396208
 20
-9210.05063745
 42
-1.30322619
 10
35026.38396208
 20
-9163.31239072
 10
35110.63445914
 20
-9185.85713676
 42
1.30322619
 10
35110.63445914
 20
-9139.11889003
 10
35026.38396208
 20
-9161.66363608
 42
-1.30322619
 10
35026.38396208
 20
-9114.92538935
 10
35110.63445914
 20
-9137.47013539
 42
1.30322619
 10
35110.63445914
 20
-9090.73188866
 10
35026.38396208
 20
-9113.2766347
 42
-1.30322619
 10
35026.38396208
 20
-9066.53838797
 10
35110.63445914
 20
-9089.08313401
 42
1.30322619
 10
35110.63445914
 20
-9042.34488728
 10
35026.38396208
 20
-9064.88963333
 42
-1.30322619
 10
35026.38396208
 20
-9018.1513866
 10
35110.63445914
 20
-9040.69613264
 42
1.30322619
 10
35110.63445914
 20
-8993.95788591
 10
35026.38396208
 20
-9016.50263195
 42
-1.30322619
 10
35026.38396208
 20
-8969.76438522
 10
35110.63445914
 20
-8992.30913126
 42
1.30322619
 10
35110.63445914
 20
-8945.57088453
 10
35026.38396208
 20
-8968.11563058
 42
-1.30322619
 10
35026.38396208
 20
-8921.37738385
 10
35110.63445914
 20
-8943.92212989
 42
1.30322619
 10
35110.63445914
 20
-8897.18388316
 10
35026.38396208
 20
-8919.7286292
 42
-0.59139911
 10
34997.03580711
 20
-8889.12462417
  0
LWPOLYLINE
  5
627
100
AcDbEntity
  8
Ech.1_5
 62
   190
  6
CONTINUOUS
370
    -3
100
AcDbPolyline
 90
       20
 70
     0
 43
0.0
 10
35486.2552894
 20
-8659.30278593
 42
1.14028181
 10
35438.7211284
 20
-8665.54771574
 10
35461.22881353
 20
-8749.75088947
 42
-1.30322619
 10
35414.52019933
 20
-8749.73825923
 10
35437.07341908
 20
-8665.54727019
 42
1.30322619
 10
35390.36480488
 20
-8665.53463995
 10
35412.87249001
 20
-8749.73781368
 42
-1.30322619
 10
35366.16387581
 20
-8749.72518344
 10
35388.71709556
 20
-8665.5341944
 42
1.30322619
 10
35342.00848136
 20
-8665.52156416
 10
35364.51616649
 20
-8749.72473789
 42
-1.30322619
 10
35317.80755229
 20
-8749.71210764
 10
35340.36077204
 20
-8665.52111861
 42
1.30322619
 10
35293.65215784
 20
-8665.50848836
 10
35316.15984297
 20
-8749.71166209
 42
-1.30322619
 10
35269.45122876
 20
-8749.69903185
 10
35292.00444852
 20
-8665.50804281
 42
1.30322619
 10
35245.29583432
 20
-8665.49541257
 10
35267.80351945
 20
-8749.6985863
 42
-0.69007167
 10
35231.12054813
 20
-8776.12368442
  0
LWPOLYLINE
  5
628
100
AcDbEntity
  8
Ech.1_5
 62
     9
  6
CONTINUOUS
370
    -3
100
AcDbPolyline
 90
      176
 70
     0
 43
0.0
 10
34746.08971267
 20
-8376.72230964
 42
1.14028181
 10
34762.47242659
 20
-8374.56547941
 10
34754.70699875
 20
-8345.54580654
 42
-1.30322619
 10
34770.80575992
 20
-8345.54580654
 10
34763.04033208
 20
-8374.56547941
 42
1.30322619
 10
34779.13909325
 20
-8374.56547941
 10
34771.37366542
 20
-8345.54580654
 42
-1.30322619
 10
34787.47242659
 20
-8345.54580654
 10
34779.70699875
 20
-8374.56547941
 42
1.30322619
 10
34795.80575992
 20
-8374.56547941
 10
34788.04033208
 20
-8345.54580654
 42
-1.30322619
 10
34804.13909325
 20
-8345.54580654
 10
34796.37366542
 20
-8374.56547941
 42
1.30322619
 10
34812.47242659
 20
-8374.56547941
 10
34804.70699875
 20
-8345.54580654
 42
-1.30322619
 10
34820.80575992
 20
-8345.54580654
 10
34813.04033208
 20
-8374.56547941
 42
1.30322619
 10
34829.13909325
 20
-8374.56547941
 10
34821.37366542
 20
-8345.54580654
 42
-1.30322619
 10
34837.47242659
 20
-8345.54580654
 10
34829.70699875
 20
-8374.56547941
 42
1.30322619
 10
34845.80575992
 20
-8374.56547941
 10
34838.04033208
 20
-8345.54580654
 42
-1.30322619
 10
34854.13909325
 20
-8345.54580654
 10
34846.37366542
 20
-8374.56547941
 42
1.30322619
 10
34862.47242659
 20
-8374.56547941
 10
34854.70699875
 20
-8345.54580654
 42
-1.30322619
 10
34870.80575992
 20
-8345.54580654
 10
34863.04033208
 20
-8374.56547941
 42
1.30322619
 10
34879.13909325
 20
-8374.56547941
 10
34871.37366542
 20
-8345.54580654
 42
-1.30322619
 10
34887.47242659
 20
-8345.54580654
 10
34879.70699875
 20
-8374.56547941
 42
1.30322619
 10
34895.80575992
 20
-8374.56547941
 10
34888.04033208
 20
-8345.54580654
 42
-1.30322619
 10
34904.13909325
 20
-8345.54580654
 10
34896.37366542
 20
-8374.56547941
 42
1.30322619
 10
34912.47242659
 20
-8374.56547941
 10
34904.70699875
 20
-8345.54580654
 42
-1.30322619
 10
34920.80575992
 20
-8345.54580654
 10
34913.04033208
 20
-8374.56547941
 42
1.30322619
 10
34929.13909325
 20
-8374.56547941
 10
34921.37366542
 20
-8345.54580654
 42
-1.30322619
 10
34937.47242659
 20
-8345.54580654
 10
34929.70699875
 20
-8374.56547941
 42
1.30322619
 10
34945.80575992
 20
-8374.56547941
 10
34938.04033208
 20
-8345.54580654
 42
-1.30322619
 10
34954.13909325
 20
-8345.54580654
 10
34946.37366542
 20
-8374.56547941
 42
1.30322619
 10
34962.47242659
 20
-8374.56547941
 10
34954.70699875
 20
-8345.54580654
 42
-1.30322619
 10
34970.80575992
 20
-8345.54580654
 10
34963.04033208
 20
-8374.56547941
 42
1.30322619
 10
34979.13909325
 20
-8374.56547941
 10
34971.37366542
 20
-8345.54580654
 42
-1.30322619
 10
34987.47242659
 20
-8345.54580654
 10
34979.70699875
 20
-8374.56547941
 42
1.30322619
 10
34995.80575992
 20
-8374.56547941
 10
34988.04033208
 20
-8345.54580654
 42
-1.30322619
 10
35004.13909325
 20
-8345.54580654
 10
34996.37366542
 20
-8374.56547941
 42
1.30322619
 10
35012.47242659
 20
-8374.56547941
 10
35004.70699875
 20
-8345.54580654
 42
-1.30322619
 10
35020.80575992
 20
-8345.54580654
 10
35013.04033208
 20
-8374.56547941
 42
1.30322619
 10
35029.13909325
 20
-8374.56547941
 10
35021.37366542
 20
-8345.54580654
 42
-1.30322619
 10
35037.47242659
 20
-8345.54580654
 10
35029.70699875
 20
-8374.56547941
 42
1.30322619
 10
35045.80575992
 20
-8374.56547941
 10
35038.04033208
 20
-8345.54580654
 42
-1.30322619
 10
35054.13909325
 20
-8345.54580654
 10
35046.37366542
 20
-8374.56547941
 42
1.30322619
 10
35062.47242659
 20
-8374.56547941
 10
35054.70699875
 20
-8345.54580654
 42
-1.30322619
 10
35070.80575992
 20
-8345.54580654
 10
35063.04033208
 20
-8374.56547941
 42
1.30322619
 10
35079.13909325
 20
-8374.56547941
 10
35071.37366542
 20
-8345.54580654
 42
-1.30322619
 10
35087.47242659
 20
-8345.54580654
 10
35079.70699875
 20
-8374.56547941
 42
1.30322619
 10
35095.80575992
 20
-8374.56547941
 10
35088.04033208
 20
-8345.54580654
 42
-1.30322619
 10
35104.13909325
 20
-8345.54580654
 10
35096.37366542
 20
-8374.56547941
 42
1.30322619
 10
35112.47242659
 20
-8374.56547941
 10
35104.70699875
 20
-8345.54580654
 42
-1.30322619
 10
35120.80575992
 20
-8345.54580654
 10
35113.04033208
 20
-8374.56547941
 42
1.30322619
 10
35129.13909325
 20
-8374.56547941
 10
35121.37366542
 20
-8345.54580654
 42
-1.30322619
 10
35137.47242659
 20
-8345.54580654
 10
35129.70699875
 20
-8374.56547941
 42
1.30322619
 10
35145.80575992
 20
-8374.56547941
 10
35138.04033208
 20
-8345.54580654
 42
-1.30322619
 10
35154.13909325
 20
-8345.54580654
 10
35146.37366542
 20
-8374.56547941
 42
1.30322619
 10
35162.47242659
 20
-8374.56547941
 10
35154.70699875
 20
-8345.54580654
 42
-1.30322619
 10
35170.80575992
 20
-8345.54580654
 10
35163.04033208
 20
-8374.56547941
 42
1.30322619
 10
35179.13909325
 20
-8374.56547941
 10
35171.37366542
 20
-8345.54580654
 42
-1.30322619
 10
35187.47242659
 20
-8345.54580654
 10
35179.70699875
 20
-8374.56547941
 42
1.30322619
 10
35195.80575992
 20
-8374.56547941
 10
35188.04033208
 20
-8345.54580654
 42
-1.30322619
 10
35204.13909325
 20
-8345.54580654
 10
35196.37366542
 20
-8374.56547941
 42
1.30322619
 10
35212.47242659
 20
-8374.56547941
 10
35204.70699875
 20
-8345.54580654
 42
-1.30322619
 10
35220.80575992
 20
-8345.54580654
 10
35213.04033208
 20
-8374.56547941
 42
1.30322619
 10
35229.13909325
 20
-8374.56547941
 10
35221.37366542
 20
-8345.54580654
 42
-1.30322619
 10
35237.47242659
 20
-8345.54580654
 10
35229.70699875
 20
-8374.56547941
 42
1.30322619
 10
35245.80575992
 20
-8374.56547941
 10
35238.04033208
 20
-8345.54580654
 42
-1.30322619
 10
35254.13909325
 20
-8345.54580654
 10
35246.37366542
 20
-8374.56547941
 42
1.30322619
 10
35262.47242659
 20
-8374.56547941
 10
35254.70699875
 20
-8345.54580654
 42
-1.30322619
 10
35270.80575992
 20
-8345.54580654
 10
35263.04033208
 20
-8374.56547941
 42
1.30322619
 10
35279.13909325
 20
-8374.56547941
 10
35271.37366542
 20
-8345.54580654
 42
-1.30322619
 10
35287.47242659
 20
-8345.54580654
 10
35279.70699875
 20
-8374.56547941
 42
1.30322619
 10
35295.80575992
 20
-8374.56547941
 10
35288.04033208
 20
-8345.54580654
 42
-1.30322619
 10
35304.13909325
 20
-8345.54580654
 10
35296.37366542
 20
-8374.56547941
 42
1.30322619
 10
35312.47242659
 20
-8374.56547941
 10
35304.70699875
 20
-8345.54580654
 42
-1.30322619
 10
35320.80575992
 20
-8345.54580654
 10
35313.04033208
 20
-8374.56547941
 42
1.30322619
 10
35329.13909325
 20
-8374.56547941
 10
35321.37366542
 20
-8345.54580654
 42
-1.30322619
 10
35337.47242659
 20
-8345.54580654
 10
35329.70699875
 20
-8374.56547941
 42
1.30322619
 10
35345.80575992
 20
-8374.56547941
 10
35338.04033208
 20
-8345.54580654
 42
-1.30322619
 10
35354.13909325
 20
-8345.54580654
 10
35346.37366542
 20
-8374.56547941
 42
1.30322619
 10
35362.47242659
 20
-8374.56547941
 10
35354.70699875
 20
-8345.54580654
 42
-1.30322619
 10
35370.80575992
 20
-8345.54580654
 10
35363.04033208
 20
-8374.56547941
 42
1.30322619
 10
35379.13909325
 20
-8374.56547941
 10
35371.37366542
 20
-8345.54580654
 42
-1.30322619
 10
35387.47242659
 20
-8345.54580654
 10
35379.70699875
 20
-8374.56547941
 42
1.30322619
 10
35395.80575992
 20
-8374.56547941
 10
35388.04033208
 20
-8345.54580654
 42
-1.30322619
 10
35404.13909325
 20
-8345.54580654
 10
35396.37366542
 20
-8374.56547941
 42
1.30322619
 10
35412.47242659
 20
-8374.56547941
 10
35404.70699875
 20
-8345.54580654
 42
-1.30322619
 10
35420.80575992
 20
-8345.54580654
 10
35413.04033208
 20
-8374.56547941
 42
1.30322619
 10
35429.13909325
 20
-8374.56547941
 10
35421.37366542
 20
-8345.54580654
 42
-1.30322619
 10
35437.47242659
 20
-8345.54580654
 10
35429.70699875
 20
-8374.56547941
 42
1.30322619
 10
35445.80575992
 20
-8374.56547941
 10
35438.04033208
 20
-8345.54580654
 42
-1.30322619
 10
35454.13909325
 20
-8345.54580654
 10
35446.37366542
 20
-8374.56547941
 42
1.30322619
 10
35462.47242659
 20
-8374.56547941
 10
35454.70699875
 20
-8345.54580654
 42
-1.30322619
 10
35470.80575992
 20
-8345.54580654
 10
35463.04033208
 20
-8374.56547941
 42
1.30322619
 10
35479.13909325
 20
-8374.56547941
 10
35471.37366542
 20
-8345.54580654
 42
-0.84021799
 10
35486.2618273
 20
-8338.62709487
  0
LWPOLYLINE
  5
629
100
AcDbEntity
  8
Ech.1_5
 62
   190
  6
CONTINUOUS
370
    -3
100
AcDbPolyline
 90
        6
 70
     0
 43
0.0
 10
35486.2618273
 20
-8298.23634282
 10
35486.2618273
 20
-8695.66468421
 10
35504.2391757
 20
-8712.15018741
 10
35468.28347569
 20
-8698.04024784
 10
35486.2618273
 20
-8714.52660171
 10
35486.2618273
 20
-8888.52660171
  0
LWPOLYLINE
  5
62A
100
AcDbEntity
  8
Ech.1_5
 62
   190
  6
CONTINUOUS
370
    -3
100
AcDbPolyline
 90
        6
 70
     0
 43
0.0
 10
34645.56004046
 20
-9235.06851546
 10
35095.40197566
 20
-9235.06851546
 10
35111.88747881
 20
-9217.09116713
 10
35097.77753879
 20
-9253.04686705
 10
35114.26389287
 20
-9235.06851546
 10
35250.26389287
 20
-9235.06851546
  0
LWPOLYLINE
  5
62B
102
{ACAD_REACTORS
330
62C
102
}
100
AcDbEntity
  8
Ech.1_5
 62
     7
  6
CONTINUOUS
370
     5
100
AcDbPolyline
 90
        4
 70
     1
 43
0.0
 10
35140.04325731
 20
-8789.39199075
 10
35114.21872622
 20
-8789.39199075
 10
35114.21872622
 20
-8798.82465086
 10
35140.04325731
 20
-8798.82465086
  0
HATCH
  5
62C
100
AcDbEntity
  8
Ech.1_5
 62
     2
  6
CONTINUOUS
100
AcDbHatch
 10
0.0
 20
0.0
 30
0.0
210
0.0
220
0.0
230
1.0
  2
SOLID
 70
     1
 71
     1
 91
        1
 92
        7
 72
     0
 73
     1
 93
        4
 10
35140.04325731
 20
-8789.39199075
 10
35114.21872622
 20
-8789.39199075
 10
35114.21872622
 20
-8798.82465086
 10
35140.04325731
 20
-8798.82465086
 97
        1
330
62B
 75
     0
 76
     2
 47
0.775229
 98
        1
 10
0.0
 20
0.0
  0
HATCH
  5
62D
100
AcDbEntity
  8
Ech.1_5
 62
     7
100
AcDbHatch
 10
0.0
 20
0.0
 30
0.0
210
0.0
220
0.0
230
1.0
  2
ANSI37
 70
     0
 71
     0
 91
        1
 92
        7
 72
     0
 73
     1
 93
        4
 10
35140.04325731
 20
-8789.39199075
 10
35114.21872622
 20
-8789.39199075
 10
35114.21872622
 20
-8798.82465086
 10
35140.04325731
 20
-8798.82465086
 97
        0
 75
     0
 76
     2
 52
0.0
 41
1.87498831
 77
     0
 78
     2
 53
45.0
 43
0.0
 44
0.0
 45
4.20946876
 46
-4.20946876
 79
     0
 53
-45.0
 43
0.0
 44
0.0
 45
4.20946876
 46
4.20946876
 79
     0
 47
0.775229
 98
        1
 10
0.0
 20
0.0
  0
LWPOLYLINE
  5
62E
100
AcDbEntity
  8
Ech.1_5
 62
   190
100
AcDbPolyline
 90
        5
 70
     0
 43
0.0
 10
34632.01920375
 20
-8178.02947646
 10
34766.44798273
 20
-8178.02947646
 10
34766.44798273
 20
-8234.75243527
 10
34632.01920375
 20
-8234.75243527
 10
34632.01920375
 20
-8178.02947646
  0
HATCH
  5
62F
100
AcDbEntity
  8
Ech.1_5
 62
   190
100
AcDbHatch
 10
0.0
 20
0.0
 30
0.0
210
0.0
220
0.0
230
1.0
  2
SOLID
 70
     1
 71
     0
 91
        1
 92
        7
 72
     0
 73
     1
 93
        4
 10
34650.29924953
 20
-8211.68628758
 10
34700.29924953
 20
-8211.68628758
 10
34700.29924953
 20
-8204.27115005
 10
34650.29924953
 20
-8204.27115005
 97
        0
 75
     0
 76
     2
 47
0.775229
 98
        1
 10
0.0
 20
0.0
  0
LWPOLYLINE
  5
630
100
AcDbEntity
  8
Ech.1_5
 62
   190
100
AcDbPolyline
 90
        5
 70
     0
 43
0.0
 10
34650.29924953
 20
-8211.68628758
 10
34700.29924953
 20
-8211.68628758
 10
34700.29924953
 20
-8204.27115005
 10
34650.29924953
 20
-8204.27115005
 10
34650.29924953
 20
-8211.68628758
  0
LWPOLYLINE
  5
631
100
AcDbEntity
  8
Ech.1_5
 62
   190
100
AcDbPolyline
 90
        5
 70
     0
 43
0.0
 10
34700.29924953
 20
-8211.68628758
 10
34750.29924953
 20
-8211.68628758
 10
34750.29924953
 20
-8204.27115005
 10
34700.29924953
 20
-8204.27115005
 10
34700.29924953
 20
-8211.68628758
  0
TEXT
  5
632
100
AcDbEntity
  8
Ech.1_5
 62
   190
100
AcDbText
 10
34661.59354216
 20
-8194.68514697
 30
0.0
 40
8.00000012
  1
Echelle en mm
  7
ARIAL
 50
0.0
 41
1.0
 51
0.0
100
AcDbText
  0
TEXT
  5
633
100
AcDbEntity
  8
Ech.1_5
 62
   190
100
AcDbText
 10
34647.61295741
 20
-8222.8949825
 30
0.0
 40
8.00000012
  1
0
  7
ARIAL
 50
0.0
 41
1.0
 51
0.0
100
AcDbText
  0
TEXT
  5
634
100
AcDbEntity
  8
Ech.1_5
 62
   190
100
AcDbText
 10
34734.2100153
 20
-8222.8949825
 30
0.0
 40
8.00000012
  1
100
  7
ARIAL
 50
0.0
 41
1.0
 51
0.0
100
AcDbText
  0
TEXT
  5
635
100
AcDbEntity
  8
Ech.1_5
 62
   190
100
AcDbText
 10
34695.46958374
 20
-8222.8949825
 30
0.0
 40
8.00000012
  1
50
  7
ARIAL
 50
0.0
 41
1.0
 51
0.0
100
AcDbText
  0
ENDSEC
  0
SECTION
  2
OBJECTS
  0
DICTIONARY
  5
1
100
AcDbDictionary
  3
ACAD_GROUP
350
2
  3
ACAD_MLINESTYLE
350
3
  0
DICTIONARY
  5
2
102
{CDWK_REACTORS
330
1
102
}
100
AcDbDictionary
  0
DICTIONARY
  5
3
102
{CDWK_REACTORS
330
1
102
}
100
AcDbDictionary
  3
STANDARD
350
4
  0
MLINESTYLE
  5
4
102
{CDWK_REACTORS
330
3
102
}
100
AcDbMlineStyle
  2
STANDARD
 70
     0
  3

 62
     0
 51
90.0
 52
90.0
 71
     2
 49
0.5
 62
   256
  6
BYLAYER
 49
-0.5
 62
   256
  6
BYLAYER
  0
ENDSEC
  0
EOF
