  0
SECTION
  2
HEADER
  9
$ACADVER
  1
AC1014
  9
$DWGCODEPAGE
  3
ANSI_1252
  9
$INSBASE
 10
0.0
 20
0.0
 30
0.0
  9
$EXTMIN
 10
1033.98771282
 20
-21718.34332712
  9
$EXTMAX
 10
122326.07664696
 20
2240.3362527
  9
$LIMMIN
 10
1033.98771282
 20
-21718.34332712
  9
$LIMMAX
 10
122326.07664696
 20
2240.3362527
  9
$ORTHOMODE
 70
     0
  9
$REGENMODE
 70
     1
  9
$FILLMODE
 70
     1
  9
$QTEXTMODE
 70
     0
  9
$MIRRTEXT
 70
     1
  9
$DRAGMODE
 70
     2
  9
$LTSCALE
 40
5.0
  9
$OSMODE
 70
     0
  9
$ATTMODE
 70
     1
  9
$TEXTSIZE
 40
3.5
  9
$TRACEWID
 40
1.0
  9
$TEXTSTYLE
  7
STANDARD
  9
$CLAYER
  8
0
  9
$CELTYPE
  6
BYLAYER
  9
$CECOLOR
 62
   256
  9
$DIMSCALE
 40
1.0
  9
$DIMASZ
 40
2.0
  9
$DIMEXO
 40
5.0
  9
$DIMDLI
 40
10.0
  9
$DIMRND
 40
0.0
  9
$DIMDLE
 40
2.0
  9
$DIMEXE
 40
2.0
  9
$DIMTP
 40
0.0
  9
$DIMTM
 40
0.0
  9
$DIMTXT
 40
2.5
  9
$DIMCEN
 40
1.5
  9
$DIMTSZ
 40
0.0
  9
$DIMTOL
 70
     0
  9
$DIMLIM
 70
     0
  9
$DIMTIH
 70
     1
  9
$DIMTOH
 70
     0
  9
$DIMSE1
 70
     0
  9
$DIMSE2
 70
     0
  9
$DIMTAD
 70
     1
  9
$DIMZIN
 70
     8
  9
$DIMBLK
  1

  9
$DIMASO
 70
     1
  9
$DIMSHO
 70
     1
  9
$DIMPOST
  1

  9
$DIMAPOST
  1

  9
$DIMALT
 70
     0
  9
$DIMALTD
 70
     2
  9
$DIMALTF
 40
25.4
  9
$DIMLFAC
 40
1.0
  9
$DIMTOFL
 70
     0
  9
$DIMTVP
 40
0.0
  9
$DIMTIX
 70
     0
  9
$DIMSOXD
 70
     0
  9
$DIMSAH
 70
     0
  9
$DIMBLK1
  1

  9
$DIMBLK2
  1

  9
$DIMSTYLE
  2
*UNNAMED
  9
$DIMCLRD
 70
   190
  9
$DIMCLRE
 70
   190
  9
$DIMCLRT
 70
   190
  9
$DIMTFAC
 40
1.0
  9
$DIMGAP
 40
0.09
  9
$DIMUNIT
 70
     2
  9
$LUNITS
 70
     2
  9
$LUPREC
 70
     6
  9
$AXISMODE
 70
     0
  9
$AXISUNIT
 10
0.0
 20
0.0
  9
$SKETCHINC
 40
0.1
  9
$FILLETRAD
 40
0.0
  9
$AUNITS
 70
     0
  9
$AUPREC
 70
     0
  9
$MENU
  1
ACAD
  9
$ELEVATION
 40
0.0
  9
$PELEVATION
 40
0.0
  9
$THICKNESS
 40
0.0
  9
$LIMCHECK
 70
     0
  9
$BLIPMODE
 70
     1
  9
$CHAMFERA
 40
0.0
  9
$CHAMFERB
 40
0.0
  9
$SKPOLY
 70
     1
  9
$TDCREATE
 40
2457808.0000000000
  9
$TDUPDATE
 40
2457808.0000000000
  9
$TDINDWG
 40
0.0
  9
$TDUSRTIMER
 40
0.0
  9
$USRTIMER
 70
     1
  9
$ANGBASE
 50
0.0
  9
$ANGDIR
 70
     0
  9
$PDMODE
 70
     0
  9
$PDSIZE
 40
0.0
  9
$PLINEWID
 40
0.0
  9
$COORDS
 70
     2
  9
$SPLFRAME
 70
     0
  9
$SPLINETYPE
 70
     6
  9
$SPLINESEGS
 70
     8
  9
$ATTDIA
 70
     1
  9
$ATTREQ
 70
     1
  9
$HANDLING
 70
     1
  9
$HANDSEED
  5
     63F
  9
$SURFTAB1
 70
     6
  9
$SURFTAB2
 70
     6
  9
$SURFTYPE
 70
     6
  9
$SURFU
 70
     6
  9
$SURFV
 70
     6
  9
$UCSNAME
  2

  9
$UCSORG
 10
0.0
 20
0.0
 30
0.0
  9
$UCSXDIR
 10
1.0
 20
0.0
 30
0.0
  9
$UCSYDIR
 10
0.0
 20
1.0
 30
0.0
  9
$PUCSNAME
  2

  9
$PUCSORG
 10
0.0
 20
0.0
 30
0.0
  9
$PUCSXDIR
 10
1.0
 20
0.0
 30
0.0
  9
$PUCSYDIR
 10
0.0
 20
1.0
 30
0.0
  9
$USERI1
 70
     0
  9
$USERI2
 70
     0
  9
$USERI3
 70
     0
  9
$USERI4
 70
     0
  9
$USERI5
 70
     0
  9
$USERR1
 40
0.0
  9
$USERR2
 40
0.0
  9
$USERR3
 40
0.0
  9
$USERR4
 40
0.0
  9
$USERR5
 40
0.0
  9
$WORLDVIEW
 70
     1
  9
$SHADEDGE
 70
     3
  9
$SHADEDIF
 70
    70
  9
$TILEMODE
 70
     1
  9
$MAXACTVP
 70
    16
  9
$PINSBASE
 10
0.0
 20
0.0
 30
0.0
  9
$PLIMCHECK
 70
     0
  9
$PEXTMIN
 10
1.0000000000000E+20
 20
1.0000000000000E+20
 30
1.0000000000000E+20
  9
$PEXTMAX
 10
-1.0000000000000E+20
 20
-1.0000000000000E+20
 30
-1.0000000000000E+20
  9
$PLIMMIN
 10
0.0
 20
0.0
  9
$UNITMODE
 70
     0
  9
$VISRETAIN
 70
     0
  9
$MEASUREMENT
 70
     1
  0
ENDSEC
  0
SECTION
  2
TABLES
  0
TABLE
  2
VPORT
  5
4A2
100
AcDbSymbolTable
 70
     1
  0
ENDTAB
  0
TABLE
  2
STYLE
  5
4A3
100
AcDbSymbolTable
 70
     3
  0
STYLE
  5
4A4
100
AcDbSymbolTableRecord
100
AcDbTextStyleTableRecord
  2
STANDARD
 70
     0
 40
0.0
 41
1.0
 50
0.0
 71
     0
 42
3.5
  3
MONOTXT
  4

  0
STYLE
  5
4A5
100
AcDbSymbolTableRecord
100
AcDbTextStyleTableRecord
  2
SYMAP
 70
     0
 40
0.0
 41
1.0
 50
0.0
 71
     0
 42
3.5
  3
SYMAP
  4

  0
STYLE
  5
4A6
100
AcDbSymbolTableRecord
100
AcDbTextStyleTableRecord
  2
CADWORK1
 70
     0
 40
0.0
 41
1.0
 50
0.0
 71
     0
 42
3.5
  3
MONOTXT
  4

  0
STYLE
  5
4A7
100
AcDbSymbolTableRecord
100
AcDbTextStyleTableRecord
  2
MONOTXT
 70
     0
 40
0.0
 41
1.0
 50
0.0
 71
     0
 42
3.5
  3
MONOTXT
  4

  0
STYLE
  5
4A8
100
AcDbSymbolTableRecord
100
AcDbTextStyleTableRecord
  2
ARIAL
 70
     0
 40
0.0
 41
1.0
 50
0.0
 71
     0
 42
3.5
  3

  4

1001
ACAD
1000
Arial
1071
        0
  0
ENDTAB
  0
TABLE
  2
LTYPE
  5
4A9
100
AcDbSymbolTable
 70
    15
  0
LTYPE
  5
4AA
100
AcDbSymbolTableRecord
100
AcDbLinetypeTableRecord
  2
BYBLOCK
 70
    64
  3

 72
    65
 73
     0
 40
0.0
  0
LTYPE
  5
4AB
100
AcDbSymbolTableRecord
100
AcDbLinetypeTableRecord
  2
BYLAYER
 70
    64
  3

 72
    65
 73
     0
 40
0.0
  0
LTYPE
  5
4AC
100
AcDbSymbolTableRecord
100
AcDbLinetypeTableRecord
  2
CONTINUOUS
 70
    64
  3
Solid line
 72
    65
 73
     0
 40
0.0
  0
LTYPE
  5
4AD
100
AcDbSymbolTableRecord
100
AcDbLinetypeTableRecord
  2
DOT2
 70
    64
  3
...............................................
 72
    65
 73
     2
 40
1.25
 49
0.0
 74
     0
 49
-1.25
 74
     0
  0
LTYPE
  5
4AE
100
AcDbSymbolTableRecord
100
AcDbLinetypeTableRecord
  2
CADWORK_13
 70
    64
  3
13 =======================================
 72
    65
 73
     2
 40
4.0
 49
2.0
 74
     0
 49
-2.0
 74
     0
  0
LTYPE
  5
4AF
100
AcDbSymbolTableRecord
100
AcDbLinetypeTableRecord
  2
DASHDOT
 70
    64
  3
 __ . __ . __ . __ . __ . __ . __ . __ . __ . __
 72
    65
 73
     4
 40
10.0
 49
5.0
 74
     0
 49
-2.5
 74
     0
 49
0.0
 74
     0
 49
-2.5
 74
     0
  0
LTYPE
  5
4B0
100
AcDbSymbolTableRecord
100
AcDbLinetypeTableRecord
  2
CENTER
 70
    64
  3
 ____ _ ____ _ ____ _ ____ _ ____ _ ____ _ ____
 72
    65
 73
     4
 40
20.0
 49
12.5
 74
     0
 49
-2.5
 74
     0
 49
2.5
 74
     0
 49
-2.5
 74
     0
  0
LTYPE
  5
4B1
100
AcDbSymbolTableRecord
100
AcDbLinetypeTableRecord
  2
DASHEDX2
 70
    64
  3
____  ____  ____  ____  ____  ____  ____  ____
 72
    65
 73
     2
 40
3.75
 49
2.5
 74
     0
 49
-1.25
 74
     0
  0
LTYPE
  5
4B2
100
AcDbSymbolTableRecord
100
AcDbLinetypeTableRecord
  2
CADWORK_22
 70
    64
  3
22 =======================================
 72
    65
 73
     0
 40
0.0
  0
LTYPE
  5
4B3
100
AcDbSymbolTableRecord
100
AcDbLinetypeTableRecord
  2
DAL
 70
    64
  3
Solid line (for MAPS)
 72
    65
 73
     0
 40
0.0
  0
LTYPE
  5
4B4
100
AcDbSymbolTableRecord
100
AcDbLinetypeTableRecord
  2
MUR
 70
    64
  3
Solid line (for MAPS)
 72
    65
 73
     0
 40
0.0
  0
LTYPE
  5
4B5
100
AcDbSymbolTableRecord
100
AcDbLinetypeTableRecord
  2
SOM
 70
    64
  3
Solid line (for MAPS)
 72
    65
 73
     0
 40
0.0
  0
LTYPE
  5
4B6
100
AcDbSymbolTableRecord
100
AcDbLinetypeTableRecord
  2
COL
 70
    64
  3
Solid line (for MAPS)
 72
    65
 73
     0
 40
0.0
  0
LTYPE
  5
4B7
100
AcDbSymbolTableRecord
100
AcDbLinetypeTableRecord
  2
LGN
 70
    64
  3
Solid line (for MAPS)
 72
    65
 73
     0
 40
0.0
  0
LTYPE
  5
4B8
100
AcDbSymbolTableRecord
100
AcDbLinetypeTableRecord
  2
PNT
 70
    64
  3
Solid line (for MAPS)
 72
    65
 73
     0
 40
0.0
  0
ENDTAB
  0
TABLE
  2
LAYER
  5
4B9
100
AcDbSymbolTable
 70
    32
  0
LAYER
  5
4BA
100
AcDbSymbolTableRecord
100
AcDbLayerTableRecord
  2
Standard
 70
     0
 62
     7
  6
CONTINUOUS
370
    -3
  0
LAYER
  5
4BB
100
AcDbSymbolTableRecord
100
AcDbLayerTableRecord
  2
Ech.1_1
 70
     0
 62
     7
  6
CONTINUOUS
370
    -3
  0
LAYER
  5
4BC
100
AcDbSymbolTableRecord
100
AcDbLayerTableRecord
  2
Ech.1_2
 70
     0
 62
     7
  6
CONTINUOUS
370
    -3
  0
LAYER
  5
4BD
100
AcDbSymbolTableRecord
100
AcDbLayerTableRecord
  2
Ech.1_5
 70
     0
 62
     7
  6
CONTINUOUS
370
    -3
  0
LAYER
  5
4BE
100
AcDbSymbolTableRecord
100
AcDbLayerTableRecord
  2
Ech.1_10
 70
     0
 62
     7
  6
CONTINUOUS
370
    -3
  0
LAYER
  5
4BF
100
AcDbSymbolTableRecord
100
AcDbLayerTableRecord
  2
Ech.1_20
 70
     0
 62
     7
  6
CONTINUOUS
370
    -3
  0
LAYER
  5
4C0
100
AcDbSymbolTableRecord
100
AcDbLayerTableRecord
  2
Ech.1_25
 70
     0
 62
     7
  6
CONTINUOUS
370
    -3
  0
LAYER
  5
4C1
100
AcDbSymbolTableRecord
100
AcDbLayerTableRecord
  2
Ech.1_33
 70
     0
 62
     7
  6
CONTINUOUS
370
    -3
  0
LAYER
  5
4C2
100
AcDbSymbolTableRecord
100
AcDbLayerTableRecord
  2
Ech.1_50
 70
     0
 62
     7
  6
CONTINUOUS
370
    -3
  0
LAYER
  5
4C3
100
AcDbSymbolTableRecord
100
AcDbLayerTableRecord
  2
Ech.1_75
 70
     0
 62
     7
  6
CONTINUOUS
370
    -3
  0
LAYER
  5
4C4
100
AcDbSymbolTableRecord
100
AcDbLayerTableRecord
  2
Ech.1_100
 70
     0
 62
     7
  6
CONTINUOUS
370
    -3
  0
LAYER
  5
4C5
100
AcDbSymbolTableRecord
100
AcDbLayerTableRecord
  2
Ech.1_200
 70
     0
 62
     7
  6
CONTINUOUS
370
    -3
  0
LAYER
  5
4C6
100
AcDbSymbolTableRecord
100
AcDbLayerTableRecord
  2
Ech.1_500
 70
     0
 62
     7
  6
CONTINUOUS
370
    -3
  0
LAYER
  5
4C7
100
AcDbSymbolTableRecord
100
AcDbLayerTableRecord
  2
Ech.1_1000
 70
     0
 62
     7
  6
CONTINUOUS
370
    -3
  0
LAYER
  5
4C8
100
AcDbSymbolTableRecord
100
AcDbLayerTableRecord
  2
Cadres traceur
 70
     0
 62
     7
  6
CONTINUOUS
370
    18
  0
LAYER
  5
4C9
100
AcDbSymbolTableRecord
100
AcDbLayerTableRecord
  2
Cadres laser
 70
     0
 62
     7
  6
CONTINUOUS
370
    18
  0
LAYER
  5
4CA
100
AcDbSymbolTableRecord
100
AcDbLayerTableRecord
  2
Légende d_aide
 70
     0
 62
     7
  6
CONTINUOUS
370
    18
  0
LAYER
  5
4CB
100
AcDbSymbolTableRecord
100
AcDbLayerTableRecord
  2
hachures ok
 70
     0
 62
     7
  6
CONTINUOUS
370
    18
  0
LAYER
  5
4CC
100
AcDbSymbolTableRecord
100
AcDbLayerTableRecord
  2
ossature bois
 70
     0
 62
     7
  6
CONTINUOUS
370
    18
  0
LAYER
  5
4CD
100
AcDbSymbolTableRecord
100
AcDbLayerTableRecord
  2
VR
 70
     0
 62
     7
  6
CONTINUOUS
370
    25
  0
LAYER
  5
4CE
100
AcDbSymbolTableRecord
100
AcDbLayerTableRecord
  2
Calque1
 70
     0
 62
     7
  6
CONTINUOUS
370
     9
  0
LAYER
  5
4CF
100
AcDbSymbolTableRecord
100
AcDbLayerTableRecord
  2
0
 70
     0
 62
     7
  6
CONTINUOUS
370
    -3
  0
LAYER
  5
4D0
100
AcDbSymbolTableRecord
100
AcDbLayerTableRecord
  2
menuiserie
 70
     0
 62
     7
  6
CONTINUOUS
370
    -3
  0
LAYER
  5
4D1
100
AcDbSymbolTableRecord
100
AcDbLayerTableRecord
  2
cotation
 70
     0
 62
   250
  6
CONTINUOUS
370
     9
  0
LAYER
  5
4D2
100
AcDbSymbolTableRecord
100
AcDbLayerTableRecord
  2
Defpoints
 70
     0
 62
    10
  6
CONTINUOUS
370
    -3
  0
LAYER
  5
4D3
100
AcDbSymbolTableRecord
100
AcDbLayerTableRecord
  2
HACHURE
 70
     0
 62
   254
  6
CONTINUOUS
370
    25
  0
LAYER
  5
4D4
100
AcDbSymbolTableRecord
100
AcDbLayerTableRecord
  2
mat1
 70
     0
 62
     7
  6
CONTINUOUS
370
    30
  0
LAYER
  5
4D5
100
AcDbSymbolTableRecord
100
AcDbLayerTableRecord
  2
mat2
 70
     0
 62
     7
  6
CONTINUOUS
370
     5
  0
LAYER
  5
4D6
100
AcDbSymbolTableRecord
100
AcDbLayerTableRecord
  2
hach
 70
     0
 62
     8
  6
CONTINUOUS
370
     5
  0
LAYER
  5
4D7
100
AcDbSymbolTableRecord
100
AcDbLayerTableRecord
  2
menuiseries
 70
     0
 62
     7
  6
CONTINUOUS
370
     9
  0
LAYER
  5
4D8
100
AcDbSymbolTableRecord
100
AcDbLayerTableRecord
  2
BétonMétal
 70
     0
 62
     7
  6
CONTINUOUS
370
    80
  0
LAYER
  5
4D9
100
AcDbSymbolTableRecord
100
AcDbLayerTableRecord
  2
bois
 70
     0
 62
     7
  6
CONTINUOUS
370
    60
  0
ENDTAB
  0
TABLE
  2
VIEW
  5
4DA
100
AcDbSymbolTable
 70
     0
  0
ENDTAB
  0
TABLE
  2
UCS
  5
4DB
100
AcDbSymbolTable
 70
     0
  0
ENDTAB
  0
TABLE
  2
APPID
  5
4DC
100
AcDbSymbolTable
 70
     1
  0
APPID
  5
4DD
100
AcDbSymbolTableRecord
100
AcDbRegAppTableRecord
  2
ACAD
 70
     0
  0
ENDTAB
  0
TABLE
  2
DIMSTYLE
  5
4DE
100
AcDbSymbolTable
 70
     0
  0
ENDTAB
  0
TABLE
  2
BLOCK_RECORD
  5
4DF
100
AcDbSymbolTable
 70
     0
  0
BLOCK_RECORD
  5
4E0
100
AcDbSymbolTableRecord
100
AcDbBlockTableRecord
  2
*MODEL_SPACE
  0
BLOCK_RECORD
  5
4E1
100
AcDbSymbolTableRecord
100
AcDbBlockTableRecord
  2
*PAPER_SPACE
  0
BLOCK_RECORD
  5
4E2
100
AcDbSymbolTableRecord
100
AcDbBlockTableRecord
  2
CDWK_EXTR_0
  0
BLOCK_RECORD
  5
4E3
100
AcDbSymbolTableRecord
100
AcDbBlockTableRecord
  2
CDWK_EXTR_1D
  0
BLOCK_RECORD
  5
4E4
100
AcDbSymbolTableRecord
100
AcDbBlockTableRecord
  2
CDWK_EXTR_1G
  0
BLOCK_RECORD
  5
4E5
100
AcDbSymbolTableRecord
100
AcDbBlockTableRecord
  2
CDWK_EXTR_2
  0
BLOCK_RECORD
  5
4E6
100
AcDbSymbolTableRecord
100
AcDbBlockTableRecord
  2
CDWK_EXTR_3
  0
BLOCK_RECORD
  5
4E7
100
AcDbSymbolTableRecord
100
AcDbBlockTableRecord
  2
CDWK_EXTR_4
  0
BLOCK_RECORD
  5
4E8
100
AcDbSymbolTableRecord
100
AcDbBlockTableRecord
  2
CDWK_PTTYP0
  0
BLOCK_RECORD
  5
4E9
100
AcDbSymbolTableRecord
100
AcDbBlockTableRecord
  2
CDWK_PTTYP1
  0
BLOCK_RECORD
  5
4EA
100
AcDbSymbolTableRecord
100
AcDbBlockTableRecord
  2
CDWK_PTTYP2
  0
BLOCK_RECORD
  5
4EB
100
AcDbSymbolTableRecord
100
AcDbBlockTableRecord
  2
CDWK_PTTYP3
  0
BLOCK_RECORD
  5
4EC
100
AcDbSymbolTableRecord
100
AcDbBlockTableRecord
  2
CDWK_PTTYP4
  0
BLOCK_RECORD
  5
4ED
100
AcDbSymbolTableRecord
100
AcDbBlockTableRecord
  2
CDWK_PTTYP5
  0
BLOCK_RECORD
  5
4EE
100
AcDbSymbolTableRecord
100
AcDbBlockTableRecord
  2
CDWK_PTTYP6
  0
BLOCK_RECORD
  5
4EF
100
AcDbSymbolTableRecord
100
AcDbBlockTableRecord
  2
CDWK_PTTYP7
  0
BLOCK_RECORD
  5
4F0
100
AcDbSymbolTableRecord
100
AcDbBlockTableRecord
  2
CDWK_PTTYP8
  0
BLOCK_RECORD
  5
4F1
100
AcDbSymbolTableRecord
100
AcDbBlockTableRecord
  2
CDWK_PTTYP9
  0
BLOCK_RECORD
  5
4F2
100
AcDbSymbolTableRecord
100
AcDbBlockTableRecord
  2
CDWK_PTTYP10
  0
BLOCK_RECORD
  5
4F3
100
AcDbSymbolTableRecord
100
AcDbBlockTableRecord
  2
CDWK_PTTYP11
  0
BLOCK_RECORD
  5
4F4
100
AcDbSymbolTableRecord
100
AcDbBlockTableRecord
  2
CDWK_PTTYP12
  0
BLOCK_RECORD
  5
4F5
100
AcDbSymbolTableRecord
100
AcDbBlockTableRecord
  2
CDWK_PTTYP13
  0
BLOCK_RECORD
  5
4F6
100
AcDbSymbolTableRecord
100
AcDbBlockTableRecord
  2
CDWK_PTTYP14
  0
BLOCK_RECORD
  5
4F7
100
AcDbSymbolTableRecord
100
AcDbBlockTableRecord
  2
CDWK_PTTYP15
  0
BLOCK_RECORD
  5
4F8
100
AcDbSymbolTableRecord
100
AcDbBlockTableRecord
  2
CDWK_PTTYP16
  0
BLOCK_RECORD
  5
4F9
100
AcDbSymbolTableRecord
100
AcDbBlockTableRecord
  2
CDWK_PTTYP17
  0
BLOCK_RECORD
  5
4FA
100
AcDbSymbolTableRecord
100
AcDbBlockTableRecord
  2
CDWK_PTTYP18
  0
BLOCK_RECORD
  5
4FB
100
AcDbSymbolTableRecord
100
AcDbBlockTableRecord
  2
CDWK_PTTYP19
  0
BLOCK_RECORD
  5
4FC
100
AcDbSymbolTableRecord
100
AcDbBlockTableRecord
  2
CDWK_PTTYP20
  0
BLOCK_RECORD
  5
4FD
100
AcDbSymbolTableRecord
100
AcDbBlockTableRecord
  2
CDWK_PTTYP21
  0
BLOCK_RECORD
  5
4FE
100
AcDbSymbolTableRecord
100
AcDbBlockTableRecord
  2
CDWK_PTTYP22
  0
BLOCK_RECORD
  5
4FF
100
AcDbSymbolTableRecord
100
AcDbBlockTableRecord
  2
CDWK_PTTYP23
  0
BLOCK_RECORD
  5
500
100
AcDbSymbolTableRecord
100
AcDbBlockTableRecord
  2
CDWK_PTTYP24
  0
BLOCK_RECORD
  5
501
100
AcDbSymbolTableRecord
100
AcDbBlockTableRecord
  2
CDWK_PTTYP25
  0
BLOCK_RECORD
  5
502
100
AcDbSymbolTableRecord
100
AcDbBlockTableRecord
  2
CDWK_PTTYP26
  0
BLOCK_RECORD
  5
503
100
AcDbSymbolTableRecord
100
AcDbBlockTableRecord
  2
CDWK_PTTYP27
  0
BLOCK_RECORD
  5
504
100
AcDbSymbolTableRecord
100
AcDbBlockTableRecord
  2
CDWK_PTTYP28
  0
BLOCK_RECORD
  5
505
100
AcDbSymbolTableRecord
100
AcDbBlockTableRecord
  2
CDWK_PTTYP29
  0
BLOCK_RECORD
  5
506
100
AcDbSymbolTableRecord
100
AcDbBlockTableRecord
  2
CDWK_PTTYP30
  0
BLOCK_RECORD
  5
507
100
AcDbSymbolTableRecord
100
AcDbBlockTableRecord
  2
CDWK_PTTYP31
  0
BLOCK_RECORD
  5
508
100
AcDbSymbolTableRecord
100
AcDbBlockTableRecord
  2
CDWK_PTTYP32
  0
BLOCK_RECORD
  5
509
100
AcDbSymbolTableRecord
100
AcDbBlockTableRecord
  2
CDWK_PTTYP33
  0
BLOCK_RECORD
  5
50A
100
AcDbSymbolTableRecord
100
AcDbBlockTableRecord
  2
CDWK_PTTYP34
  0
BLOCK_RECORD
  5
50B
100
AcDbSymbolTableRecord
100
AcDbBlockTableRecord
  2
CDWK_PTTYP35
  0
BLOCK_RECORD
  5
50C
100
AcDbSymbolTableRecord
100
AcDbBlockTableRecord
  2
CDWK_PTTYP36
  0
BLOCK_RECORD
  5
50D
100
AcDbSymbolTableRecord
100
AcDbBlockTableRecord
  2
CDWK_PTTYP37
  0
BLOCK_RECORD
  5
50E
100
AcDbSymbolTableRecord
100
AcDbBlockTableRecord
  2
CDWK_PTTYP38
  0
ENDTAB
  0
ENDSEC
  0
SECTION
  2
BLOCKS
  0
BLOCK
  5
50F
100
AcDbEntity
  8
0
100
AcDbBlockBegin
  2
*MODEL_SPACE
 70
     0
 10
0.0
 20
0.0
 30
0.0
  3
*MODEL_SPACE
  1

  0
ENDBLK
  5
510
100
AcDbEntity
100
AcDbBlockEnd
  0
BLOCK
  5
511
100
AcDbEntity
  8
0
100
AcDbBlockBegin
  2
*PAPER_SPACE
 70
     0
 10
0.0
 20
0.0
 30
0.0
  3
*PAPER_SPACE
  1

  0
ENDBLK
  5
512
100
AcDbEntity
100
AcDbBlockEnd
  0
BLOCK
  5
513
100
AcDbEntity
  8
0
100
AcDbBlockBegin
  2
CDWK_EXTR_0
 70
     0
 10
0.0
 20
0.0
 30
0.0
  3
CDWK_EXTR_0
  1

  4
Cadwork line-extremity
  0
LINE
  5
514
100
AcDbEntity
  8
0
 62
     0
370
    -2
100
AcDbLine
 10
0.0
 20
0.0
 30
0.0
 11
2.0
 21
0.5
 31
0.0
  0
LINE
  5
515
100
AcDbEntity
  8
0
 62
     0
370
    -2
100
AcDbLine
 10
0.0
 20
0.0
 30
0.0
 11
2.0
 21
-0.5
 31
0.0
  0
LINE
  5
516
100
AcDbEntity
  8
0
 62
     0
370
    -2
100
AcDbLine
 10
2.0
 20
0.5
 30
0.0
 11
2.0
 21
-0.5
 31
0.0
  0
ENDBLK
  5
517
100
AcDbEntity
100
AcDbBlockEnd
  0
BLOCK
  5
518
100
AcDbEntity
  8
0
100
AcDbBlockBegin
  2
CDWK_EXTR_1D
 70
     0
 10
0.0
 20
0.0
 30
0.0
  3
CDWK_EXTR_1D
  1

  4
Cadwork line-extremity
  0
LINE
  5
519
100
AcDbEntity
  8
0
 62
     0
370
    -2
100
AcDbLine
 10
0.0
 20
0.0
 30
0.0
 11
0.0
 21
1.0
 31
0.0
  0
LINE
  5
51A
100
AcDbEntity
  8
0
 62
     0
370
    -2
100
AcDbLine
 10
0.0
 20
1.0
 30
0.0
 11
0.5
 21
1.5
 31
0.0
  0
LINE
  5
51B
100
AcDbEntity
  8
0
 62
     0
370
    -2
100
AcDbLine
 10
0.5
 20
1.5
 30
0.0
 11
1.5
 21
1.5
 31
0.0
  0
ENDBLK
  5
51C
100
AcDbEntity
100
AcDbBlockEnd
  0
BLOCK
  5
51D
100
AcDbEntity
  8
0
100
AcDbBlockBegin
  2
CDWK_EXTR_1G
 70
     0
 10
0.0
 20
0.0
 30
0.0
  3
CDWK_EXTR_1G
  1

  4
Cadwork line-extremity
  0
LINE
  5
51E
100
AcDbEntity
  8
0
 62
     0
370
    -2
100
AcDbLine
 10
0.0
 20
0.0
 30
0.0
 11
0.0
 21
-1.0
 31
0.0
  0
LINE
  5
51F
100
AcDbEntity
  8
0
 62
     0
370
    -2
100
AcDbLine
 10
0.0
 20
-1.0
 30
0.0
 11
0.5
 21
-1.5
 31
0.0
  0
LINE
  5
520
100
AcDbEntity
  8
0
 62
     0
370
    -2
100
AcDbLine
 10
0.5
 20
-1.5
 30
0.0
 11
1.5
 21
-1.5
 31
0.0
  0
ENDBLK
  5
521
100
AcDbEntity
100
AcDbBlockEnd
  0
BLOCK
  5
522
100
AcDbEntity
  8
0
100
AcDbBlockBegin
  2
CDWK_EXTR_2
 70
     0
 10
0.0
 20
0.0
 30
0.0
  3
CDWK_EXTR_2
  1

  4
Cadwork line-extremity
  0
SOLID
  5
523
100
AcDbEntity
  8
0
 62
     0
100
AcDbTrace
 10
0.0
 20
0.0
 11
2.0
 21
0.5
 12
2.0
 22
-0.5
 13
2.0
 23
-0.5
  0
ENDBLK
  5
524
100
AcDbEntity
100
AcDbBlockEnd
  0
BLOCK
  5
525
100
AcDbEntity
  8
0
100
AcDbBlockBegin
  2
CDWK_EXTR_3
 70
     0
 10
0.0
 20
0.0
 30
0.0
  3
CDWK_EXTR_3
  1

  4
Cadwork line-extremity
  0
SOLID
  5
526
100
AcDbEntity
  8
0
 62
     0
100
AcDbTrace
 10
0.0
 20
0.0
 11
2.0
 21
0.5
 12
2.0
 22
-0.5
 13
2.0
 23
-0.5
  0
LINE
  5
527
100
AcDbEntity
  8
0
 62
     0
370
    -2
100
AcDbLine
 10
0.0
 20
1.0
 30
0.0
 11
0.0
 21
-1.0
 31
0.0
  0
ENDBLK
  5
528
100
AcDbEntity
100
AcDbBlockEnd
  0
BLOCK
  5
529
100
AcDbEntity
  8
0
100
AcDbBlockBegin
  2
CDWK_EXTR_4
 70
     0
 10
0.0
 20
0.0
 30
0.0
  3
CDWK_EXTR_4
  1

  4
Cadwork line-extremity
  0
HATCH
  5
52A
100
AcDbEntity
  8
0
 62
     0
370
    -2
100
AcDbHatch
 10
0.0
 20
0.0
 30
0.0
210
0.0
220
0.0
230
1.0
  2
SOLID
 70
     1
 71
     0
 91
        1
 92
        1
 93
        1
 72
     2
 10
0.0
 20
0.0
 40
0.5
 50
0.0
 51
360.0
 73
     1
 97
        0
 75
     0
 76
     1
 98
        1
 10
0.0
 20
0.0
  0
ENDBLK
  5
52B
100
AcDbEntity
100
AcDbBlockEnd
  0
BLOCK
  5
52C
100
AcDbEntity
  8
0
100
AcDbBlockBegin
  2
CDWK_PTTYP0
 70
     0
 10
0.0
 20
0.0
 30
0.0
  3
CDWK_PTTYP0
  1

  4
Cadwork point
  0
POINT
  5
52D
100
AcDbEntity
  8
0
 62
     0
100
AcDbPoint
 10
0.0
 20
0.0
 30
0.0
  0
ENDBLK
  5
52E
100
AcDbEntity
100
AcDbBlockEnd
  0
BLOCK
  5
52F
100
AcDbEntity
  8
0
100
AcDbBlockBegin
  2
CDWK_PTTYP1
 70
     0
 10
0.0
 20
0.0
 30
0.0
  3
CDWK_PTTYP1
  1

  4
Cadwork node
  0
LINE
  5
530
100
AcDbEntity
  8
0
 62
     0
370
    -2
100
AcDbLine
 10
-0.5
 20
0.5
 30
0.0
 11
0.5
 21
0.5
 31
0.0
  0
LINE
  5
531
100
AcDbEntity
  8
0
 62
     0
370
    -2
100
AcDbLine
 10
0.5
 20
0.5
 30
0.0
 11
0.5
 21
-0.5
 31
0.0
  0
LINE
  5
532
100
AcDbEntity
  8
0
 62
     0
370
    -2
100
AcDbLine
 10
0.5
 20
-0.5
 30
0.0
 11
-0.5
 21
-0.5
 31
0.0
  0
LINE
  5
533
100
AcDbEntity
  8
0
 62
     0
370
    -2
100
AcDbLine
 10
-0.5
 20
-0.5
 30
0.0
 11
-0.5
 21
0.5
 31
0.0
  0
ENDBLK
  5
534
100
AcDbEntity
100
AcDbBlockEnd
  0
BLOCK
  5
535
100
AcDbEntity
  8
0
100
AcDbBlockBegin
  2
CDWK_PTTYP2
 70
     0
 10
0.0
 20
0.0
 30
0.0
  3
CDWK_PTTYP2
  1

  4
Cadwork node
  0
LINE
  5
536
100
AcDbEntity
  8
0
 62
     0
370
    -2
100
AcDbLine
 10
0.0
 20
0.5
 30
0.0
 11
0.0
 21
-0.5
 31
0.0
  0
LINE
  5
537
100
AcDbEntity
  8
0
 62
     0
370
    -2
100
AcDbLine
 10
-0.5
 20
0.0
 30
0.0
 11
0.5
 21
0.0
 31
0.0
  0
ENDBLK
  5
538
100
AcDbEntity
100
AcDbBlockEnd
  0
BLOCK
  5
539
100
AcDbEntity
  8
0
100
AcDbBlockBegin
  2
CDWK_PTTYP3
 70
     0
 10
0.0
 20
0.0
 30
0.0
  3
CDWK_PTTYP3
  1

  4
Cadwork node
  0
CIRCLE
  5
53A
100
AcDbEntity
  8
0
 62
     0
370
    -2
100
AcDbCircle
 10
0.0
 20
0.0
 30
0.0
 40
0.5
  0
ENDBLK
  5
53B
100
AcDbEntity
100
AcDbBlockEnd
  0
BLOCK
  5
53C
100
AcDbEntity
  8
0
100
AcDbBlockBegin
  2
CDWK_PTTYP4
 70
     0
 10
0.0
 20
0.0
 30
0.0
  3
CDWK_PTTYP4
  1

  4
Cadwork node
  0
HATCH
  5
53D
100
AcDbEntity
  8
0
 62
     0
370
    -2
100
AcDbHatch
 10
0.0
 20
0.0
 30
0.0
210
0.0
220
0.0
230
1.0
  2
SOLID
 70
     1
 71
     0
 91
        1
 92
        1
 93
        1
 72
     2
 10
0.0
 20
0.0
 40
0.5
 50
0.0
 51
360.0
 73
     1
 97
        0
 75
     0
 76
     1
 98
        1
 10
0.0
 20
0.0
  0
ENDBLK
  5
53E
100
AcDbEntity
100
AcDbBlockEnd
  0
BLOCK
  5
53F
100
AcDbEntity
  8
0
100
AcDbBlockBegin
  2
CDWK_PTTYP5
 70
     0
 10
0.0
 20
0.0
 30
0.0
  3
CDWK_PTTYP5
  1

  4
Cadwork node
  0
LINE
  5
540
100
AcDbEntity
  8
0
 62
     0
370
    -2
100
AcDbLine
 10
-0.5
 20
0.5
 30
0.0
 11
0.5
 21
0.5
 31
0.0
  0
LINE
  5
541
100
AcDbEntity
  8
0
 62
     0
370
    -2
100
AcDbLine
 10
0.5
 20
0.5
 30
0.0
 11
0.5
 21
-0.5
 31
0.0
  0
LINE
  5
542
100
AcDbEntity
  8
0
 62
     0
370
    -2
100
AcDbLine
 10
0.5
 20
-0.5
 30
0.0
 11
-0.5
 21
-0.5
 31
0.0
  0
LINE
  5
543
100
AcDbEntity
  8
0
 62
     0
370
    -2
100
AcDbLine
 10
-0.5
 20
-0.5
 30
0.0
 11
-0.5
 21
0.5
 31
0.0
  0
SOLID
  5
544
100
AcDbEntity
  8
0
 62
     0
100
AcDbTrace
 10
-0.5
 20
-0.5
 11
-0.5
 21
0.0
 12
0.0
 22
-0.5
 13
0.0
 23
0.0
  0
SOLID
  5
545
100
AcDbEntity
  8
0
 62
     0
100
AcDbTrace
 10
0.0
 20
0.0
 11
0.0
 21
0.5
 12
0.5
 22
0.0
 13
0.5
 23
0.5
  0
ENDBLK
  5
546
100
AcDbEntity
100
AcDbBlockEnd
  0
BLOCK
  5
547
100
AcDbEntity
  8
0
100
AcDbBlockBegin
  2
CDWK_PTTYP6
 70
     0
 10
0.0
 20
0.0
 30
0.0
  3
CDWK_PTTYP6
  1

  4
Cadwork node
  0
LINE
  5
548
100
AcDbEntity
  8
0
 62
     0
370
    -2
100
AcDbLine
 10
-0.5
 20
0.5
 30
0.0
 11
0.5
 21
0.5
 31
0.0
  0
LINE
  5
549
100
AcDbEntity
  8
0
 62
     0
370
    -2
100
AcDbLine
 10
0.5
 20
0.5
 30
0.0
 11
0.5
 21
-0.5
 31
0.0
  0
LINE
  5
54A
100
AcDbEntity
  8
0
 62
     0
370
    -2
100
AcDbLine
 10
0.5
 20
-0.5
 30
0.0
 11
-0.5
 21
-0.5
 31
0.0
  0
LINE
  5
54B
100
AcDbEntity
  8
0
 62
     0
370
    -2
100
AcDbLine
 10
-0.5
 20
-0.5
 30
0.0
 11
-0.5
 21
0.5
 31
0.0
  0
SOLID
  5
54C
100
AcDbEntity
  8
0
 62
     0
100
AcDbTrace
 10
-0.5
 20
-0.5
 11
-0.5
 21
0.5
 12
0.5
 22
0.5
 13
0.5
 23
0.5
  0
ENDBLK
  5
54D
100
AcDbEntity
100
AcDbBlockEnd
  0
BLOCK
  5
54E
100
AcDbEntity
  8
0
100
AcDbBlockBegin
  2
CDWK_PTTYP7
 70
     0
 10
0.0
 20
0.0
 30
0.0
  3
CDWK_PTTYP7
  1

  4
Cadwork node
  0
LINE
  5
54F
100
AcDbEntity
  8
0
 62
     0
370
    -2
100
AcDbLine
 10
-0.5
 20
0.5
 30
0.0
 11
0.5
 21
0.5
 31
0.0
  0
LINE
  5
550
100
AcDbEntity
  8
0
 62
     0
370
    -2
100
AcDbLine
 10
0.5
 20
0.5
 30
0.0
 11
0.5
 21
-0.5
 31
0.0
  0
LINE
  5
551
100
AcDbEntity
  8
0
 62
     0
370
    -2
100
AcDbLine
 10
0.5
 20
-0.5
 30
0.0
 11
-0.5
 21
-0.5
 31
0.0
  0
LINE
  5
552
100
AcDbEntity
  8
0
 62
     0
370
    -2
100
AcDbLine
 10
-0.5
 20
-0.5
 30
0.0
 11
-0.5
 21
0.5
 31
0.0
  0
LINE
  5
553
100
AcDbEntity
  8
0
 62
     0
370
    -2
100
AcDbLine
 10
0.0
 20
0.5
 30
0.0
 11
0.0
 21
-0.5
 31
0.0
  0
LINE
  5
554
100
AcDbEntity
  8
0
 62
     0
370
    -2
100
AcDbLine
 10
-0.5
 20
0.0
 30
0.0
 11
0.5
 21
0.0
 31
0.0
  0
ENDBLK
  5
555
100
AcDbEntity
100
AcDbBlockEnd
  0
BLOCK
  5
556
100
AcDbEntity
  8
0
100
AcDbBlockBegin
  2
CDWK_PTTYP8
 70
     0
 10
0.0
 20
0.0
 30
0.0
  3
CDWK_PTTYP8
  1

  4
Cadwork node
  0
SOLID
  5
557
100
AcDbEntity
  8
0
 62
     0
100
AcDbTrace
 10
-0.5
 20
0.5
 11
0.5
 21
0.5
 12
-0.5
 22
-0.5
 13
0.5
 23
-0.5
  0
ENDBLK
  5
558
100
AcDbEntity
100
AcDbBlockEnd
  0
BLOCK
  5
559
100
AcDbEntity
  8
0
100
AcDbBlockBegin
  2
CDWK_PTTYP9
 70
     0
 10
0.0
 20
0.0
 30
0.0
  3
CDWK_PTTYP9
  1

  4
Cadwork node
  0
CIRCLE
  5
55A
100
AcDbEntity
  8
0
 62
     0
370
    -2
100
AcDbCircle
 10
0.0
 20
0.0
 30
0.0
 40
0.5
  0
CIRCLE
  5
55B
100
AcDbEntity
  8
0
 62
     0
370
    -2
100
AcDbCircle
 10
0.0
 20
0.0
 30
0.0
 40
0.16666667
  0
ENDBLK
  5
55C
100
AcDbEntity
100
AcDbBlockEnd
  0
BLOCK
  5
55D
100
AcDbEntity
  8
0
100
AcDbBlockBegin
  2
CDWK_PTTYP10
 70
     0
 10
0.0
 20
0.0
 30
0.0
  3
CDWK_PTTYP10
  1

  4
Cadwork node
  0
CIRCLE
  5
55E
100
AcDbEntity
  8
0
 62
     0
370
    -2
100
AcDbCircle
 10
0.0
 20
0.0
 30
0.0
 40
0.5
  0
ENDBLK
  5
55F
100
AcDbEntity
100
AcDbBlockEnd
  0
BLOCK
  5
560
100
AcDbEntity
  8
0
100
AcDbBlockBegin
  2
CDWK_PTTYP11
 70
     0
 10
0.0
 20
0.0
 30
0.0
  3
CDWK_PTTYP11
  1

  4
Cadwork node
  0
CIRCLE
  5
561
100
AcDbEntity
  8
0
 62
     0
370
    -2
100
AcDbCircle
 10
0.0
 20
0.0
 30
0.0
 40
0.5
  0
CIRCLE
  5
562
100
AcDbEntity
  8
0
 62
     0
370
    -2
100
AcDbCircle
 10
0.0
 20
0.0
 30
0.0
 40
0.25
  0
ENDBLK
  5
563
100
AcDbEntity
100
AcDbBlockEnd
  0
BLOCK
  5
564
100
AcDbEntity
  8
0
100
AcDbBlockBegin
  2
CDWK_PTTYP12
 70
     0
 10
0.0
 20
0.0
 30
0.0
  3
CDWK_PTTYP12
  1

  4
Cadwork node
  0
CIRCLE
  5
565
100
AcDbEntity
  8
0
 62
     0
370
    -2
100
AcDbCircle
 10
0.0
 20
0.0
 30
0.0
 40
0.5
  0
CIRCLE
  5
566
100
AcDbEntity
  8
0
 62
     0
370
    -2
100
AcDbCircle
 10
0.25
 20
0.0
 30
0.0
 40
0.25
  0
ENDBLK
  5
567
100
AcDbEntity
100
AcDbBlockEnd
  0
BLOCK
  5
568
100
AcDbEntity
  8
0
100
AcDbBlockBegin
  2
CDWK_PTTYP13
 70
     0
 10
0.0
 20
0.0
 30
0.0
  3
CDWK_PTTYP13
  1

  4
Cadwork node
  0
CIRCLE
  5
569
100
AcDbEntity
  8
0
 62
     0
370
    -2
100
AcDbCircle
 10
0.0
 20
0.0
 30
0.0
 40
0.5
  0
CIRCLE
  5
56A
100
AcDbEntity
  8
0
 62
     0
370
    -2
100
AcDbCircle
 10
0.25
 20
0.0
 30
0.0
 40
0.25
  0
CIRCLE
  5
56B
100
AcDbEntity
  8
0
 62
     0
370
    -2
100
AcDbCircle
 10
-0.25
 20
0.0
 30
0.0
 40
0.25
  0
ENDBLK
  5
56C
100
AcDbEntity
100
AcDbBlockEnd
  0
BLOCK
  5
56D
100
AcDbEntity
  8
0
100
AcDbBlockBegin
  2
CDWK_PTTYP14
 70
     0
 10
0.0
 20
0.0
 30
0.0
  3
CDWK_PTTYP14
  1

  4
Cadwork node
  0
POINT
  5
56E
100
AcDbEntity
  8
0
 62
     0
100
AcDbPoint
 10
0.0
 20
0.0
 30
0.0
  0
ENDBLK
  5
56F
100
AcDbEntity
100
AcDbBlockEnd
  0
BLOCK
  5
570
100
AcDbEntity
  8
0
100
AcDbBlockBegin
  2
CDWK_PTTYP15
 70
     0
 10
0.0
 20
0.0
 30
0.0
  3
CDWK_PTTYP15
  1

  4
Cadwork node
  0
POINT
  5
571
100
AcDbEntity
  8
0
 62
     0
100
AcDbPoint
 10
0.0
 20
0.0
 30
0.0
  0
ENDBLK
  5
572
100
AcDbEntity
100
AcDbBlockEnd
  0
BLOCK
  5
573
100
AcDbEntity
  8
0
100
AcDbBlockBegin
  2
CDWK_PTTYP16
 70
     0
 10
0.0
 20
0.0
 30
0.0
  3
CDWK_PTTYP16
  1

  4
Cadwork node
  0
LINE
  5
574
100
AcDbEntity
  8
0
 62
     0
370
    -2
100
AcDbLine
 10
-0.5
 20
-0.28867513
 30
0.0
 11
0.5
 21
-0.28867513
 31
0.0
  0
LINE
  5
575
100
AcDbEntity
  8
0
 62
     0
370
    -2
100
AcDbLine
 10
0.5
 20
-0.28867513
 30
0.0
 11
0.0
 21
0.57735027
 31
0.0
  0
LINE
  5
576
100
AcDbEntity
  8
0
 62
     0
370
    -2
100
AcDbLine
 10
0.0
 20
0.57735027
 30
0.0
 11
-0.5
 21
-0.28867513
 31
0.0
  0
CIRCLE
  5
577
100
AcDbEntity
  8
0
 62
     0
370
    -2
100
AcDbCircle
 10
0.0
 20
0.0
 30
0.0
 40
0.28867513
  0
ENDBLK
  5
578
100
AcDbEntity
100
AcDbBlockEnd
  0
BLOCK
  5
579
100
AcDbEntity
  8
0
100
AcDbBlockBegin
  2
CDWK_PTTYP17
 70
     0
 10
0.0
 20
0.0
 30
0.0
  3
CDWK_PTTYP17
  1

  4
Cadwork node
  0
CIRCLE
  5
57A
100
AcDbEntity
  8
0
 62
     0
370
    -2
100
AcDbCircle
 10
0.0
 20
0.0
 30
0.0
 40
0.5
  0
HATCH
  5
57B
100
AcDbEntity
  8
0
 62
     0
370
    -2
100
AcDbHatch
 10
0.0
 20
0.0
 30
0.0
210
0.0
220
0.0
230
1.0
  2
SOLID
 70
     1
 71
     0
 91
        1
 92
        1
 93
        1
 72
     2
 10
0.0
 20
0.0
 40
0.25
 50
0.0
 51
360.0
 73
     1
 97
        0
 75
     0
 76
     1
 98
        1
 10
0.0
 20
0.0
  0
ENDBLK
  5
57C
100
AcDbEntity
100
AcDbBlockEnd
  0
BLOCK
  5
57D
100
AcDbEntity
  8
0
100
AcDbBlockBegin
  2
CDWK_PTTYP18
 70
     0
 10
0.0
 20
0.0
 30
0.0
  3
CDWK_PTTYP18
  1

  4
Cadwork node
  0
CIRCLE
  5
57E
100
AcDbEntity
  8
0
 62
     0
370
    -2
100
AcDbCircle
 10
0.0
 20
0.0
 30
0.0
 40
0.5
  0
CIRCLE
  5
57F
100
AcDbEntity
  8
0
 62
     0
370
    -2
100
AcDbCircle
 10
0.0
 20
0.0
 30
0.0
 40
0.2
  0
ENDBLK
  5
580
100
AcDbEntity
100
AcDbBlockEnd
  0
BLOCK
  5
581
100
AcDbEntity
  8
0
100
AcDbBlockBegin
  2
CDWK_PTTYP19
 70
     0
 10
0.0
 20
0.0
 30
0.0
  3
CDWK_PTTYP19
  1

  4
Cadwork node
  0
CIRCLE
  5
582
100
AcDbEntity
  8
0
 62
     0
370
    -2
100
AcDbCircle
 10
0.0
 20
0.0
 30
0.0
 40
0.4
  0
CIRCLE
  5
583
100
AcDbEntity
  8
0
 62
     0
370
    -2
100
AcDbCircle
 10
0.0
 20
0.0
 30
0.0
 40
0.25
  0
LINE
  5
584
100
AcDbEntity
  8
0
 62
     0
370
    -2
100
AcDbLine
 10
-0.25
 20
0.0
 30
0.0
 11
0.25
 21
0.0
 31
0.0
  0
ENDBLK
  5
585
100
AcDbEntity
100
AcDbBlockEnd
  0
BLOCK
  5
586
100
AcDbEntity
  8
0
100
AcDbBlockBegin
  2
CDWK_PTTYP20
 70
     0
 10
0.0
 20
0.0
 30
0.0
  3
CDWK_PTTYP20
  1

  4
Cadwork node
  0
CIRCLE
  5
587
100
AcDbEntity
  8
0
 62
     0
370
    -2
100
AcDbCircle
 10
0.0
 20
0.0
 30
0.0
 40
0.5
  0
CIRCLE
  5
588
100
AcDbEntity
  8
0
 62
     0
370
    -2
100
AcDbCircle
 10
0.0
 20
0.0
 30
0.0
 40
0.3
  0
ENDBLK
  5
589
100
AcDbEntity
100
AcDbBlockEnd
  0
BLOCK
  5
58A
100
AcDbEntity
  8
0
100
AcDbBlockBegin
  2
CDWK_PTTYP21
 70
     0
 10
0.0
 20
0.0
 30
0.0
  3
CDWK_PTTYP21
  1

  4
Cadwork node
  0
CIRCLE
  5
58B
100
AcDbEntity
  8
0
 62
     0
370
    -2
100
AcDbCircle
 10
0.0
 20
0.0
 30
0.0
 40
0.5
  0
LINE
  5
58C
100
AcDbEntity
  8
0
 62
     0
370
    -2
100
AcDbLine
 10
-0.5
 20
0.0
 30
0.0
 11
0.5
 21
0.0
 31
0.0
  0
ENDBLK
  5
58D
100
AcDbEntity
100
AcDbBlockEnd
  0
BLOCK
  5
58E
100
AcDbEntity
  8
0
100
AcDbBlockBegin
  2
CDWK_PTTYP22
 70
     0
 10
0.0
 20
0.0
 30
0.0
  3
CDWK_PTTYP22
  1

  4
Cadwork node
  0
POINT
  5
58F
100
AcDbEntity
  8
0
 62
     0
100
AcDbPoint
 10
0.0
 20
0.0
 30
0.0
  0
ENDBLK
  5
590
100
AcDbEntity
100
AcDbBlockEnd
  0
BLOCK
  5
591
100
AcDbEntity
  8
0
100
AcDbBlockBegin
  2
CDWK_PTTYP23
 70
     0
 10
0.0
 20
0.0
 30
0.0
  3
CDWK_PTTYP23
  1

  4
Cadwork node
  0
POINT
  5
592
100
AcDbEntity
  8
0
 62
     0
100
AcDbPoint
 10
0.0
 20
0.0
 30
0.0
  0
ENDBLK
  5
593
100
AcDbEntity
100
AcDbBlockEnd
  0
BLOCK
  5
594
100
AcDbEntity
  8
0
100
AcDbBlockBegin
  2
CDWK_PTTYP24
 70
     0
 10
0.0
 20
0.0
 30
0.0
  3
CDWK_PTTYP24
  1

  4
Cadwork node
  0
POINT
  5
595
100
AcDbEntity
  8
0
 62
     0
100
AcDbPoint
 10
0.0
 20
0.0
 30
0.0
  0
ENDBLK
  5
596
100
AcDbEntity
100
AcDbBlockEnd
  0
BLOCK
  5
597
100
AcDbEntity
  8
0
100
AcDbBlockBegin
  2
CDWK_PTTYP25
 70
     0
 10
0.0
 20
0.0
 30
0.0
  3
CDWK_PTTYP25
  1

  4
Cadwork node
  0
LINE
  5
598
100
AcDbEntity
  8
0
 62
     0
370
    -2
100
AcDbLine
 10
-0.43290044
 20
-0.25
 30
0.0
 11
0.43290044
 21
-0.25
 31
0.0
  0
LINE
  5
599
100
AcDbEntity
  8
0
 62
     0
370
    -2
100
AcDbLine
 10
-0.43290044
 20
-0.25
 30
0.0
 11
0.0
 21
0.5
 31
0.0
  0
LINE
  5
59A
100
AcDbEntity
  8
0
 62
     0
370
    -2
100
AcDbLine
 10
0.43290044
 20
-0.25
 30
0.0
 11
0.0
 21
0.5
 31
0.0
  0
CIRCLE
  5
59B
100
AcDbEntity
  8
0
 62
     0
370
    -2
100
AcDbCircle
 10
0.0
 20
0.0
 30
0.0
 40
0.5
  0
ENDBLK
  5
59C
100
AcDbEntity
100
AcDbBlockEnd
  0
BLOCK
  5
59D
100
AcDbEntity
  8
0
100
AcDbBlockBegin
  2
CDWK_PTTYP26
 70
     0
 10
0.0
 20
0.0
 30
0.0
  3
CDWK_PTTYP26
  1

  4
Cadwork node
  0
LINE
  5
59E
100
AcDbEntity
  8
0
 62
     0
370
    -2
100
AcDbLine
 10
-0.5
 20
-0.28850001
 30
0.0
 11
0.5
 21
-0.28850001
 31
0.0
  0
LINE
  5
59F
100
AcDbEntity
  8
0
 62
     0
370
    -2
100
AcDbLine
 10
-0.5
 20
-0.28850001
 30
0.0
 11
0.0
 21
0.57736721
 31
0.0
  0
LINE
  5
5A0
100
AcDbEntity
  8
0
 62
     0
370
    -2
100
AcDbLine
 10
0.5
 20
-0.28850001
 30
0.0
 11
0.0
 21
0.57736721
 31
0.0
  0
CIRCLE
  5
5A1
100
AcDbEntity
  8
0
 62
     0
370
    -2
100
AcDbCircle
 10
0.0
 20
0.0
 30
0.0
 40
0.1312336
  0
ENDBLK
  5
5A2
100
AcDbEntity
100
AcDbBlockEnd
  0
BLOCK
  5
5A3
100
AcDbEntity
  8
0
100
AcDbBlockBegin
  2
CDWK_PTTYP27
 70
     0
 10
0.0
 20
0.0
 30
0.0
  3
CDWK_PTTYP27
  1

  4
Cadwork node
  0
LINE
  5
5A4
100
AcDbEntity
  8
0
 62
     0
370
    -2
100
AcDbLine
 10
-0.43290044
 20
-0.25
 30
0.0
 11
0.43290044
 21
-0.25
 31
0.0
  0
LINE
  5
5A5
100
AcDbEntity
  8
0
 62
     0
370
    -2
100
AcDbLine
 10
-0.43290044
 20
-0.25
 30
0.0
 11
0.0
 21
0.5
 31
0.0
  0
LINE
  5
5A6
100
AcDbEntity
  8
0
 62
     0
370
    -2
100
AcDbLine
 10
0.43290044
 20
-0.25
 30
0.0
 11
0.0
 21
0.5
 31
0.0
  0
CIRCLE
  5
5A7
100
AcDbEntity
  8
0
 62
     0
370
    -2
100
AcDbCircle
 10
0.0
 20
0.0
 30
0.0
 40
0.5
  0
CIRCLE
  5
5A8
100
AcDbEntity
  8
0
 62
     0
370
    -2
100
AcDbCircle
 10
0.0
 20
0.0
 30
0.0
 40
0.1312336
  0
ENDBLK
  5
5A9
100
AcDbEntity
100
AcDbBlockEnd
  0
BLOCK
  5
5AA
100
AcDbEntity
  8
0
100
AcDbBlockBegin
  2
CDWK_PTTYP28
 70
     0
 10
0.0
 20
0.0
 30
0.0
  3
CDWK_PTTYP28
  1

  4
Cadwork node
  0
POINT
  5
5AB
100
AcDbEntity
  8
0
 62
     0
100
AcDbPoint
 10
0.0
 20
0.0
 30
0.0
  0
ENDBLK
  5
5AC
100
AcDbEntity
100
AcDbBlockEnd
  0
BLOCK
  5
5AD
100
AcDbEntity
  8
0
100
AcDbBlockBegin
  2
CDWK_PTTYP29
 70
     0
 10
0.0
 20
0.0
 30
0.0
  3
CDWK_PTTYP29
  1

  4
Cadwork node
  0
CIRCLE
  5
5AE
100
AcDbEntity
  8
0
 62
     0
370
    -2
100
AcDbCircle
 10
0.0
 20
0.0
 30
0.0
 40
0.5
  0
CIRCLE
  5
5AF
100
AcDbEntity
  8
0
 62
     0
370
    -2
100
AcDbCircle
 10
0.0
 20
0.0
 30
0.0
 40
0.375
  0
CIRCLE
  5
5B0
100
AcDbEntity
  8
0
 62
     0
370
    -2
100
AcDbCircle
 10
0.0
 20
0.0
 30
0.0
 40
0.21875
  0
ENDBLK
  5
5B1
100
AcDbEntity
100
AcDbBlockEnd
  0
BLOCK
  5
5B2
100
AcDbEntity
  8
0
100
AcDbBlockBegin
  2
CDWK_PTTYP30
 70
     0
 10
0.0
 20
0.0
 30
0.0
  3
CDWK_PTTYP30
  1

  4
Cadwork node
  0
LINE
  5
5B3
100
AcDbEntity
  8
0
 62
     0
370
    -2
100
AcDbLine
 10
0.17680339
 20
0.17680339
 30
0.0
 11
0.5
 21
0.5
 31
0.0
  0
LINE
  5
5B4
100
AcDbEntity
  8
0
 62
     0
370
    -2
100
AcDbLine
 10
-0.17680339
 20
0.17680339
 30
0.0
 11
-0.5
 21
0.5
 31
0.0
  0
LINE
  5
5B5
100
AcDbEntity
  8
0
 62
     0
370
    -2
100
AcDbLine
 10
0.17680339
 20
-0.17680339
 30
0.0
 11
0.5
 21
-0.5
 31
0.0
  0
LINE
  5
5B6
100
AcDbEntity
  8
0
 62
     0
370
    -2
100
AcDbLine
 10
-0.17680339
 20
-0.17680339
 30
0.0
 11
-0.5
 21
-0.5
 31
0.0
  0
ENDBLK
  5
5B7
100
AcDbEntity
100
AcDbBlockEnd
  0
BLOCK
  5
5B8
100
AcDbEntity
  8
0
100
AcDbBlockBegin
  2
CDWK_PTTYP31
 70
     0
 10
0.0
 20
0.0
 30
0.0
  3
CDWK_PTTYP31
  1

  4
Cadwork node
  0
CIRCLE
  5
5B9
100
AcDbEntity
  8
0
 62
     0
370
    -2
100
AcDbCircle
 10
0.0
 20
0.0
 30
0.0
 40
0.075
  0
LINE
  5
5BA
100
AcDbEntity
  8
0
 62
     0
370
    -2
100
AcDbLine
 10
0.075
 20
0.0
 30
0.0
 11
0.5
 21
0.0
 31
0.0
  0
LINE
  5
5BB
100
AcDbEntity
  8
0
 62
     0
370
    -2
100
AcDbLine
 10
-0.075
 20
0.0
 30
0.0
 11
-0.5
 21
0.0
 31
0.0
  0
LINE
  5
5BC
100
AcDbEntity
  8
0
 62
     0
370
    -2
100
AcDbLine
 10
0.0
 20
0.075
 30
0.0
 11
0.0
 21
0.5
 31
0.0
  0
LINE
  5
5BD
100
AcDbEntity
  8
0
 62
     0
370
    -2
100
AcDbLine
 10
0.0
 20
-0.075
 30
0.0
 11
0.0
 21
-0.5
 31
0.0
  0
ENDBLK
  5
5BE
100
AcDbEntity
100
AcDbBlockEnd
  0
BLOCK
  5
5BF
100
AcDbEntity
  8
0
100
AcDbBlockBegin
  2
CDWK_PTTYP32
 70
     0
 10
0.0
 20
0.0
 30
0.0
  3
CDWK_PTTYP32
  1

  4
Cadwork node
  0
CIRCLE
  5
5C0
100
AcDbEntity
  8
0
 62
     0
370
    -2
100
AcDbCircle
 10
0.0
 20
0.0
 30
0.0
 40
0.5
  0
CIRCLE
  5
5C1
100
AcDbEntity
  8
0
 62
     0
370
    -2
100
AcDbCircle
 10
0.0
 20
0.0
 30
0.0
 40
0.16666667
  0
LINE
  5
5C2
100
AcDbEntity
  8
0
 62
     0
370
    -2
100
AcDbLine
 10
0.11786893
 20
0.11786893
 30
0.0
 11
0.35360678
 21
0.35360678
 31
0.0
  0
LINE
  5
5C3
100
AcDbEntity
  8
0
 62
     0
370
    -2
100
AcDbLine
 10
-0.11786893
 20
0.11786893
 30
0.0
 11
-0.35360678
 21
0.35360678
 31
0.0
  0
LINE
  5
5C4
100
AcDbEntity
  8
0
 62
     0
370
    -2
100
AcDbLine
 10
0.11786893
 20
-0.11786893
 30
0.0
 11
0.35360678
 21
-0.35360678
 31
0.0
  0
LINE
  5
5C5
100
AcDbEntity
  8
0
 62
     0
370
    -2
100
AcDbLine
 10
-0.11786893
 20
-0.11786893
 30
0.0
 11
-0.35360678
 21
-0.35360678
 31
0.0
  0
ENDBLK
  5
5C6
100
AcDbEntity
100
AcDbBlockEnd
  0
BLOCK
  5
5C7
100
AcDbEntity
  8
0
100
AcDbBlockBegin
  2
CDWK_PTTYP33
 70
     0
 10
0.0
 20
0.0
 30
0.0
  3
CDWK_PTTYP33
  1

  4
Cadwork node
  0
CIRCLE
  5
5C8
100
AcDbEntity
  8
0
 62
     0
370
    -2
100
AcDbCircle
 10
0.0
 20
0.0
 30
0.0
 40
0.5
  0
LINE
  5
5C9
100
AcDbEntity
  8
0
 62
     0
370
    -2
100
AcDbLine
 10
0.0
 20
0.5
 30
0.0
 11
0.0
 21
-0.5
 31
0.0
  0
LINE
  5
5CA
100
AcDbEntity
  8
0
 62
     0
370
    -2
100
AcDbLine
 10
-0.5
 20
0.0
 30
0.0
 11
0.5
 21
0.0
 31
0.0
  0
ENDBLK
  5
5CB
100
AcDbEntity
100
AcDbBlockEnd
  0
BLOCK
  5
5CC
100
AcDbEntity
  8
0
100
AcDbBlockBegin
  2
CDWK_PTTYP34
 70
     0
 10
0.0
 20
0.0
 30
0.0
  3
CDWK_PTTYP34
  1

  4
Cadwork node
  0
CIRCLE
  5
5CD
100
AcDbEntity
  8
0
 62
     0
370
    -2
100
AcDbCircle
 10
0.0
 20
0.0
 30
0.0
 40
0.5
  0
LINE
  5
5CE
100
AcDbEntity
  8
0
 62
     0
370
    -2
100
AcDbLine
 10
-0.30360678
 20
-0.40360678
 30
0.0
 11
0.40360678
 21
0.30360678
 31
0.0
  0
LINE
  5
5CF
100
AcDbEntity
  8
0
 62
     0
370
    -2
100
AcDbLine
 10
-0.40360678
 20
-0.30360678
 30
0.0
 11
0.30360678
 21
0.40360678
 31
0.0
  0
ENDBLK
  5
5D0
100
AcDbEntity
100
AcDbBlockEnd
  0
BLOCK
  5
5D1
100
AcDbEntity
  8
0
100
AcDbBlockBegin
  2
CDWK_PTTYP35
 70
     0
 10
0.0
 20
0.0
 30
0.0
  3
CDWK_PTTYP35
  1

  4
Cadwork node
  0
CIRCLE
  5
5D2
100
AcDbEntity
  8
0
 62
     0
370
    -2
100
AcDbCircle
 10
0.0
 20
0.0
 30
0.0
 40
0.21431634
  0
LINE
  5
5D3
100
AcDbEntity
  8
0
 62
     0
370
    -2
100
AcDbLine
 10
0.0
 20
0.21431634
 30
0.0
 11
0.0
 21
0.5
 31
0.0
  0
LINE
  5
5D4
100
AcDbEntity
  8
0
 62
     0
370
    -2
100
AcDbLine
 10
0.0
 20
-0.21431634
 30
0.0
 11
0.0
 21
-0.5
 31
0.0
  0
ENDBLK
  5
5D5
100
AcDbEntity
100
AcDbBlockEnd
  0
BLOCK
  5
5D6
100
AcDbEntity
  8
0
100
AcDbBlockBegin
  2
CDWK_PTTYP36
 70
     0
 10
0.0
 20
0.0
 30
0.0
  3
CDWK_PTTYP36
  1

  4
Cadwork node
  0
LINE
  5
5D7
100
AcDbEntity
  8
0
 62
     0
370
    -2
100
AcDbLine
 10
-0.5
 20
-0.16666667
 30
0.0
 11
0.5
 21
-0.16666667
 31
0.0
  0
LINE
  5
5D8
100
AcDbEntity
  8
0
 62
     0
370
    -2
100
AcDbLine
 10
0.5
 20
-0.16666667
 30
0.0
 11
0.5
 21
0.16666667
 31
0.0
  0
LINE
  5
5D9
100
AcDbEntity
  8
0
 62
     0
370
    -2
100
AcDbLine
 10
0.5
 20
0.16666667
 30
0.0
 11
-0.5
 21
0.16666667
 31
0.0
  0
LINE
  5
5DA
100
AcDbEntity
  8
0
 62
     0
370
    -2
100
AcDbLine
 10
-0.5
 20
0.16666667
 30
0.0
 11
-0.5
 21
-0.16666667
 31
0.0
  0
SOLID
  5
5DB
100
AcDbEntity
  8
0
 62
     0
100
AcDbTrace
 10
-0.5
 20
-0.16666667
 11
0.5
 21
0.16666667
 12
0.5
 22
-0.16666667
 13
0.5
 23
-0.16666667
  0
ENDBLK
  5
5DC
100
AcDbEntity
100
AcDbBlockEnd
  0
BLOCK
  5
5DD
100
AcDbEntity
  8
0
100
AcDbBlockBegin
  2
CDWK_PTTYP37
 70
     0
 10
0.0
 20
0.0
 30
0.0
  3
CDWK_PTTYP37
  1

  4
Cadwork node
  0
CIRCLE
  5
5DE
100
AcDbEntity
  8
0
 62
     0
370
    -2
100
AcDbCircle
 10
0.0
 20
0.0
 30
0.0
 40
0.5
  0
SOLID
  5
5DF
100
AcDbEntity
  8
0
 62
     0
100
AcDbTrace
 10
0.0
 20
0.0
 11
0.35350001
 21
0.35350001
 12
0.5
 22
0.0
 13
0.46200001
 23
0.19149999
  0
SOLID
  5
5E0
100
AcDbEntity
  8
0
 62
     0
100
AcDbTrace
 10
0.0
 20
0.0
 11
0.35350001
 21
-0.35350001
 12
0.5
 22
0.0
 13
0.46200001
 23
-0.19149999
  0
SOLID
  5
5E1
100
AcDbEntity
  8
0
 62
     0
100
AcDbTrace
 10
0.0
 20
0.0
 11
0.0
 21
-0.5
 12
0.35350001
 22
-0.35350001
 13
0.19149999
 23
-0.46200001
  0
SOLID
  5
5E2
100
AcDbEntity
  8
0
 62
     0
100
AcDbTrace
 10
0.0
 20
0.0
 11
0.0
 21
-0.5
 12
-0.35350001
 22
-0.35350001
 13
-0.19149999
 23
-0.46200001
  0
ENDBLK
  5
5E3
100
AcDbEntity
100
AcDbBlockEnd
  0
BLOCK
  5
5E4
100
AcDbEntity
  8
0
100
AcDbBlockBegin
  2
CDWK_PTTYP38
 70
     0
 10
0.0
 20
0.0
 30
0.0
  3
CDWK_PTTYP38
  1

  4
Cadwork node
  0
CIRCLE
  5
5E5
100
AcDbEntity
  8
0
 62
     0
370
    -2
100
AcDbCircle
 10
0.0
 20
0.0
 30
0.0
 40
0.5
  0
SOLID
  5
5E6
100
AcDbEntity
  8
0
 62
     0
100
AcDbTrace
 10
0.0
 20
0.0
 11
0.35350001
 21
0.35350001
 12
0.0
 22
0.5
 13
0.19149999
 23
0.46200001
  0
SOLID
  5
5E7
100
AcDbEntity
  8
0
 62
     0
100
AcDbTrace
 10
0.0
 20
0.0
 11
0.5
 21
0.0
 12
0.35350001
 22
0.35350001
 13
0.46200001
 23
0.19149999
  0
SOLID
  5
5E8
100
AcDbEntity
  8
0
 62
     0
100
AcDbTrace
 10
0.0
 20
0.0
 11
0.0
 21
-0.5
 12
-0.35350001
 22
-0.35350001
 13
-0.19149999
 23
-0.46200001
  0
SOLID
  5
5E9
100
AcDbEntity
  8
0
 62
     0
100
AcDbTrace
 10
0.0
 20
0.0
 11
-0.5
 21
0.0
 12
-0.35350001
 22
-0.35350001
 13
-0.46200001
 23
-0.19149999
  0
ENDBLK
  5
5EA
100
AcDbEntity
100
AcDbBlockEnd
  0
ENDSEC
  0
SECTION
  2
ENTITIES
  0
LWPOLYLINE
  5
5EB
100
AcDbEntity
  8
Ech.1_5
 62
   190
  6
CONTINUOUS
370
    -3
100
AcDbPolyline
 90
        4
 70
     1
 43
0.0
 10
33578.30096138
 20
-8520.41526876
 10
33778.30096138
 20
-8520.41526876
 10
33778.30096138
 20
-8550.41526876
 10
33578.30096138
 20
-8550.41526876
  0
LWPOLYLINE
  5
5EC
100
AcDbEntity
  8
Ech.1_5
 62
   190
  6
CONTINUOUS
370
    -3
100
AcDbPolyline
 90
        4
 70
     1
 43
0.0
 10
33778.30096138
 20
-8520.41526876
 10
33778.30096138
 20
-8750.41526876
 10
33808.30096138
 20
-8750.41526876
 10
33808.30096138
 20
-8520.41526876
  0
LWPOLYLINE
  5
5ED
100
AcDbEntity
  8
Ech.1_5
 62
   190
  6
CONTINUOUS
370
    -3
100
AcDbPolyline
 90
       80
 70
     0
 43
0.0
 10
33578.30096138
 20
-8545.41526876
 42
1.14028181
 10
33588.13058973
 20
-8544.12117062
 10
33583.47133303
 20
-8526.7093669
 42
-1.30322619
 10
33593.13058973
 20
-8526.7093669
 10
33588.47133303
 20
-8544.12117062
 42
1.30322619
 10
33598.13058973
 20
-8544.12117062
 10
33593.47133303
 20
-8526.7093669
 42
-1.30322619
 10
33603.13058973
 20
-8526.7093669
 10
33598.47133303
 20
-8544.12117062
 42
1.30322619
 10
33608.13058973
 20
-8544.12117062
 10
33603.47133303
 20
-8526.7093669
 42
-1.30322619
 10
33613.13058973
 20
-8526.7093669
 10
33608.47133303
 20
-8544.12117062
 42
1.30322619
 10
33618.13058973
 20
-8544.12117062
 10
33613.47133303
 20
-8526.7093669
 42
-1.30322619
 10
33623.13058973
 20
-8526.7093669
 10
33618.47133303
 20
-8544.12117062
 42
1.30322619
 10
33628.13058973
 20
-8544.12117062
 10
33623.47133303
 20
-8526.7093669
 42
-1.30322619
 10
33633.13058973
 20
-8526.7093669
 10
33628.47133303
 20
-8544.12117062
 42
1.30322619
 10
33638.13058973
 20
-8544.12117062
 10
33633.47133303
 20
-8526.7093669
 42
-1.30322619
 10
33643.13058973
 20
-8526.7093669
 10
33638.47133303
 20
-8544.12117062
 42
1.30322619
 10
33648.13058973
 20
-8544.12117062
 10
33643.47133303
 20
-8526.7093669
 42
-1.30322619
 10
33653.13058973
 20
-8526.7093669
 10
33648.47133303
 20
-8544.12117062
 42
1.30322619
 10
33658.13058973
 20
-8544.12117062
 10
33653.47133303
 20
-8526.7093669
 42
-1.30322619
 10
33663.13058973
 20
-8526.7093669
 10
33658.47133303
 20
-8544.12117062
 42
1.30322619
 10
33668.13058973
 20
-8544.12117062
 10
33663.47133303
 20
-8526.7093669
 42
-1.30322619
 10
33673.13058973
 20
-8526.7093669
 10
33668.47133303
 20
-8544.12117062
 42
1.30322619
 10
33678.13058973
 20
-8544.12117062
 10
33673.47133303
 20
-8526.7093669
 42
-1.30322619
 10
33683.13058973
 20
-8526.7093669
 10
33678.47133303
 20
-8544.12117062
 42
1.30322619
 10
33688.13058973
 20
-8544.12117062
 10
33683.47133303
 20
-8526.7093669
 42
-1.30322619
 10
33693.13058973
 20
-8526.7093669
 10
33688.47133303
 20
-8544.12117062
 42
1.30322619
 10
33698.13058973
 20
-8544.12117062
 10
33693.47133303
 20
-8526.7093669
 42
-1.30322619
 10
33703.13058973
 20
-8526.7093669
 10
33698.47133303
 20
-8544.12117062
 42
1.30322619
 10
33708.13058973
 20
-8544.12117062
 10
33703.47133303
 20
-8526.7093669
 42
-1.30322619
 10
33713.13058973
 20
-8526.7093669
 10
33708.47133303
 20
-8544.12117062
 42
1.30322619
 10
33718.13058973
 20
-8544.12117062
 10
33713.47133303
 20
-8526.7093669
 42
-1.30322619
 10
33723.13058973
 20
-8526.7093669
 10
33718.47133303
 20
-8544.12117062
 42
1.30322619
 10
33728.13058973
 20
-8544.12117062
 10
33723.47133303
 20
-8526.7093669
 42
-1.30322619
 10
33733.13058973
 20
-8526.7093669
 10
33728.47133303
 20
-8544.12117062
 42
1.30322619
 10
33738.13058973
 20
-8544.12117062
 10
33733.47133303
 20
-8526.7093669
 42
-1.30322619
 10
33743.13058973
 20
-8526.7093669
 10
33738.47133303
 20
-8544.12117062
 42
1.30322619
 10
33748.13058973
 20
-8544.12117062
 10
33743.47133303
 20
-8526.7093669
 42
-1.30322619
 10
33753.13058973
 20
-8526.7093669
 10
33748.47133303
 20
-8544.12117062
 42
1.30322619
 10
33758.13058973
 20
-8544.12117062
 10
33753.47133303
 20
-8526.7093669
 42
-1.30322619
 10
33763.13058973
 20
-8526.7093669
 10
33758.47133303
 20
-8544.12117062
 42
1.30322619
 10
33768.13058973
 20
-8544.12117062
 10
33763.47133303
 20
-8526.7093669
 42
-1.30322619
 10
33773.13058973
 20
-8526.7093669
 10
33768.47133303
 20
-8544.12117062
 42
1.30322619
 10
33778.13058973
 20
-8544.12117062
 10
33773.47133303
 20
-8526.7093669
 42
-0.52586277
 10
33778.30096138
 20
-8520.41526876
  0
LWPOLYLINE
  5
5EE
100
AcDbEntity
  8
Ech.1_5
 62
   190
  6
CONTINUOUS
370
    -3
100
AcDbPolyline
 90
       92
 70
     0
 43
0.0
 10
33803.30096138
 20
-8750.41526876
 42
1.14028181
 10
33802.00686324
 20
-8740.58564041
 10
33784.59505952
 20
-8745.24489711
 42
-1.30322619
 10
33784.59505952
 20
-8735.58564041
 10
33802.00686324
 20
-8740.24489711
 42
1.30322619
 10
33802.00686324
 20
-8730.58564041
 10
33784.59505952
 20
-8735.24489711
 42
-1.30322619
 10
33784.59505952
 20
-8725.58564041
 10
33802.00686324
 20
-8730.24489711
 42
1.30322619
 10
33802.00686324
 20
-8720.58564041
 10
33784.59505952
 20
-8725.24489711
 42
-1.30322619
 10
33784.59505952
 20
-8715.58564041
 10
33802.00686324
 20
-8720.24489711
 42
1.30322619
 10
33802.00686324
 20
-8710.58564041
 10
33784.59505952
 20
-8715.24489711
 42
-1.30322619
 10
33784.59505952
 20
-8705.58564041
 10
33802.00686324
 20
-8710.24489711
 42
1.30322619
 10
33802.00686324
 20
-8700.58564041
 10
33784.59505952
 20
-8705.24489711
 42
-1.30322619
 10
33784.59505952
 20
-8695.58564041
 10
33802.00686324
 20
-8700.24489711
 42
1.30322619
 10
33802.00686324
 20
-8690.58564041
 10
33784.59505952
 20
-8695.24489711
 42
-1.30322619
 10
33784.59505952
 20
-8685.58564041
 10
33802.00686324
 20
-8690.24489711
 42
1.30322619
 10
33802.00686324
 20
-8680.58564041
 10
33784.59505952
 20
-8685.24489711
 42
-1.30322619
 10
33784.59505952
 20
-8675.58564041
 10
33802.00686324
 20
-8680.24489711
 42
1.30322619
 10
33802.00686324
 20
-8670.58564041
 10
33784.59505952
 20
-8675.24489711
 42
-1.30322619
 10
33784.59505952
 20
-8665.58564041
 10
33802.00686324
 20
-8670.24489711
 42
1.30322619
 10
33802.00686324
 20
-8660.58564041
 10
33784.59505952
 20
-8665.24489711
 42
-1.30322619
 10
33784.59505952
 20
-8655.58564041
 10
33802.00686324
 20
-8660.24489711
 42
1.30322619
 10
33802.00686324
 20
-8650.58564041
 10
33784.59505952
 20
-8655.24489711
 42
-1.30322619
 10
33784.59505952
 20
-8645.58564041
 10
33802.00686324
 20
-8650.24489711
 42
1.30322619
 10
33802.00686324
 20
-8640.58564041
 10
33784.59505952
 20
-8645.24489711
 42
-1.30322619
 10
33784.59505952
 20
-8635.58564041
 10
33802.00686324
 20
-8640.24489711
 42
1.30322619
 10
33802.00686324
 20
-8630.58564041
 10
33784.59505952
 20
-8635.24489711
 42
-1.30322619
 10
33784.59505952
 20
-8625.58564041
 10
33802.00686324
 20
-8630.24489711
 42
1.30322619
 10
33802.00686324
 20
-8620.58564041
 10
33784.59505952
 20
-8625.24489711
 42
-1.30322619
 10
33784.59505952
 20
-8615.58564041
 10
33802.00686324
 20
-8620.24489711
 42
1.30322619
 10
33802.00686324
 20
-8610.58564041
 10
33784.59505952
 20
-8615.24489711
 42
-1.30322619
 10
33784.59505952
 20
-8605.58564041
 10
33802.00686324
 20
-8610.24489711
 42
1.30322619
 10
33802.00686324
 20
-8600.58564041
 10
33784.59505952
 20
-8605.24489711
 42
-1.30322619
 10
33784.59505952
 20
-8595.58564041
 10
33802.00686324
 20
-8600.24489711
 42
1.30322619
 10
33802.00686324
 20
-8590.58564041
 10
33784.59505952
 20
-8595.24489711
 42
-1.30322619
 10
33784.59505952
 20
-8585.58564041
 10
33802.00686324
 20
-8590.24489711
 42
1.30322619
 10
33802.00686324
 20
-8580.58564041
 10
33784.59505952
 20
-8585.24489711
 42
-1.30322619
 10
33784.59505952
 20
-8575.58564041
 10
33802.00686324
 20
-8580.24489711
 42
1.30322619
 10
33802.00686324
 20
-8570.58564041
 10
33784.59505952
 20
-8575.24489711
 42
-1.30322619
 10
33784.59505952
 20
-8565.58564041
 10
33802.00686324
 20
-8570.24489711
 42
1.30322619
 10
33802.00686324
 20
-8560.58564041
 10
33784.59505952
 20
-8565.24489711
 42
-1.30322619
 10
33784.59505952
 20
-8555.58564041
 10
33802.00686324
 20
-8560.24489711
 42
1.30322619
 10
33802.00686324
 20
-8550.58564041
 10
33784.59505952
 20
-8555.24489711
 42
-1.30322619
 10
33784.59505952
 20
-8545.58564041
 10
33802.00686324
 20
-8550.24489711
 42
1.30322619
 10
33802.00686324
 20
-8540.58564041
 10
33784.59505952
 20
-8545.24489711
 42
-1.30322619
 10
33784.59505952
 20
-8535.58564041
 10
33802.00686324
 20
-8540.24489711
 42
1.30322619
 10
33802.00686324
 20
-8530.58564041
 10
33784.59505952
 20
-8535.24489711
 42
-1.30322619
 10
33784.59505952
 20
-8525.58564041
 10
33802.00686324
 20
-8530.24489711
 42
1.30322619
 10
33802.00686324
 20
-8520.58564041
 10
33784.59505952
 20
-8525.24489711
 42
-0.52586277
 10
33778.30096138
 20
-8520.41526876
  0
LINE
  5
5EF
100
AcDbEntity
  8
Ech.1_5
 62
     7
  6
CONTINUOUS
370
     9
100
AcDbLine
 10
33898.22409642
 20
-8754.58894726
 30
0.0
 11
33898.22409747
 21
-8753.66044422
 31
0.0
  0
LWPOLYLINE
  5
5F0
100
AcDbEntity
  8
Ech.1_5
 62
   190
  6
CONTINUOUS
370
    -3
100
AcDbPolyline
 90
       10
 70
     1
 43
0.0
 10
33808.13992888
 20
-8730.64802166
 10
33808.11543589
 20
-8615.42530536
 10
33953.27486167
 20
-8615.43572509
 10
33953.30093506
 20
-8759.47924133
 10
33953.30096138
 20
-9130.35967155
 10
33926.47514159
 20
-9130.35967155
 10
33909.9887875
 20
-9148.33802315
 10
33924.09872752
 20
-9112.38232323
 10
33907.61322437
 20
-9130.35967155
 10
33808.13995725
 20
-9130.35967155
  0
LWPOLYLINE
  5
5F1
100
AcDbEntity
  8
Ech.1_5
 62
   190
  6
CONTINUOUS
370
    -3
100
AcDbPolyline
 90
        8
 70
     1
 43
0.0
 10
33344.05896794
 20
-8375.35633751
 10
33763.23198041
 20
-8375.35633751
 10
33763.23198041
 20
-8520.35633751
 10
33344.05896794
 20
-8520.35633751
 10
33344.05896794
 20
-8459.81627746
 10
33326.08161953
 20
-8443.33077427
 10
33362.03731954
 20
-8457.44071384
 10
33344.05896794
 20
-8440.95435997
  0
LWPOLYLINE
  5
5F2
100
AcDbEntity
  8
Ech.1_5
 62
   190
  6
CONTINUOUS
370
    -3
100
AcDbPolyline
 90
        4
 70
     1
 43
0.0
 10
33763.29832456
 20
-8475.41759678
 10
33763.29832456
 20
-8375.34861656
 10
33908.30096138
 20
-8375.34861656
 10
33908.30096138
 20
-8475.41759678
  0
LWPOLYLINE
  5
5F3
100
AcDbEntity
  8
Ech.1_5
 62
   190
  6
CONTINUOUS
370
    -3
100
AcDbPolyline
 90
       34
 70
     0
 43
0.0
 10
33763.23198041
 20
-8399.52300449
 42
1.14028181
 10
33715.72211005
 20
-8405.77781196
 10
33738.24185078
 20
-8489.93486305
 42
-1.30322619
 10
33691.55544339
 20
-8489.93486305
 10
33714.07518411
 20
-8405.77781196
 42
1.30322619
 10
33667.38877672
 20
-8405.77781196
 10
33689.90851744
 20
-8489.93486305
 42
-1.30322619
 10
33643.22211005
 20
-8489.93486305
 10
33665.74185078
 20
-8405.77781196
 42
1.30322619
 10
33619.05544339
 20
-8405.77781196
 10
33641.57518411
 20
-8489.93486305
 42
-1.30322619
 10
33594.88877672
 20
-8489.93486305
 10
33617.40851744
 20
-8405.77781196
 42
1.30322619
 10
33570.72211005
 20
-8405.77781196
 10
33593.24185078
 20
-8489.93486305
 42
-1.30322619
 10
33546.55544339
 20
-8489.93486305
 10
33569.07518411
 20
-8405.77781196
 42
1.30322619
 10
33522.38877672
 20
-8405.77781196
 10
33544.90851744
 20
-8489.93486305
 42
-1.30322619
 10
33498.22211005
 20
-8489.93486305
 10
33520.74185078
 20
-8405.77781196
 42
1.30322619
 10
33474.05544339
 20
-8405.77781196
 10
33496.57518411
 20
-8489.93486305
 42
-1.30322619
 10
33449.88877672
 20
-8489.93486305
 10
33472.40851744
 20
-8405.77781196
 42
1.30322619
 10
33425.72211005
 20
-8405.77781196
 10
33448.24185078
 20
-8489.93486305
 42
-1.30322619
 10
33401.55544339
 20
-8489.93486305
 10
33424.07518411
 20
-8405.77781196
 42
1.30322619
 10
33377.38877672
 20
-8405.77781196
 10
33399.90851744
 20
-8489.93486305
 42
-1.30322619
 10
33353.22211005
 20
-8489.93486305
 10
33375.74185078
 20
-8405.77781196
 42
0.60793384
 10
33344.05896794
 20
-8376.84090706
  0
LWPOLYLINE
  5
5F4
100
AcDbEntity
  8
Ech.1_5
 62
   190
  6
CONTINUOUS
370
    -3
100
AcDbPolyline
 90
       16
 70
     0
 43
0.0
 10
33763.29832456
 20
-8458.73943325
 42
1.14028181
 10
33796.0863543
 20
-8454.42279716
 10
33780.5447853
 20
-8396.34341617
 42
-1.30322619
 10
33812.7645178
 20
-8396.34341617
 10
33797.22294879
 20
-8454.42279716
 42
1.30322619
 10
33829.44268129
 20
-8454.42279716
 10
33813.90111228
 20
-8396.34341617
 42
-1.30322619
 10
33846.12084478
 20
-8396.34341617
 10
33830.57927578
 20
-8454.42279716
 42
1.30322619
 10
33862.79900828
 20
-8454.42279716
 10
33847.25743927
 20
-8396.34341617
 42
-1.30322619
 10
33879.47717177
 20
-8396.34341617
 10
33863.93560277
 20
-8454.42279716
 42
1.30322619
 10
33896.15533527
 20
-8454.42279716
 10
33880.61376626
 20
-8396.34341617
 42
-0.76005852
 10
33908.29832456
 20
-8380.01896377
  0
LINE
  5
5F5
100
AcDbEntity
  8
Ech.1_5
 62
     7
  6
CONTINUOUS
100
AcDbLine
 10
33344.05896794
 20
-8520.35633751
 30
0.0
 11
33570.19635306
 21
-8520.35633751
 31
0.0
  0
LWPOLYLINE
  5
5F6
100
AcDbEntity
  8
Ech.1_5
 62
     5
  6
CONTINUOUS
370
    -3
100
AcDbPolyline
 90
        5
 70
     0
 43
0.0
 10
33546.73199175
 20
-8520.35633751
 10
33546.73199175
 20
-8375.35633751
 10
33501.73199175
 20
-8375.35633751
 10
33501.73199175
 20
-8520.35633751
 10
33546.73199175
 20
-8520.35633751
  0
LWPOLYLINE
  5
5F7
100
AcDbEntity
  8
Ech.1_5
 62
   190
  6
CONTINUOUS
370
    -3
100
AcDbPolyline
 90
        4
 70
     0
 43
0.0
 10
33501.73199175
 20
-8375.35633751
 10
33546.73199175
 20
-8520.35633751
 10
33501.73199175
 20
-8520.35633751
 10
33546.73199175
 20
-8375.35633751
  0
LWPOLYLINE
  5
5F8
100
AcDbEntity
  8
Ech.1_5
 62
     5
  6
CONTINUOUS
370
    -3
100
AcDbPolyline
 90
        5
 70
     0
 43
0.0
 10
33908.29832456
 20
-8475.41759678
 10
33763.29832456
 20
-8475.41759678
 10
33763.29832456
 20
-8520.41759678
 10
33908.29832456
 20
-8520.41759678
 10
33908.29832456
 20
-8475.41759678
  0
LWPOLYLINE
  5
5F9
100
AcDbEntity
  8
Ech.1_5
 62
   190
  6
CONTINUOUS
370
    -3
100
AcDbPolyline
 90
        4
 70
     0
 43
0.0
 10
33763.29832456
 20
-8520.41759678
 10
33908.29832456
 20
-8475.41759678
 10
33908.29832456
 20
-8520.41759678
 10
33763.29832456
 20
-8475.41759678
  0
LWPOLYLINE
  5
5FA
100
AcDbEntity
  8
Ech.1_5
 62
   190
  6
CONTINUOUS
370
    -3
100
AcDbPolyline
 90
        4
 70
     0
 43
0.0
 10
33908.30096138
 20
-8375.35633751
 10
33953.30096138
 20
-8520.42531868
 10
33908.30096138
 20
-8520.42531868
 10
33953.30096138
 20
-8375.35633751
  0
LINE
  5
5FB
100
AcDbEntity
  8
Ech.1_5
 62
   190
  6
CONTINUOUS
370
    -3
100
AcDbLine
 10
33838.82264937
 20
-8618.8537006
 30
0.0
 11
33845.82264946
 21
-8625.85369964
 31
0.0
  0
LWPOLYLINE
  5
5FC
100
AcDbEntity
  8
Ech.1_5
 62
   190
  6
CONTINUOUS
370
    -3
100
AcDbPolyline
 90
       46
 70
     0
 43
0.0
 10
33929.12867294
 20
-9130.3611755
 42
1.14028182
 10
33922.86945333
 20
-9082.84064289
 10
33838.69422656
 20
-9105.37086006
 42
-1.30322617
 10
33838.6913209
 20
-9058.67359157
 10
33922.86935083
 20
-9081.19333359
 42
1.30322619
 10
33922.86644517
 20
-9034.49606605
 10
33838.6912184
 20
-9057.02628322
 42
-1.30322617
 10
33838.68831273
 20
-9010.32901474
 10
33922.86634267
 20
-9032.84875675
 42
1.30322619
 10
33922.86343701
 20
-8986.15148922
 10
33838.68821023
 20
-9008.68170639
 42
-1.30322617
 10
33838.68530457
 20
-8961.9844379
 10
33922.86333451
 20
-8984.50417992
 42
1.30322619
 10
33922.86042884
 20
-8937.80691238
 10
33838.68520207
 20
-8960.33712955
 42
-1.30322617
 10
33838.68229641
 20
-8913.63986107
 10
33922.86032634
 20
-8936.15960308
 42
1.30322619
 10
33922.85742068
 20
-8889.46233555
 10
33838.68219391
 20
-8911.99255272
 42
-1.30322617
 10
33838.67928825
 20
-8865.29528423
 10
33922.85731818
 20
-8887.81502624
 42
1.30322619
 10
33922.85441252
 20
-8841.11775871
 10
33838.67918575
 20
-8863.64797588
 42
-1.30322617
 10
33838.67628008
 20
-8816.9507074
 10
33922.85431002
 20
-8839.47044941
 42
1.30322619
 10
33922.85140436
 20
-8792.77318188
 10
33838.67617758
 20
-8815.30339809
 42
-1.30322619
 10
33838.67327192
 20
-8768.60613056
 10
33922.85130186
 20
-8791.12587257
 42
1.30322617
 10
33922.84839619
 20
-8744.42860409
 10
33838.67316942
 20
-8766.95882126
 42
-1.30322619
 10
33838.67026376
 20
-8720.26155372
 10
33922.84829369
 20
-8742.78129574
 42
1.30322617
 10
33922.84538803
 20
-8696.08402725
 10
33838.67016126
 20
-8718.61424442
 42
-1.30322619
 10
33838.6672556
 20
-8671.91697689
 10
33922.84528553
 20
-8694.4367189
 42
1.30322617
 10
33922.84237987
 20
-8647.73945042
 10
33838.66715309
 20
-8670.26966759
 42
-1.30322619
 10
33838.66424743
 20
-8623.57240005
 10
33922.84227737
 20
-8646.09214207
 42
1.30322617
 10
33922.83937171
 20
-8599.39487358
 10
33838.66414493
 20
-8621.92509075
 42
-1.30322619
 10
33838.66123927
 20
-8575.22782322
 10
33922.83926921
 20
-8597.74756523
 42
0.61753445
 10
33951.53918387
 20
-8565.42542644
  0
LWPOLYLINE
  5
5FD
100
AcDbEntity
  8
Ech.1_5
 62
   190
  6
CONTINUOUS
370
    -3
100
AcDbPolyline
 90
        4
 70
     0
 43
0.0
 10
33953.25841311
 20
-8937.2494001
 10
33808.18943215
 20
-8982.2494001
 10
33808.18943215
 20
-8937.2494001
 10
33953.25841311
 20
-8982.2494001
  0
LWPOLYLINE
  5
5FE
100
AcDbEntity
  8
Ech.1_5
 62
     5
  6
CONTINUOUS
370
    -3
100
AcDbPolyline
 90
        5
 70
     0
 43
0.0
 10
33808.18943215
 20
-8982.2494001
 10
33953.25841311
 20
-8982.2494001
 10
33953.25841311
 20
-8937.2494001
 10
33808.18943215
 20
-8937.2494001
 10
33808.18943215
 20
-8982.2494001
  0
LWPOLYLINE
  5
5FF
102
{ACAD_REACTORS
330
600
102
}
100
AcDbEntity
  8
Ech.1_5
 62
     7
  6
CONTINUOUS
370
     5
100
AcDbPolyline
 90
        4
 70
     1
 43
0.0
 10
33170.55421003
 20
-9201.60856922
 10
33196.37874111
 20
-9201.60856922
 10
33196.37874111
 20
-9192.17590912
 10
33170.55421003
 20
-9192.17590912
  0
HATCH
  5
600
100
AcDbEntity
  8
Ech.1_5
 62
     2
  6
CONTINUOUS
100
AcDbHatch
 10
0.0
 20
0.0
 30
0.0
210
0.0
220
0.0
230
1.0
  2
SOLID
 70
     1
 71
     1
 91
        1
 92
        7
 72
     0
 73
     1
 93
        4
 10
33170.55421003
 20
-9201.60856922
 10
33196.37874111
 20
-9201.60856922
 10
33196.37874111
 20
-9192.17590912
 10
33170.55421003
 20
-9192.17590912
 97
        1
330
5FF
 75
     0
 76
     2
 47
0.775229
 98
        1
 10
0.0
 20
0.0
  0
HATCH
  5
601
100
AcDbEntity
  8
Ech.1_5
 62
     7
100
AcDbHatch
 10
0.0
 20
0.0
 30
0.0
210
0.0
220
0.0
230
1.0
  2
ANSI37
 70
     0
 71
     0
 91
        1
 92
        7
 72
     0
 73
     1
 93
        4
 10
33170.55421003
 20
-9201.60856922
 10
33196.37874111
 20
-9201.60856922
 10
33196.37874111
 20
-9192.17590912
 10
33170.55421003
 20
-9192.17590912
 97
        0
 75
     0
 76
     2
 52
0.0
 41
1.87498831
 77
     0
 78
     2
 53
45.0
 43
0.0
 44
0.0
 45
4.20946876
 46
-4.20946876
 79
     0
 53
-45.0
 43
0.0
 44
0.0
 45
4.20946876
 46
4.20946876
 79
     0
 47
0.775229
 98
        1
 10
0.0
 20
0.0
  0
LINE
  5
602
100
AcDbEntity
  8
Ech.1_5
 62
     1
  6
CADWORK_22
 48
-5.0
370
    35
100
AcDbLine
 10
33344.05896794
 20
-8520.35633751
 30
0.0
 11
33887.4711008
 21
-8520.42531868
 31
0.0
  0
3DFACE
  5
603
102
{ACAD_REACTORS
330
604
102
}
100
AcDbEntity
  8
Ech.1_5
 62
     9
  6
CONTINUOUS
370
    -3
100
AcDbFace
 70
     0
 10
33345.54491503
 20
-8550.41526876
 30
2500.0
 11
33345.54491503
 21
-8750.41526876
 31
2500.0
 12
33778.30096138
 22
-8750.42202067
 32
2500.0
 13
33778.30096138
 23
-8550.41526876
 33
2500.0
  0
HATCH
  5
604
100
AcDbEntity
  8
Ech.1_5
 62
     9
  6
CONTINUOUS
100
AcDbHatch
 10
0.0
 20
0.0
 30
0.0
210
0.0
220
0.0
230
1.0
  2
AR-CONC
 70
     0
 71
     1
 91
        1
 92
        7
 72
     0
 73
     1
 93
        4
 10
33345.54491503
 20
-8550.41526876
 10
33345.54491503
 20
-8750.41526876
 10
33778.30096138
 20
-8750.42202067
 10
33778.30096138
 20
-8550.41526876
 97
        1
330
603
 75
     0
 76
     2
 52
0.0
 41
0.11811097
 77
     0
 78
    13
 53
50.0
 43
0.0
 44
0.0
 45
-18.84283637
 46
1.64853443
 79
     2
 49
1.97029307
 49
-21.67322338
 53
355.0
 43
0.0
 44
0.0
 45
-3.64507756
 46
19.76051824
 79
     2
 49
1.57623377
 49
-17.3385787
 53
100.45140076
 43
1.57023568
 44
-0.13737749
 45
-15.19777228
 46
-18.11197244
 79
     2
 49
1.67449124
 49
-18.41940522
 53
46.18420029
 43
0.0
 44
5.25411576
 45
-28.03703353
 46
4.34827878
 79
     2
 49
2.95543872
 49
-32.50983238
 53
96.63559723
 43
2.33641885
 44
4.89175692
 45
-24.55412615
 46
-25.59063404
 79
     2
 49
2.51173697
 49
-27.62910426
 53
351.1842041
 43
0.0
 44
5.25411576
 45
24.55410288
 46
25.59065715
 79
     2
 49
2.36435249
 49
-26.00786805
 53
21.0
 43
2.62705699
 44
3.94058615
 45
-15.68109068
 46
10.57702905
 79
     2
 49
1.97029307
 49
-21.67322338
 53
326.0
 43
2.62705699
 44
3.94058615
 45
6.39203268
 46
19.05010734
 79
     2
 49
1.57623377
 49
-17.3385787
 53
71.45140076
 43
3.93381357
 44
3.05916555
 45
-22.07312962
 46
-8.47306182
 79
     2
 49
1.67449124
 49
-18.41940522
 53
37.5
 43
0.0
 44
0.0
 45
0.31944534
 46
8.74531245
 79
     6
 49
0.01875
 49
-17.12841332
 49
0.01875
 49
-17.60128498
 49
0.01875
 49
-17.40425348
 53
7.5
 43
0.0
 44
0.0
 45
6.91098818
 46
10.3614222
 79
     6
 49
0.01875
 49
-10.03535807
 49
0.01875
 49
-16.7343539
 49
0.01875
 49
-6.6333206
 53
-32.5
 43
-5.85833833
 44
0.0
 45
14.02382061
 46
-0.59253003
 79
     6
 49
0.01875
 49
-6.56764314
 49
0.01875
 49
-20.49104869
 49
0.01875
 49
-27.19004452
 53
-42.5
 43
-8.48539531
 44
0.0
 45
15.32063571
 46
2.62981542
 79
     6
 49
0.01875
 49
-8.53793621
 49
0.01875
 49
-13.60815793
 49
0.01875
 49
-19.30887222
 47
0.775229
 98
        1
 10
0.0
 20
0.0
  0
LWPOLYLINE
  5
605
100
AcDbEntity
  8
Ech.1_5
 62
     5
  6
CONTINUOUS
370
    -3
100
AcDbPolyline
 90
        5
 70
     0
 43
0.0
 10
33953.30096138
 20
-8570.42531868
 10
33808.30096138
 20
-8570.42531868
 10
33808.30096138
 20
-8615.42531868
 10
33953.30096138
 20
-8615.42531868
 10
33953.30096138
 20
-8570.42531868
  0
LWPOLYLINE
  5
606
100
AcDbEntity
  8
Ech.1_5
 62
   190
  6
CONTINUOUS
370
    -3
100
AcDbPolyline
 90
        4
 70
     0
 43
0.0
 10
33808.30096138
 20
-8615.42531868
 10
33953.30096138
 20
-8570.42531868
 10
33953.30096138
 20
-8615.42531868
 10
33808.30096138
 20
-8570.42531868
  0
3DFACE
  5
607
102
{ACAD_REACTORS
330
608
102
}
100
AcDbEntity
  8
Ech.1_5
 62
     9
  6
CONTINUOUS
370
    -3
100
AcDbFace
 70
     0
 10
33578.30065709
 20
-9130.35967155
 30
2500.0
 11
33778.29475923
 21
-9130.35967155
 31
2500.0
 12
33778.30096138
 22
-8750.41920445
 32
2500.0
 13
33578.30065709
 23
-8750.41920445
 33
2500.0
  0
HATCH
  5
608
100
AcDbEntity
  8
Ech.1_5
 62
     9
  6
CONTINUOUS
100
AcDbHatch
 10
0.0
 20
0.0
 30
0.0
210
0.0
220
0.0
230
1.0
  2
AR-CONC
 70
     0
 71
     1
 91
        1
 92
        7
 72
     0
 73
     1
 93
        4
 10
33578.30065709
 20
-9130.35967155
 10
33778.29475923
 20
-9130.35967155
 10
33778.30096138
 20
-8750.41920445
 10
33578.30065709
 20
-8750.41920445
 97
        1
330
607
 75
     0
 76
     2
 52
0.0
 41
0.11811097
 77
     0
 78
    13
 53
50.0
 43
0.0
 44
0.0
 45
-18.84283637
 46
1.64853443
 79
     2
 49
1.97029307
 49
-21.67322338
 53
355.0
 43
0.0
 44
0.0
 45
-3.64507756
 46
19.76051824
 79
     2
 49
1.57623377
 49
-17.3385787
 53
100.45140076
 43
1.57023568
 44
-0.13737749
 45
-15.19777228
 46
-18.11197244
 79
     2
 49
1.67449124
 49
-18.41940522
 53
46.18420029
 43
0.0
 44
5.25411576
 45
-28.03703353
 46
4.34827878
 79
     2
 49
2.95543872
 49
-32.50983238
 53
96.63559723
 43
2.33641885
 44
4.89175692
 45
-24.55412615
 46
-25.59063404
 79
     2
 49
2.51173697
 49
-27.62910426
 53
351.1842041
 43
0.0
 44
5.25411576
 45
24.55410288
 46
25.59065715
 79
     2
 49
2.36435249
 49
-26.00786805
 53
21.0
 43
2.62705699
 44
3.94058615
 45
-15.68109068
 46
10.57702905
 79
     2
 49
1.97029307
 49
-21.67322338
 53
326.0
 43
2.62705699
 44
3.94058615
 45
6.39203268
 46
19.05010734
 79
     2
 49
1.57623377
 49
-17.3385787
 53
71.45140076
 43
3.93381357
 44
3.05916555
 45
-22.07312962
 46
-8.47306182
 79
     2
 49
1.67449124
 49
-18.41940522
 53
37.5
 43
0.0
 44
0.0
 45
0.31944534
 46
8.74531245
 79
     6
 49
0.01875
 49
-17.12841332
 49
0.01875
 49
-17.60128498
 49
0.01875
 49
-17.40425348
 53
7.5
 43
0.0
 44
0.0
 45
6.91098818
 46
10.3614222
 79
     6
 49
0.01875
 49
-10.03535807
 49
0.01875
 49
-16.7343539
 49
0.01875
 49
-6.6333206
 53
-32.5
 43
-5.85833833
 44
0.0
 45
14.02382061
 46
-0.59253003
 79
     6
 49
0.01875
 49
-6.56764314
 49
0.01875
 49
-20.49104869
 49
0.01875
 49
-27.19004452
 53
-42.5
 43
-8.48539531
 44
0.0
 45
15.32063571
 46
2.62981542
 79
     6
 49
0.01875
 49
-8.53793621
 49
0.01875
 49
-13.60815793
 49
0.01875
 49
-19.30887222
 47
0.775229
 98
        1
 10
0.0
 20
0.0
  0
LWPOLYLINE
  5
609
100
AcDbEntity
  8
Ech.1_5
 62
   190
  6
CONTINUOUS
370
    35
100
AcDbPolyline
 90
        4
 70
     0
 43
0.0
 10
33888.06986572
 20
-8565.25626602
 10
33953.30096138
 20
-8520.42531868
 10
33953.30096138
 20
-8565.42531868
 10
33887.4711008
 20
-8520.42531868
  0
LWPOLYLINE
  5
60A
100
AcDbEntity
  8
Ech.1_5
 62
     5
  6
CONTINUOUS
370
    -3
100
AcDbPolyline
 90
       12
 70
     0
 43
0.0
 10
33887.4711008
 20
-8565.42531868
 10
33893.12252927
 20
-8565.42531868
 10
33893.12256723
 20
-8565.42426868
 10
33918.94709832
 20
-8565.42426868
 10
33918.94706036
 20
-8565.42531868
 10
33953.30096138
 20
-8565.42531868
 10
33953.30096138
 20
-8520.42531868
 10
33935.26250596
 20
-8520.42531868
 10
33935.26250596
 20
-8520.42531868
 10
33909.26250596
 20
-8520.42531868
 10
33909.26250596
 20
-8520.42531868
 10
33887.4711008
 20
-8520.42531868
  0
LINE
  5
60B
100
AcDbEntity
  8
Ech.1_5
 62
   150
  6
CONTINUOUS
370
    50
100
AcDbLine
 10
33887.4711008
 20
-8520.42531868
 30
2500.0
 11
33887.4711008
 21
-8565.42531868
 31
2500.0
  0
LWPOLYLINE
  5
60C
100
AcDbEntity
  8
Ech.1_5
 62
   190
  6
CONTINUOUS
370
    35
100
AcDbPolyline
 90
        4
 70
     0
 43
0.0
 10
33808.8997263
 20
-8570.25626602
 10
33880.80096138
 20
-8525.42531868
 10
33880.80096138
 20
-8570.42531868
 10
33808.30096138
 20
-8525.42531868
  0
LWPOLYLINE
  5
60D
100
AcDbEntity
  8
Ech.1_5
 62
     5
  6
CONTINUOUS
370
    -3
100
AcDbPolyline
 90
       12
 70
     0
 43
0.0
 10
33808.30096138
 20
-8570.42531868
 10
33813.95238985
 20
-8570.42531868
 10
33813.95242781
 20
-8570.42426868
 10
33839.7769589
 20
-8570.42426868
 10
33839.77692094
 20
-8570.42531868
 10
33880.80096138
 20
-8570.42531868
 10
33880.80096138
 20
-8525.42531868
 10
33856.09236654
 20
-8525.42531868
 10
33856.09236654
 20
-8525.42531868
 10
33830.09236654
 20
-8525.42531868
 10
33830.09236654
 20
-8525.42531868
 10
33808.30096138
 20
-8525.42531868
  0
LINE
  5
60E
100
AcDbEntity
  8
Ech.1_5
 62
   150
  6
CONTINUOUS
370
    50
100
AcDbLine
 10
33808.30096138
 20
-8525.42531868
 30
2500.0
 11
33808.30096138
 21
-8570.42531868
 31
2500.0
  0
LINE
  5
60F
100
AcDbEntity
  8
Ech.1_5
 62
     1
  6
CADWORK_22
 48
-5.0
370
    35
100
AcDbLine
 10
33808.13995725
 20
-9130.35967155
 30
0.0
 11
33808.30096138
 21
-8525.42531868
 31
0.0
  0
LINE
  5
610
100
AcDbEntity
  8
Ech.1_5
 62
     1
  6
CADWORK_22
 48
-5.0
370
    35
100
AcDbLine
 10
33808.30096138
 20
-8525.42531868
 30
0.0
 11
33880.80096138
 21
-8525.43352746
 31
0.0
  0
LWPOLYLINE
  5
611
102
{ACAD_REACTORS
330
612
102
}
100
AcDbEntity
  8
Ech.1_5
 62
     7
  6
CONTINUOUS
370
     5
100
AcDbPolyline
 90
        4
 70
     1
 43
0.0
 10
33828.27771801
 20
-8527.33338961
 10
33854.10224909
 20
-8527.33338961
 10
33854.10224909
 20
-8517.9007295
 10
33828.27771801
 20
-8517.9007295
  0
HATCH
  5
612
100
AcDbEntity
  8
Ech.1_5
 62
     2
  6
CONTINUOUS
100
AcDbHatch
 10
0.0
 20
0.0
 30
0.0
210
0.0
220
0.0
230
1.0
  2
SOLID
 70
     1
 71
     1
 91
        1
 92
        7
 72
     0
 73
     1
 93
        4
 10
33828.27771801
 20
-8527.33338961
 10
33854.10224909
 20
-8527.33338961
 10
33854.10224909
 20
-8517.9007295
 10
33828.27771801
 20
-8517.9007295
 97
        1
330
611
 75
     0
 76
     2
 47
0.775229
 98
        1
 10
0.0
 20
0.0
  0
HATCH
  5
613
100
AcDbEntity
  8
Ech.1_5
 62
     7
100
AcDbHatch
 10
0.0
 20
0.0
 30
0.0
210
0.0
220
0.0
230
1.0
  2
ANSI37
 70
     0
 71
     0
 91
        1
 92
        7
 72
     0
 73
     1
 93
        4
 10
33828.27771801
 20
-8527.33338961
 10
33854.10224909
 20
-8527.33338961
 10
33854.10224909
 20
-8517.9007295
 10
33828.27771801
 20
-8517.9007295
 97
        0
 75
     0
 76
     2
 52
0.0
 41
1.87498831
 77
     0
 78
     2
 53
45.0
 43
0.0
 44
0.0
 45
4.20946876
 46
-4.20946876
 79
     0
 53
-45.0
 43
0.0
 44
0.0
 45
4.20946876
 46
4.20946876
 79
     0
 47
0.775229
 98
        1
 10
0.0
 20
0.0
  0
LWPOLYLINE
  5
614
100
AcDbEntity
  8
Ech.1_5
 62
     9
  6
CONTINUOUS
370
    40
100
AcDbPolyline
 90
        5
 70
     0
 43
0.0
 10
33549.23199175
 20
-8366.35633751
 10
33549.23199175
 20
-8341.35369964
 10
33499.23199175
 20
-8341.35369964
 10
33499.23199175
 20
-8366.35633751
 10
33549.23199175
 20
-8366.35633751
  0
LWPOLYLINE
  5
615
100
AcDbEntity
  8
Ech.1_5
 62
     9
  6
CONTINUOUS
370
    -3
100
AcDbPolyline
 90
        4
 70
     0
 43
0.0
 10
33499.23199175
 20
-8341.35369964
 10
33549.23199175
 20
-8366.35633751
 10
33549.23199175
 20
-8341.35369964
 10
33499.23199175
 20
-8366.35633751
  0
LWPOLYLINE
  5
616
100
AcDbEntity
  8
Ech.1_5
 62
     9
  6
CONTINUOUS
370
    40
100
AcDbPolyline
 90
        5
 70
     0
 43
0.0
 10
33887.22670562
 20
-8366.35633751
 10
33887.22670562
 20
-8341.35369964
 10
33962.23198041
 20
-8341.35369964
 10
33962.23198041
 20
-8366.35633751
 10
33887.22670562
 20
-8366.35633751
  0
LWPOLYLINE
  5
617
100
AcDbEntity
  8
Ech.1_5
 62
     9
  6
CONTINUOUS
370
    -3
100
AcDbPolyline
 90
        4
 70
     0
 43
0.0
 10
33962.23198041
 20
-8341.35369964
 10
33887.22670562
 20
-8366.35633751
 10
33887.22670562
 20
-8341.35369964
 10
33962.23198041
 20
-8366.35633751
  0
LWPOLYLINE
  5
618
100
AcDbEntity
  8
Ech.1_5
 62
     9
  6
CONTINUOUS
370
    40
100
AcDbPolyline
 90
        5
 70
     0
 43
0.0
 10
33962.23110116
 20
-8341.35633751
 10
33987.23373883
 20
-8341.35633751
 10
33987.23373883
 20
-8416.36161228
 10
33962.23110116
 20
-8416.36161228
 10
33962.23110116
 20
-8341.35633751
  0
LWPOLYLINE
  5
619
100
AcDbEntity
  8
Ech.1_5
 62
     9
  6
CONTINUOUS
370
    -3
100
AcDbPolyline
 90
        4
 70
     0
 43
0.0
 10
33987.23373883
 20
-8416.36161228
 10
33962.23110116
 20
-8341.35633751
 10
33987.23373883
 20
-8341.35633751
 10
33962.23110116
 20
-8416.36161228
  0
LWPOLYLINE
  5
61A
100
AcDbEntity
  8
Ech.1_5
 62
     9
  6
CONTINUOUS
370
    40
100
AcDbPolyline
 90
        5
 70
     0
 43
0.0
 10
33962.23198041
 20
-9065.2630777
 10
33987.23461809
 20
-9065.2630777
 10
33987.23461809
 20
-9015.2630777
 10
33962.23198041
 20
-9015.2630777
 10
33962.23198041
 20
-9065.2630777
  0
LWPOLYLINE
  5
61B
100
AcDbEntity
  8
Ech.1_5
 62
     9
  6
CONTINUOUS
370
    -3
100
AcDbPolyline
 90
        4
 70
     0
 43
0.0
 10
33987.23461809
 20
-9015.2630777
 10
33962.23198041
 20
-9065.2630777
 10
33987.23461809
 20
-9065.2630777
 10
33962.23198041
 20
-9015.2630777
  0
LWPOLYLINE
  5
61C
100
AcDbEntity
  8
Ech.1_5
 62
     9
  6
CONTINUOUS
370
    40
100
AcDbPolyline
 90
        5
 70
     0
 43
0.0
 10
33962.23198041
 20
-8570.42531868
 10
33987.23461809
 20
-8570.42531868
 10
33987.23461809
 20
-8520.42531868
 10
33962.23198041
 20
-8520.42531868
 10
33962.23198041
 20
-8570.42531868
  0
LWPOLYLINE
  5
61D
100
AcDbEntity
  8
Ech.1_5
 62
     9
  6
CONTINUOUS
370
    40
100
AcDbPolyline
 90
        4
 70
     0
 43
0.0
 10
33987.23461809
 20
-8520.42531868
 10
33962.23198041
 20
-8570.42531868
 10
33987.23461809
 20
-8570.42531868
 10
33962.23198041
 20
-8520.42531868
  0
LWPOLYLINE
  5
61E
100
AcDbEntity
  8
Ech.1_5
 62
     9
  6
CONTINUOUS
370
    -3
100
AcDbPolyline
 90
        5
 70
     0
 43
0.0
 10
33344.05896794
 20
-8321.35369964
 10
33344.05896794
 20
-8341.35369964
 10
34004.52306886
 20
-8341.35369964
 10
34004.52306886
 20
-8321.35369964
 10
33344.05896794
 20
-8321.35369964
  0
LWPOLYLINE
  5
61F
100
AcDbEntity
  8
Ech.1_5
 62
     9
  6
CONTINUOUS
370
    -3
100
AcDbPolyline
 90
        5
 70
     0
 43
0.0
 10
34027.23198041
 20
-8301.35369964
 10
34027.23198041
 20
-8321.35369964
 10
33957.29182351
 20
-8321.35369964
 10
33957.29182351
 20
-8301.35369964
 10
34027.23198041
 20
-8301.35369964
  0
LWPOLYLINE
  5
620
100
AcDbEntity
  8
Ech.1_5
 62
     9
  6
CONTINUOUS
370
    -3
100
AcDbPolyline
 90
        5
 70
     0
 43
0.0
 10
34027.23198041
 20
-8391.2778339
 10
34007.23198041
 20
-8391.2778339
 10
34007.23198041
 20
-8321.35240742
 10
34027.23198041
 20
-8321.35240742
 10
34027.23198041
 20
-8391.2778339
  0
LWPOLYLINE
  5
621
100
AcDbEntity
  8
Ech.1_5
 62
     9
  6
CONTINUOUS
370
    -3
100
AcDbPolyline
 90
        5
 70
     0
 43
0.0
 10
33987.23198041
 20
-9130.35967155
 10
34007.23198041
 20
-9130.35967155
 10
34007.23198041
 20
-8345.11872669
 10
33987.23198041
 20
-8345.11872669
 10
33987.23198041
 20
-9130.35967155
  0
LWPOLYLINE
  5
622
100
AcDbEntity
  8
Ech.1_5
 62
     5
  6
CONTINUOUS
370
    -3
100
AcDbPolyline
 90
        5
 70
     0
 43
0.0
 10
33953.30096138
 20
-8520.42531868
 10
33953.30096138
 20
-8375.35633751
 10
33908.30096138
 20
-8375.35633751
 10
33908.30096138
 20
-8520.42531868
 10
33953.30096138
 20
-8520.42531868
  0
LWPOLYLINE
  5
623
100
AcDbEntity
  8
Ech.1_5
 62
   254
  6
CONTINUOUS
370
    -3
100
AcDbPolyline
 90
        4
 70
     1
 43
0.0
 10
33510.30065709
 20
-8820.41920445
 10
33560.30065709
 20
-8820.41920445
 10
33560.30065709
 20
-9130.35967155
 10
33510.30065709
 20
-9130.35967155
  0
LWPOLYLINE
  5
624
102
{ACAD_REACTORS
330
625
102
}
100
AcDbEntity
  8
Ech.1_5
 62
     9
  6
CONTINUOUS
370
    -3
100
AcDbPolyline
 90
        4
 70
     1
 43
0.0
 10
33497.30065709
 20
-8820.41920445
 10
33510.30065709
 20
-8820.41920445
 10
33510.30065709
 20
-9130.35967155
 10
33497.30065709
 20
-9130.35967155
  0
HATCH
  5
625
100
AcDbEntity
  8
Ech.1_5
 62
     9
  6
CONTINUOUS
100
AcDbHatch
 10
0.0
 20
0.0
 30
0.0
210
0.0
220
0.0
230
1.0
  2
DOTS2
 70
     0
 71
     1
 91
        1
 92
        7
 72
     0
 73
     1
 93
        4
 10
33497.30065709
 20
-8820.41920445
 10
33510.30065709
 20
-8820.41920445
 10
33510.30065709
 20
-9130.35967155
 10
33497.30065709
 20
-9130.35967155
 97
        1
330
624
 75
     0
 76
     2
 52
0.0
 41
4.72440952
 77
     0
 78
     1
 53
0.0
 43
0.0
 44
0.0
 45
3.75
 46
3.535
 79
     2
 49
0.0
 49
-3.535
 47
0.775229
 98
        1
 10
0.0
 20
0.0
  0
LWPOLYLINE
  5
626
100
AcDbEntity
  8
Ech.1_5
 62
   254
  6
CONTINUOUS
370
    -3
100
AcDbPolyline
 90
        4
 70
     1
 43
0.0
 10
33558.30065709
 20
-8820.41920445
 10
33558.30065709
 20
-8770.41920445
 10
33345.54491503
 20
-8770.41920445
 10
33345.54491503
 20
-8820.41920445
  0
LWPOLYLINE
  5
627
102
{ACAD_REACTORS
330
628
102
}
100
AcDbEntity
  8
Ech.1_5
 62
     9
  6
CONTINUOUS
370
    -3
100
AcDbPolyline
 90
       12
 70
     1
 43
0.0
 10
33528.30065684
 20
-8778.41920445
 10
33528.30065684
 20
-8772.42331574
 10
33558.30065709
 20
-8772.41920445
 10
33558.30065709
 20
-8820.41920445
 10
33528.30065684
 20
-8820.41920445
 10
33528.30065684
 20
-8814.41920445
 10
33530.30065684
 20
-8814.41920445
 10
33530.30065684
 20
-8818.41920445
 10
33556.30065684
 20
-8818.41920445
 10
33556.30065684
 20
-8774.41920445
 10
33530.30065684
 20
-8774.41920445
 10
33530.30065684
 20
-8778.41920445
  0
HATCH
  5
628
100
AcDbEntity
  8
Ech.1_5
 62
     9
  6
CONTINUOUS
100
AcDbHatch
 10
0.0
 20
0.0
 30
0.0
210
0.0
220
0.0
230
1.0
  2
SOLID
 70
     1
 71
     1
 91
        1
 92
        7
 72
     0
 73
     1
 93
       12
 10
33528.30065684
 20
-8778.41920445
 10
33528.30065684
 20
-8772.42331574
 10
33558.30065709
 20
-8772.41920445
 10
33558.30065709
 20
-8820.41920445
 10
33528.30065684
 20
-8820.41920445
 10
33528.30065684
 20
-8814.41920445
 10
33530.30065684
 20
-8814.41920445
 10
33530.30065684
 20
-8818.41920445
 10
33556.30065684
 20
-8818.41920445
 10
33556.30065684
 20
-8774.41920445
 10
33530.30065684
 20
-8774.41920445
 10
33530.30065684
 20
-8778.41920445
 97
        1
330
627
 75
     0
 76
     2
 47
0.775229
 98
        1
 10
0.0
 20
0.0
  0
LWPOLYLINE
  5
629
102
{ACAD_REACTORS
330
62A
102
}
100
AcDbEntity
  8
Ech.1_5
 62
     9
  6
CONTINUOUS
370
    -3
100
AcDbPolyline
 90
        4
 70
     1
 43
0.0
 10
33497.30065709
 20
-8833.41920445
 10
33497.30065709
 20
-8820.41920445
 10
33345.54491503
 20
-8820.41920445
 10
33345.54491503
 20
-8833.41920445
  0
HATCH
  5
62A
100
AcDbEntity
  8
Ech.1_5
 62
     9
  6
CONTINUOUS
100
AcDbHatch
 10
0.0
 20
0.0
 30
0.0
210
0.0
220
0.0
230
1.0
  2
DOTS2
 70
     0
 71
     1
 91
        1
 92
        7
 72
     0
 73
     1
 93
        4
 10
33497.30065709
 20
-8833.41920445
 10
33497.30065709
 20
-8820.41920445
 10
33345.54491503
 20
-8820.41920445
 10
33345.54491503
 20
-8833.41920445
 97
        1
330
629
 75
     0
 76
     2
 52
0.0
 41
4.72440952
 77
     0
 78
     1
 53
0.0
 43
0.0
 44
0.0
 45
3.75
 46
3.535
 79
     2
 49
0.0
 49
-3.535
 47
0.775229
 98
        1
 10
0.0
 20
0.0
  0
LWPOLYLINE
  5
62B
102
{ACAD_REACTORS
330
62C
102
}
100
AcDbEntity
  8
Ech.1_5
 62
     9
  6
CONTINUOUS
370
    -3
100
AcDbPolyline
 90
       12
 70
     1
 43
0.0
 10
33552.30065709
 20
-8850.41920445
 10
33558.2965458
 20
-8850.41920445
 10
33558.30065709
 20
-8820.41920445
 10
33510.30065709
 20
-8820.41920445
 10
33510.30065709
 20
-8850.41920445
 10
33516.30065709
 20
-8850.41920445
 10
33516.30065709
 20
-8848.41920445
 10
33512.30065709
 20
-8848.41920445
 10
33512.30065709
 20
-8822.41920445
 10
33556.30065709
 20
-8822.41920445
 10
33556.30065709
 20
-8848.41920445
 10
33552.30065709
 20
-8848.41920445
  0
HATCH
  5
62C
100
AcDbEntity
  8
Ech.1_5
 62
     9
  6
CONTINUOUS
100
AcDbHatch
 10
0.0
 20
0.0
 30
0.0
210
0.0
220
0.0
230
1.0
  2
SOLID
 70
     1
 71
     1
 91
        1
 92
        7
 72
     0
 73
     1
 93
       12
 10
33552.30065709
 20
-8850.41920445
 10
33558.2965458
 20
-8850.41920445
 10
33558.30065709
 20
-8820.41920445
 10
33510.30065709
 20
-8820.41920445
 10
33510.30065709
 20
-8850.41920445
 10
33516.30065709
 20
-8850.41920445
 10
33516.30065709
 20
-8848.41920445
 10
33512.30065709
 20
-8848.41920445
 10
33512.30065709
 20
-8822.41920445
 10
33556.30065709
 20
-8822.41920445
 10
33556.30065709
 20
-8848.41920445
 10
33552.30065709
 20
-8848.41920445
 97
        1
330
62B
 75
     0
 76
     2
 47
0.775229
 98
        1
 10
0.0
 20
0.0
  0
LWPOLYLINE
  5
62D
100
AcDbEntity
  8
Ech.1_5
 62
     9
  6
CONTINUOUS
370
    -3
100
AcDbPolyline
 90
       50
 70
     0
 43
0.0
 10
33558.30065709
 20
-8778.75253778
 42
1.14028181
 10
33541.91794317
 20
-8780.90936802
 10
33549.68337101
 20
-8809.92904088
 42
-1.30322619
 10
33533.58460984
 20
-8809.92904088
 10
33541.35003767
 20
-8780.90936802
 42
1.30322619
 10
33525.2512765
 20
-8780.90936802
 10
33533.01670434
 20
-8809.92904088
 42
-1.30322619
 10
33516.91794317
 20
-8809.92904088
 10
33524.68337101
 20
-8780.90936802
 42
1.30322619
 10
33508.58460984
 20
-8780.90936802
 10
33516.35003767
 20
-8809.92904088
 42
-1.30322619
 10
33500.2512765
 20
-8809.92904088
 10
33508.01670434
 20
-8780.90936802
 42
1.30322619
 10
33491.91794317
 20
-8780.90936802
 10
33499.68337101
 20
-8809.92904088
 42
-1.30322619
 10
33483.58460984
 20
-8809.92904088
 10
33491.35003767
 20
-8780.90936802
 42
1.30322619
 10
33475.2512765
 20
-8780.90936802
 10
33483.01670434
 20
-8809.92904088
 42
-1.30322619
 10
33466.91794317
 20
-8809.92904088
 10
33474.68337101
 20
-8780.90936802
 42
1.30322619
 10
33458.58460984
 20
-8780.90936802
 10
33466.35003767
 20
-8809.92904088
 42
-1.30322619
 10
33450.2512765
 20
-8809.92904088
 10
33458.01670434
 20
-8780.90936802
 42
1.30322619
 10
33441.91794317
 20
-8780.90936802
 10
33449.68337101
 20
-8809.92904088
 42
-1.30322619
 10
33433.58460984
 20
-8809.92904088
 10
33441.35003767
 20
-8780.90936802
 42
1.30322619
 10
33425.2512765
 20
-8780.90936802
 10
33433.01670434
 20
-8809.92904088
 42
-1.30322619
 10
33416.91794317
 20
-8809.92904088
 10
33424.68337101
 20
-8780.90936802
 42
1.30322619
 10
33408.58460984
 20
-8780.90936802
 10
33416.35003767
 20
-8809.92904088
 42
-1.30322619
 10
33400.2512765
 20
-8809.92904088
 10
33408.01670434
 20
-8780.90936802
 42
1.30322619
 10
33391.91794317
 20
-8780.90936802
 10
33399.68337101
 20
-8809.92904088
 42
-1.30322619
 10
33383.58460984
 20
-8809.92904088
 10
33391.35003767
 20
-8780.90936802
 42
1.30322619
 10
33375.2512765
 20
-8780.90936802
 10
33383.01670434
 20
-8809.92904088
 42
-1.30322619
 10
33366.91794317
 20
-8809.92904088
 10
33374.68337101
 20
-8780.90936802
 42
1.30322619
 10
33358.58460984
 20
-8780.90936802
 10
33366.35003767
 20
-8809.92904088
 42
-1.30322619
 10
33350.2512765
 20
-8809.92904088
 10
33358.01670434
 20
-8780.90936802
 42
0.68120826
 10
33345.54491503
 20
-8771.68948281
  0
LWPOLYLINE
  5
62E
100
AcDbEntity
  8
Ech.1_5
 62
     9
  6
CONTINUOUS
370
    -3
100
AcDbPolyline
 90
       72
 70
     0
 43
0.0
 10
33518.63399042
 20
-8820.41920445
 42
1.14028181
 10
33520.79082065
 20
-8836.80191837
 10
33549.81049352
 20
-8829.03649053
 42
-1.30322619
 10
33549.81049352
 20
-8845.1352517
 10
33520.79082065
 20
-8837.36982387
 42
1.30322619
 10
33520.79082065
 20
-8853.46858503
 10
33549.81049352
 20
-8845.7031572
 42
-1.30322619
 10
33549.81049352
 20
-8861.80191837
 10
33520.79082065
 20
-8854.03649053
 42
1.30322619
 10
33520.79082065
 20
-8870.1352517
 10
33549.81049352
 20
-8862.36982387
 42
-1.30322619
 10
33549.81049352
 20
-8878.46858503
 10
33520.79082065
 20
-8870.7031572
 42
1.30322619
 10
33520.79082065
 20
-8886.80191837
 10
33549.81049352
 20
-8879.03649053
 42
-1.30322619
 10
33549.81049352
 20
-8895.1352517
 10
33520.79082065
 20
-8887.36982387
 42
1.30322619
 10
33520.79082065
 20
-8903.46858503
 10
33549.81049352
 20
-8895.7031572
 42
-1.30322619
 10
33549.81049352
 20
-8911.80191837
 10
33520.79082065
 20
-8904.03649053
 42
1.30322619
 10
33520.79082065
 20
-8920.1352517
 10
33549.81049352
 20
-8912.36982387
 42
-1.30322619
 10
33549.81049352
 20
-8928.46858503
 10
33520.79082065
 20
-8920.7031572
 42
1.30322619
 10
33520.79082065
 20
-8936.80191837
 10
33549.81049352
 20
-8929.03649053
 42
-1.30322619
 10
33549.81049352
 20
-8945.1352517
 10
33520.79082065
 20
-8937.36982387
 42
1.30322619
 10
33520.79082065
 20
-8953.46858503
 10
33549.81049352
 20
-8945.7031572
 42
-1.30322619
 10
33549.81049352
 20
-8961.80191837
 10
33520.79082065
 20
-8954.03649053
 42
1.30322619
 10
33520.79082065
 20
-8970.1352517
 10
33549.81049352
 20
-8962.36982387
 42
-1.30322619
 10
33549.81049352
 20
-8978.46858503
 10
33520.79082065
 20
-8970.7031572
 42
1.30322619
 10
33520.79082065
 20
-8986.80191837
 10
33549.81049352
 20
-8979.03649053
 42
-1.30322619
 10
33549.81049352
 20
-8995.1352517
 10
33520.79082065
 20
-8987.36982387
 42
1.30322619
 10
33520.79082065
 20
-9003.46858503
 10
33549.81049352
 20
-8995.7031572
 42
-1.30322619
 10
33549.81049352
 20
-9011.80191837
 10
33520.79082065
 20
-9004.03649053
 42
1.30322619
 10
33520.79082065
 20
-9020.1352517
 10
33549.81049352
 20
-9012.36982387
 42
-1.30322619
 10
33549.81049352
 20
-9028.46858503
 10
33520.79082065
 20
-9020.7031572
 42
1.30322619
 10
33520.79082065
 20
-9036.80191837
 10
33549.81049352
 20
-9029.03649053
 42
-1.30322619
 10
33549.81049352
 20
-9045.1352517
 10
33520.79082065
 20
-9037.36982387
 42
1.30322619
 10
33520.79082065
 20
-9053.46858503
 10
33549.81049352
 20
-9045.7031572
 42
-1.30322619
 10
33549.81049352
 20
-9061.80191837
 10
33520.79082065
 20
-9054.03649053
 42
1.30322619
 10
33520.79082065
 20
-9070.1352517
 10
33549.81049352
 20
-9062.36982387
 42
-1.30322619
 10
33549.81049352
 20
-9078.46858503
 10
33520.79082065
 20
-9070.7031572
 42
1.30322619
 10
33520.79082065
 20
-9086.80191837
 10
33549.81049352
 20
-9079.03649053
 42
-1.30322619
 10
33549.81049352
 20
-9095.1352517
 10
33520.79082065
 20
-9087.36982387
 42
1.30322619
 10
33520.79082065
 20
-9103.46858503
 10
33549.81049352
 20
-9095.7031572
 42
-1.30322619
 10
33549.81049352
 20
-9111.80191837
 10
33520.79082065
 20
-9104.03649053
 42
1.30322619
 10
33520.79082065
 20
-9120.1352517
 10
33549.81049352
 20
-9112.36982387
 42
-0.99293087
 10
33554.23814049
 20
-9128.43717401
  0
LWPOLYLINE
  5
62F
100
AcDbEntity
  8
Ech.1_5
 62
   190
  6
CONTINUOUS
370
    -3
100
AcDbPolyline
 90
        5
 70
     0
 43
0.0
 10
33149.84694733
 20
-9512.40601397
 10
34134.84694733
 20
-9512.40601397
 10
34134.84694733
 20
-8157.40601397
 10
33149.84694733
 20
-8157.40601397
 10
33149.84694733
 20
-9512.40601397
  0
LWPOLYLINE
  5
630
100
AcDbEntity
  8
Ech.1_5
 62
   150
  6
CADWORK_22
370
    35
100
AcDbPolyline
 90
        3
 70
     0
 43
0.0
 38
2500.0
 10
33962.30096138
 20
-9130.35967155
 10
33962.23198041
 20
-8570.69948041
 10
33887.22670562
 20
-8570.69948041
  0
LWPOLYLINE
  5
631
100
AcDbEntity
  8
Ech.1_5
 62
   150
  6
CADWORK_22
370
    35
100
AcDbPolyline
 90
        6
 70
     0
 43
0.0
 38
2500.0
 10
33344.05896794
 20
-8366.35633751
 10
33880.28747038
 20
-8366.35633751
 10
33890.20468866
 20
-8366.35633751
 10
33962.23198041
 20
-8366.35633751
 10
33962.23198041
 20
-8565.42531868
 10
33887.22670562
 20
-8565.42531868
  0
LWPOLYLINE
  5
632
102
{ACAD_REACTORS
330
633
102
}
100
AcDbEntity
  8
Ech.1_5
 62
     7
  6
CONTINUOUS
370
     5
100
AcDbPolyline
 90
        4
 70
     1
 43
0.0
 10
33926.94699344
 20
-8572.12618704
 10
33952.77152452
 20
-8572.12618704
 10
33952.77152452
 20
-8562.69352694
 10
33926.94699344
 20
-8562.69352694
  0
HATCH
  5
633
100
AcDbEntity
  8
Ech.1_5
 62
     2
  6
CONTINUOUS
100
AcDbHatch
 10
0.0
 20
0.0
 30
0.0
210
0.0
220
0.0
230
1.0
  2
SOLID
 70
     1
 71
     1
 91
        1
 92
        7
 72
     0
 73
     1
 93
        4
 10
33926.94699344
 20
-8572.12618704
 10
33952.77152452
 20
-8572.12618704
 10
33952.77152452
 20
-8562.69352694
 10
33926.94699344
 20
-8562.69352694
 97
        1
330
632
 75
     0
 76
     2
 47
0.775229
 98
        1
 10
0.0
 20
0.0
  0
HATCH
  5
634
100
AcDbEntity
  8
Ech.1_5
 62
     7
100
AcDbHatch
 10
0.0
 20
0.0
 30
0.0
210
0.0
220
0.0
230
1.0
  2
ANSI37
 70
     0
 71
     0
 91
        1
 92
        7
 72
     0
 73
     1
 93
        4
 10
33926.94699344
 20
-8572.12618704
 10
33952.77152452
 20
-8572.12618704
 10
33952.77152452
 20
-8562.69352694
 10
33926.94699344
 20
-8562.69352694
 97
        0
 75
     0
 76
     2
 52
0.0
 41
1.87498831
 77
     0
 78
     2
 53
45.0
 43
0.0
 44
0.0
 45
4.20946876
 46
-4.20946876
 79
     0
 53
-45.0
 43
0.0
 44
0.0
 45
4.20946876
 46
4.20946876
 79
     0
 47
0.775229
 98
        1
 10
0.0
 20
0.0
  0
LWPOLYLINE
  5
635
100
AcDbEntity
  8
Ech.1_5
 62
   190
  6
CONTINUOUS
370
    -3
100
AcDbPolyline
 90
        6
 70
     0
 43
0.0
 10
33344.05896794
 20
-8850.27847732
 10
33344.05896794
 20
-8459.81627746
 10
33326.08161953
 20
-8443.33077427
 10
33362.03731954
 20
-8457.44071384
 10
33344.05896794
 20
-8440.95435997
 10
33344.05896794
 20
-8266.95435997
  0
LWPOLYLINE
  5
636
100
AcDbEntity
  8
Ech.1_5
 62
   190
  6
CONTINUOUS
370
    -3
100
AcDbPolyline
 90
        6
 70
     0
 43
0.0
 10
33472.62739423
 20
-9130.35967155
 10
33907.61322437
 20
-9130.35967155
 10
33924.09872752
 20
-9112.38232323
 10
33909.9887875
 20
-9148.33802315
 10
33926.47514159
 20
-9130.35967155
 10
34062.47514159
 20
-9130.35967155
  0
LWPOLYLINE
  5
637
100
AcDbEntity
  8
Ech.1_5
 62
   190
100
AcDbPolyline
 90
        5
 70
     0
 43
0.0
 10
33975.95962071
 20
-9190.18563631
 10
34110.3883997
 20
-9190.18563631
 10
34110.3883997
 20
-9246.90859512
 10
33975.95962071
 20
-9246.90859512
 10
33975.95962071
 20
-9190.18563631
  0
HATCH
  5
638
100
AcDbEntity
  8
Ech.1_5
 62
   190
100
AcDbHatch
 10
0.0
 20
0.0
 30
0.0
210
0.0
220
0.0
230
1.0
  2
SOLID
 70
     1
 71
     0
 91
        1
 92
        7
 72
     0
 73
     1
 93
        4
 10
33994.2396665
 20
-9223.84244744
 10
34044.2396665
 20
-9223.84244744
 10
34044.2396665
 20
-9216.4273099
 10
33994.2396665
 20
-9216.4273099
 97
        0
 75
     0
 76
     2
 47
0.775229
 98
        1
 10
0.0
 20
0.0
  0
LWPOLYLINE
  5
639
100
AcDbEntity
  8
Ech.1_5
 62
   190
100
AcDbPolyline
 90
        5
 70
     0
 43
0.0
 10
33994.2396665
 20
-9223.84244744
 10
34044.2396665
 20
-9223.84244744
 10
34044.2396665
 20
-9216.4273099
 10
33994.2396665
 20
-9216.4273099
 10
33994.2396665
 20
-9223.84244744
  0
LWPOLYLINE
  5
63A
100
AcDbEntity
  8
Ech.1_5
 62
   190
100
AcDbPolyline
 90
        5
 70
     0
 43
0.0
 10
34044.2396665
 20
-9223.84244744
 10
34094.2396665
 20
-9223.84244744
 10
34094.2396665
 20
-9216.4273099
 10
34044.2396665
 20
-9216.4273099
 10
34044.2396665
 20
-9223.84244744
  0
TEXT
  5
63B
100
AcDbEntity
  8
Ech.1_5
 62
   190
100
AcDbText
 10
34005.53395912
 20
-9206.84130682
 30
0.0
 40
8.00000012
  1
Echelle en mm
  7
ARIAL
 50
0.0
 41
1.0
 51
0.0
100
AcDbText
  0
TEXT
  5
63C
100
AcDbEntity
  8
Ech.1_5
 62
   190
100
AcDbText
 10
33991.55337438
 20
-9235.05114235
 30
0.0
 40
8.00000012
  1
0
  7
ARIAL
 50
0.0
 41
1.0
 51
0.0
100
AcDbText
  0
TEXT
  5
63D
100
AcDbEntity
  8
Ech.1_5
 62
   190
100
AcDbText
 10
34078.15043227
 20
-9235.05114235
 30
0.0
 40
8.00000012
  1
100
  7
ARIAL
 50
0.0
 41
1.0
 51
0.0
100
AcDbText
  0
TEXT
  5
63E
100
AcDbEntity
  8
Ech.1_5
 62
   190
100
AcDbText
 10
34039.4100007
 20
-9235.05114235
 30
0.0
 40
8.00000012
  1
50
  7
ARIAL
 50
0.0
 41
1.0
 51
0.0
100
AcDbText
  0
ENDSEC
  0
SECTION
  2
OBJECTS
  0
DICTIONARY
  5
1
100
AcDbDictionary
  3
ACAD_GROUP
350
2
  3
ACAD_MLINESTYLE
350
3
  0
DICTIONARY
  5
2
102
{CDWK_REACTORS
330
1
102
}
100
AcDbDictionary
  0
DICTIONARY
  5
3
102
{CDWK_REACTORS
330
1
102
}
100
AcDbDictionary
  3
STANDARD
350
4
  0
MLINESTYLE
  5
4
102
{CDWK_REACTORS
330
3
102
}
100
AcDbMlineStyle
  2
STANDARD
 70
     0
  3

 62
     0
 51
90.0
 52
90.0
 71
     2
 49
0.5
 62
   256
  6
BYLAYER
 49
-0.5
 62
   256
  6
BYLAYER
  0
ENDSEC
  0
EOF
