  0
SECTION
  2
HEADER
  9
$ACADVER
  1
AC1014
  9
$DWGCODEPAGE
  3
ANSI_1252
  9
$INSBASE
 10
0.0
 20
0.0
 30
0.0
  9
$EXTMIN
 10
1033.98771282
 20
-21718.34332712
  9
$EXTMAX
 10
122326.07664696
 20
2240.3362527
  9
$LIMMIN
 10
1033.98771282
 20
-21718.34332712
  9
$LIMMAX
 10
122326.07664696
 20
2240.3362527
  9
$ORTHOMODE
 70
     0
  9
$REGENMODE
 70
     1
  9
$FILLMODE
 70
     1
  9
$QTEXTMODE
 70
     0
  9
$MIRRTEXT
 70
     1
  9
$DRAGMODE
 70
     2
  9
$LTSCALE
 40
5.0
  9
$OSMODE
 70
     0
  9
$ATTMODE
 70
     1
  9
$TEXTSIZE
 40
3.5
  9
$TRACEWID
 40
1.0
  9
$TEXTSTYLE
  7
STANDARD
  9
$CLAYER
  8
0
  9
$CELTYPE
  6
BYLAYER
  9
$CECOLOR
 62
   256
  9
$DIMSCALE
 40
1.0
  9
$DIMASZ
 40
2.0
  9
$DIMEXO
 40
5.0
  9
$DIMDLI
 40
10.0
  9
$DIMRND
 40
0.0
  9
$DIMDLE
 40
2.0
  9
$DIMEXE
 40
2.0
  9
$DIMTP
 40
0.0
  9
$DIMTM
 40
0.0
  9
$DIMTXT
 40
2.5
  9
$DIMCEN
 40
1.5
  9
$DIMTSZ
 40
0.0
  9
$DIMTOL
 70
     0
  9
$DIMLIM
 70
     0
  9
$DIMTIH
 70
     1
  9
$DIMTOH
 70
     0
  9
$DIMSE1
 70
     0
  9
$DIMSE2
 70
     0
  9
$DIMTAD
 70
     1
  9
$DIMZIN
 70
     8
  9
$DIMBLK
  1

  9
$DIMASO
 70
     1
  9
$DIMSHO
 70
     1
  9
$DIMPOST
  1

  9
$DIMAPOST
  1

  9
$DIMALT
 70
     0
  9
$DIMALTD
 70
     2
  9
$DIMALTF
 40
25.4
  9
$DIMLFAC
 40
1.0
  9
$DIMTOFL
 70
     0
  9
$DIMTVP
 40
0.0
  9
$DIMTIX
 70
     0
  9
$DIMSOXD
 70
     0
  9
$DIMSAH
 70
     0
  9
$DIMBLK1
  1

  9
$DIMBLK2
  1

  9
$DIMSTYLE
  2
*UNNAMED
  9
$DIMCLRD
 70
   190
  9
$DIMCLRE
 70
   190
  9
$DIMCLRT
 70
   190
  9
$DIMTFAC
 40
1.0
  9
$DIMGAP
 40
0.09
  9
$DIMUNIT
 70
     2
  9
$LUNITS
 70
     2
  9
$LUPREC
 70
     6
  9
$AXISMODE
 70
     0
  9
$AXISUNIT
 10
0.0
 20
0.0
  9
$SKETCHINC
 40
0.1
  9
$FILLETRAD
 40
0.0
  9
$AUNITS
 70
     0
  9
$AUPREC
 70
     0
  9
$MENU
  1
ACAD
  9
$ELEVATION
 40
0.0
  9
$PELEVATION
 40
0.0
  9
$THICKNESS
 40
0.0
  9
$LIMCHECK
 70
     0
  9
$BLIPMODE
 70
     1
  9
$CHAMFERA
 40
0.0
  9
$CHAMFERB
 40
0.0
  9
$SKPOLY
 70
     1
  9
$TDCREATE
 40
2457808.0000000000
  9
$TDUPDATE
 40
2457808.0000000000
  9
$TDINDWG
 40
0.0
  9
$TDUSRTIMER
 40
0.0
  9
$USRTIMER
 70
     1
  9
$ANGBASE
 50
0.0
  9
$ANGDIR
 70
     0
  9
$PDMODE
 70
     0
  9
$PDSIZE
 40
0.0
  9
$PLINEWID
 40
0.0
  9
$COORDS
 70
     2
  9
$SPLFRAME
 70
     0
  9
$SPLINETYPE
 70
     6
  9
$SPLINESEGS
 70
     8
  9
$ATTDIA
 70
     1
  9
$ATTREQ
 70
     1
  9
$HANDLING
 70
     1
  9
$HANDSEED
  5
     64E
  9
$SURFTAB1
 70
     6
  9
$SURFTAB2
 70
     6
  9
$SURFTYPE
 70
     6
  9
$SURFU
 70
     6
  9
$SURFV
 70
     6
  9
$UCSNAME
  2

  9
$UCSORG
 10
0.0
 20
0.0
 30
0.0
  9
$UCSXDIR
 10
1.0
 20
0.0
 30
0.0
  9
$UCSYDIR
 10
0.0
 20
1.0
 30
0.0
  9
$PUCSNAME
  2

  9
$PUCSORG
 10
0.0
 20
0.0
 30
0.0
  9
$PUCSXDIR
 10
1.0
 20
0.0
 30
0.0
  9
$PUCSYDIR
 10
0.0
 20
1.0
 30
0.0
  9
$USERI1
 70
     0
  9
$USERI2
 70
     0
  9
$USERI3
 70
     0
  9
$USERI4
 70
     0
  9
$USERI5
 70
     0
  9
$USERR1
 40
0.0
  9
$USERR2
 40
0.0
  9
$USERR3
 40
0.0
  9
$USERR4
 40
0.0
  9
$USERR5
 40
0.0
  9
$WORLDVIEW
 70
     1
  9
$SHADEDGE
 70
     3
  9
$SHADEDIF
 70
    70
  9
$TILEMODE
 70
     1
  9
$MAXACTVP
 70
    16
  9
$PINSBASE
 10
0.0
 20
0.0
 30
0.0
  9
$PLIMCHECK
 70
     0
  9
$PEXTMIN
 10
1.0000000000000E+20
 20
1.0000000000000E+20
 30
1.0000000000000E+20
  9
$PEXTMAX
 10
-1.0000000000000E+20
 20
-1.0000000000000E+20
 30
-1.0000000000000E+20
  9
$PLIMMIN
 10
0.0
 20
0.0
  9
$UNITMODE
 70
     0
  9
$VISRETAIN
 70
     0
  9
$MEASUREMENT
 70
     1
  0
ENDSEC
  0
SECTION
  2
TABLES
  0
TABLE
  2
VPORT
  5
4A2
100
AcDbSymbolTable
 70
     1
  0
ENDTAB
  0
TABLE
  2
STYLE
  5
4A3
100
AcDbSymbolTable
 70
     3
  0
STYLE
  5
4A4
100
AcDbSymbolTableRecord
100
AcDbTextStyleTableRecord
  2
STANDARD
 70
     0
 40
0.0
 41
1.0
 50
0.0
 71
     0
 42
3.5
  3
MONOTXT
  4

  0
STYLE
  5
4A5
100
AcDbSymbolTableRecord
100
AcDbTextStyleTableRecord
  2
SYMAP
 70
     0
 40
0.0
 41
1.0
 50
0.0
 71
     0
 42
3.5
  3
SYMAP
  4

  0
STYLE
  5
4A6
100
AcDbSymbolTableRecord
100
AcDbTextStyleTableRecord
  2
CADWORK1
 70
     0
 40
0.0
 41
1.0
 50
0.0
 71
     0
 42
3.5
  3
MONOTXT
  4

  0
STYLE
  5
4A7
100
AcDbSymbolTableRecord
100
AcDbTextStyleTableRecord
  2
MONOTXT
 70
     0
 40
0.0
 41
1.0
 50
0.0
 71
     0
 42
3.5
  3
MONOTXT
  4

  0
STYLE
  5
4A8
100
AcDbSymbolTableRecord
100
AcDbTextStyleTableRecord
  2
ARIAL
 70
     0
 40
0.0
 41
1.0
 50
0.0
 71
     0
 42
3.5
  3

  4

1001
ACAD
1000
Arial
1071
        0
  0
ENDTAB
  0
TABLE
  2
LTYPE
  5
4A9
100
AcDbSymbolTable
 70
    15
  0
LTYPE
  5
4AA
100
AcDbSymbolTableRecord
100
AcDbLinetypeTableRecord
  2
BYBLOCK
 70
    64
  3

 72
    65
 73
     0
 40
0.0
  0
LTYPE
  5
4AB
100
AcDbSymbolTableRecord
100
AcDbLinetypeTableRecord
  2
BYLAYER
 70
    64
  3

 72
    65
 73
     0
 40
0.0
  0
LTYPE
  5
4AC
100
AcDbSymbolTableRecord
100
AcDbLinetypeTableRecord
  2
CONTINUOUS
 70
    64
  3
Solid line
 72
    65
 73
     0
 40
0.0
  0
LTYPE
  5
4AD
100
AcDbSymbolTableRecord
100
AcDbLinetypeTableRecord
  2
DOT2
 70
    64
  3
...............................................
 72
    65
 73
     2
 40
1.25
 49
0.0
 74
     0
 49
-1.25
 74
     0
  0
LTYPE
  5
4AE
100
AcDbSymbolTableRecord
100
AcDbLinetypeTableRecord
  2
CADWORK_13
 70
    64
  3
13 =======================================
 72
    65
 73
     2
 40
4.0
 49
2.0
 74
     0
 49
-2.0
 74
     0
  0
LTYPE
  5
4AF
100
AcDbSymbolTableRecord
100
AcDbLinetypeTableRecord
  2
DASHDOT
 70
    64
  3
 __ . __ . __ . __ . __ . __ . __ . __ . __ . __
 72
    65
 73
     4
 40
10.0
 49
5.0
 74
     0
 49
-2.5
 74
     0
 49
0.0
 74
     0
 49
-2.5
 74
     0
  0
LTYPE
  5
4B0
100
AcDbSymbolTableRecord
100
AcDbLinetypeTableRecord
  2
CENTER
 70
    64
  3
 ____ _ ____ _ ____ _ ____ _ ____ _ ____ _ ____
 72
    65
 73
     4
 40
20.0
 49
12.5
 74
     0
 49
-2.5
 74
     0
 49
2.5
 74
     0
 49
-2.5
 74
     0
  0
LTYPE
  5
4B1
100
AcDbSymbolTableRecord
100
AcDbLinetypeTableRecord
  2
DASHEDX2
 70
    64
  3
____  ____  ____  ____  ____  ____  ____  ____
 72
    65
 73
     2
 40
3.75
 49
2.5
 74
     0
 49
-1.25
 74
     0
  0
LTYPE
  5
4B2
100
AcDbSymbolTableRecord
100
AcDbLinetypeTableRecord
  2
CADWORK_22
 70
    64
  3
22 =======================================
 72
    65
 73
     0
 40
0.0
  0
LTYPE
  5
4B3
100
AcDbSymbolTableRecord
100
AcDbLinetypeTableRecord
  2
DAL
 70
    64
  3
Solid line (for MAPS)
 72
    65
 73
     0
 40
0.0
  0
LTYPE
  5
4B4
100
AcDbSymbolTableRecord
100
AcDbLinetypeTableRecord
  2
MUR
 70
    64
  3
Solid line (for MAPS)
 72
    65
 73
     0
 40
0.0
  0
LTYPE
  5
4B5
100
AcDbSymbolTableRecord
100
AcDbLinetypeTableRecord
  2
SOM
 70
    64
  3
Solid line (for MAPS)
 72
    65
 73
     0
 40
0.0
  0
LTYPE
  5
4B6
100
AcDbSymbolTableRecord
100
AcDbLinetypeTableRecord
  2
COL
 70
    64
  3
Solid line (for MAPS)
 72
    65
 73
     0
 40
0.0
  0
LTYPE
  5
4B7
100
AcDbSymbolTableRecord
100
AcDbLinetypeTableRecord
  2
LGN
 70
    64
  3
Solid line (for MAPS)
 72
    65
 73
     0
 40
0.0
  0
LTYPE
  5
4B8
100
AcDbSymbolTableRecord
100
AcDbLinetypeTableRecord
  2
PNT
 70
    64
  3
Solid line (for MAPS)
 72
    65
 73
     0
 40
0.0
  0
ENDTAB
  0
TABLE
  2
LAYER
  5
4B9
100
AcDbSymbolTable
 70
    32
  0
LAYER
  5
4BA
100
AcDbSymbolTableRecord
100
AcDbLayerTableRecord
  2
Standard
 70
     0
 62
     7
  6
CONTINUOUS
370
    -3
  0
LAYER
  5
4BB
100
AcDbSymbolTableRecord
100
AcDbLayerTableRecord
  2
Ech.1_1
 70
     0
 62
     7
  6
CONTINUOUS
370
    -3
  0
LAYER
  5
4BC
100
AcDbSymbolTableRecord
100
AcDbLayerTableRecord
  2
Ech.1_2
 70
     0
 62
     7
  6
CONTINUOUS
370
    -3
  0
LAYER
  5
4BD
100
AcDbSymbolTableRecord
100
AcDbLayerTableRecord
  2
Ech.1_5
 70
     0
 62
     7
  6
CONTINUOUS
370
    -3
  0
LAYER
  5
4BE
100
AcDbSymbolTableRecord
100
AcDbLayerTableRecord
  2
Ech.1_10
 70
     0
 62
     7
  6
CONTINUOUS
370
    -3
  0
LAYER
  5
4BF
100
AcDbSymbolTableRecord
100
AcDbLayerTableRecord
  2
Ech.1_20
 70
     0
 62
     7
  6
CONTINUOUS
370
    -3
  0
LAYER
  5
4C0
100
AcDbSymbolTableRecord
100
AcDbLayerTableRecord
  2
Ech.1_25
 70
     0
 62
     7
  6
CONTINUOUS
370
    -3
  0
LAYER
  5
4C1
100
AcDbSymbolTableRecord
100
AcDbLayerTableRecord
  2
Ech.1_33
 70
     0
 62
     7
  6
CONTINUOUS
370
    -3
  0
LAYER
  5
4C2
100
AcDbSymbolTableRecord
100
AcDbLayerTableRecord
  2
Ech.1_50
 70
     0
 62
     7
  6
CONTINUOUS
370
    -3
  0
LAYER
  5
4C3
100
AcDbSymbolTableRecord
100
AcDbLayerTableRecord
  2
Ech.1_75
 70
     0
 62
     7
  6
CONTINUOUS
370
    -3
  0
LAYER
  5
4C4
100
AcDbSymbolTableRecord
100
AcDbLayerTableRecord
  2
Ech.1_100
 70
     0
 62
     7
  6
CONTINUOUS
370
    -3
  0
LAYER
  5
4C5
100
AcDbSymbolTableRecord
100
AcDbLayerTableRecord
  2
Ech.1_200
 70
     0
 62
     7
  6
CONTINUOUS
370
    -3
  0
LAYER
  5
4C6
100
AcDbSymbolTableRecord
100
AcDbLayerTableRecord
  2
Ech.1_500
 70
     0
 62
     7
  6
CONTINUOUS
370
    -3
  0
LAYER
  5
4C7
100
AcDbSymbolTableRecord
100
AcDbLayerTableRecord
  2
Ech.1_1000
 70
     0
 62
     7
  6
CONTINUOUS
370
    -3
  0
LAYER
  5
4C8
100
AcDbSymbolTableRecord
100
AcDbLayerTableRecord
  2
Cadres traceur
 70
     0
 62
     7
  6
CONTINUOUS
370
    18
  0
LAYER
  5
4C9
100
AcDbSymbolTableRecord
100
AcDbLayerTableRecord
  2
Cadres laser
 70
     0
 62
     7
  6
CONTINUOUS
370
    18
  0
LAYER
  5
4CA
100
AcDbSymbolTableRecord
100
AcDbLayerTableRecord
  2
Légende d_aide
 70
     0
 62
     7
  6
CONTINUOUS
370
    18
  0
LAYER
  5
4CB
100
AcDbSymbolTableRecord
100
AcDbLayerTableRecord
  2
hachures ok
 70
     0
 62
     7
  6
CONTINUOUS
370
    18
  0
LAYER
  5
4CC
100
AcDbSymbolTableRecord
100
AcDbLayerTableRecord
  2
ossature bois
 70
     0
 62
     7
  6
CONTINUOUS
370
    18
  0
LAYER
  5
4CD
100
AcDbSymbolTableRecord
100
AcDbLayerTableRecord
  2
VR
 70
     0
 62
     7
  6
CONTINUOUS
370
    25
  0
LAYER
  5
4CE
100
AcDbSymbolTableRecord
100
AcDbLayerTableRecord
  2
Calque1
 70
     0
 62
     7
  6
CONTINUOUS
370
     9
  0
LAYER
  5
4CF
100
AcDbSymbolTableRecord
100
AcDbLayerTableRecord
  2
0
 70
     0
 62
     7
  6
CONTINUOUS
370
    -3
  0
LAYER
  5
4D0
100
AcDbSymbolTableRecord
100
AcDbLayerTableRecord
  2
menuiserie
 70
     0
 62
     7
  6
CONTINUOUS
370
    -3
  0
LAYER
  5
4D1
100
AcDbSymbolTableRecord
100
AcDbLayerTableRecord
  2
cotation
 70
     0
 62
   250
  6
CONTINUOUS
370
     9
  0
LAYER
  5
4D2
100
AcDbSymbolTableRecord
100
AcDbLayerTableRecord
  2
Defpoints
 70
     0
 62
    10
  6
CONTINUOUS
370
    -3
  0
LAYER
  5
4D3
100
AcDbSymbolTableRecord
100
AcDbLayerTableRecord
  2
HACHURE
 70
     0
 62
   254
  6
CONTINUOUS
370
    25
  0
LAYER
  5
4D4
100
AcDbSymbolTableRecord
100
AcDbLayerTableRecord
  2
mat1
 70
     0
 62
     7
  6
CONTINUOUS
370
    30
  0
LAYER
  5
4D5
100
AcDbSymbolTableRecord
100
AcDbLayerTableRecord
  2
mat2
 70
     0
 62
     7
  6
CONTINUOUS
370
     5
  0
LAYER
  5
4D6
100
AcDbSymbolTableRecord
100
AcDbLayerTableRecord
  2
hach
 70
     0
 62
     8
  6
CONTINUOUS
370
     5
  0
LAYER
  5
4D7
100
AcDbSymbolTableRecord
100
AcDbLayerTableRecord
  2
menuiseries
 70
     0
 62
     7
  6
CONTINUOUS
370
     9
  0
LAYER
  5
4D8
100
AcDbSymbolTableRecord
100
AcDbLayerTableRecord
  2
BétonMétal
 70
     0
 62
     7
  6
CONTINUOUS
370
    80
  0
LAYER
  5
4D9
100
AcDbSymbolTableRecord
100
AcDbLayerTableRecord
  2
bois
 70
     0
 62
     7
  6
CONTINUOUS
370
    60
  0
ENDTAB
  0
TABLE
  2
VIEW
  5
4DA
100
AcDbSymbolTable
 70
     0
  0
ENDTAB
  0
TABLE
  2
UCS
  5
4DB
100
AcDbSymbolTable
 70
     0
  0
ENDTAB
  0
TABLE
  2
APPID
  5
4DC
100
AcDbSymbolTable
 70
     1
  0
APPID
  5
4DD
100
AcDbSymbolTableRecord
100
AcDbRegAppTableRecord
  2
ACAD
 70
     0
  0
ENDTAB
  0
TABLE
  2
DIMSTYLE
  5
4DE
100
AcDbSymbolTable
 70
     0
  0
ENDTAB
  0
TABLE
  2
BLOCK_RECORD
  5
4DF
100
AcDbSymbolTable
 70
     0
  0
BLOCK_RECORD
  5
4E0
100
AcDbSymbolTableRecord
100
AcDbBlockTableRecord
  2
*MODEL_SPACE
  0
BLOCK_RECORD
  5
4E1
100
AcDbSymbolTableRecord
100
AcDbBlockTableRecord
  2
*PAPER_SPACE
  0
BLOCK_RECORD
  5
4E2
100
AcDbSymbolTableRecord
100
AcDbBlockTableRecord
  2
CDWK_EXTR_0
  0
BLOCK_RECORD
  5
4E3
100
AcDbSymbolTableRecord
100
AcDbBlockTableRecord
  2
CDWK_EXTR_1D
  0
BLOCK_RECORD
  5
4E4
100
AcDbSymbolTableRecord
100
AcDbBlockTableRecord
  2
CDWK_EXTR_1G
  0
BLOCK_RECORD
  5
4E5
100
AcDbSymbolTableRecord
100
AcDbBlockTableRecord
  2
CDWK_EXTR_2
  0
BLOCK_RECORD
  5
4E6
100
AcDbSymbolTableRecord
100
AcDbBlockTableRecord
  2
CDWK_EXTR_3
  0
BLOCK_RECORD
  5
4E7
100
AcDbSymbolTableRecord
100
AcDbBlockTableRecord
  2
CDWK_EXTR_4
  0
BLOCK_RECORD
  5
4E8
100
AcDbSymbolTableRecord
100
AcDbBlockTableRecord
  2
CDWK_PTTYP0
  0
BLOCK_RECORD
  5
4E9
100
AcDbSymbolTableRecord
100
AcDbBlockTableRecord
  2
CDWK_PTTYP1
  0
BLOCK_RECORD
  5
4EA
100
AcDbSymbolTableRecord
100
AcDbBlockTableRecord
  2
CDWK_PTTYP2
  0
BLOCK_RECORD
  5
4EB
100
AcDbSymbolTableRecord
100
AcDbBlockTableRecord
  2
CDWK_PTTYP3
  0
BLOCK_RECORD
  5
4EC
100
AcDbSymbolTableRecord
100
AcDbBlockTableRecord
  2
CDWK_PTTYP4
  0
BLOCK_RECORD
  5
4ED
100
AcDbSymbolTableRecord
100
AcDbBlockTableRecord
  2
CDWK_PTTYP5
  0
BLOCK_RECORD
  5
4EE
100
AcDbSymbolTableRecord
100
AcDbBlockTableRecord
  2
CDWK_PTTYP6
  0
BLOCK_RECORD
  5
4EF
100
AcDbSymbolTableRecord
100
AcDbBlockTableRecord
  2
CDWK_PTTYP7
  0
BLOCK_RECORD
  5
4F0
100
AcDbSymbolTableRecord
100
AcDbBlockTableRecord
  2
CDWK_PTTYP8
  0
BLOCK_RECORD
  5
4F1
100
AcDbSymbolTableRecord
100
AcDbBlockTableRecord
  2
CDWK_PTTYP9
  0
BLOCK_RECORD
  5
4F2
100
AcDbSymbolTableRecord
100
AcDbBlockTableRecord
  2
CDWK_PTTYP10
  0
BLOCK_RECORD
  5
4F3
100
AcDbSymbolTableRecord
100
AcDbBlockTableRecord
  2
CDWK_PTTYP11
  0
BLOCK_RECORD
  5
4F4
100
AcDbSymbolTableRecord
100
AcDbBlockTableRecord
  2
CDWK_PTTYP12
  0
BLOCK_RECORD
  5
4F5
100
AcDbSymbolTableRecord
100
AcDbBlockTableRecord
  2
CDWK_PTTYP13
  0
BLOCK_RECORD
  5
4F6
100
AcDbSymbolTableRecord
100
AcDbBlockTableRecord
  2
CDWK_PTTYP14
  0
BLOCK_RECORD
  5
4F7
100
AcDbSymbolTableRecord
100
AcDbBlockTableRecord
  2
CDWK_PTTYP15
  0
BLOCK_RECORD
  5
4F8
100
AcDbSymbolTableRecord
100
AcDbBlockTableRecord
  2
CDWK_PTTYP16
  0
BLOCK_RECORD
  5
4F9
100
AcDbSymbolTableRecord
100
AcDbBlockTableRecord
  2
CDWK_PTTYP17
  0
BLOCK_RECORD
  5
4FA
100
AcDbSymbolTableRecord
100
AcDbBlockTableRecord
  2
CDWK_PTTYP18
  0
BLOCK_RECORD
  5
4FB
100
AcDbSymbolTableRecord
100
AcDbBlockTableRecord
  2
CDWK_PTTYP19
  0
BLOCK_RECORD
  5
4FC
100
AcDbSymbolTableRecord
100
AcDbBlockTableRecord
  2
CDWK_PTTYP20
  0
BLOCK_RECORD
  5
4FD
100
AcDbSymbolTableRecord
100
AcDbBlockTableRecord
  2
CDWK_PTTYP21
  0
BLOCK_RECORD
  5
4FE
100
AcDbSymbolTableRecord
100
AcDbBlockTableRecord
  2
CDWK_PTTYP22
  0
BLOCK_RECORD
  5
4FF
100
AcDbSymbolTableRecord
100
AcDbBlockTableRecord
  2
CDWK_PTTYP23
  0
BLOCK_RECORD
  5
500
100
AcDbSymbolTableRecord
100
AcDbBlockTableRecord
  2
CDWK_PTTYP24
  0
BLOCK_RECORD
  5
501
100
AcDbSymbolTableRecord
100
AcDbBlockTableRecord
  2
CDWK_PTTYP25
  0
BLOCK_RECORD
  5
502
100
AcDbSymbolTableRecord
100
AcDbBlockTableRecord
  2
CDWK_PTTYP26
  0
BLOCK_RECORD
  5
503
100
AcDbSymbolTableRecord
100
AcDbBlockTableRecord
  2
CDWK_PTTYP27
  0
BLOCK_RECORD
  5
504
100
AcDbSymbolTableRecord
100
AcDbBlockTableRecord
  2
CDWK_PTTYP28
  0
BLOCK_RECORD
  5
505
100
AcDbSymbolTableRecord
100
AcDbBlockTableRecord
  2
CDWK_PTTYP29
  0
BLOCK_RECORD
  5
506
100
AcDbSymbolTableRecord
100
AcDbBlockTableRecord
  2
CDWK_PTTYP30
  0
BLOCK_RECORD
  5
507
100
AcDbSymbolTableRecord
100
AcDbBlockTableRecord
  2
CDWK_PTTYP31
  0
BLOCK_RECORD
  5
508
100
AcDbSymbolTableRecord
100
AcDbBlockTableRecord
  2
CDWK_PTTYP32
  0
BLOCK_RECORD
  5
509
100
AcDbSymbolTableRecord
100
AcDbBlockTableRecord
  2
CDWK_PTTYP33
  0
BLOCK_RECORD
  5
50A
100
AcDbSymbolTableRecord
100
AcDbBlockTableRecord
  2
CDWK_PTTYP34
  0
BLOCK_RECORD
  5
50B
100
AcDbSymbolTableRecord
100
AcDbBlockTableRecord
  2
CDWK_PTTYP35
  0
BLOCK_RECORD
  5
50C
100
AcDbSymbolTableRecord
100
AcDbBlockTableRecord
  2
CDWK_PTTYP36
  0
BLOCK_RECORD
  5
50D
100
AcDbSymbolTableRecord
100
AcDbBlockTableRecord
  2
CDWK_PTTYP37
  0
BLOCK_RECORD
  5
50E
100
AcDbSymbolTableRecord
100
AcDbBlockTableRecord
  2
CDWK_PTTYP38
  0
BLOCK_RECORD
  5
50F
100
AcDbSymbolTableRecord
100
AcDbBlockTableRecord
  2
*X1
  0
BLOCK_RECORD
  5
510
100
AcDbSymbolTableRecord
100
AcDbBlockTableRecord
  2
*D3
  0
BLOCK_RECORD
  5
511
100
AcDbSymbolTableRecord
100
AcDbBlockTableRecord
  2
*D4
  0
BLOCK_RECORD
  5
512
100
AcDbSymbolTableRecord
100
AcDbBlockTableRecord
  2
*D5
  0
ENDTAB
  0
ENDSEC
  0
SECTION
  2
BLOCKS
  0
BLOCK
  5
513
100
AcDbEntity
  8
0
100
AcDbBlockBegin
  2
*MODEL_SPACE
 70
     0
 10
0.0
 20
0.0
 30
0.0
  3
*MODEL_SPACE
  1

  0
ENDBLK
  5
514
100
AcDbEntity
100
AcDbBlockEnd
  0
BLOCK
  5
515
100
AcDbEntity
  8
0
100
AcDbBlockBegin
  2
*PAPER_SPACE
 70
     0
 10
0.0
 20
0.0
 30
0.0
  3
*PAPER_SPACE
  1

  0
ENDBLK
  5
516
100
AcDbEntity
100
AcDbBlockEnd
  0
BLOCK
  5
517
100
AcDbEntity
  8
0
100
AcDbBlockBegin
  2
CDWK_EXTR_0
 70
     0
 10
0.0
 20
0.0
 30
0.0
  3
CDWK_EXTR_0
  1

  4
Cadwork line-extremity
  0
LINE
  5
518
100
AcDbEntity
  8
0
 62
     0
370
    -2
100
AcDbLine
 10
0.0
 20
0.0
 30
0.0
 11
2.0
 21
0.5
 31
0.0
  0
LINE
  5
519
100
AcDbEntity
  8
0
 62
     0
370
    -2
100
AcDbLine
 10
0.0
 20
0.0
 30
0.0
 11
2.0
 21
-0.5
 31
0.0
  0
LINE
  5
51A
100
AcDbEntity
  8
0
 62
     0
370
    -2
100
AcDbLine
 10
2.0
 20
0.5
 30
0.0
 11
2.0
 21
-0.5
 31
0.0
  0
ENDBLK
  5
51B
100
AcDbEntity
100
AcDbBlockEnd
  0
BLOCK
  5
51C
100
AcDbEntity
  8
0
100
AcDbBlockBegin
  2
CDWK_EXTR_1D
 70
     0
 10
0.0
 20
0.0
 30
0.0
  3
CDWK_EXTR_1D
  1

  4
Cadwork line-extremity
  0
LINE
  5
51D
100
AcDbEntity
  8
0
 62
     0
370
    -2
100
AcDbLine
 10
0.0
 20
0.0
 30
0.0
 11
0.0
 21
1.0
 31
0.0
  0
LINE
  5
51E
100
AcDbEntity
  8
0
 62
     0
370
    -2
100
AcDbLine
 10
0.0
 20
1.0
 30
0.0
 11
0.5
 21
1.5
 31
0.0
  0
LINE
  5
51F
100
AcDbEntity
  8
0
 62
     0
370
    -2
100
AcDbLine
 10
0.5
 20
1.5
 30
0.0
 11
1.5
 21
1.5
 31
0.0
  0
ENDBLK
  5
520
100
AcDbEntity
100
AcDbBlockEnd
  0
BLOCK
  5
521
100
AcDbEntity
  8
0
100
AcDbBlockBegin
  2
CDWK_EXTR_1G
 70
     0
 10
0.0
 20
0.0
 30
0.0
  3
CDWK_EXTR_1G
  1

  4
Cadwork line-extremity
  0
LINE
  5
522
100
AcDbEntity
  8
0
 62
     0
370
    -2
100
AcDbLine
 10
0.0
 20
0.0
 30
0.0
 11
0.0
 21
-1.0
 31
0.0
  0
LINE
  5
523
100
AcDbEntity
  8
0
 62
     0
370
    -2
100
AcDbLine
 10
0.0
 20
-1.0
 30
0.0
 11
0.5
 21
-1.5
 31
0.0
  0
LINE
  5
524
100
AcDbEntity
  8
0
 62
     0
370
    -2
100
AcDbLine
 10
0.5
 20
-1.5
 30
0.0
 11
1.5
 21
-1.5
 31
0.0
  0
ENDBLK
  5
525
100
AcDbEntity
100
AcDbBlockEnd
  0
BLOCK
  5
526
100
AcDbEntity
  8
0
100
AcDbBlockBegin
  2
CDWK_EXTR_2
 70
     0
 10
0.0
 20
0.0
 30
0.0
  3
CDWK_EXTR_2
  1

  4
Cadwork line-extremity
  0
SOLID
  5
527
100
AcDbEntity
  8
0
 62
     0
100
AcDbTrace
 10
0.0
 20
0.0
 11
2.0
 21
0.5
 12
2.0
 22
-0.5
 13
2.0
 23
-0.5
  0
ENDBLK
  5
528
100
AcDbEntity
100
AcDbBlockEnd
  0
BLOCK
  5
529
100
AcDbEntity
  8
0
100
AcDbBlockBegin
  2
CDWK_EXTR_3
 70
     0
 10
0.0
 20
0.0
 30
0.0
  3
CDWK_EXTR_3
  1

  4
Cadwork line-extremity
  0
SOLID
  5
52A
100
AcDbEntity
  8
0
 62
     0
100
AcDbTrace
 10
0.0
 20
0.0
 11
2.0
 21
0.5
 12
2.0
 22
-0.5
 13
2.0
 23
-0.5
  0
LINE
  5
52B
100
AcDbEntity
  8
0
 62
     0
370
    -2
100
AcDbLine
 10
0.0
 20
1.0
 30
0.0
 11
0.0
 21
-1.0
 31
0.0
  0
ENDBLK
  5
52C
100
AcDbEntity
100
AcDbBlockEnd
  0
BLOCK
  5
52D
100
AcDbEntity
  8
0
100
AcDbBlockBegin
  2
CDWK_EXTR_4
 70
     0
 10
0.0
 20
0.0
 30
0.0
  3
CDWK_EXTR_4
  1

  4
Cadwork line-extremity
  0
HATCH
  5
52E
100
AcDbEntity
  8
0
 62
     0
370
    -2
100
AcDbHatch
 10
0.0
 20
0.0
 30
0.0
210
0.0
220
0.0
230
1.0
  2
SOLID
 70
     1
 71
     0
 91
        1
 92
        1
 93
        1
 72
     2
 10
0.0
 20
0.0
 40
0.5
 50
0.0
 51
360.0
 73
     1
 97
        0
 75
     0
 76
     1
 98
        1
 10
0.0
 20
0.0
  0
ENDBLK
  5
52F
100
AcDbEntity
100
AcDbBlockEnd
  0
BLOCK
  5
530
100
AcDbEntity
  8
0
100
AcDbBlockBegin
  2
CDWK_PTTYP0
 70
     0
 10
0.0
 20
0.0
 30
0.0
  3
CDWK_PTTYP0
  1

  4
Cadwork point
  0
POINT
  5
531
100
AcDbEntity
  8
0
 62
     0
100
AcDbPoint
 10
0.0
 20
0.0
 30
0.0
  0
ENDBLK
  5
532
100
AcDbEntity
100
AcDbBlockEnd
  0
BLOCK
  5
533
100
AcDbEntity
  8
0
100
AcDbBlockBegin
  2
CDWK_PTTYP1
 70
     0
 10
0.0
 20
0.0
 30
0.0
  3
CDWK_PTTYP1
  1

  4
Cadwork node
  0
LINE
  5
534
100
AcDbEntity
  8
0
 62
     0
370
    -2
100
AcDbLine
 10
-0.5
 20
0.5
 30
0.0
 11
0.5
 21
0.5
 31
0.0
  0
LINE
  5
535
100
AcDbEntity
  8
0
 62
     0
370
    -2
100
AcDbLine
 10
0.5
 20
0.5
 30
0.0
 11
0.5
 21
-0.5
 31
0.0
  0
LINE
  5
536
100
AcDbEntity
  8
0
 62
     0
370
    -2
100
AcDbLine
 10
0.5
 20
-0.5
 30
0.0
 11
-0.5
 21
-0.5
 31
0.0
  0
LINE
  5
537
100
AcDbEntity
  8
0
 62
     0
370
    -2
100
AcDbLine
 10
-0.5
 20
-0.5
 30
0.0
 11
-0.5
 21
0.5
 31
0.0
  0
ENDBLK
  5
538
100
AcDbEntity
100
AcDbBlockEnd
  0
BLOCK
  5
539
100
AcDbEntity
  8
0
100
AcDbBlockBegin
  2
CDWK_PTTYP2
 70
     0
 10
0.0
 20
0.0
 30
0.0
  3
CDWK_PTTYP2
  1

  4
Cadwork node
  0
LINE
  5
53A
100
AcDbEntity
  8
0
 62
     0
370
    -2
100
AcDbLine
 10
0.0
 20
0.5
 30
0.0
 11
0.0
 21
-0.5
 31
0.0
  0
LINE
  5
53B
100
AcDbEntity
  8
0
 62
     0
370
    -2
100
AcDbLine
 10
-0.5
 20
0.0
 30
0.0
 11
0.5
 21
0.0
 31
0.0
  0
ENDBLK
  5
53C
100
AcDbEntity
100
AcDbBlockEnd
  0
BLOCK
  5
53D
100
AcDbEntity
  8
0
100
AcDbBlockBegin
  2
CDWK_PTTYP3
 70
     0
 10
0.0
 20
0.0
 30
0.0
  3
CDWK_PTTYP3
  1

  4
Cadwork node
  0
CIRCLE
  5
53E
100
AcDbEntity
  8
0
 62
     0
370
    -2
100
AcDbCircle
 10
0.0
 20
0.0
 30
0.0
 40
0.5
  0
ENDBLK
  5
53F
100
AcDbEntity
100
AcDbBlockEnd
  0
BLOCK
  5
540
100
AcDbEntity
  8
0
100
AcDbBlockBegin
  2
CDWK_PTTYP4
 70
     0
 10
0.0
 20
0.0
 30
0.0
  3
CDWK_PTTYP4
  1

  4
Cadwork node
  0
HATCH
  5
541
100
AcDbEntity
  8
0
 62
     0
370
    -2
100
AcDbHatch
 10
0.0
 20
0.0
 30
0.0
210
0.0
220
0.0
230
1.0
  2
SOLID
 70
     1
 71
     0
 91
        1
 92
        1
 93
        1
 72
     2
 10
0.0
 20
0.0
 40
0.5
 50
0.0
 51
360.0
 73
     1
 97
        0
 75
     0
 76
     1
 98
        1
 10
0.0
 20
0.0
  0
ENDBLK
  5
542
100
AcDbEntity
100
AcDbBlockEnd
  0
BLOCK
  5
543
100
AcDbEntity
  8
0
100
AcDbBlockBegin
  2
CDWK_PTTYP5
 70
     0
 10
0.0
 20
0.0
 30
0.0
  3
CDWK_PTTYP5
  1

  4
Cadwork node
  0
LINE
  5
544
100
AcDbEntity
  8
0
 62
     0
370
    -2
100
AcDbLine
 10
-0.5
 20
0.5
 30
0.0
 11
0.5
 21
0.5
 31
0.0
  0
LINE
  5
545
100
AcDbEntity
  8
0
 62
     0
370
    -2
100
AcDbLine
 10
0.5
 20
0.5
 30
0.0
 11
0.5
 21
-0.5
 31
0.0
  0
LINE
  5
546
100
AcDbEntity
  8
0
 62
     0
370
    -2
100
AcDbLine
 10
0.5
 20
-0.5
 30
0.0
 11
-0.5
 21
-0.5
 31
0.0
  0
LINE
  5
547
100
AcDbEntity
  8
0
 62
     0
370
    -2
100
AcDbLine
 10
-0.5
 20
-0.5
 30
0.0
 11
-0.5
 21
0.5
 31
0.0
  0
SOLID
  5
548
100
AcDbEntity
  8
0
 62
     0
100
AcDbTrace
 10
-0.5
 20
-0.5
 11
-0.5
 21
0.0
 12
0.0
 22
-0.5
 13
0.0
 23
0.0
  0
SOLID
  5
549
100
AcDbEntity
  8
0
 62
     0
100
AcDbTrace
 10
0.0
 20
0.0
 11
0.0
 21
0.5
 12
0.5
 22
0.0
 13
0.5
 23
0.5
  0
ENDBLK
  5
54A
100
AcDbEntity
100
AcDbBlockEnd
  0
BLOCK
  5
54B
100
AcDbEntity
  8
0
100
AcDbBlockBegin
  2
CDWK_PTTYP6
 70
     0
 10
0.0
 20
0.0
 30
0.0
  3
CDWK_PTTYP6
  1

  4
Cadwork node
  0
LINE
  5
54C
100
AcDbEntity
  8
0
 62
     0
370
    -2
100
AcDbLine
 10
-0.5
 20
0.5
 30
0.0
 11
0.5
 21
0.5
 31
0.0
  0
LINE
  5
54D
100
AcDbEntity
  8
0
 62
     0
370
    -2
100
AcDbLine
 10
0.5
 20
0.5
 30
0.0
 11
0.5
 21
-0.5
 31
0.0
  0
LINE
  5
54E
100
AcDbEntity
  8
0
 62
     0
370
    -2
100
AcDbLine
 10
0.5
 20
-0.5
 30
0.0
 11
-0.5
 21
-0.5
 31
0.0
  0
LINE
  5
54F
100
AcDbEntity
  8
0
 62
     0
370
    -2
100
AcDbLine
 10
-0.5
 20
-0.5
 30
0.0
 11
-0.5
 21
0.5
 31
0.0
  0
SOLID
  5
550
100
AcDbEntity
  8
0
 62
     0
100
AcDbTrace
 10
-0.5
 20
-0.5
 11
-0.5
 21
0.5
 12
0.5
 22
0.5
 13
0.5
 23
0.5
  0
ENDBLK
  5
551
100
AcDbEntity
100
AcDbBlockEnd
  0
BLOCK
  5
552
100
AcDbEntity
  8
0
100
AcDbBlockBegin
  2
CDWK_PTTYP7
 70
     0
 10
0.0
 20
0.0
 30
0.0
  3
CDWK_PTTYP7
  1

  4
Cadwork node
  0
LINE
  5
553
100
AcDbEntity
  8
0
 62
     0
370
    -2
100
AcDbLine
 10
-0.5
 20
0.5
 30
0.0
 11
0.5
 21
0.5
 31
0.0
  0
LINE
  5
554
100
AcDbEntity
  8
0
 62
     0
370
    -2
100
AcDbLine
 10
0.5
 20
0.5
 30
0.0
 11
0.5
 21
-0.5
 31
0.0
  0
LINE
  5
555
100
AcDbEntity
  8
0
 62
     0
370
    -2
100
AcDbLine
 10
0.5
 20
-0.5
 30
0.0
 11
-0.5
 21
-0.5
 31
0.0
  0
LINE
  5
556
100
AcDbEntity
  8
0
 62
     0
370
    -2
100
AcDbLine
 10
-0.5
 20
-0.5
 30
0.0
 11
-0.5
 21
0.5
 31
0.0
  0
LINE
  5
557
100
AcDbEntity
  8
0
 62
     0
370
    -2
100
AcDbLine
 10
0.0
 20
0.5
 30
0.0
 11
0.0
 21
-0.5
 31
0.0
  0
LINE
  5
558
100
AcDbEntity
  8
0
 62
     0
370
    -2
100
AcDbLine
 10
-0.5
 20
0.0
 30
0.0
 11
0.5
 21
0.0
 31
0.0
  0
ENDBLK
  5
559
100
AcDbEntity
100
AcDbBlockEnd
  0
BLOCK
  5
55A
100
AcDbEntity
  8
0
100
AcDbBlockBegin
  2
CDWK_PTTYP8
 70
     0
 10
0.0
 20
0.0
 30
0.0
  3
CDWK_PTTYP8
  1

  4
Cadwork node
  0
SOLID
  5
55B
100
AcDbEntity
  8
0
 62
     0
100
AcDbTrace
 10
-0.5
 20
0.5
 11
0.5
 21
0.5
 12
-0.5
 22
-0.5
 13
0.5
 23
-0.5
  0
ENDBLK
  5
55C
100
AcDbEntity
100
AcDbBlockEnd
  0
BLOCK
  5
55D
100
AcDbEntity
  8
0
100
AcDbBlockBegin
  2
CDWK_PTTYP9
 70
     0
 10
0.0
 20
0.0
 30
0.0
  3
CDWK_PTTYP9
  1

  4
Cadwork node
  0
CIRCLE
  5
55E
100
AcDbEntity
  8
0
 62
     0
370
    -2
100
AcDbCircle
 10
0.0
 20
0.0
 30
0.0
 40
0.5
  0
CIRCLE
  5
55F
100
AcDbEntity
  8
0
 62
     0
370
    -2
100
AcDbCircle
 10
0.0
 20
0.0
 30
0.0
 40
0.16666667
  0
ENDBLK
  5
560
100
AcDbEntity
100
AcDbBlockEnd
  0
BLOCK
  5
561
100
AcDbEntity
  8
0
100
AcDbBlockBegin
  2
CDWK_PTTYP10
 70
     0
 10
0.0
 20
0.0
 30
0.0
  3
CDWK_PTTYP10
  1

  4
Cadwork node
  0
CIRCLE
  5
562
100
AcDbEntity
  8
0
 62
     0
370
    -2
100
AcDbCircle
 10
0.0
 20
0.0
 30
0.0
 40
0.5
  0
ENDBLK
  5
563
100
AcDbEntity
100
AcDbBlockEnd
  0
BLOCK
  5
564
100
AcDbEntity
  8
0
100
AcDbBlockBegin
  2
CDWK_PTTYP11
 70
     0
 10
0.0
 20
0.0
 30
0.0
  3
CDWK_PTTYP11
  1

  4
Cadwork node
  0
CIRCLE
  5
565
100
AcDbEntity
  8
0
 62
     0
370
    -2
100
AcDbCircle
 10
0.0
 20
0.0
 30
0.0
 40
0.5
  0
CIRCLE
  5
566
100
AcDbEntity
  8
0
 62
     0
370
    -2
100
AcDbCircle
 10
0.0
 20
0.0
 30
0.0
 40
0.25
  0
ENDBLK
  5
567
100
AcDbEntity
100
AcDbBlockEnd
  0
BLOCK
  5
568
100
AcDbEntity
  8
0
100
AcDbBlockBegin
  2
CDWK_PTTYP12
 70
     0
 10
0.0
 20
0.0
 30
0.0
  3
CDWK_PTTYP12
  1

  4
Cadwork node
  0
CIRCLE
  5
569
100
AcDbEntity
  8
0
 62
     0
370
    -2
100
AcDbCircle
 10
0.0
 20
0.0
 30
0.0
 40
0.5
  0
CIRCLE
  5
56A
100
AcDbEntity
  8
0
 62
     0
370
    -2
100
AcDbCircle
 10
0.25
 20
0.0
 30
0.0
 40
0.25
  0
ENDBLK
  5
56B
100
AcDbEntity
100
AcDbBlockEnd
  0
BLOCK
  5
56C
100
AcDbEntity
  8
0
100
AcDbBlockBegin
  2
CDWK_PTTYP13
 70
     0
 10
0.0
 20
0.0
 30
0.0
  3
CDWK_PTTYP13
  1

  4
Cadwork node
  0
CIRCLE
  5
56D
100
AcDbEntity
  8
0
 62
     0
370
    -2
100
AcDbCircle
 10
0.0
 20
0.0
 30
0.0
 40
0.5
  0
CIRCLE
  5
56E
100
AcDbEntity
  8
0
 62
     0
370
    -2
100
AcDbCircle
 10
0.25
 20
0.0
 30
0.0
 40
0.25
  0
CIRCLE
  5
56F
100
AcDbEntity
  8
0
 62
     0
370
    -2
100
AcDbCircle
 10
-0.25
 20
0.0
 30
0.0
 40
0.25
  0
ENDBLK
  5
570
100
AcDbEntity
100
AcDbBlockEnd
  0
BLOCK
  5
571
100
AcDbEntity
  8
0
100
AcDbBlockBegin
  2
CDWK_PTTYP14
 70
     0
 10
0.0
 20
0.0
 30
0.0
  3
CDWK_PTTYP14
  1

  4
Cadwork node
  0
POINT
  5
572
100
AcDbEntity
  8
0
 62
     0
100
AcDbPoint
 10
0.0
 20
0.0
 30
0.0
  0
ENDBLK
  5
573
100
AcDbEntity
100
AcDbBlockEnd
  0
BLOCK
  5
574
100
AcDbEntity
  8
0
100
AcDbBlockBegin
  2
CDWK_PTTYP15
 70
     0
 10
0.0
 20
0.0
 30
0.0
  3
CDWK_PTTYP15
  1

  4
Cadwork node
  0
POINT
  5
575
100
AcDbEntity
  8
0
 62
     0
100
AcDbPoint
 10
0.0
 20
0.0
 30
0.0
  0
ENDBLK
  5
576
100
AcDbEntity
100
AcDbBlockEnd
  0
BLOCK
  5
577
100
AcDbEntity
  8
0
100
AcDbBlockBegin
  2
CDWK_PTTYP16
 70
     0
 10
0.0
 20
0.0
 30
0.0
  3
CDWK_PTTYP16
  1

  4
Cadwork node
  0
LINE
  5
578
100
AcDbEntity
  8
0
 62
     0
370
    -2
100
AcDbLine
 10
-0.5
 20
-0.28867513
 30
0.0
 11
0.5
 21
-0.28867513
 31
0.0
  0
LINE
  5
579
100
AcDbEntity
  8
0
 62
     0
370
    -2
100
AcDbLine
 10
0.5
 20
-0.28867513
 30
0.0
 11
0.0
 21
0.57735027
 31
0.0
  0
LINE
  5
57A
100
AcDbEntity
  8
0
 62
     0
370
    -2
100
AcDbLine
 10
0.0
 20
0.57735027
 30
0.0
 11
-0.5
 21
-0.28867513
 31
0.0
  0
CIRCLE
  5
57B
100
AcDbEntity
  8
0
 62
     0
370
    -2
100
AcDbCircle
 10
0.0
 20
0.0
 30
0.0
 40
0.28867513
  0
ENDBLK
  5
57C
100
AcDbEntity
100
AcDbBlockEnd
  0
BLOCK
  5
57D
100
AcDbEntity
  8
0
100
AcDbBlockBegin
  2
CDWK_PTTYP17
 70
     0
 10
0.0
 20
0.0
 30
0.0
  3
CDWK_PTTYP17
  1

  4
Cadwork node
  0
CIRCLE
  5
57E
100
AcDbEntity
  8
0
 62
     0
370
    -2
100
AcDbCircle
 10
0.0
 20
0.0
 30
0.0
 40
0.5
  0
HATCH
  5
57F
100
AcDbEntity
  8
0
 62
     0
370
    -2
100
AcDbHatch
 10
0.0
 20
0.0
 30
0.0
210
0.0
220
0.0
230
1.0
  2
SOLID
 70
     1
 71
     0
 91
        1
 92
        1
 93
        1
 72
     2
 10
0.0
 20
0.0
 40
0.25
 50
0.0
 51
360.0
 73
     1
 97
        0
 75
     0
 76
     1
 98
        1
 10
0.0
 20
0.0
  0
ENDBLK
  5
580
100
AcDbEntity
100
AcDbBlockEnd
  0
BLOCK
  5
581
100
AcDbEntity
  8
0
100
AcDbBlockBegin
  2
CDWK_PTTYP18
 70
     0
 10
0.0
 20
0.0
 30
0.0
  3
CDWK_PTTYP18
  1

  4
Cadwork node
  0
CIRCLE
  5
582
100
AcDbEntity
  8
0
 62
     0
370
    -2
100
AcDbCircle
 10
0.0
 20
0.0
 30
0.0
 40
0.5
  0
CIRCLE
  5
583
100
AcDbEntity
  8
0
 62
     0
370
    -2
100
AcDbCircle
 10
0.0
 20
0.0
 30
0.0
 40
0.2
  0
ENDBLK
  5
584
100
AcDbEntity
100
AcDbBlockEnd
  0
BLOCK
  5
585
100
AcDbEntity
  8
0
100
AcDbBlockBegin
  2
CDWK_PTTYP19
 70
     0
 10
0.0
 20
0.0
 30
0.0
  3
CDWK_PTTYP19
  1

  4
Cadwork node
  0
CIRCLE
  5
586
100
AcDbEntity
  8
0
 62
     0
370
    -2
100
AcDbCircle
 10
0.0
 20
0.0
 30
0.0
 40
0.4
  0
CIRCLE
  5
587
100
AcDbEntity
  8
0
 62
     0
370
    -2
100
AcDbCircle
 10
0.0
 20
0.0
 30
0.0
 40
0.25
  0
LINE
  5
588
100
AcDbEntity
  8
0
 62
     0
370
    -2
100
AcDbLine
 10
-0.25
 20
0.0
 30
0.0
 11
0.25
 21
0.0
 31
0.0
  0
ENDBLK
  5
589
100
AcDbEntity
100
AcDbBlockEnd
  0
BLOCK
  5
58A
100
AcDbEntity
  8
0
100
AcDbBlockBegin
  2
CDWK_PTTYP20
 70
     0
 10
0.0
 20
0.0
 30
0.0
  3
CDWK_PTTYP20
  1

  4
Cadwork node
  0
CIRCLE
  5
58B
100
AcDbEntity
  8
0
 62
     0
370
    -2
100
AcDbCircle
 10
0.0
 20
0.0
 30
0.0
 40
0.5
  0
CIRCLE
  5
58C
100
AcDbEntity
  8
0
 62
     0
370
    -2
100
AcDbCircle
 10
0.0
 20
0.0
 30
0.0
 40
0.3
  0
ENDBLK
  5
58D
100
AcDbEntity
100
AcDbBlockEnd
  0
BLOCK
  5
58E
100
AcDbEntity
  8
0
100
AcDbBlockBegin
  2
CDWK_PTTYP21
 70
     0
 10
0.0
 20
0.0
 30
0.0
  3
CDWK_PTTYP21
  1

  4
Cadwork node
  0
CIRCLE
  5
58F
100
AcDbEntity
  8
0
 62
     0
370
    -2
100
AcDbCircle
 10
0.0
 20
0.0
 30
0.0
 40
0.5
  0
LINE
  5
590
100
AcDbEntity
  8
0
 62
     0
370
    -2
100
AcDbLine
 10
-0.5
 20
0.0
 30
0.0
 11
0.5
 21
0.0
 31
0.0
  0
ENDBLK
  5
591
100
AcDbEntity
100
AcDbBlockEnd
  0
BLOCK
  5
592
100
AcDbEntity
  8
0
100
AcDbBlockBegin
  2
CDWK_PTTYP22
 70
     0
 10
0.0
 20
0.0
 30
0.0
  3
CDWK_PTTYP22
  1

  4
Cadwork node
  0
POINT
  5
593
100
AcDbEntity
  8
0
 62
     0
100
AcDbPoint
 10
0.0
 20
0.0
 30
0.0
  0
ENDBLK
  5
594
100
AcDbEntity
100
AcDbBlockEnd
  0
BLOCK
  5
595
100
AcDbEntity
  8
0
100
AcDbBlockBegin
  2
CDWK_PTTYP23
 70
     0
 10
0.0
 20
0.0
 30
0.0
  3
CDWK_PTTYP23
  1

  4
Cadwork node
  0
POINT
  5
596
100
AcDbEntity
  8
0
 62
     0
100
AcDbPoint
 10
0.0
 20
0.0
 30
0.0
  0
ENDBLK
  5
597
100
AcDbEntity
100
AcDbBlockEnd
  0
BLOCK
  5
598
100
AcDbEntity
  8
0
100
AcDbBlockBegin
  2
CDWK_PTTYP24
 70
     0
 10
0.0
 20
0.0
 30
0.0
  3
CDWK_PTTYP24
  1

  4
Cadwork node
  0
POINT
  5
599
100
AcDbEntity
  8
0
 62
     0
100
AcDbPoint
 10
0.0
 20
0.0
 30
0.0
  0
ENDBLK
  5
59A
100
AcDbEntity
100
AcDbBlockEnd
  0
BLOCK
  5
59B
100
AcDbEntity
  8
0
100
AcDbBlockBegin
  2
CDWK_PTTYP25
 70
     0
 10
0.0
 20
0.0
 30
0.0
  3
CDWK_PTTYP25
  1

  4
Cadwork node
  0
LINE
  5
59C
100
AcDbEntity
  8
0
 62
     0
370
    -2
100
AcDbLine
 10
-0.43290044
 20
-0.25
 30
0.0
 11
0.43290044
 21
-0.25
 31
0.0
  0
LINE
  5
59D
100
AcDbEntity
  8
0
 62
     0
370
    -2
100
AcDbLine
 10
-0.43290044
 20
-0.25
 30
0.0
 11
0.0
 21
0.5
 31
0.0
  0
LINE
  5
59E
100
AcDbEntity
  8
0
 62
     0
370
    -2
100
AcDbLine
 10
0.43290044
 20
-0.25
 30
0.0
 11
0.0
 21
0.5
 31
0.0
  0
CIRCLE
  5
59F
100
AcDbEntity
  8
0
 62
     0
370
    -2
100
AcDbCircle
 10
0.0
 20
0.0
 30
0.0
 40
0.5
  0
ENDBLK
  5
5A0
100
AcDbEntity
100
AcDbBlockEnd
  0
BLOCK
  5
5A1
100
AcDbEntity
  8
0
100
AcDbBlockBegin
  2
CDWK_PTTYP26
 70
     0
 10
0.0
 20
0.0
 30
0.0
  3
CDWK_PTTYP26
  1

  4
Cadwork node
  0
LINE
  5
5A2
100
AcDbEntity
  8
0
 62
     0
370
    -2
100
AcDbLine
 10
-0.5
 20
-0.28850001
 30
0.0
 11
0.5
 21
-0.28850001
 31
0.0
  0
LINE
  5
5A3
100
AcDbEntity
  8
0
 62
     0
370
    -2
100
AcDbLine
 10
-0.5
 20
-0.28850001
 30
0.0
 11
0.0
 21
0.57736721
 31
0.0
  0
LINE
  5
5A4
100
AcDbEntity
  8
0
 62
     0
370
    -2
100
AcDbLine
 10
0.5
 20
-0.28850001
 30
0.0
 11
0.0
 21
0.57736721
 31
0.0
  0
CIRCLE
  5
5A5
100
AcDbEntity
  8
0
 62
     0
370
    -2
100
AcDbCircle
 10
0.0
 20
0.0
 30
0.0
 40
0.1312336
  0
ENDBLK
  5
5A6
100
AcDbEntity
100
AcDbBlockEnd
  0
BLOCK
  5
5A7
100
AcDbEntity
  8
0
100
AcDbBlockBegin
  2
CDWK_PTTYP27
 70
     0
 10
0.0
 20
0.0
 30
0.0
  3
CDWK_PTTYP27
  1

  4
Cadwork node
  0
LINE
  5
5A8
100
AcDbEntity
  8
0
 62
     0
370
    -2
100
AcDbLine
 10
-0.43290044
 20
-0.25
 30
0.0
 11
0.43290044
 21
-0.25
 31
0.0
  0
LINE
  5
5A9
100
AcDbEntity
  8
0
 62
     0
370
    -2
100
AcDbLine
 10
-0.43290044
 20
-0.25
 30
0.0
 11
0.0
 21
0.5
 31
0.0
  0
LINE
  5
5AA
100
AcDbEntity
  8
0
 62
     0
370
    -2
100
AcDbLine
 10
0.43290044
 20
-0.25
 30
0.0
 11
0.0
 21
0.5
 31
0.0
  0
CIRCLE
  5
5AB
100
AcDbEntity
  8
0
 62
     0
370
    -2
100
AcDbCircle
 10
0.0
 20
0.0
 30
0.0
 40
0.5
  0
CIRCLE
  5
5AC
100
AcDbEntity
  8
0
 62
     0
370
    -2
100
AcDbCircle
 10
0.0
 20
0.0
 30
0.0
 40
0.1312336
  0
ENDBLK
  5
5AD
100
AcDbEntity
100
AcDbBlockEnd
  0
BLOCK
  5
5AE
100
AcDbEntity
  8
0
100
AcDbBlockBegin
  2
CDWK_PTTYP28
 70
     0
 10
0.0
 20
0.0
 30
0.0
  3
CDWK_PTTYP28
  1

  4
Cadwork node
  0
POINT
  5
5AF
100
AcDbEntity
  8
0
 62
     0
100
AcDbPoint
 10
0.0
 20
0.0
 30
0.0
  0
ENDBLK
  5
5B0
100
AcDbEntity
100
AcDbBlockEnd
  0
BLOCK
  5
5B1
100
AcDbEntity
  8
0
100
AcDbBlockBegin
  2
CDWK_PTTYP29
 70
     0
 10
0.0
 20
0.0
 30
0.0
  3
CDWK_PTTYP29
  1

  4
Cadwork node
  0
CIRCLE
  5
5B2
100
AcDbEntity
  8
0
 62
     0
370
    -2
100
AcDbCircle
 10
0.0
 20
0.0
 30
0.0
 40
0.5
  0
CIRCLE
  5
5B3
100
AcDbEntity
  8
0
 62
     0
370
    -2
100
AcDbCircle
 10
0.0
 20
0.0
 30
0.0
 40
0.375
  0
CIRCLE
  5
5B4
100
AcDbEntity
  8
0
 62
     0
370
    -2
100
AcDbCircle
 10
0.0
 20
0.0
 30
0.0
 40
0.21875
  0
ENDBLK
  5
5B5
100
AcDbEntity
100
AcDbBlockEnd
  0
BLOCK
  5
5B6
100
AcDbEntity
  8
0
100
AcDbBlockBegin
  2
CDWK_PTTYP30
 70
     0
 10
0.0
 20
0.0
 30
0.0
  3
CDWK_PTTYP30
  1

  4
Cadwork node
  0
LINE
  5
5B7
100
AcDbEntity
  8
0
 62
     0
370
    -2
100
AcDbLine
 10
0.17680339
 20
0.17680339
 30
0.0
 11
0.5
 21
0.5
 31
0.0
  0
LINE
  5
5B8
100
AcDbEntity
  8
0
 62
     0
370
    -2
100
AcDbLine
 10
-0.17680339
 20
0.17680339
 30
0.0
 11
-0.5
 21
0.5
 31
0.0
  0
LINE
  5
5B9
100
AcDbEntity
  8
0
 62
     0
370
    -2
100
AcDbLine
 10
0.17680339
 20
-0.17680339
 30
0.0
 11
0.5
 21
-0.5
 31
0.0
  0
LINE
  5
5BA
100
AcDbEntity
  8
0
 62
     0
370
    -2
100
AcDbLine
 10
-0.17680339
 20
-0.17680339
 30
0.0
 11
-0.5
 21
-0.5
 31
0.0
  0
ENDBLK
  5
5BB
100
AcDbEntity
100
AcDbBlockEnd
  0
BLOCK
  5
5BC
100
AcDbEntity
  8
0
100
AcDbBlockBegin
  2
CDWK_PTTYP31
 70
     0
 10
0.0
 20
0.0
 30
0.0
  3
CDWK_PTTYP31
  1

  4
Cadwork node
  0
CIRCLE
  5
5BD
100
AcDbEntity
  8
0
 62
     0
370
    -2
100
AcDbCircle
 10
0.0
 20
0.0
 30
0.0
 40
0.075
  0
LINE
  5
5BE
100
AcDbEntity
  8
0
 62
     0
370
    -2
100
AcDbLine
 10
0.075
 20
0.0
 30
0.0
 11
0.5
 21
0.0
 31
0.0
  0
LINE
  5
5BF
100
AcDbEntity
  8
0
 62
     0
370
    -2
100
AcDbLine
 10
-0.075
 20
0.0
 30
0.0
 11
-0.5
 21
0.0
 31
0.0
  0
LINE
  5
5C0
100
AcDbEntity
  8
0
 62
     0
370
    -2
100
AcDbLine
 10
0.0
 20
0.075
 30
0.0
 11
0.0
 21
0.5
 31
0.0
  0
LINE
  5
5C1
100
AcDbEntity
  8
0
 62
     0
370
    -2
100
AcDbLine
 10
0.0
 20
-0.075
 30
0.0
 11
0.0
 21
-0.5
 31
0.0
  0
ENDBLK
  5
5C2
100
AcDbEntity
100
AcDbBlockEnd
  0
BLOCK
  5
5C3
100
AcDbEntity
  8
0
100
AcDbBlockBegin
  2
CDWK_PTTYP32
 70
     0
 10
0.0
 20
0.0
 30
0.0
  3
CDWK_PTTYP32
  1

  4
Cadwork node
  0
CIRCLE
  5
5C4
100
AcDbEntity
  8
0
 62
     0
370
    -2
100
AcDbCircle
 10
0.0
 20
0.0
 30
0.0
 40
0.5
  0
CIRCLE
  5
5C5
100
AcDbEntity
  8
0
 62
     0
370
    -2
100
AcDbCircle
 10
0.0
 20
0.0
 30
0.0
 40
0.16666667
  0
LINE
  5
5C6
100
AcDbEntity
  8
0
 62
     0
370
    -2
100
AcDbLine
 10
0.11786893
 20
0.11786893
 30
0.0
 11
0.35360678
 21
0.35360678
 31
0.0
  0
LINE
  5
5C7
100
AcDbEntity
  8
0
 62
     0
370
    -2
100
AcDbLine
 10
-0.11786893
 20
0.11786893
 30
0.0
 11
-0.35360678
 21
0.35360678
 31
0.0
  0
LINE
  5
5C8
100
AcDbEntity
  8
0
 62
     0
370
    -2
100
AcDbLine
 10
0.11786893
 20
-0.11786893
 30
0.0
 11
0.35360678
 21
-0.35360678
 31
0.0
  0
LINE
  5
5C9
100
AcDbEntity
  8
0
 62
     0
370
    -2
100
AcDbLine
 10
-0.11786893
 20
-0.11786893
 30
0.0
 11
-0.35360678
 21
-0.35360678
 31
0.0
  0
ENDBLK
  5
5CA
100
AcDbEntity
100
AcDbBlockEnd
  0
BLOCK
  5
5CB
100
AcDbEntity
  8
0
100
AcDbBlockBegin
  2
CDWK_PTTYP33
 70
     0
 10
0.0
 20
0.0
 30
0.0
  3
CDWK_PTTYP33
  1

  4
Cadwork node
  0
CIRCLE
  5
5CC
100
AcDbEntity
  8
0
 62
     0
370
    -2
100
AcDbCircle
 10
0.0
 20
0.0
 30
0.0
 40
0.5
  0
LINE
  5
5CD
100
AcDbEntity
  8
0
 62
     0
370
    -2
100
AcDbLine
 10
0.0
 20
0.5
 30
0.0
 11
0.0
 21
-0.5
 31
0.0
  0
LINE
  5
5CE
100
AcDbEntity
  8
0
 62
     0
370
    -2
100
AcDbLine
 10
-0.5
 20
0.0
 30
0.0
 11
0.5
 21
0.0
 31
0.0
  0
ENDBLK
  5
5CF
100
AcDbEntity
100
AcDbBlockEnd
  0
BLOCK
  5
5D0
100
AcDbEntity
  8
0
100
AcDbBlockBegin
  2
CDWK_PTTYP34
 70
     0
 10
0.0
 20
0.0
 30
0.0
  3
CDWK_PTTYP34
  1

  4
Cadwork node
  0
CIRCLE
  5
5D1
100
AcDbEntity
  8
0
 62
     0
370
    -2
100
AcDbCircle
 10
0.0
 20
0.0
 30
0.0
 40
0.5
  0
LINE
  5
5D2
100
AcDbEntity
  8
0
 62
     0
370
    -2
100
AcDbLine
 10
-0.30360678
 20
-0.40360678
 30
0.0
 11
0.40360678
 21
0.30360678
 31
0.0
  0
LINE
  5
5D3
100
AcDbEntity
  8
0
 62
     0
370
    -2
100
AcDbLine
 10
-0.40360678
 20
-0.30360678
 30
0.0
 11
0.30360678
 21
0.40360678
 31
0.0
  0
ENDBLK
  5
5D4
100
AcDbEntity
100
AcDbBlockEnd
  0
BLOCK
  5
5D5
100
AcDbEntity
  8
0
100
AcDbBlockBegin
  2
CDWK_PTTYP35
 70
     0
 10
0.0
 20
0.0
 30
0.0
  3
CDWK_PTTYP35
  1

  4
Cadwork node
  0
CIRCLE
  5
5D6
100
AcDbEntity
  8
0
 62
     0
370
    -2
100
AcDbCircle
 10
0.0
 20
0.0
 30
0.0
 40
0.21431634
  0
LINE
  5
5D7
100
AcDbEntity
  8
0
 62
     0
370
    -2
100
AcDbLine
 10
0.0
 20
0.21431634
 30
0.0
 11
0.0
 21
0.5
 31
0.0
  0
LINE
  5
5D8
100
AcDbEntity
  8
0
 62
     0
370
    -2
100
AcDbLine
 10
0.0
 20
-0.21431634
 30
0.0
 11
0.0
 21
-0.5
 31
0.0
  0
ENDBLK
  5
5D9
100
AcDbEntity
100
AcDbBlockEnd
  0
BLOCK
  5
5DA
100
AcDbEntity
  8
0
100
AcDbBlockBegin
  2
CDWK_PTTYP36
 70
     0
 10
0.0
 20
0.0
 30
0.0
  3
CDWK_PTTYP36
  1

  4
Cadwork node
  0
LINE
  5
5DB
100
AcDbEntity
  8
0
 62
     0
370
    -2
100
AcDbLine
 10
-0.5
 20
-0.16666667
 30
0.0
 11
0.5
 21
-0.16666667
 31
0.0
  0
LINE
  5
5DC
100
AcDbEntity
  8
0
 62
     0
370
    -2
100
AcDbLine
 10
0.5
 20
-0.16666667
 30
0.0
 11
0.5
 21
0.16666667
 31
0.0
  0
LINE
  5
5DD
100
AcDbEntity
  8
0
 62
     0
370
    -2
100
AcDbLine
 10
0.5
 20
0.16666667
 30
0.0
 11
-0.5
 21
0.16666667
 31
0.0
  0
LINE
  5
5DE
100
AcDbEntity
  8
0
 62
     0
370
    -2
100
AcDbLine
 10
-0.5
 20
0.16666667
 30
0.0
 11
-0.5
 21
-0.16666667
 31
0.0
  0
SOLID
  5
5DF
100
AcDbEntity
  8
0
 62
     0
100
AcDbTrace
 10
-0.5
 20
-0.16666667
 11
0.5
 21
0.16666667
 12
0.5
 22
-0.16666667
 13
0.5
 23
-0.16666667
  0
ENDBLK
  5
5E0
100
AcDbEntity
100
AcDbBlockEnd
  0
BLOCK
  5
5E1
100
AcDbEntity
  8
0
100
AcDbBlockBegin
  2
CDWK_PTTYP37
 70
     0
 10
0.0
 20
0.0
 30
0.0
  3
CDWK_PTTYP37
  1

  4
Cadwork node
  0
CIRCLE
  5
5E2
100
AcDbEntity
  8
0
 62
     0
370
    -2
100
AcDbCircle
 10
0.0
 20
0.0
 30
0.0
 40
0.5
  0
SOLID
  5
5E3
100
AcDbEntity
  8
0
 62
     0
100
AcDbTrace
 10
0.0
 20
0.0
 11
0.35350001
 21
0.35350001
 12
0.5
 22
0.0
 13
0.46200001
 23
0.19149999
  0
SOLID
  5
5E4
100
AcDbEntity
  8
0
 62
     0
100
AcDbTrace
 10
0.0
 20
0.0
 11
0.35350001
 21
-0.35350001
 12
0.5
 22
0.0
 13
0.46200001
 23
-0.19149999
  0
SOLID
  5
5E5
100
AcDbEntity
  8
0
 62
     0
100
AcDbTrace
 10
0.0
 20
0.0
 11
0.0
 21
-0.5
 12
0.35350001
 22
-0.35350001
 13
0.19149999
 23
-0.46200001
  0
SOLID
  5
5E6
100
AcDbEntity
  8
0
 62
     0
100
AcDbTrace
 10
0.0
 20
0.0
 11
0.0
 21
-0.5
 12
-0.35350001
 22
-0.35350001
 13
-0.19149999
 23
-0.46200001
  0
ENDBLK
  5
5E7
100
AcDbEntity
100
AcDbBlockEnd
  0
BLOCK
  5
5E8
100
AcDbEntity
  8
0
100
AcDbBlockBegin
  2
CDWK_PTTYP38
 70
     0
 10
0.0
 20
0.0
 30
0.0
  3
CDWK_PTTYP38
  1

  4
Cadwork node
  0
CIRCLE
  5
5E9
100
AcDbEntity
  8
0
 62
     0
370
    -2
100
AcDbCircle
 10
0.0
 20
0.0
 30
0.0
 40
0.5
  0
SOLID
  5
5EA
100
AcDbEntity
  8
0
 62
     0
100
AcDbTrace
 10
0.0
 20
0.0
 11
0.35350001
 21
0.35350001
 12
0.0
 22
0.5
 13
0.19149999
 23
0.46200001
  0
SOLID
  5
5EB
100
AcDbEntity
  8
0
 62
     0
100
AcDbTrace
 10
0.0
 20
0.0
 11
0.5
 21
0.0
 12
0.35350001
 22
0.35350001
 13
0.46200001
 23
0.19149999
  0
SOLID
  5
5EC
100
AcDbEntity
  8
0
 62
     0
100
AcDbTrace
 10
0.0
 20
0.0
 11
0.0
 21
-0.5
 12
-0.35350001
 22
-0.35350001
 13
-0.19149999
 23
-0.46200001
  0
SOLID
  5
5ED
100
AcDbEntity
  8
0
 62
     0
100
AcDbTrace
 10
0.0
 20
0.0
 11
-0.5
 21
0.0
 12
-0.35350001
 22
-0.35350001
 13
-0.46200001
 23
-0.19149999
  0
ENDBLK
  5
5EE
100
AcDbEntity
100
AcDbBlockEnd
  0
BLOCK
  5
5EF
100
AcDbEntity
  8
Ech.1_5
100
AcDbBlockBegin
  2
*X1
 70
     1
 10
0.0
 20
0.0
 30
0.0
  3
*X1
  1

  4
Cadwork hatch
  0
LINE
  5
5F0
100
AcDbEntity
  8
Ech.1_5
 62
   190
  6
CONTINUOUS
370
    -2
100
AcDbLine
 10
32257.38079098
 20
-8582.02014629
 30
0.0
 11
32077.38310737
 21
-8537.01715353
 31
0.0
  0
LINE
  5
5F1
100
AcDbEntity
  8
Ech.1_5
 62
   190
  6
CONTINUOUS
370
    -2
100
AcDbLine
 10
32257.38079098
 20
-8537.01715353
 30
0.0
 11
32077.38310737
 21
-8582.02014629
 31
0.0
  0
ENDBLK
  5
5F2
100
AcDbEntity
100
AcDbBlockEnd
  0
BLOCK
  5
5F3
100
AcDbEntity
  8
Ech.1_5
100
AcDbBlockBegin
  2
*D3
 70
     1
 10
0.0
 20
0.0
 30
0.0
  3
*D3
  1

  4
Cadwork dimension
  0
TEXT
  5
5F4
100
AcDbEntity
  8
Ech.1_5
 62
   190
370
    18
100
AcDbText
 10
31999.25740304
 20
-8606.52245525
 30
0.0
 40
12.5
  1
30
  7
ARIAL
 50
89.9999975
 41
1.0
 51
0.0
100
AcDbText
  0
LINE
  5
5F5
100
AcDbEntity
  8
Ech.1_5
 62
   190
370
    -2
100
AcDbLine
 10
31999.25740304
 20
-8582.01903061
 30
0.0
 11
32097.38175894
 21
-8582.01903061
 31
0.0
  0
LINE
  5
5F6
100
AcDbEntity
  8
Ech.1_5
 62
   190
370
    -2
100
AcDbLine
 10
31999.25740304
 20
-8612.01903061
 30
0.0
 11
32024.47665487
 21
-8612.01903061
 31
0.0
  0
LINE
  5
5F7
100
AcDbEntity
  8
Ech.1_5
 62
   190
370
    -2
100
AcDbLine
 10
32004.25740304
 20
-8577.01903061
 30
0.0
 11
32004.25740304
 21
-8617.01903061
 31
0.0
  0
LINE
  5
5F8
100
AcDbEntity
  8
Ech.1_5
 62
   190
370
    -2
100
AcDbLine
 10
32001.75740304
 20
-8579.51903061
 30
0.0
 11
32006.75740304
 21
-8584.51903061
 31
0.0
  0
LINE
  5
5F9
100
AcDbEntity
  8
Ech.1_5
 62
   190
370
    -2
100
AcDbLine
 10
32001.75740304
 20
-8609.51903061
 30
0.0
 11
32006.75740304
 21
-8614.51903061
 31
0.0
  0
ENDBLK
  5
5FA
100
AcDbEntity
100
AcDbBlockEnd
  0
BLOCK
  5
5FB
100
AcDbEntity
  8
Ech.1_5
100
AcDbBlockBegin
  2
*D4
 70
     1
 10
0.0
 20
0.0
 30
0.0
  3
*D4
  1

  4
Cadwork dimension
  0
TEXT
  5
5FC
100
AcDbEntity
  8
Ech.1_5
 62
   190
370
    18
100
AcDbText
 10
31999.25740304
 20
-8726.27416805
 30
0.0
 40
12.5
  1
200
  7
ARIAL
 50
89.9999975
 41
1.0
 51
0.0
100
AcDbText
  0
LINE
  5
5FD
100
AcDbEntity
  8
Ech.1_5
 62
   190
370
    -2
100
AcDbLine
 10
31999.25740304
 20
-8612.01903061
 30
0.0
 11
32024.47665487
 21
-8612.01903061
 31
0.0
  0
LINE
  5
5FE
100
AcDbEntity
  8
Ech.1_5
 62
   190
370
    -2
100
AcDbLine
 10
31999.25740304
 20
-8812.01903061
 30
0.0
 11
32063.58291143
 21
-8812.01903061
 31
0.0
  0
LINE
  5
5FF
100
AcDbEntity
  8
Ech.1_5
 62
   190
370
    -2
100
AcDbLine
 10
32004.25740304
 20
-8607.01903061
 30
0.0
 11
32004.25740304
 21
-8817.01903061
 31
0.0
  0
LINE
  5
600
100
AcDbEntity
  8
Ech.1_5
 62
   190
370
    -2
100
AcDbLine
 10
32001.75740304
 20
-8609.51903061
 30
0.0
 11
32006.75740304
 21
-8614.51903061
 31
0.0
  0
LINE
  5
601
100
AcDbEntity
  8
Ech.1_5
 62
   190
370
    -2
100
AcDbLine
 10
32001.75740304
 20
-8809.51903061
 30
0.0
 11
32006.75740304
 21
-8814.51903061
 31
0.0
  0
ENDBLK
  5
602
100
AcDbEntity
100
AcDbBlockEnd
  0
BLOCK
  5
603
100
AcDbEntity
  8
Ech.1_5
100
AcDbBlockBegin
  2
*D5
 70
     1
 10
0.0
 20
0.0
 30
0.0
  3
*D5
  1

  4
Cadwork dimension
  0
TEXT
  5
604
100
AcDbEntity
  8
Ech.1_5
 62
   190
370
    18
100
AcDbText
 10
32305.51456772
 20
-8496.27416805
 30
0.0
 40
12.5
  1
min 200
  7
ARIAL
 50
89.9999975
 41
1.0
 51
0.0
100
AcDbText
  0
LINE
  5
605
100
AcDbEntity
  8
Ech.1_5
 62
   190
370
    -2
100
AcDbLine
 10
32315.51456772
 20
-8582.01903061
 30
0.0
 11
32292.38220587
 21
-8582.01903061
 31
0.0
  0
LINE
  5
606
100
AcDbEntity
  8
Ech.1_5
 62
   190
370
    -2
100
AcDbLine
 10
32315.51456772
 20
-8382.01903061
 30
0.0
 11
32292.38220587
 21
-8382.01903061
 31
0.0
  0
LINE
  5
607
100
AcDbEntity
  8
Ech.1_5
 62
   190
370
    -2
100
AcDbLine
 10
32310.51456772
 20
-8587.01903061
 30
0.0
 11
32310.51456772
 21
-8377.01903061
 31
0.0
  0
LINE
  5
608
100
AcDbEntity
  8
Ech.1_5
 62
   190
370
    -2
100
AcDbLine
 10
32313.01456772
 20
-8584.51903061
 30
0.0
 11
32308.01456772
 21
-8579.51903061
 31
0.0
  0
LINE
  5
609
100
AcDbEntity
  8
Ech.1_5
 62
   190
370
    -2
100
AcDbLine
 10
32313.01456772
 20
-8384.51903061
 30
0.0
 11
32308.01456772
 21
-8379.51903061
 31
0.0
  0
ENDBLK
  5
60A
100
AcDbEntity
100
AcDbBlockEnd
  0
ENDSEC
  0
SECTION
  2
ENTITIES
  0
INSERT
  5
60B
100
AcDbEntity
  8
Ech.1_5
 62
     0
100
AcDbBlockReference
  2
*X1
 10
0.0
 20
0.0
 30
0.0
  0
3DFACE
  5
60C
102
{ACAD_REACTORS
330
60D
102
}
100
AcDbEntity
  8
Ech.1_5
 62
     9
  6
CONTINUOUS
370
    -3
100
AcDbFace
 70
     0
 10
32137.38258602
 20
-8812.01903061
 30
2500.0
 11
31753.90000489
 21
-8812.01903061
 31
2500.0
 12
31753.90092485
 22
-8972.14000038
 32
2500.0
 13
32137.38258602
 23
-8972.14008144
 33
2500.0
  0
HATCH
  5
60D
100
AcDbEntity
  8
Ech.1_5
 62
     9
  6
CONTINUOUS
100
AcDbHatch
 10
0.0
 20
0.0
 30
0.0
210
0.0
220
0.0
230
1.0
  2
SSTNWSB
 70
     0
 71
     1
 91
        1
 92
        7
 72
     0
 73
     1
 93
        4
 10
32137.38258602
 20
-8812.01903061
 10
31753.90000489
 20
-8812.01903061
 10
31753.90092485
 20
-8972.14000038
 10
32137.38258602
 20
-8972.14008144
 97
        1
330
60C
 75
     0
 76
     2
 52
0.0
 41
1.0
 77
     0
 78
  1001
 53
90.0
 43
11.10000014
 44
80.02500057
 45
-111.17699862
 46
6.8076277746497E-15
 79
     2
 49
1.11150004
 49
-110.06549835
 53
45.0
 43
9.97500032
 44
78.90000343
 45
1.3322676295502E-14
 46
111.17734083
 79
     2
 49
1.57200001
 49
-155.655756
 53
26.56509972
 43
7.79999971
 44
77.85000086
 45
111.17732034
 46
111.17717285
 79
     2
 49
2.48624995
 49
-246.11400604
 53
0.0
 43
5.55000007
 44
77.85000086
 45
0.0
 46
111.17699862
 79
     2
 49
2.22374998
 49
-108.95399809
 53
296.56509399
 43
4.4249998
 44
80.02500057
 45
111.17716174
 46
-111.17733144
 79
     2
 49
2.48624995
 49
-246.11400604
 53
243.43499756
 43
5.55000007
 44
82.275002
 45
-0.0002413
 46
-111.17741453
 79
     2
 49
2.48624995
 49
-246.11400604
 53
206.56500244
 43
7.79999971
 44
83.39999914
 45
-111.17750909
 46
-111.17698409
 79
     2
 49
2.48624995
 49
-246.11400604
 53
180.0
 43
9.97500032
 44
83.39999914
 45
-1.3615255549299E-14
 46
-111.17699862
 79
     2
 49
2.22374998
 49
-108.95399809
 53
135.0
 43
11.10000014
 44
82.275002
 45
-111.17734083
 46
1.3322676295502E-14
 79
     2
 49
1.57200001
 49
-155.655756
 53
0.0
 43
95.625
 44
77.85000086
 45
0.0
 46
111.17699862
 79
     2
 49
3.33525002
 49
-107.84174681
 53
315.0
 43
94.50000286
 44
78.90000343
 45
111.17734083
 46
-2.6645352591004E-14
 79
     2
 49
1.57200001
 49
-155.655756
 53
270.0
 43
94.50000286
 44
80.02500057
 45
111.17699862
 46
-2.0422883323949E-14
 79
     2
 49
1.11150004
 49
-110.06549835
 53
225.0
 43
95.625
 44
81.14999771
 45
-1.9984014443253E-14
 46
-111.17734083
 79
     2
 49
1.57200001
 49
-155.655756
 53
225.0
 43
96.74999714
 44
82.275002
 45
-1.9984014443253E-14
 46
-111.17734083
 79
     2
 49
1.57200001
 49
-155.655756
 53
153.43499756
 43
98.92499685
 44
81.14999771
 45
-111.17741453
 46
0.0002413
 79
     2
 49
2.48624995
 49
-246.11400604
 53
135.0
 43
100.05000114
 44
80.02500057
 45
-111.17734083
 46
1.3322676295502E-14
 79
     2
 49
1.57200001
 49
-155.655756
 53
63.43489838
 43
98.92499685
 44
77.85000086
 45
0.00043375
 46
111.17741453
 79
     2
 49
2.48624995
 49
-246.11400604
 53
135.0
 43
60.0
 44
85.57499886
 45
-111.17734083
 46
1.3322676295502E-14
 79
     2
 49
1.57200001
 49
-155.655756
 53
180.0
 43
61.12499714
 44
85.57499886
 45
-1.3615255549299E-14
 46
-111.17699862
 79
     2
 49
1.11150004
 49
-110.06549835
 53
161.56500244
 43
64.50000286
 44
84.52500343
 45
-111.17690461
 46
0.0003298
 79
     2
 49
3.51600006
 49
-348.05774689
 53
225.0
 43
65.625
 44
85.57499886
 45
-1.9984014443253E-14
 46
-111.17734083
 79
     2
 49
1.57200001
 49
-155.655756
 53
270.0
 43
65.625
 44
87.82500029
 45
111.17699862
 46
-2.0422883323949E-14
 79
     2
 49
2.22374998
 49
-108.95399809
 53
333.43490601
 43
63.37499857
 44
88.94999743
 45
111.17741453
 46
-0.00041895
 79
     2
 49
2.48624995
 49
-246.11400604
 53
0.0
 43
60.0
 44
88.94999743
 45
0.0
 46
111.17699862
 79
     2
 49
3.33525002
 49
-107.84174681
 53
45.0
 43
58.950001
 44
87.82500029
 45
1.3322676295502E-14
 46
111.17734083
 79
     2
 49
1.57200001
 49
-155.655756
 53
0.0
 43
105.59999943
 44
65.625
 45
0.0
 46
111.17699862
 79
     2
 49
4.44674984
 49
-106.73024654
 53
180.0
 43
104.47500229
 44
58.950001
 45
-1.3615255549299E-14
 46
-111.17699862
 79
     2
 49
2.22374998
 49
-108.95399809
 53
180.0
 43
108.974998
 44
44.47499871
 45
-1.3615255549299E-14
 46
-111.17699862
 79
     2
 49
1.11150004
 49
-110.06549835
 53
26.56509972
 43
108.974998
 44
44.47499871
 45
111.17732034
 46
111.17717285
 79
     2
 49
2.48624995
 49
-246.11400604
 53
296.56509399
 43
4.4249998
 44
88.94999743
 45
111.17716174
 46
-111.17733144
 79
     2
 49
2.48624995
 49
-246.11400604
 53
270.0
 43
4.4249998
 44
91.19999886
 45
111.17699862
 46
-2.0422883323949E-14
 79
     2
 49
2.22374998
 49
-108.95399809
 53
63.43489838
 43
3.29999998
 44
88.94999743
 45
0.00043375
 46
111.17741453
 79
     2
 49
2.48624995
 49
-246.11400604
 53
26.56509972
 43
71.17499828
 44
106.72499657
 45
111.17732034
 46
111.17717285
 79
     2
 49
2.48624995
 49
-246.11400604
 53
168.69009399
 43
65.625
 44
105.59999943
 45
-111.1775506
 46
-0.00034628
 79
     2
 49
5.66925019
 49
-561.2257576
 53
26.56509972
 43
91.19999886
 44
97.79999971
 45
111.17732034
 46
111.17717285
 79
     2
 49
2.48624995
 49
-246.11400604
 53
26.56509972
 43
93.37499857
 44
98.92499685
 45
111.17732034
 46
111.17717285
 79
     2
 49
2.48624995
 49
-246.11400604
 53
26.56509972
 43
95.625
 44
100.05000114
 45
111.17732034
 46
111.17717285
 79
     2
 49
2.48624995
 49
-246.11400604
 53
0.0
 43
97.79999971
 44
101.17499828
 45
0.0
 46
111.17699862
 79
     2
 49
2.22374998
 49
-108.95399809
 53
315.0
 43
100.05000114
 44
101.17499828
 45
111.17734083
 46
-2.6645352591004E-14
 79
     2
 49
1.57200001
 49
-155.655756
 53
270.0
 43
101.17499828
 44
100.05000114
 45
111.17699862
 46
-2.0422883323949E-14
 79
     2
 49
2.22374998
 49
-108.95399809
 53
243.43499756
 43
101.17499828
 44
97.79999971
 45
-0.0002413
 46
-111.17741453
 79
     2
 49
2.48624995
 49
-246.11400604
 53
225.0
 43
100.05000114
 44
95.625
 45
-1.9984014443253E-14
 46
-111.17734083
 79
     2
 49
1.57200001
 49
-155.655756
 53
194.03619385
 43
98.92499685
 44
94.50000286
 45
-333.53127033
 46
-111.17713245
 79
     2
 49
4.58399981
 49
-453.81151199
 53
161.56500244
 43
94.50000286
 44
93.37499857
 45
-111.17690461
 46
0.0003298
 79
     2
 49
3.51600006
 49
-348.05774689
 53
135.0
 43
91.19999886
 44
94.50000286
 45
-111.17734083
 46
1.3322676295502E-14
 79
     2
 49
1.57200001
 49
-155.655756
 53
90.0
 43
90.07500172
 44
95.625
 45
-111.17699862
 46
6.8076277746497E-15
 79
     2
 49
1.11150004
 49
-110.06549835
 53
45.0
 43
90.07500172
 44
96.74999714
 45
1.3322676295502E-14
 46
111.17734083
 79
     2
 49
1.57200001
 49
-155.655756
 53
165.96380615
 43
63.37499857
 44
61.12499714
 45
-111.17705397
 46
-0.00046058
 79
     2
 49
4.58399981
 49
-453.81151199
 53
18.43490028
 43
81.14999771
 44
36.674999
 45
222.35461589
 46
111.1767185
 79
     2
 49
3.51600006
 49
-348.05774689
 53
0.0
 43
84.52500343
 44
37.79999971
 45
0.0
 46
111.17699862
 79
     2
 49
3.33525002
 49
-107.84174681
 53
341.56509399
 43
87.82500029
 44
37.79999971
 45
111.17690461
 46
-0.00015215
 79
     2
 49
3.51600006
 49
-348.05774689
 53
341.56509399
 43
91.19999886
 44
36.674999
 45
111.17690461
 46
-0.00015215
 79
     2
 49
3.51600006
 49
-348.05774689
 53
296.56509399
 43
94.50000286
 44
35.54999828
 45
111.17716174
 46
-111.17733144
 79
     2
 49
2.48624995
 49
-246.11400604
 53
270.0
 43
95.625
 44
33.37499857
 45
111.17699862
 46
-2.0422883323949E-14
 79
     2
 49
4.44674984
 49
-106.73024654
 53
225.0
 43
95.625
 44
28.87499928
 45
-1.9984014443253E-14
 46
-111.17734083
 79
     2
 49
1.57200001
 49
-155.655756
 53
206.56500244
 43
94.50000286
 44
27.82500029
 45
-111.17750909
 46
-111.17698409
 79
     2
 49
2.48624995
 49
-246.11400604
 53
180.0
 43
92.25000143
 44
26.69999957
 45
-1.3615255549299E-14
 46
-111.17699862
 79
     2
 49
8.8942498
 49
-102.28275061
 53
153.43499756
 43
83.39999914
 44
26.69999957
 45
-111.17741453
 46
0.0002413
 79
     2
 49
2.48624995
 49
-246.11400604
 53
135.0
 43
81.14999771
 44
27.82500029
 45
-111.17734083
 46
1.3322676295502E-14
 79
     2
 49
3.14474992
 49
-154.08375263
 53
116.56500244
 43
78.90000343
 44
30.0
 45
-111.17698409
 46
111.17750909
 79
     2
 49
2.48624995
 49
-246.11400604
 53
90.0
 43
77.85000086
 44
32.25000143
 45
-111.17699862
 46
6.8076277746497E-15
 79
     2
 49
1.11150004
 49
-110.06549835
 53
63.43489838
 43
77.85000086
 44
33.37499857
 45
0.00043375
 46
111.17741453
 79
     2
 49
2.48624995
 49
-246.11400604
 53
26.56509972
 43
78.90000343
 44
35.54999828
 45
111.17732034
 46
111.17717285
 79
     2
 49
2.48624995
 49
-246.11400604
 53
45.0
 43
2.25000009
 44
52.27499843
 45
1.3322676295502E-14
 46
111.17734083
 79
     2
 49
3.14474992
 49
-154.08375263
 53
0.0
 43
4.4249998
 44
54.45000172
 45
0.0
 46
111.17699862
 79
     2
 49
2.22374998
 49
-108.95399809
 53
0.0
 43
6.67499989
 44
54.45000172
 45
0.0
 46
111.17699862
 79
     2
 49
3.33525002
 49
-107.84174681
 53
315.0
 43
9.97500032
 44
54.45000172
 45
111.17734083
 46
-2.6645352591004E-14
 79
     2
 49
3.14474992
 49
-154.08375263
 53
270.0
 43
12.22499996
 44
52.27499843
 45
111.17699862
 46
-2.0422883323949E-14
 79
     2
 49
2.22374998
 49
-108.95399809
 53
225.0
 43
12.22499996
 44
50.02500057
 45
-1.9984014443253E-14
 46
-111.17734083
 79
     2
 49
3.14474992
 49
-154.08375263
 53
206.56500244
 43
9.97500032
 44
47.77499914
 45
-111.17750909
 46
-111.17698409
 79
     2
 49
2.48624995
 49
-246.11400604
 53
180.0
 43
7.79999971
 44
46.72500014
 45
-1.3615255549299E-14
 46
-111.17699862
 79
     2
 49
4.44674984
 49
-106.73024654
 53
153.43499756
 43
3.29999998
 44
46.72500014
 45
-111.17741453
 46
0.0002413
 79
     2
 49
2.48624995
 49
-246.11400604
 53
206.56500244
 43
103.42499971
 44
53.39999914
 45
-111.17750909
 46
-111.17698409
 79
     2
 49
2.48624995
 49
-246.11400604
 53
270.0
 43
101.17499828
 44
52.27499843
 45
111.17699862
 46
-2.0422883323949E-14
 79
     2
 49
2.22374998
 49
-108.95399809
 53
315.0
 43
101.17499828
 44
50.02500057
 45
111.17734083
 46
-2.6645352591004E-14
 79
     2
 49
1.57200001
 49
-155.655756
 53
333.43490601
 43
102.30000257
 44
48.89999986
 45
111.17741453
 46
-0.00041895
 79
     2
 49
2.48624995
 49
-246.11400604
 53
315.0
 43
104.47500229
 44
47.77499914
 45
111.17734083
 46
-2.6645352591004E-14
 79
     2
 49
1.57200001
 49
-155.655756
 53
315.0
 43
105.59999943
 44
46.72500014
 45
111.17734083
 46
-2.6645352591004E-14
 79
     2
 49
3.14474992
 49
-154.08375263
 53
45.0
 43
0.0
 44
45.59999943
 45
1.3322676295502E-14
 46
111.17734083
 79
     2
 49
1.57200001
 49
-155.655756
 53
90.0
 43
1.12500004
 44
46.72500014
 45
-111.17699862
 46
6.8076277746497E-15
 79
     2
 49
2.22374998
 49
-108.95399809
 53
63.43489838
 43
1.12500004
 44
48.89999986
 45
0.00043375
 46
111.17741453
 79
     2
 49
2.48624995
 49
-246.11400604
 53
90.0
 43
2.25000009
 44
51.15000129
 45
-111.17699862
 46
6.8076277746497E-15
 79
     2
 49
1.11150004
 49
-110.06549835
 53
135.0
 43
2.25000009
 44
52.27499843
 45
-111.17734083
 46
1.3322676295502E-14
 79
     2
 49
1.57200001
 49
-155.655756
 53
180.0
 43
1.12500004
 44
53.39999914
 45
-1.3615255549299E-14
 46
-111.17699862
 79
     2
 49
1.11150004
 49
-110.06549835
 53
180.0
 43
111.14999771
 44
53.39999914
 45
-1.3615255549299E-14
 46
-111.17699862
 79
     2
 49
4.44674984
 49
-106.73024654
 53
0.0
 43
110.10000229
 44
60.0
 45
0.0
 46
111.17699862
 79
     2
 49
1.11150004
 49
-110.06549835
 53
0.0
 43
0.0
 44
60.0
 45
0.0
 46
111.17699862
 79
     2
 49
5.55899978
 49
-105.61800241
 53
26.56509972
 43
5.55000007
 44
60.0
 45
111.17732034
 46
111.17717285
 79
     2
 49
2.48624995
 49
-246.11400604
 53
90.0
 43
7.79999971
 44
61.12499714
 45
-111.17699862
 46
6.8076277746497E-15
 79
     2
 49
1.11150004
 49
-110.06549835
 53
90.0
 43
7.79999971
 44
62.25000143
 45
-111.17699862
 46
6.8076277746497E-15
 79
     2
 49
1.11150004
 49
-110.06549835
 53
135.0
 43
7.79999971
 44
63.37499857
 45
-111.17734083
 46
1.3322676295502E-14
 79
     2
 49
1.57200001
 49
-155.655756
 53
153.43499756
 43
6.67499989
 44
64.50000286
 45
-111.17741453
 46
0.0002413
 79
     2
 49
2.48624995
 49
-246.11400604
 53
180.0
 43
4.4249998
 44
65.625
 45
-1.3615255549299E-14
 46
-111.17699862
 79
     2
 49
4.44674984
 49
-106.73024654
 53
180.0
 43
111.14999771
 44
65.625
 45
-1.3615255549299E-14
 46
-111.17699862
 79
     2
 49
1.11150004
 49
-110.06549835
 53
194.03619385
 43
110.10000229
 44
65.625
 45
-333.53127033
 46
-111.17713245
 79
     2
 49
4.58399981
 49
-453.81151199
 53
206.56500244
 43
105.59999943
 44
64.50000286
 45
-111.17750909
 46
-111.17698409
 79
     2
 49
2.48624995
 49
-246.11400604
 53
270.0
 43
103.42499971
 44
63.37499857
 45
111.17699862
 46
-2.0422883323949E-14
 79
     2
 49
1.11150004
 49
-110.06549835
 53
270.0
 43
103.42499971
 44
62.25000143
 45
111.17699862
 46
-2.0422883323949E-14
 79
     2
 49
1.11150004
 49
-110.06549835
 53
315.0
 43
103.42499971
 44
61.12499714
 45
111.17734083
 46
-2.6645352591004E-14
 79
     2
 49
1.57200001
 49
-155.655756
 53
0.0
 43
104.47500229
 44
60.0
 45
0.0
 46
111.17699862
 79
     2
 49
2.22374998
 49
-108.95399809
 53
0.0
 43
106.72499657
 44
60.0
 45
0.0
 46
111.17699862
 79
     2
 49
3.33525002
 49
-107.84174681
 53
194.03619385
 43
9.97500032
 44
55.57499886
 45
-333.53127033
 46
-111.17713245
 79
     2
 49
4.58399981
 49
-453.81151199
 53
180.0
 43
5.55000007
 44
54.45000172
 45
-1.3615255549299E-14
 46
-111.17699862
 79
     2
 49
5.55899978
 49
-105.61800241
 53
194.03619385
 43
111.14999771
 44
54.45000172
 45
-333.53127033
 46
-111.17713245
 79
     2
 49
4.58399981
 49
-453.81151199
 53
180.0
 43
106.72499657
 44
53.39999914
 45
-1.3615255549299E-14
 46
-111.17699862
 79
     2
 49
3.33525002
 49
-107.84174681
 53
153.43499756
 43
103.42499971
 44
53.39999914
 45
-111.17741453
 46
0.0002413
 79
     2
 49
2.48624995
 49
-246.11400604
 53
135.0
 43
101.17499828
 44
54.45000172
 45
-111.17734083
 46
1.3322676295502E-14
 79
     2
 49
1.57200001
 49
-155.655756
 53
90.0
 43
100.05000114
 44
55.57499886
 45
-111.17699862
 46
6.8076277746497E-15
 79
     2
 49
1.11150004
 49
-110.06549835
 53
90.0
 43
100.05000114
 44
56.69999957
 45
-111.17699862
 46
6.8076277746497E-15
 79
     2
 49
1.11150004
 49
-110.06549835
 53
11.30990028
 43
104.47500229
 44
58.950001
 45
444.70880427
 46
111.17730356
 79
     2
 49
5.66925019
 49
-561.2257576
 53
0.0
 43
110.10000229
 44
60.0
 45
0.0
 46
111.17699862
 79
     2
 49
1.11150004
 49
-110.06549835
 53
0.0
 43
0.0
 44
60.0
 45
0.0
 46
111.17699862
 79
     2
 49
3.33525002
 49
-107.84174681
 53
0.0
 43
3.29999998
 44
60.0
 45
0.0
 46
111.17699862
 79
     2
 49
4.44674984
 49
-106.73024654
 53
333.43490601
 43
7.79999971
 44
60.0
 45
111.17741453
 46
-0.00041895
 79
     2
 49
2.48624995
 49
-246.11400604
 53
315.0
 43
9.97500032
 44
58.950001
 45
111.17734083
 46
-2.6645352591004E-14
 79
     2
 49
1.57200001
 49
-155.655756
 53
270.0
 43
11.10000014
 44
57.82500029
 45
111.17699862
 46
-2.0422883323949E-14
 79
     2
 49
1.11150004
 49
-110.06549835
 53
225.0
 43
11.10000014
 44
56.69999957
 45
-1.9984014443253E-14
 46
-111.17734083
 79
     2
 49
1.57200001
 49
-155.655756
 53
333.43490601
 43
8.92500043
 44
71.17499828
 45
111.17741453
 46
-0.00041895
 79
     2
 49
2.48624995
 49
-246.11400604
 53
315.0
 43
11.10000014
 44
70.05000114
 45
111.17734083
 46
-2.6645352591004E-14
 79
     2
 49
1.57200001
 49
-155.655756
 53
296.56509399
 43
12.22499996
 44
68.92499685
 45
111.17716174
 46
-111.17733144
 79
     2
 49
2.48624995
 49
-246.11400604
 53
270.0
 43
13.34999979
 44
66.67500257
 45
111.17699862
 46
-2.0422883323949E-14
 79
     2
 49
2.22374998
 49
-108.95399809
 53
225.0
 43
13.34999979
 44
64.50000286
 45
-1.9984014443253E-14
 46
-111.17734083
 79
     2
 49
1.57200001
 49
-155.655756
 53
180.0
 43
12.22499996
 44
63.37499857
 45
-1.3615255549299E-14
 46
-111.17699862
 79
     2
 49
2.22374998
 49
-108.95399809
 53
161.56500244
 43
9.97500032
 44
63.37499857
 45
-111.17690461
 46
0.0003298
 79
     2
 49
3.51600006
 49
-348.05774689
 53
146.30990601
 43
6.67499989
 44
64.50000286
 45
-222.35437318
 46
111.17762842
 79
     2
 49
4.00875002
 49
-396.84674263
 53
90.0
 43
3.29999998
 44
66.67500257
 45
-111.17699862
 46
6.8076277746497E-15
 79
     2
 49
1.11150004
 49
-110.06549835
 53
90.0
 43
3.29999998
 44
67.79999971
 45
-111.17699862
 46
6.8076277746497E-15
 79
     2
 49
2.22374998
 49
-108.95399809
 53
45.0
 43
3.29999998
 44
70.05000114
 45
1.3322676295502E-14
 46
111.17734083
 79
     2
 49
3.14474992
 49
-154.08375263
 53
0.0
 43
7.79999971
 44
77.85000086
 45
0.0
 46
111.17699862
 79
     2
 49
4.44674984
 49
-106.73024654
 53
345.9637146
 43
12.22499996
 44
77.85000086
 45
111.17705397
 46
0.00028293
 79
     2
 49
4.58399981
 49
-453.81151199
 53
326.30990601
 43
16.65000021
 44
76.72499657
 45
222.35437318
 46
-111.17762842
 79
     2
 49
4.00875002
 49
-396.84674263
 53
270.0
 43
20.02500057
 44
74.47500229
 45
111.17699862
 46
-2.0422883323949E-14
 79
     2
 49
2.22374998
 49
-108.95399809
 53
225.0
 43
20.02500057
 44
72.30000257
 45
-1.9984014443253E-14
 46
-111.17734083
 79
     2
 49
1.57200001
 49
-155.655756
 53
198.43499756
 43
18.89999986
 44
71.17499828
 45
-222.35442714
 46
-111.17709601
 79
     2
 49
3.51600006
 49
-348.05774689
 53
180.0
 43
15.59999943
 44
70.05000114
 45
-1.3615255549299E-14
 46
-111.17699862
 79
     2
 49
3.33525002
 49
-107.84174681
 53
161.56500244
 43
12.22499996
 44
70.05000114
 45
-111.17690461
 46
0.0003298
 79
     2
 49
3.51600006
 49
-348.05774689
 53
161.56500244
 43
8.92500043
 44
71.17499828
 45
-111.17690461
 46
0.0003298
 79
     2
 49
3.51600006
 49
-348.05774689
 53
135.0
 43
5.55000007
 44
72.30000257
 45
-111.17734083
 46
1.3322676295502E-14
 79
     2
 49
1.57200001
 49
-155.655756
 53
71.56500244
 43
4.4249998
 44
73.349998
 45
0.0003298
 46
111.17690461
 79
     2
 49
3.51600006
 49
-348.05774689
 53
26.56509972
 43
5.55000007
 44
76.72499657
 45
111.17732034
 46
111.17717285
 79
     2
 49
2.48624995
 49
-246.11400604
 53
26.56509972
 43
64.50000286
 44
2.25000009
 45
111.17732034
 46
111.17717285
 79
     2
 49
2.48624995
 49
-246.11400604
 53
18.43490028
 43
66.67500257
 44
3.29999998
 45
222.35461589
 46
111.1767185
 79
     2
 49
3.51600006
 49
-348.05774689
 53
0.0
 43
70.05000114
 44
4.4249998
 45
0.0
 46
111.17699862
 79
     2
 49
3.33525002
 49
-107.84174681
 53
345.9637146
 43
73.349998
 44
4.4249998
 45
111.17705397
 46
0.00028293
 79
     2
 49
4.58399981
 49
-453.81151199
 53
315.0
 43
77.85000086
 44
3.29999998
 45
111.17734083
 46
-2.6645352591004E-14
 79
     2
 49
1.57200001
 49
-155.655756
 53
270.0
 43
78.90000343
 44
2.25000009
 45
111.17699862
 46
-2.0422883323949E-14
 79
     2
 49
1.11150004
 49
-110.06549835
 53
225.0
 43
78.90000343
 44
1.12500004
 45
-1.9984014443253E-14
 46
-111.17734083
 79
     2
 49
1.57200001
 49
-155.655756
 53
198.43499756
 43
77.85000086
 44
111.14999771
 45
-222.35442714
 46
-111.17709601
 79
     2
 49
3.51600006
 49
-348.05774689
 53
180.0
 43
74.47500229
 44
110.10000229
 45
-1.3615255549299E-14
 46
-111.17699862
 79
     2
 49
3.33525002
 49
-107.84174681
 53
165.96380615
 43
71.17499828
 44
110.10000229
 45
-111.17705397
 46
-0.00046058
 79
     2
 49
4.58399981
 49
-453.81151199
 53
153.43499756
 43
66.67500257
 44
0.0
 45
-111.17741453
 46
0.0002413
 79
     2
 49
2.48624995
 49
-246.11400604
 53
90.0
 43
64.50000286
 44
1.12500004
 45
-111.17699862
 46
6.8076277746497E-15
 79
     2
 49
1.11150004
 49
-110.06549835
 53
270.0
 43
54.45000172
 44
4.4249998
 45
111.17699862
 46
-2.0422883323949E-14
 79
     2
 49
1.11150004
 49
-110.06549835
 53
315.0
 43
54.45000172
 44
3.29999998
 45
111.17734083
 46
-2.6645352591004E-14
 79
     2
 49
3.14474992
 49
-154.08375263
 53
333.43490601
 43
56.69999957
 44
1.12500004
 45
111.17741453
 46
-0.00041895
 79
     2
 49
2.48624995
 49
-246.11400604
 53
26.56509972
 43
61.12499714
 44
0.0
 45
111.17732034
 46
111.17717285
 79
     2
 49
2.48624995
 49
-246.11400604
 53
45.0
 43
63.37499857
 44
1.12500004
 45
1.3322676295502E-14
 46
111.17734083
 79
     2
 49
1.57200001
 49
-155.655756
 53
90.0
 43
64.50000286
 44
2.25000009
 45
-111.17699862
 46
6.8076277746497E-15
 79
     2
 49
1.11150004
 49
-110.06549835
 53
135.0
 43
64.50000286
 44
3.29999998
 45
-111.17734083
 46
1.3322676295502E-14
 79
     2
 49
1.57200001
 49
-155.655756
 53
153.43499756
 43
63.37499857
 44
4.4249998
 45
-111.17741453
 46
0.0002413
 79
     2
 49
2.48624995
 49
-246.11400604
 53
180.0
 43
62.25000143
 44
5.55000007
 45
-1.3615255549299E-14
 46
-111.17699862
 79
     2
 49
4.44674984
 49
-106.73024654
 53
198.43499756
 43
57.82500029
 44
5.55000007
 45
-222.35442714
 46
-111.17709601
 79
     2
 49
3.51600006
 49
-348.05774689
 53
180.0
 43
54.45000172
 44
4.4249998
 45
-1.3615255549299E-14
 46
-111.17699862
 79
     2
 49
2.22374998
 49
-108.95399809
 53
153.43499756
 43
52.27499843
 44
4.4249998
 45
-111.17741453
 46
0.0002413
 79
     2
 49
2.48624995
 49
-246.11400604
 53
161.56500244
 43
50.02500057
 44
5.55000007
 45
-111.17690461
 46
0.0003298
 79
     2
 49
3.51600006
 49
-348.05774689
 53
116.56500244
 43
46.72500014
 44
6.67499989
 45
-111.17698409
 46
111.17750909
 79
     2
 49
2.48624995
 49
-246.11400604
 53
90.0
 43
45.59999943
 44
8.92500043
 45
-111.17699862
 46
6.8076277746497E-15
 79
     2
 49
2.22374998
 49
-108.95399809
 53
45.0
 43
45.59999943
 44
11.10000014
 45
1.3322676295502E-14
 46
111.17734083
 79
     2
 49
3.14474992
 49
-154.08375263
 53
0.0
 43
47.77499914
 44
13.34999979
 45
0.0
 46
111.17699862
 79
     2
 49
2.22374998
 49
-108.95399809
 53
9.4623003
 43
50.02500057
 44
13.34999979
 45
555.88628029
 46
111.17710938
 79
     2
 49
6.76275015
 49
-669.50174332
 53
0.0
 43
56.69999957
 44
14.47499961
 45
0.0
 46
111.17699862
 79
     2
 49
3.33525002
 49
-107.84174681
 53
341.56509399
 43
60.0
 44
14.47499961
 45
111.17690461
 46
-0.00015215
 79
     2
 49
3.51600006
 49
-348.05774689
 53
333.43490601
 43
63.37499857
 44
13.34999979
 45
111.17741453
 46
-0.00041895
 79
     2
 49
2.48624995
 49
-246.11400604
 53
296.56509399
 43
65.625
 44
12.22499996
 45
111.17716174
 46
-111.17733144
 79
     2
 49
2.48624995
 49
-246.11400604
 53
270.0
 43
66.67500257
 44
9.97500032
 45
111.17699862
 46
-2.0422883323949E-14
 79
     2
 49
1.11150004
 49
-110.06549835
 53
243.43499756
 43
66.67500257
 44
8.92500043
 45
-0.0002413
 46
-111.17741453
 79
     2
 49
2.48624995
 49
-246.11400604
 53
198.43499756
 43
65.625
 44
6.67499989
 45
-222.35442714
 46
-111.17709601
 79
     2
 49
3.51600006
 49
-348.05774689
 53
180.0
 43
34.49999928
 44
15.59999943
 45
-1.3615255549299E-14
 46
-111.17699862
 79
     2
 49
3.33525002
 49
-107.84174681
 53
165.96380615
 43
31.12500072
 44
15.59999943
 45
-111.17705397
 46
-0.00046058
 79
     2
 49
4.58399981
 49
-453.81151199
 53
135.0
 43
26.69999957
 44
16.65000021
 45
-111.17734083
 46
1.3322676295502E-14
 79
     2
 49
1.57200001
 49
-155.655756
 53
90.0
 43
25.57500064
 44
17.77499914
 45
-111.17699862
 46
6.8076277746497E-15
 79
     2
 49
1.11150004
 49
-110.06549835
 53
63.43489838
 43
25.57500064
 44
18.89999986
 45
0.00043375
 46
111.17741453
 79
     2
 49
2.48624995
 49
-246.11400604
 53
45.0
 43
26.69999957
 44
21.1499995
 45
1.3322676295502E-14
 46
111.17734083
 79
     2
 49
3.14474992
 49
-154.08375263
 53
26.56509972
 43
28.87499928
 44
23.32499921
 45
111.17732034
 46
111.17717285
 79
     2
 49
2.48624995
 49
-246.11400604
 53
0.0
 43
31.12500072
 44
24.44999993
 45
0.0
 46
111.17699862
 79
     2
 49
2.22374998
 49
-108.95399809
 53
315.0
 43
33.37499857
 44
24.44999993
 45
111.17734083
 46
-2.6645352591004E-14
 79
     2
 49
3.14474992
 49
-154.08375263
 53
288.43490601
 43
35.54999828
 44
22.20000029
 45
111.17674071
 46
-222.35460479
 79
     2
 49
3.51600006
 49
-348.05774689
 53
270.0
 43
36.674999
 44
18.89999986
 45
111.17699862
 46
-2.0422883323949E-14
 79
     2
 49
2.22374998
 49
-108.95399809
 53
206.56500244
 43
36.674999
 44
16.65000021
 45
-111.17750909
 46
-111.17698409
 79
     2
 49
2.48624995
 49
-246.11400604
 53
135.0
 43
36.674999
 44
43.35000157
 45
-111.17734083
 46
1.3322676295502E-14
 79
     2
 49
1.57200001
 49
-155.655756
 53
90.0
 43
35.54999828
 44
44.47499871
 45
-111.17699862
 46
6.8076277746497E-15
 79
     2
 49
1.11150004
 49
-110.06549835
 53
63.43489838
 43
35.54999828
 44
45.59999943
 45
0.00043375
 46
111.17741453
 79
     2
 49
2.48624995
 49
-246.11400604
 53
63.43489838
 43
36.674999
 44
47.77499914
 45
0.00043375
 46
111.17741453
 79
     2
 49
2.48624995
 49
-246.11400604
 53
26.56509972
 43
37.79999971
 44
50.02500057
 45
111.17732034
 46
111.17717285
 79
     2
 49
2.48624995
 49
-246.11400604
 53
341.56509399
 43
40.05000114
 44
51.15000129
 45
111.17690461
 46
-0.00015215
 79
     2
 49
3.51600006
 49
-348.05774689
 53
315.0
 43
43.35000157
 44
50.02500057
 45
111.17734083
 46
-2.6645352591004E-14
 79
     2
 49
3.14474992
 49
-154.08375263
 53
270.0
 43
45.59999943
 44
47.77499914
 45
111.17699862
 46
-2.0422883323949E-14
 79
     2
 49
2.22374998
 49
-108.95399809
 53
213.69009399
 43
45.59999943
 44
45.59999943
 45
-111.1774674
 46
-111.17715452
 79
     2
 49
4.00875002
 49
-396.84674263
 53
206.56500244
 43
42.22500086
 44
43.35000157
 45
-111.17750909
 46
-111.17698409
 79
     2
 49
2.48624995
 49
-246.11400604
 53
116.56500244
 43
21.1499995
 44
40.05000114
 45
-111.17698409
 46
111.17750909
 79
     2
 49
2.48624995
 49
-246.11400604
 53
135.0
 43
20.02500057
 44
42.22500086
 45
-111.17734083
 46
1.3322676295502E-14
 79
     2
 49
1.57200001
 49
-155.655756
 53
180.0
 43
18.89999986
 44
43.35000157
 45
-1.3615255549299E-14
 46
-111.17699862
 79
     2
 49
2.22374998
 49
-108.95399809
 53
206.56500244
 43
16.65000021
 44
43.35000157
 45
-111.17750909
 46
-111.17698409
 79
     2
 49
2.48624995
 49
-246.11400604
 53
243.43499756
 43
14.47499961
 44
42.22500086
 45
-0.0002413
 46
-111.17741453
 79
     2
 49
2.48624995
 49
-246.11400604
 53
270.0
 43
13.34999979
 44
40.05000114
 45
111.17699862
 46
-2.0422883323949E-14
 79
     2
 49
2.22374998
 49
-108.95399809
 53
315.0
 43
13.34999979
 44
37.79999971
 45
111.17734083
 46
-2.6645352591004E-14
 79
     2
 49
1.57200001
 49
-155.655756
 53
333.43490601
 43
14.47499961
 44
36.674999
 45
111.17741453
 46
-0.00041895
 79
     2
 49
2.48624995
 49
-246.11400604
 53
0.0
 43
16.65000021
 44
35.54999828
 45
0.0
 46
111.17699862
 79
     2
 49
2.22374998
 49
-108.95399809
 53
45.0
 43
18.89999986
 44
35.54999828
 45
1.3322676295502E-14
 46
111.17734083
 79
     2
 49
1.57200001
 49
-155.655756
 53
153.43499756
 43
23.32499921
 44
33.37499857
 45
-111.17741453
 46
0.0002413
 79
     2
 49
2.48624995
 49
-246.11400604
 53
116.56500244
 43
21.1499995
 44
34.49999928
 45
-111.17698409
 46
111.17750909
 79
     2
 49
2.48624995
 49
-246.11400604
 53
71.56500244
 43
20.02500057
 44
36.674999
 45
0.0003298
 46
111.17690461
 79
     2
 49
3.51600006
 49
-348.05774689
 53
45.0
 43
21.1499995
 44
40.05000114
 45
1.3322676295502E-14
 46
111.17734083
 79
     2
 49
3.14474992
 49
-154.08375263
 53
0.0
 43
23.32499921
 44
42.22500086
 45
0.0
 46
111.17699862
 79
     2
 49
4.44674984
 49
-106.73024654
 53
315.0
 43
27.82500029
 44
42.22500086
 45
111.17734083
 46
-2.6645352591004E-14
 79
     2
 49
3.14474992
 49
-154.08375263
 53
243.43499756
 43
30.0
 44
40.05000114
 45
-0.0002413
 46
-111.17741453
 79
     2
 49
2.48624995
 49
-246.11400604
 53
225.0
 43
28.87499928
 44
37.79999971
 45
-1.9984014443253E-14
 46
-111.17734083
 79
     2
 49
3.14474992
 49
-154.08375263
 53
213.69009399
 43
26.69999957
 44
35.54999828
 45
-111.1774674
 46
-111.17715452
 79
     2
 49
4.00875002
 49
-396.84674263
 53
146.30990601
 43
30.0
 44
25.57500064
 45
-222.35437318
 46
111.17762842
 79
     2
 49
4.00875002
 49
-396.84674263
 53
108.43499756
 43
26.69999957
 44
27.82500029
 45
-111.17709601
 46
222.35442714
 79
     2
 49
3.51600006
 49
-348.05774689
 53
71.56500244
 43
25.57500064
 44
31.12500072
 45
0.0003298
 46
111.17690461
 79
     2
 49
3.51600006
 49
-348.05774689
 53
56.30989838
 43
26.69999957
 44
34.49999928
 45
111.17765803
 46
222.35435837
 79
     2
 49
4.00875002
 49
-396.84674263
 53
56.30989838
 43
28.87499928
 44
37.79999971
 45
111.17765803
 46
222.35435837
 79
     2
 49
4.00875002
 49
-396.84674263
 53
26.56509972
 43
31.12500072
 44
41.10000014
 45
111.17732034
 46
111.17717285
 79
     2
 49
2.48624995
 49
-246.11400604
 53
18.43490028
 43
33.37499857
 44
42.22500086
 45
222.35461589
 46
111.1767185
 79
     2
 49
3.51600006
 49
-348.05774689
 53
341.56509399
 43
36.674999
 44
43.35000157
 45
111.17690461
 46
-0.00015215
 79
     2
 49
3.51600006
 49
-348.05774689
 53
303.69009399
 43
40.05000114
 44
42.22500086
 45
111.17715452
 46
-111.1774674
 79
     2
 49
4.00875002
 49
-396.84674263
 53
270.0
 43
42.22500086
 44
38.92500043
 45
111.17699862
 46
-2.0422883323949E-14
 79
     2
 49
3.33525002
 49
-107.84174681
 53
243.43499756
 43
42.22500086
 44
35.54999828
 45
-0.0002413
 46
-111.17741453
 79
     2
 49
2.48624995
 49
-246.11400604
 53
231.3401947
 43
41.10000014
 44
33.37499857
 45
-333.53149924
 46
-444.70918113
 79
     2
 49
7.11899981
 49
-704.76224899
 53
213.69009399
 43
36.674999
 44
27.82500029
 45
-111.1774674
 46
-111.17715452
 79
     2
 49
4.00875002
 49
-396.84674263
 53
180.0
 43
33.37499857
 44
25.57500064
 45
-1.3615255549299E-14
 46
-111.17699862
 79
     2
 49
2.22374998
 49
-108.95399809
 53
180.0
 43
31.12500072
 44
25.57500064
 45
-1.3615255549299E-14
 46
-111.17699862
 79
     2
 49
1.11150004
 49
-110.06549835
 53
0.0
 43
32.25000143
 44
53.39999914
 45
0.0
 46
111.17699862
 79
     2
 49
2.22374998
 49
-108.95399809
 53
333.43490601
 43
34.49999928
 44
53.39999914
 45
111.17741453
 46
-0.00041895
 79
     2
 49
2.48624995
 49
-246.11400604
 53
296.56509399
 43
36.674999
 44
52.27499843
 45
111.17716174
 46
-111.17733144
 79
     2
 49
2.48624995
 49
-246.11400604
 53
243.43499756
 43
37.79999971
 44
50.02500057
 45
-0.0002413
 46
-111.17741453
 79
     2
 49
2.48624995
 49
-246.11400604
 53
236.30990601
 43
36.674999
 44
47.77499914
 45
-111.17762842
 46
-222.35437318
 79
     2
 49
4.00875002
 49
-396.84674263
 53
213.69009399
 43
34.49999928
 44
44.47499871
 45
-111.1774674
 46
-111.17715452
 79
     2
 49
4.00875002
 49
-396.84674263
 53
180.0
 43
31.12500072
 44
42.22500086
 45
-1.3615255549299E-14
 46
-111.17699862
 79
     2
 49
4.44674984
 49
-106.73024654
 53
180.0
 43
26.69999957
 44
42.22500086
 45
-1.3615255549299E-14
 46
-111.17699862
 79
     2
 49
3.33525002
 49
-107.84174681
 53
161.56500244
 43
23.32499921
 44
42.22500086
 45
-111.17690461
 46
0.0003298
 79
     2
 49
3.51600006
 49
-348.05774689
 53
180.0
 43
20.02500057
 44
43.35000157
 45
-1.3615255549299E-14
 46
-111.17699862
 79
     2
 49
4.44674984
 49
-106.73024654
 53
161.56500244
 43
15.59999943
 44
43.35000157
 45
-111.17690461
 46
0.0003298
 79
     2
 49
3.51600006
 49
-348.05774689
 53
135.0
 43
12.22499996
 44
44.47499871
 45
-111.17734083
 46
1.3322676295502E-14
 79
     2
 49
1.57200001
 49
-155.655756
 53
90.0
 43
11.10000014
 44
45.59999943
 45
-111.17699862
 46
6.8076277746497E-15
 79
     2
 49
2.22374998
 49
-108.95399809
 53
63.43489838
 43
11.10000014
 44
47.77499914
 45
0.00043375
 46
111.17741453
 79
     2
 49
2.48624995
 49
-246.11400604
 53
26.56509972
 43
12.22499996
 44
50.02500057
 45
111.17732034
 46
111.17717285
 79
     2
 49
2.48624995
 49
-246.11400604
 53
8.13010025
 43
14.47499961
 44
51.15000129
 45
667.06299833
 46
111.1773176
 79
     2
 49
7.86150008
 49
-778.28023911
 53
0.0
 43
22.20000029
 44
52.27499843
 45
0.0
 46
111.17699862
 79
     2
 49
3.33525002
 49
-107.84174681
 53
9.4623003
 43
25.57500064
 44
52.27499843
 45
555.88628029
 46
111.17710938
 79
     2
 49
6.76275015
 49
-669.50174332
 53
338.1986084
 43
61.12499714
 44
47.77499914
 45
333.53148263
 46
-111.17685958
 79
     2
 49
5.98725021
 49
-592.72052765
 53
315.0
 43
66.67500257
 44
45.59999943
 45
111.17734083
 46
-2.6645352591004E-14
 79
     2
 49
1.57200001
 49
-155.655756
 53
270.0
 43
67.79999971
 44
44.47499871
 45
111.17699862
 46
-2.0422883323949E-14
 79
     2
 49
1.11150004
 49
-110.06549835
 53
206.56500244
 43
67.79999971
 44
43.35000157
 45
-111.17750909
 46
-111.17698409
 79
     2
 49
2.48624995
 49
-246.11400604
 53
206.56500244
 43
65.625
 44
42.22500086
 45
-111.17750909
 46
-111.17698409
 79
     2
 49
2.48624995
 49
-246.11400604
 53
191.30990601
 43
63.37499857
 44
41.10000014
 45
-444.70879317
 46
-111.17734797
 79
     2
 49
5.66925019
 49
-561.2257576
 53
194.03619385
 43
57.82500029
 44
40.05000114
 45
-333.53127033
 46
-111.17713245
 79
     2
 49
4.58399981
 49
-453.81151199
 53
191.30990601
 43
53.39999914
 44
38.92500043
 45
-444.70879317
 46
-111.17734797
 79
     2
 49
5.66925019
 49
-561.2257576
 53
180.0
 43
47.77499914
 44
37.79999971
 45
-1.3615255549299E-14
 46
-111.17699862
 79
     2
 49
3.33525002
 49
-107.84174681
 53
153.43499756
 43
44.47499871
 44
37.79999971
 45
-111.17741453
 46
0.0002413
 79
     2
 49
2.48624995
 49
-246.11400604
 53
116.56500244
 43
42.22500086
 44
38.92500043
 45
-111.17698409
 46
111.17750909
 79
     2
 49
2.48624995
 49
-246.11400604
 53
90.0
 43
41.10000014
 44
41.10000014
 45
-111.17699862
 46
6.8076277746497E-15
 79
     2
 49
1.11150004
 49
-110.06549835
 53
33.69010162
 43
41.10000014
 44
42.22500086
 45
111.1774526
 46
111.17716932
 79
     2
 49
4.00875002
 49
-396.84674263
 53
33.69010162
 43
44.47499871
 44
44.47499871
 45
111.1774526
 46
111.17716932
 79
     2
 49
4.00875002
 49
-396.84674263
 53
26.56509972
 43
47.77499914
 44
46.72500014
 45
111.17732034
 46
111.17717285
 79
     2
 49
2.48624995
 49
-246.11400604
 53
9.4623003
 43
50.02500057
 44
47.77499914
 45
555.88628029
 46
111.17710938
 79
     2
 49
6.76275015
 49
-669.50174332
 53
345.9637146
 43
56.69999957
 44
48.89999986
 45
111.17705397
 46
0.00028293
 79
     2
 49
4.58399981
 49
-453.81151199
 53
180.0
 43
77.85000086
 44
34.49999928
 45
-1.3615255549299E-14
 46
-111.17699862
 79
     2
 49
1.11150004
 49
-110.06549835
 53
153.43499756
 43
76.72499657
 44
34.49999928
 45
-111.17741453
 46
0.0002413
 79
     2
 49
2.48624995
 49
-246.11400604
 53
161.56500244
 43
74.47500229
 44
35.54999828
 45
-111.17690461
 46
0.0003298
 79
     2
 49
3.51600006
 49
-348.05774689
 53
180.0
 43
71.17499828
 44
36.674999
 45
-1.3615255549299E-14
 46
-111.17699862
 79
     2
 49
2.22374998
 49
-108.95399809
 53
180.0
 43
68.92499685
 44
36.674999
 45
-1.3615255549299E-14
 46
-111.17699862
 79
     2
 49
2.22374998
 49
-108.95399809
 53
153.43499756
 43
66.67500257
 44
36.674999
 45
-111.17741453
 46
0.0002413
 79
     2
 49
2.48624995
 49
-246.11400604
 53
90.0
 43
64.50000286
 44
37.79999971
 45
-111.17699862
 46
6.8076277746497E-15
 79
     2
 49
3.33525002
 49
-107.84174681
 53
45.0
 43
64.50000286
 44
41.10000014
 45
1.3322676295502E-14
 46
111.17734083
 79
     2
 49
1.57200001
 49
-155.655756
 53
0.0
 43
65.625
 44
42.22500086
 45
0.0
 46
111.17699862
 79
     2
 49
3.33525002
 49
-107.84174681
 53
345.9637146
 43
68.92499685
 44
42.22500086
 45
111.17705397
 46
0.00028293
 79
     2
 49
4.58399981
 49
-453.81151199
 53
333.43490601
 43
73.349998
 44
41.10000014
 45
111.17741453
 46
-0.00041895
 79
     2
 49
4.97174978
 49
-243.62774849
 53
315.0
 43
77.85000086
 44
38.92500043
 45
111.17734083
 46
-2.6645352591004E-14
 79
     2
 49
1.57200001
 49
-155.655756
 53
270.0
 43
78.90000343
 44
37.79999971
 45
111.17699862
 46
-2.0422883323949E-14
 79
     2
 49
2.22374998
 49
-108.95399809
 53
225.0
 43
78.90000343
 44
35.54999828
 45
-1.9984014443253E-14
 46
-111.17734083
 79
     2
 49
1.57200001
 49
-155.655756
 53
165.96380615
 43
76.72499657
 44
20.02500057
 45
-111.17705397
 46
-0.00046058
 79
     2
 49
4.58399981
 49
-453.81151199
 53
180.0
 43
72.30000257
 44
21.1499995
 45
-1.3615255549299E-14
 46
-111.17699862
 79
     2
 49
2.22374998
 49
-108.95399809
 53
116.56500244
 43
70.05000114
 44
21.1499995
 45
-111.17698409
 46
111.17750909
 79
     2
 49
2.48624995
 49
-246.11400604
 53
90.0
 43
68.92499685
 44
23.32499921
 45
-111.17699862
 46
6.8076277746497E-15
 79
     2
 49
7.78275043
 49
-103.39500189
 53
108.43499756
 43
68.92499685
 44
31.12500072
 45
-111.17709601
 46
222.35442714
 79
     2
 49
3.51600006
 49
-348.05774689
 53
63.43489838
 43
67.79999971
 44
34.49999928
 45
0.00043375
 46
111.17741453
 79
     2
 49
2.48624995
 49
-246.11400604
 53
0.0
 43
68.92499685
 44
36.674999
 45
0.0
 46
111.17699862
 79
     2
 49
2.22374998
 49
-108.95399809
 53
341.56509399
 43
71.17499828
 44
36.674999
 45
111.17690461
 46
-0.00015215
 79
     2
 49
3.51600006
 49
-348.05774689
 53
315.0
 43
74.47500229
 44
35.54999828
 45
111.17734083
 46
-2.6645352591004E-14
 79
     2
 49
4.71674994
 49
-152.51174927
 53
284.0362854
 43
77.85000086
 44
32.25000143
 45
111.1776654
 46
-333.53109268
 79
     2
 49
4.58399981
 49
-453.81151199
 53
296.56509399
 43
78.90000343
 44
27.82500029
 45
111.17716174
 46
-111.17733144
 79
     2
 49
2.48624995
 49
-246.11400604
 53
270.0
 43
80.02500057
 44
25.57500064
 45
111.17699862
 46
-2.0422883323949E-14
 79
     2
 49
2.22374998
 49
-108.95399809
 53
243.43499756
 43
80.02500057
 44
23.32499921
 45
-0.0002413
 46
-111.17741453
 79
     2
 49
2.48624995
 49
-246.11400604
 53
206.56500244
 43
78.90000343
 44
21.1499995
 45
-111.17750909
 46
-111.17698409
 79
     2
 49
2.48624995
 49
-246.11400604
 53
270.0
 43
104.47500229
 44
33.37499857
 45
111.17699862
 46
-2.0422883323949E-14
 79
     2
 49
3.33525002
 49
-107.84174681
 53
243.43499756
 43
104.47500229
 44
30.0
 45
-0.0002413
 46
-111.17741453
 79
     2
 49
2.48624995
 49
-246.11400604
 53
206.56500244
 43
103.42499971
 44
27.82500029
 45
-111.17750909
 46
-111.17698409
 79
     2
 49
2.48624995
 49
-246.11400604
 53
180.0
 43
101.17499828
 44
26.69999957
 45
-1.3615255549299E-14
 46
-111.17699862
 79
     2
 49
2.22374998
 49
-108.95399809
 53
153.43499756
 43
98.92499685
 44
26.69999957
 45
-111.17741453
 46
0.0002413
 79
     2
 49
2.48624995
 49
-246.11400604
 53
135.0
 43
96.74999714
 44
27.82500029
 45
-111.17734083
 46
1.3322676295502E-14
 79
     2
 49
1.57200001
 49
-155.655756
 53
90.0
 43
95.625
 44
28.87499928
 45
-111.17699862
 46
6.8076277746497E-15
 79
     2
 49
2.22374998
 49
-108.95399809
 53
71.56500244
 43
95.625
 44
31.12500072
 45
0.0003298
 46
111.17690461
 79
     2
 49
3.51600006
 49
-348.05774689
 53
45.0
 43
96.74999714
 44
34.49999928
 45
1.3322676295502E-14
 46
111.17734083
 79
     2
 49
1.57200001
 49
-155.655756
 53
18.43490028
 43
97.79999971
 44
35.54999828
 45
222.35461589
 46
111.1767185
 79
     2
 49
3.51600006
 49
-348.05774689
 53
333.43490601
 43
101.17499828
 44
36.674999
 45
111.17741453
 46
-0.00041895
 79
     2
 49
2.48624995
 49
-246.11400604
 53
296.56509399
 43
103.42499971
 44
35.54999828
 45
111.17716174
 46
-111.17733144
 79
     2
 49
2.48624995
 49
-246.11400604
 53
63.43489838
 43
88.94999743
 44
41.10000014
 45
0.00043375
 46
111.17741453
 79
     2
 49
2.48624995
 49
-246.11400604
 53
45.0
 43
90.07500172
 44
43.35000157
 45
1.3322676295502E-14
 46
111.17734083
 79
     2
 49
1.57200001
 49
-155.655756
 53
21.80139923
 43
91.19999886
 44
44.47499871
 45
222.35408276
 46
111.17720082
 79
     2
 49
5.98725021
 49
-592.72052765
 53
18.43490028
 43
96.74999714
 44
46.72500014
 45
222.35461589
 46
111.1767185
 79
     2
 49
3.51600006
 49
-348.05774689
 53
0.0
 43
100.05000114
 44
47.77499914
 45
0.0
 46
111.17699862
 79
     2
 49
3.33525002
 49
-107.84174681
 53
333.43490601
 43
103.42499971
 44
47.77499914
 45
111.17741453
 46
-0.00041895
 79
     2
 49
2.48624995
 49
-246.11400604
 53
296.56509399
 43
105.59999943
 44
46.72500014
 45
111.17716174
 46
-111.17733144
 79
     2
 49
2.48624995
 49
-246.11400604
 53
270.0
 43
106.72499657
 44
44.47499871
 45
111.17699862
 46
-2.0422883323949E-14
 79
     2
 49
2.22374998
 49
-108.95399809
 53
243.43499756
 43
106.72499657
 44
42.22500086
 45
-0.0002413
 46
-111.17741453
 79
     2
 49
2.48624995
 49
-246.11400604
 53
225.0
 43
105.59999943
 44
40.05000114
 45
-1.9984014443253E-14
 46
-111.17734083
 79
     2
 49
1.57200001
 49
-155.655756
 53
213.69009399
 43
104.47500229
 44
38.92500043
 45
-111.1774674
 46
-111.17715452
 79
     2
 49
4.00875002
 49
-396.84674263
 53
194.03619385
 43
101.17499828
 44
36.674999
 45
-333.53127033
 46
-111.17713245
 79
     2
 49
4.58399981
 49
-453.81151199
 53
180.0
 43
96.74999714
 44
35.54999828
 45
-1.3615255549299E-14
 46
-111.17699862
 79
     2
 49
2.22374998
 49
-108.95399809
 53
153.43499756
 43
94.50000286
 44
35.54999828
 45
-111.17741453
 46
0.0002413
 79
     2
 49
4.97174978
 49
-243.62774849
 53
116.56500244
 43
90.07500172
 44
37.79999971
 45
-111.17698409
 46
111.17750909
 79
     2
 49
2.48624995
 49
-246.11400604
 53
90.0
 43
88.94999743
 44
40.05000114
 45
-111.17699862
 46
6.8076277746497E-15
 79
     2
 49
1.11150004
 49
-110.06549835
 53
180.0
 43
110.10000229
 44
14.47499961
 45
-1.3615255549299E-14
 46
-111.17699862
 79
     2
 49
3.33525002
 49
-107.84174681
 53
135.0
 43
106.72499657
 44
14.47499961
 45
-111.17734083
 46
1.3322676295502E-14
 79
     2
 49
3.14474992
 49
-154.08375263
 53
90.0
 43
104.47500229
 44
16.65000021
 45
-111.17699862
 46
6.8076277746497E-15
 79
     2
 49
3.33525002
 49
-107.84174681
 53
45.0
 43
104.47500229
 44
20.02500057
 45
1.3322676295502E-14
 46
111.17734083
 79
     2
 49
3.14474992
 49
-154.08375263
 53
18.43490028
 43
106.72499657
 44
22.20000029
 45
222.35461589
 46
111.1767185
 79
     2
 49
3.51600006
 49
-348.05774689
 53
0.0
 43
110.10000229
 44
23.32499921
 45
0.0
 46
111.17699862
 79
     2
 49
1.11150004
 49
-110.06549835
 53
0.0
 43
0.0
 44
23.32499921
 45
0.0
 46
111.17699862
 79
     2
 49
2.22374998
 49
-108.95399809
 53
341.56509399
 43
2.25000009
 44
23.32499921
 45
111.17690461
 46
-0.00015215
 79
     2
 49
3.51600006
 49
-348.05774689
 53
315.0
 43
5.55000007
 44
22.20000029
 45
111.17734083
 46
-2.6645352591004E-14
 79
     2
 49
3.14474992
 49
-154.08375263
 53
296.56509399
 43
7.79999971
 44
20.02500057
 45
111.17716174
 46
-111.17733144
 79
     2
 49
2.48624995
 49
-246.11400604
 53
225.0
 43
8.92500043
 44
17.77499914
 45
-1.9984014443253E-14
 46
-111.17734083
 79
     2
 49
3.14474992
 49
-154.08375263
 53
194.03619385
 43
6.67499989
 44
15.59999943
 45
-333.53127033
 46
-111.17713245
 79
     2
 49
4.58399981
 49
-453.81151199
 53
180.0
 43
2.25000009
 44
14.47499961
 45
-1.3615255549299E-14
 46
-111.17699862
 79
     2
 49
2.22374998
 49
-108.95399809
 53
180.0
 43
111.14999771
 44
14.47499961
 45
-1.3615255549299E-14
 46
-111.17699862
 79
     2
 49
1.11150004
 49
-110.06549835
 53
135.0
 43
102.30000257
 44
6.67499989
 45
-111.17734083
 46
1.3322676295502E-14
 79
     2
 49
1.57200001
 49
-155.655756
 53
135.0
 43
101.17499828
 44
7.79999971
 45
-111.17734083
 46
1.3322676295502E-14
 79
     2
 49
1.57200001
 49
-155.655756
 53
135.0
 43
100.05000114
 44
8.92500043
 45
-111.17734083
 46
1.3322676295502E-14
 79
     2
 49
1.57200001
 49
-155.655756
 53
116.56500244
 43
98.92499685
 44
9.97500032
 45
-111.17698409
 46
111.17750909
 79
     2
 49
2.48624995
 49
-246.11400604
 53
90.0
 43
97.79999971
 44
12.22499996
 45
-111.17699862
 46
6.8076277746497E-15
 79
     2
 49
2.22374998
 49
-108.95399809
 53
45.0
 43
97.79999971
 44
14.47499961
 45
1.3322676295502E-14
 46
111.17734083
 79
     2
 49
3.14474992
 49
-154.08375263
 53
0.0
 43
100.05000114
 44
16.65000021
 45
0.0
 46
111.17699862
 79
     2
 49
4.44674984
 49
-106.73024654
 53
315.0
 43
104.47500229
 44
16.65000021
 45
111.17734083
 46
-2.6645352591004E-14
 79
     2
 49
3.14474992
 49
-154.08375263
 53
0.0
 43
106.72499657
 44
14.47499961
 45
0.0
 46
111.17699862
 79
     2
 49
3.33525002
 49
-107.84174681
 53
333.43490601
 43
0.0
 44
14.47499961
 45
111.17741453
 46
-0.00041895
 79
     2
 49
2.48624995
 49
-246.11400604
 53
0.0
 43
110.10000229
 44
14.47499961
 45
0.0
 46
111.17699862
 79
     2
 49
1.11150004
 49
-110.06549835
 53
270.0
 43
2.25000009
 44
13.34999979
 45
111.17699862
 46
-2.0422883323949E-14
 79
     2
 49
2.22374998
 49
-108.95399809
 53
243.43499756
 43
2.25000009
 44
11.10000014
 45
-0.0002413
 46
-111.17741453
 79
     2
 49
2.48624995
 49
-246.11400604
 53
180.0
 43
1.12500004
 44
8.92500043
 45
-1.3615255549299E-14
 46
-111.17699862
 79
     2
 49
1.11150004
 49
-110.06549835
 53
180.0
 43
111.14999771
 44
8.92500043
 45
-1.3615255549299E-14
 46
-111.17699862
 79
     2
 49
1.11150004
 49
-110.06549835
 53
198.43499756
 43
110.10000229
 44
8.92500043
 45
-222.35442714
 46
-111.17709601
 79
     2
 49
3.51600006
 49
-348.05774689
 53
206.56500244
 43
106.72499657
 44
7.79999971
 45
-111.17750909
 46
-111.17698409
 79
     2
 49
2.48624995
 49
-246.11400604
 53
180.0
 43
104.47500229
 44
6.67499989
 45
-1.3615255549299E-14
 46
-111.17699862
 79
     2
 49
2.22374998
 49
-108.95399809
 53
33.69010162
 43
83.39999914
 44
9.97500032
 45
111.1774526
 46
111.17716932
 79
     2
 49
4.00875002
 49
-396.84674263
 53
0.0
 43
86.70000315
 44
12.22499996
 45
0.0
 46
111.17699862
 79
     2
 49
2.22374998
 49
-108.95399809
 53
341.56509399
 43
88.94999743
 44
12.22499996
 45
111.17690461
 46
-0.00015215
 79
     2
 49
3.51600006
 49
-348.05774689
 53
0.0
 43
92.25000143
 44
11.10000014
 45
0.0
 46
111.17699862
 79
     2
 49
3.33525002
 49
-107.84174681
 53
333.43490601
 43
95.625
 44
11.10000014
 45
111.17741453
 46
-0.00041895
 79
     2
 49
2.48624995
 49
-246.11400604
 53
326.30990601
 43
97.79999971
 44
9.97500032
 45
222.35437318
 46
-111.17762842
 79
     2
 49
4.00875002
 49
-396.84674263
 53
315.0
 43
101.17499828
 44
7.79999971
 45
111.17734083
 46
-2.6645352591004E-14
 79
     2
 49
1.57200001
 49
-155.655756
 53
270.0
 43
102.30000257
 44
6.67499989
 45
111.17699862
 46
-2.0422883323949E-14
 79
     2
 49
2.22374998
 49
-108.95399809
 53
243.43499756
 43
102.30000257
 44
4.4249998
 45
-0.0002413
 46
-111.17741453
 79
     2
 49
2.48624995
 49
-246.11400604
 53
206.56500244
 43
101.17499828
 44
2.25000009
 45
-111.17750909
 46
-111.17698409
 79
     2
 49
2.48624995
 49
-246.11400604
 53
161.56500244
 43
98.92499685
 44
1.12500004
 45
-111.17690461
 46
0.0003298
 79
     2
 49
3.51600006
 49
-348.05774689
 53
153.43499756
 43
95.625
 44
2.25000009
 45
-111.17741453
 46
0.0002413
 79
     2
 49
2.48624995
 49
-246.11400604
 53
161.56500244
 43
93.37499857
 44
3.29999998
 45
-111.17690461
 46
0.0003298
 79
     2
 49
3.51600006
 49
-348.05774689
 53
180.0
 43
90.07500172
 44
4.4249998
 45
-1.3615255549299E-14
 46
-111.17699862
 79
     2
 49
3.33525002
 49
-107.84174681
 53
146.30990601
 43
86.70000315
 44
4.4249998
 45
-222.35437318
 46
111.17762842
 79
     2
 49
4.00875002
 49
-396.84674263
 53
90.0
 43
83.39999914
 44
6.67499989
 45
-111.17699862
 46
6.8076277746497E-15
 79
     2
 49
3.33525002
 49
-107.84174681
 53
18.43490028
 43
74.47500229
 44
4.4249998
 45
222.35461589
 46
111.1767185
 79
     2
 49
3.51600006
 49
-348.05774689
 53
0.0
 43
77.85000086
 44
5.55000007
 45
0.0
 46
111.17699862
 79
     2
 49
2.22374998
 49
-108.95399809
 53
45.0
 43
80.02500057
 44
5.55000007
 45
1.3322676295502E-14
 46
111.17734083
 79
     2
 49
3.14474992
 49
-154.08375263
 53
63.43489838
 43
82.275002
 44
7.79999971
 45
0.00043375
 46
111.17741453
 79
     2
 49
2.48624995
 49
-246.11400604
 53
90.0
 43
83.39999914
 44
9.97500032
 45
-111.17699862
 46
6.8076277746497E-15
 79
     2
 49
1.11150004
 49
-110.06549835
 53
108.43499756
 43
83.39999914
 44
11.10000014
 45
-111.17709601
 46
222.35442714
 79
     2
 49
3.51600006
 49
-348.05774689
 53
135.0
 43
82.275002
 44
14.47499961
 45
-111.17734083
 46
1.3322676295502E-14
 79
     2
 49
4.71674994
 49
-152.51174927
 53
135.0
 43
78.90000343
 44
17.77499914
 45
-111.17734083
 46
1.3322676295502E-14
 79
     2
 49
3.14474992
 49
-154.08375263
 53
165.96380615
 43
76.72499657
 44
20.02500057
 45
-111.17705397
 46
-0.00046058
 79
     2
 49
4.58399981
 49
-453.81151199
 53
180.0
 43
72.30000257
 44
21.1499995
 45
-1.3615255549299E-14
 46
-111.17699862
 79
     2
 49
2.22374998
 49
-108.95399809
 53
225.0
 43
70.05000114
 44
21.1499995
 45
-1.9984014443253E-14
 46
-111.17734083
 79
     2
 49
3.14474992
 49
-154.08375263
 53
243.43499756
 43
67.79999971
 44
18.89999986
 45
-0.0002413
 46
-111.17741453
 79
     2
 49
2.48624995
 49
-246.11400604
 53
270.0
 43
66.67500257
 44
16.65000021
 45
111.17699862
 46
-2.0422883323949E-14
 79
     2
 49
3.33525002
 49
-107.84174681
 53
270.0
 43
66.67500257
 44
13.34999979
 45
111.17699862
 46
-2.0422883323949E-14
 79
     2
 49
4.44674984
 49
-106.73024654
 53
288.43490601
 43
66.67500257
 44
8.92500043
 45
111.17674071
 46
-222.35460479
 79
     2
 49
3.51600006
 49
-348.05774689
 53
333.43490601
 43
67.79999971
 44
5.55000007
 45
111.17741453
 46
-0.00041895
 79
     2
 49
2.48624995
 49
-246.11400604
 53
0.0
 43
70.05000114
 44
4.4249998
 45
0.0
 46
111.17699862
 79
     2
 49
4.44674984
 49
-106.73024654
 53
251.56500244
 43
13.34999979
 44
9.97500032
 45
-0.0003298
 46
-111.17690461
 79
     2
 49
3.51600006
 49
-348.05774689
 53
180.0
 43
12.22499996
 44
6.67499989
 45
-1.3615255549299E-14
 46
-111.17699862
 79
     2
 49
2.22374998
 49
-108.95399809
 53
161.56500244
 43
9.97500032
 44
6.67499989
 45
-111.17690461
 46
0.0003298
 79
     2
 49
3.51600006
 49
-348.05774689
 53
153.43499756
 43
6.67499989
 44
7.79999971
 45
-111.17741453
 46
0.0002413
 79
     2
 49
2.48624995
 49
-246.11400604
 53
135.0
 43
4.4249998
 44
8.92500043
 45
-111.17734083
 46
1.3322676295502E-14
 79
     2
 49
1.57200001
 49
-155.655756
 53
116.56500244
 43
3.29999998
 44
9.97500032
 45
-111.17698409
 46
111.17750909
 79
     2
 49
2.48624995
 49
-246.11400604
 53
63.43489838
 43
2.25000009
 44
12.22499996
 45
0.00043375
 46
111.17741453
 79
     2
 49
2.48624995
 49
-246.11400604
 53
26.56509972
 43
3.29999998
 44
14.47499961
 45
111.17732034
 46
111.17717285
 79
     2
 49
2.48624995
 49
-246.11400604
 53
0.0
 43
5.55000007
 44
15.59999943
 45
0.0
 46
111.17699862
 79
     2
 49
2.22374998
 49
-108.95399809
 53
333.43490601
 43
7.79999971
 44
15.59999943
 45
111.17741453
 46
-0.00041895
 79
     2
 49
4.97174978
 49
-243.62774849
 53
288.43490601
 43
12.22499996
 44
13.34999979
 45
111.17674071
 46
-222.35460479
 79
     2
 49
3.51600006
 49
-348.05774689
 53
75.96379852
 43
13.34999979
 44
8.92500043
 45
-0.00044578
 46
111.17705397
 79
     2
 49
4.58399981
 49
-453.81151199
 53
63.43489838
 43
14.47499961
 44
13.34999979
 45
0.00043375
 46
111.17741453
 79
     2
 49
2.48624995
 49
-246.11400604
 53
14.03619957
 43
15.59999943
 44
15.59999943
 45
333.53125922
 46
111.17716576
 79
     2
 49
4.58399981
 49
-453.81151199
 53
341.56509399
 43
20.02500057
 44
16.65000021
 45
111.17690461
 46
-0.00015215
 79
     2
 49
3.51600006
 49
-348.05774689
 53
296.56509399
 43
23.32499921
 44
15.59999943
 45
111.17716174
 46
-111.17733144
 79
     2
 49
2.48624995
 49
-246.11400604
 53
281.30990601
 43
24.44999993
 44
13.34999979
 45
111.17734797
 46
-444.70879317
 79
     2
 49
5.66925019
 49
-561.2257576
 53
281.30990601
 43
25.57500064
 44
7.79999971
 45
111.17734797
 46
-444.70879317
 79
     2
 49
5.66925019
 49
-561.2257576
 53
270.0
 43
26.69999957
 44
2.25000009
 45
111.17699862
 46
-2.0422883323949E-14
 79
     2
 49
2.22374998
 49
-108.95399809
 53
270.0
 43
26.69999957
 44
111.14999771
 45
111.17699862
 46
-2.0422883323949E-14
 79
     2
 49
2.22374998
 49
-108.95399809
 53
243.43499756
 43
26.69999957
 44
108.974998
 45
-0.0002413
 46
-111.17741453
 79
     2
 49
2.48624995
 49
-246.11400604
 53
198.43499756
 43
25.57500064
 44
106.72499657
 45
-222.35442714
 46
-111.17709601
 79
     2
 49
3.51600006
 49
-348.05774689
 53
180.0
 43
22.20000029
 44
105.59999943
 45
-1.3615255549299E-14
 46
-111.17699862
 79
     2
 49
6.67050004
 49
-104.50650215
 53
161.56500244
 43
15.59999943
 44
105.59999943
 45
-111.17690461
 46
0.0003298
 79
     2
 49
3.51600006
 49
-348.05774689
 53
116.56500244
 43
12.22499996
 44
106.72499657
 45
-111.17698409
 46
111.17750909
 79
     2
 49
2.48624995
 49
-246.11400604
 53
90.0
 43
11.10000014
 44
108.974998
 45
-111.17699862
 46
6.8076277746497E-15
 79
     2
 49
2.22374998
 49
-108.95399809
 53
75.96379852
 43
11.10000014
 44
0.0
 45
-0.00044578
 46
111.17705397
 79
     2
 49
4.58399981
 49
-453.81151199
 53
75.96379852
 43
12.22499996
 44
4.4249998
 45
-0.00044578
 46
111.17705397
 79
     2
 49
4.58399981
 49
-453.81151199
 53
26.56509972
 43
106.72499657
 44
6.67499989
 45
111.17732034
 46
111.17717285
 79
     2
 49
4.97174978
 49
-243.62774849
 53
0.0
 43
0.0
 44
8.92500043
 45
0.0
 46
111.17699862
 79
     2
 49
2.22374998
 49
-108.95399809
 53
341.56509399
 43
2.25000009
 44
8.92500043
 45
111.17690461
 46
-0.00015215
 79
     2
 49
3.51600006
 49
-348.05774689
 53
341.56509399
 43
5.55000007
 44
7.79999971
 45
111.17690461
 46
-0.00015215
 79
     2
 49
3.51600006
 49
-348.05774689
 53
315.0
 43
8.92500043
 44
6.67499989
 45
111.17734083
 46
-2.6645352591004E-14
 79
     2
 49
3.14474992
 49
-154.08375263
 53
270.0
 43
11.10000014
 44
4.4249998
 45
111.17699862
 46
-2.0422883323949E-14
 79
     2
 49
3.33525002
 49
-107.84174681
 53
270.0
 43
11.10000014
 44
1.12500004
 45
111.17699862
 46
-2.0422883323949E-14
 79
     2
 49
1.11150004
 49
-110.06549835
 53
270.0
 43
11.10000014
 44
111.14999771
 45
111.17699862
 46
-2.0422883323949E-14
 79
     2
 49
3.33525002
 49
-107.84174681
 53
258.69009399
 43
11.10000014
 44
107.85000086
 45
0.00034628
 46
-111.1775506
 79
     2
 49
5.66925019
 49
-561.2257576
 53
198.43499756
 43
9.97500032
 44
102.30000257
 45
-222.35442714
 46
-111.17709601
 79
     2
 49
3.51600006
 49
-348.05774689
 53
180.0
 43
6.67499989
 44
101.17499828
 45
-1.3615255549299E-14
 46
-111.17699862
 79
     2
 49
5.55899978
 49
-105.61800241
 53
180.0
 43
1.12500004
 44
101.17499828
 45
-1.3615255549299E-14
 46
-111.17699862
 79
     2
 49
1.11150004
 49
-110.06549835
 53
206.56500244
 43
111.14999771
 44
101.17499828
 45
-111.17750909
 46
-111.17698409
 79
     2
 49
2.48624995
 49
-246.11400604
 53
180.0
 43
108.974998
 44
100.05000114
 45
-1.3615255549299E-14
 46
-111.17699862
 79
     2
 49
2.22374998
 49
-108.95399809
 53
146.30990601
 43
106.72499657
 44
100.05000114
 45
-222.35437318
 46
111.17762842
 79
     2
 49
4.00875002
 49
-396.84674263
 53
116.56500244
 43
103.42499971
 44
102.30000257
 45
-111.17698409
 46
111.17750909
 79
     2
 49
2.48624995
 49
-246.11400604
 53
108.43499756
 43
102.30000257
 44
104.47500229
 45
-111.17709601
 46
222.35442714
 79
     2
 49
3.51600006
 49
-348.05774689
 53
90.0
 43
101.17499828
 44
107.85000086
 45
-111.17699862
 46
6.8076277746497E-15
 79
     2
 49
2.22374998
 49
-108.95399809
 53
71.56500244
 43
102.30000257
 44
0.0
 45
0.0003298
 46
111.17690461
 79
     2
 49
3.51600006
 49
-348.05774689
 53
45.0
 43
101.17499828
 44
110.10000229
 45
1.3322676295502E-14
 46
111.17734083
 79
     2
 49
1.57200001
 49
-155.655756
 53
45.0
 43
103.42499971
 44
3.29999998
 45
1.3322676295502E-14
 46
111.17734083
 79
     2
 49
4.71674994
 49
-152.51174927
 53
165.96380615
 43
65.625
 44
46.72500014
 45
-111.17705397
 46
-0.00046058
 79
     2
 49
4.58399981
 49
-453.81151199
 53
161.56500244
 43
61.12499714
 44
47.77499914
 45
-111.17690461
 46
0.0003298
 79
     2
 49
3.51600006
 49
-348.05774689
 53
116.56500244
 43
57.82500029
 44
48.89999986
 45
-111.17698409
 46
111.17750909
 79
     2
 49
2.48624995
 49
-246.11400604
 53
45.0
 43
56.69999957
 44
51.15000129
 45
1.3322676295502E-14
 46
111.17734083
 79
     2
 49
3.14474992
 49
-154.08375263
 53
345.9637146
 43
58.950001
 44
53.39999914
 45
111.17705397
 46
0.00028293
 79
     2
 49
4.58399981
 49
-453.81151199
 53
333.43490601
 43
63.37499857
 44
52.27499843
 45
111.17741453
 46
-0.00041895
 79
     2
 49
4.97174978
 49
-243.62774849
 53
270.0
 43
67.79999971
 44
50.02500057
 45
111.17699862
 46
-2.0422883323949E-14
 79
     2
 49
2.22374998
 49
-108.95399809
 53
206.56500244
 43
67.79999971
 44
47.77499914
 45
-111.17750909
 46
-111.17698409
 79
     2
 49
2.48624995
 49
-246.11400604
 53
165.96380615
 43
63.37499857
 44
52.27499843
 45
-111.17705397
 46
-0.00046058
 79
     2
 49
4.58399981
 49
-453.81151199
 53
90.0
 43
58.950001
 44
53.39999914
 45
-111.17699862
 46
6.8076277746497E-15
 79
     2
 49
2.22374998
 49
-108.95399809
 53
45.0
 43
58.950001
 44
55.57499886
 45
1.3322676295502E-14
 46
111.17734083
 79
     2
 49
1.57200001
 49
-155.655756
 53
18.43490028
 43
60.0
 44
56.69999957
 45
222.35461589
 46
111.1767185
 79
     2
 49
3.51600006
 49
-348.05774689
 53
345.9637146
 43
63.37499857
 44
57.82500029
 45
111.17705397
 46
0.00028293
 79
     2
 49
4.58399981
 49
-453.81151199
 53
345.9637146
 43
67.79999971
 44
56.69999957
 45
111.17705397
 46
0.00028293
 79
     2
 49
4.58399981
 49
-453.81151199
 53
270.0
 43
72.30000257
 44
55.57499886
 45
111.17699862
 46
-2.0422883323949E-14
 79
     2
 49
2.22374998
 49
-108.95399809
 53
213.69009399
 43
72.30000257
 44
53.39999914
 45
-111.1774674
 46
-111.17715452
 79
     2
 49
4.00875002
 49
-396.84674263
 53
168.69009399
 43
68.92499685
 44
51.15000129
 45
-111.1775506
 46
-0.00034628
 79
     2
 49
5.66925019
 49
-561.2257576
 53
11.30990028
 43
64.50000286
 44
60.0
 45
444.70880427
 46
111.17730356
 79
     2
 49
5.66925019
 49
-561.2257576
 53
0.0
 43
70.05000114
 44
61.12499714
 45
0.0
 46
111.17699862
 79
     2
 49
5.55899978
 49
-105.61800241
 53
341.56509399
 43
75.59999943
 44
61.12499714
 45
111.17690461
 46
-0.00015215
 79
     2
 49
3.51600006
 49
-348.05774689
 53
270.0
 43
78.90000343
 44
60.0
 45
111.17699862
 46
-2.0422883323949E-14
 79
     2
 49
2.22374998
 49
-108.95399809
 53
206.56500244
 43
78.90000343
 44
57.82500029
 45
-111.17750909
 46
-111.17698409
 79
     2
 49
4.97174978
 49
-243.62774849
 53
180.0
 43
74.47500229
 44
55.57499886
 45
-1.3615255549299E-14
 46
-111.17699862
 79
     2
 49
2.22374998
 49
-108.95399809
 53
165.96380615
 43
72.30000257
 44
55.57499886
 45
-111.17705397
 46
-0.00046058
 79
     2
 49
4.58399981
 49
-453.81151199
 53
161.56500244
 43
67.79999971
 44
56.69999957
 45
-111.17690461
 46
0.0003298
 79
     2
 49
3.51600006
 49
-348.05774689
 53
90.0
 43
64.50000286
 44
57.82500029
 45
-111.17699862
 46
6.8076277746497E-15
 79
     2
 49
1.11150004
 49
-110.06549835
 53
90.0
 43
64.50000286
 44
58.950001
 45
-111.17699862
 46
6.8076277746497E-15
 79
     2
 49
1.11150004
 49
-110.06549835
 53
243.43499756
 43
55.57499886
 44
62.25000143
 45
-0.0002413
 46
-111.17741453
 79
     2
 49
2.48624995
 49
-246.11400604
 53
315.0
 43
54.45000172
 44
60.0
 45
111.17734083
 46
-2.6645352591004E-14
 79
     2
 49
3.14474992
 49
-154.08375263
 53
341.56509399
 43
56.69999957
 44
57.82500029
 45
111.17690461
 46
-0.00015215
 79
     2
 49
3.51600006
 49
-348.05774689
 53
18.43490028
 43
60.0
 44
56.69999957
 45
222.35461589
 46
111.1767185
 79
     2
 49
3.51600006
 49
-348.05774689
 53
45.0
 43
63.37499857
 44
57.82500029
 45
1.3322676295502E-14
 46
111.17734083
 79
     2
 49
1.57200001
 49
-155.655756
 53
116.56500244
 43
64.50000286
 44
58.950001
 45
-111.17698409
 46
111.17750909
 79
     2
 49
2.48624995
 49
-246.11400604
 53
45.0
 43
45.59999943
 44
67.79999971
 45
1.3322676295502E-14
 46
111.17734083
 79
     2
 49
3.14474992
 49
-154.08375263
 53
18.43490028
 43
47.77499914
 44
70.05000114
 45
222.35461589
 46
111.1767185
 79
     2
 49
3.51600006
 49
-348.05774689
 53
354.80560303
 43
51.15000129
 44
71.17499828
 45
111.1768556
 46
0.0003337
 79
     2
 49
12.27975011
 49
-1215.71250916
 53
350.53768921
 43
63.37499857
 44
70.05000114
 45
111.17694947
 46
0.00014621
 79
     2
 49
6.76275015
 49
-669.50174332
 53
341.56509399
 43
70.05000114
 44
68.92499685
 45
111.17690461
 46
-0.00015215
 79
     2
 49
3.51600006
 49
-348.05774689
 53
315.0
 43
73.349998
 44
67.79999971
 45
111.17734083
 46
-2.6645352591004E-14
 79
     2
 49
1.57200001
 49
-155.655756
 53
270.0
 43
74.47500229
 44
66.67500257
 45
111.17699862
 46
-2.0422883323949E-14
 79
     2
 49
3.33525002
 49
-107.84174681
 53
225.0
 43
74.47500229
 44
63.37499857
 45
-1.9984014443253E-14
 46
-111.17734083
 79
     2
 49
1.57200001
 49
-155.655756
 53
198.43499756
 43
73.349998
 44
62.25000143
 45
-222.35442714
 46
-111.17709601
 79
     2
 49
3.51600006
 49
-348.05774689
 53
180.0
 43
70.05000114
 44
61.12499714
 45
-1.3615255549299E-14
 46
-111.17699862
 79
     2
 49
5.55899978
 49
-105.61800241
 53
168.69009399
 43
64.50000286
 44
61.12499714
 45
-111.1775506
 46
-0.00034628
 79
     2
 49
5.66925019
 49
-561.2257576
 53
180.0
 43
58.950001
 44
62.25000143
 45
-1.3615255549299E-14
 46
-111.17699862
 79
     2
 49
6.67050004
 49
-104.50650215
 53
165.96380615
 43
52.27499843
 44
62.25000143
 45
-111.17705397
 46
-0.00046058
 79
     2
 49
4.58399981
 49
-453.81151199
 53
135.0
 43
47.77499914
 44
63.37499857
 45
-111.17734083
 46
1.3322676295502E-14
 79
     2
 49
3.14474992
 49
-154.08375263
 53
153.43499756
 43
81.14999771
 44
68.92499685
 45
-111.17741453
 46
0.0002413
 79
     2
 49
2.48624995
 49
-246.11400604
 53
198.43499756
 43
78.90000343
 44
70.05000114
 45
-222.35442714
 46
-111.17709601
 79
     2
 49
3.51600006
 49
-348.05774689
 53
243.43499756
 43
75.59999943
 44
68.92499685
 45
-0.0002413
 46
-111.17741453
 79
     2
 49
2.48624995
 49
-246.11400604
 53
270.0
 43
74.47500229
 44
66.67500257
 45
111.17699862
 46
-2.0422883323949E-14
 79
     2
 49
2.22374998
 49
-108.95399809
 53
288.43490601
 43
74.47500229
 44
64.50000286
 45
111.17674071
 46
-222.35460479
 79
     2
 49
3.51600006
 49
-348.05774689
 53
341.56509399
 43
75.59999943
 44
61.12499714
 45
111.17690461
 46
-0.00015215
 79
     2
 49
3.51600006
 49
-348.05774689
 53
26.56509972
 43
78.90000343
 44
60.0
 45
111.17732034
 46
111.17717285
 79
     2
 49
2.48624995
 49
-246.11400604
 53
45.0
 43
81.14999771
 44
61.12499714
 45
1.3322676295502E-14
 46
111.17734083
 79
     2
 49
3.14474992
 49
-154.08375263
 53
90.0
 43
83.39999914
 44
63.37499857
 45
-111.17699862
 46
6.8076277746497E-15
 79
     2
 49
2.22374998
 49
-108.95399809
 53
123.69010162
 43
83.39999914
 44
65.625
 45
-111.17716932
 46
111.1774526
 79
     2
 49
4.00875002
 49
-396.84674263
 53
180.0
 43
30.0
 44
60.0
 45
-1.3615255549299E-14
 46
-111.17699862
 79
     2
 49
1.11150004
 49
-110.06549835
 53
135.0
 43
28.87499928
 44
60.0
 45
-111.17734083
 46
1.3322676295502E-14
 79
     2
 49
3.14474992
 49
-154.08375263
 53
116.56500244
 43
26.69999957
 44
62.25000143
 45
-111.17698409
 46
111.17750909
 79
     2
 49
2.48624995
 49
-246.11400604
 53
71.56500244
 43
25.57500064
 44
64.50000286
 45
0.0003298
 46
111.17690461
 79
     2
 49
3.51600006
 49
-348.05774689
 53
56.30989838
 43
26.69999957
 44
67.79999971
 45
111.17765803
 46
222.35435837
 79
     2
 49
4.00875002
 49
-396.84674263
 53
11.30990028
 43
28.87499928
 44
71.17499828
 45
444.70880427
 46
111.17730356
 79
     2
 49
5.66925019
 49
-561.2257576
 53
333.43490601
 43
34.49999928
 44
72.30000257
 45
111.17741453
 46
-0.00041895
 79
     2
 49
4.97174978
 49
-243.62774849
 53
0.0
 43
38.92500043
 44
70.05000114
 45
0.0
 46
111.17699862
 79
     2
 49
3.33525002
 49
-107.84174681
 53
326.30990601
 43
42.22500086
 44
70.05000114
 45
222.35437318
 46
-111.17762842
 79
     2
 49
4.00875002
 49
-396.84674263
 53
270.0
 43
45.59999943
 44
67.79999971
 45
111.17699862
 46
-2.0422883323949E-14
 79
     2
 49
2.22374998
 49
-108.95399809
 53
225.0
 43
45.59999943
 44
65.625
 45
-1.9984014443253E-14
 46
-111.17734083
 79
     2
 49
3.14474992
 49
-154.08375263
 53
18.43490028
 43
23.32499921
 44
66.67500257
 45
222.35461589
 46
111.1767185
 79
     2
 49
3.51600006
 49
-348.05774689
 53
90.0
 43
26.69999957
 44
67.79999971
 45
-111.17699862
 46
6.8076277746497E-15
 79
     2
 49
1.11150004
 49
-110.06549835
 53
116.56500244
 43
26.69999957
 44
68.92499685
 45
-111.17698409
 46
111.17750909
 79
     2
 49
2.48624995
 49
-246.11400604
 53
180.0
 43
25.57500064
 44
71.17499828
 45
-1.3615255549299E-14
 46
-111.17699862
 79
     2
 49
4.44674984
 49
-106.73024654
 53
191.30990601
 43
21.1499995
 44
71.17499828
 45
-444.70879317
 46
-111.17734797
 79
     2
 49
5.66925019
 49
-561.2257576
 53
225.0
 43
15.59999943
 44
70.05000114
 45
-1.9984014443253E-14
 46
-111.17734083
 79
     2
 49
1.57200001
 49
-155.655756
 53
270.0
 43
14.47499961
 44
68.92499685
 45
111.17699862
 46
-2.0422883323949E-14
 79
     2
 49
1.11150004
 49
-110.06549835
 53
315.0
 43
14.47499961
 44
67.79999971
 45
111.17734083
 46
-2.6645352591004E-14
 79
     2
 49
1.57200001
 49
-155.655756
 53
281.30990601
 43
25.57500064
 44
64.50000286
 45
111.17734797
 46
-444.70879317
 79
     2
 49
5.66925019
 49
-561.2257576
 53
270.0
 43
26.69999957
 44
58.950001
 45
111.17699862
 46
-2.0422883323949E-14
 79
     2
 49
3.33525002
 49
-107.84174681
 53
236.30990601
 43
26.69999957
 44
55.57499886
 45
-111.17762842
 46
-222.35437318
 79
     2
 49
4.00875002
 49
-396.84674263
 53
180.0
 43
24.44999993
 44
52.27499843
 45
-1.3615255549299E-14
 46
-111.17699862
 79
     2
 49
4.44674984
 49
-106.73024654
 53
180.0
 43
20.02500057
 44
52.27499843
 45
-1.3615255549299E-14
 46
-111.17699862
 79
     2
 49
5.55899978
 49
-105.61800241
 53
153.43499756
 43
14.47499961
 44
52.27499843
 45
-111.17741453
 46
0.0002413
 79
     2
 49
2.48624995
 49
-246.11400604
 53
108.43499756
 43
12.22499996
 44
53.39999914
 45
-111.17709601
 46
222.35442714
 79
     2
 49
3.51600006
 49
-348.05774689
 53
90.0
 43
11.10000014
 44
56.69999957
 45
-111.17699862
 46
6.8076277746497E-15
 79
     2
 49
3.33525002
 49
-107.84174681
 53
71.56500244
 43
11.10000014
 44
60.0
 45
0.0003298
 46
111.17690461
 79
     2
 49
3.51600006
 49
-348.05774689
 53
45.0
 43
12.22499996
 44
63.37499857
 45
1.3322676295502E-14
 46
111.17734083
 79
     2
 49
4.71674994
 49
-152.51174927
 53
0.0
 43
15.59999943
 44
66.67500257
 45
0.0
 46
111.17699862
 79
     2
 49
7.78275043
 49
-103.39500189
 53
315.0
 43
23.32499921
 44
66.67500257
 45
111.17734083
 46
-2.6645352591004E-14
 79
     2
 49
3.14474992
 49
-154.08375263
 53
26.56509972
 43
42.22500086
 44
6.67499989
 45
111.17732034
 46
111.17717285
 79
     2
 49
2.48624995
 49
-246.11400604
 53
45.0
 43
44.47499871
 44
7.79999971
 45
1.3322676295502E-14
 46
111.17734083
 79
     2
 49
1.57200001
 49
-155.655756
 53
90.0
 43
45.59999943
 44
8.92500043
 45
-111.17699862
 46
6.8076277746497E-15
 79
     2
 49
2.22374998
 49
-108.95399809
 53
116.56500244
 43
45.59999943
 44
11.10000014
 45
-111.17698409
 46
111.17750909
 79
     2
 49
2.48624995
 49
-246.11400604
 53
161.56500244
 43
44.47499871
 44
13.34999979
 45
-111.17690461
 46
0.0003298
 79
     2
 49
3.51600006
 49
-348.05774689
 53
161.56500244
 43
41.10000014
 44
14.47499961
 45
-111.17690461
 46
0.0003298
 79
     2
 49
3.51600006
 49
-348.05774689
 53
180.0
 43
37.79999971
 44
15.59999943
 45
-1.3615255549299E-14
 46
-111.17699862
 79
     2
 49
4.44674984
 49
-106.73024654
 53
194.03619385
 43
33.37499857
 44
15.59999943
 45
-333.53127033
 46
-111.17713245
 79
     2
 49
4.58399981
 49
-453.81151199
 53
236.30990601
 43
28.87499928
 44
14.47499961
 45
-111.17762842
 46
-222.35437318
 79
     2
 49
4.00875002
 49
-396.84674263
 53
251.56500244
 43
26.69999957
 44
11.10000014
 45
-0.0003298
 46
-111.17690461
 79
     2
 49
3.51600006
 49
-348.05774689
 53
288.43490601
 43
25.57500064
 44
7.79999971
 45
111.17674071
 46
-222.35460479
 79
     2
 49
3.51600006
 49
-348.05774689
 53
333.43490601
 43
26.69999957
 44
4.4249998
 45
111.17741453
 46
-0.00041895
 79
     2
 49
2.48624995
 49
-246.11400604
 53
11.30990028
 43
28.87499928
 44
3.29999998
 45
444.70880427
 46
111.17730356
 79
     2
 49
5.66925019
 49
-561.2257576
 53
191.30990601
 43
54.45000172
 44
103.42499971
 45
-444.70879317
 46
-111.17734797
 79
     2
 49
5.66925019
 49
-561.2257576
 53
161.56500244
 43
48.89999986
 44
102.30000257
 45
-111.17690461
 46
0.0003298
 79
     2
 49
3.51600006
 49
-348.05774689
 53
146.30990601
 43
45.59999943
 44
103.42499971
 45
-222.35437318
 46
111.17762842
 79
     2
 49
4.00875002
 49
-396.84674263
 53
161.56500244
 43
42.22500086
 44
105.59999943
 45
-111.17690461
 46
0.0003298
 79
     2
 49
3.51600006
 49
-348.05774689
 53
171.86990356
 43
38.92500043
 44
106.72499657
 45
-111.17691169
 46
-0.00022416
 79
     2
 49
7.86150008
 49
-778.28023911
 53
161.56500244
 43
31.12500072
 44
107.85000086
 45
-111.17690461
 46
0.0003298
 79
     2
 49
3.51600006
 49
-348.05774689
 53
116.56500244
 43
27.82500029
 44
108.974998
 45
-111.17698409
 46
111.17750909
 79
     2
 49
2.48624995
 49
-246.11400604
 53
63.43489838
 43
26.69999957
 44
0.0
 45
0.00043375
 46
111.17741453
 79
     2
 49
2.48624995
 49
-246.11400604
 53
26.56509972
 43
27.82500029
 44
2.25000009
 45
111.17732034
 46
111.17717285
 79
     2
 49
2.48624995
 49
-246.11400604
 53
14.03619957
 43
30.0
 44
3.29999998
 45
333.53125922
 46
111.17716576
 79
     2
 49
4.58399981
 49
-453.81151199
 53
18.43490028
 43
34.49999928
 44
4.4249998
 45
222.35461589
 46
111.1767185
 79
     2
 49
3.51600006
 49
-348.05774689
 53
14.03619957
 43
37.79999971
 44
5.55000007
 45
333.53125922
 46
111.17716576
 79
     2
 49
4.58399981
 49
-453.81151199
 53
0.0
 43
42.22500086
 44
6.67499989
 45
0.0
 46
111.17699862
 79
     2
 49
3.33525002
 49
-107.84174681
 53
345.9637146
 43
45.59999943
 44
6.67499989
 45
111.17705397
 46
0.00028293
 79
     2
 49
4.58399981
 49
-453.81151199
 53
333.43490601
 43
50.02500057
 44
5.55000007
 45
111.17741453
 46
-0.00041895
 79
     2
 49
4.97174978
 49
-243.62774849
 53
315.0
 43
54.45000172
 44
3.29999998
 45
111.17734083
 46
-2.6645352591004E-14
 79
     2
 49
4.71674994
 49
-152.51174927
 53
270.0
 43
57.82500029
 44
111.14999771
 45
111.17699862
 46
-2.0422883323949E-14
 79
     2
 49
2.22374998
 49
-108.95399809
 53
255.96380615
 43
57.82500029
 44
108.974998
 45
0.00046058
 46
-111.17705397
 79
     2
 49
4.58399981
 49
-453.81151199
 53
206.56500244
 43
56.69999957
 44
104.47500229
 45
-111.17750909
 46
-111.17698409
 79
     2
 49
2.48624995
 49
-246.11400604
 53
0.0
 43
3.29999998
 44
46.72500014
 45
0.0
 46
111.17699862
 79
     2
 49
4.44674984
 49
-106.73024654
 53
341.56509399
 43
7.79999971
 44
46.72500014
 45
111.17690461
 46
-0.00015215
 79
     2
 49
3.51600006
 49
-348.05774689
 53
315.0
 43
11.10000014
 44
45.59999943
 45
111.17734083
 46
-2.6645352591004E-14
 79
     2
 49
3.14474992
 49
-154.08375263
 53
270.0
 43
13.34999979
 44
43.35000157
 45
111.17699862
 46
-2.0422883323949E-14
 79
     2
 49
2.22374998
 49
-108.95399809
 53
258.69009399
 43
13.34999979
 44
41.10000014
 45
0.00034628
 46
-111.1775506
 79
     2
 49
5.66925019
 49
-561.2257576
 53
236.30990601
 43
12.22499996
 44
35.54999828
 45
-111.17762842
 46
-222.35437318
 79
     2
 49
4.00875002
 49
-396.84674263
 53
225.0
 43
9.97500032
 44
32.25000143
 45
-1.9984014443253E-14
 46
-111.17734083
 79
     2
 49
4.71674994
 49
-152.51174927
 53
225.0
 43
6.67499989
 44
28.87499928
 45
-1.9984014443253E-14
 46
-111.17734083
 79
     2
 49
4.71674994
 49
-152.51174927
 53
180.0
 43
111.14999771
 44
23.32499921
 45
-1.3615255549299E-14
 46
-111.17699862
 79
     2
 49
1.11150004
 49
-110.06549835
 53
213.69009399
 43
3.29999998
 44
25.57500064
 45
-111.1774674
 46
-111.17715452
 79
     2
 49
4.00875002
 49
-396.84674263
 53
180.0
 43
110.10000229
 44
23.32499921
 45
-1.3615255549299E-14
 46
-111.17699862
 79
     2
 49
2.22374998
 49
-108.95399809
 53
153.43499756
 43
107.85000086
 44
23.32499921
 45
-111.17741453
 46
0.0002413
 79
     2
 49
2.48624995
 49
-246.11400604
 53
101.30989838
 43
105.59999943
 44
24.44999993
 45
-111.17728875
 46
444.70880798
 79
     2
 49
5.66925019
 49
-561.2257576
 53
90.0
 43
104.47500229
 44
30.0
 45
-111.17699862
 46
6.8076277746497E-15
 79
     2
 49
4.44674984
 49
-106.73024654
 53
75.96379852
 43
104.47500229
 44
34.49999928
 45
-0.00044578
 46
111.17705397
 79
     2
 49
4.58399981
 49
-453.81151199
 53
71.56500244
 43
105.59999943
 44
38.92500043
 45
0.0003298
 46
111.17690461
 79
     2
 49
3.51600006
 49
-348.05774689
 53
36.86989975
 43
106.72499657
 44
42.22500086
 45
111.17744264
 46
111.17715147
 79
     2
 49
5.55899978
 49
-550.32749176
 53
18.43490028
 43
0.0
 44
45.59999943
 45
222.35461589
 46
111.1767185
 79
     2
 49
3.51600006
 49
-348.05774689
 53
213.69009399
 43
103.42499971
 44
18.89999986
 45
-111.1774674
 46
-111.17715452
 79
     2
 49
4.00875002
 49
-396.84674263
 53
206.56500244
 43
100.05000114
 44
16.65000021
 45
-111.17750909
 46
-111.17698409
 79
     2
 49
2.48624995
 49
-246.11400604
 53
225.0
 43
97.79999971
 44
15.59999943
 45
-1.9984014443253E-14
 46
-111.17734083
 79
     2
 49
3.14474992
 49
-154.08375263
 53
206.56500244
 43
95.625
 44
13.34999979
 45
-111.17750909
 46
-111.17698409
 79
     2
 49
2.48624995
 49
-246.11400604
 53
180.0
 43
93.37499857
 44
12.22499996
 45
-1.3615255549299E-14
 46
-111.17699862
 79
     2
 49
2.22374998
 49
-108.95399809
 53
180.0
 43
91.19999886
 44
12.22499996
 45
-1.3615255549299E-14
 46
-111.17699862
 79
     2
 49
5.55899978
 49
-105.61800241
 53
146.30990601
 43
85.57499886
 44
12.22499996
 45
-222.35437318
 46
111.17762842
 79
     2
 49
4.00875002
 49
-396.84674263
 53
116.56500244
 43
82.275002
 44
14.47499961
 45
-111.17698409
 46
111.17750909
 79
     2
 49
2.48624995
 49
-246.11400604
 53
108.43499756
 43
81.14999771
 44
16.65000021
 45
-111.17709601
 46
222.35442714
 79
     2
 49
3.51600006
 49
-348.05774689
 53
90.0
 43
80.02500057
 44
20.02500057
 45
-111.17699862
 46
6.8076277746497E-15
 79
     2
 49
3.33525002
 49
-107.84174681
 53
63.43489838
 43
80.02500057
 44
23.32499921
 45
0.00043375
 46
111.17741453
 79
     2
 49
2.48624995
 49
-246.11400604
 53
26.56509972
 43
81.14999771
 44
25.57500064
 45
111.17732034
 46
111.17717285
 79
     2
 49
2.48624995
 49
-246.11400604
 53
0.0
 43
83.39999914
 44
26.69999957
 45
0.0
 46
111.17699862
 79
     2
 49
10.00575006
 49
-101.17125034
 53
352.875
 43
93.37499857
 44
26.69999957
 45
111.17747939
 46
-0.00034
 79
     2
 49
8.96324962
 49
-887.37602234
 53
341.56509399
 43
102.30000257
 44
25.57500064
 45
111.17690461
 46
-0.00015215
 79
     2
 49
3.51600006
 49
-348.05774689
 53
270.0
 43
105.59999943
 44
24.44999993
 45
111.17699862
 46
-2.0422883323949E-14
 79
     2
 49
2.22374998
 49
-108.95399809
 53
243.43499756
 43
105.59999943
 44
22.20000029
 45
-0.0002413
 46
-111.17741453
 79
     2
 49
2.48624995
 49
-246.11400604
 53
225.0
 43
104.47500229
 44
20.02500057
 45
-1.9984014443253E-14
 46
-111.17734083
 79
     2
 49
1.57200001
 49
-155.655756
 53
194.03619385
 43
53.39999914
 44
48.89999986
 45
-333.53127033
 46
-111.17713245
 79
     2
 49
4.58399981
 49
-453.81151199
 53
180.0
 43
48.89999986
 44
47.77499914
 45
-1.3615255549299E-14
 46
-111.17699862
 79
     2
 49
2.22374998
 49
-108.95399809
 53
146.30990601
 43
46.72500014
 44
47.77499914
 45
-222.35437318
 46
111.17762842
 79
     2
 49
4.00875002
 49
-396.84674263
 53
146.30990601
 43
43.35000157
 44
50.02500057
 45
-222.35437318
 46
111.17762842
 79
     2
 49
4.00875002
 49
-396.84674263
 53
161.56500244
 43
40.05000114
 44
52.27499843
 45
-111.17690461
 46
0.0003298
 79
     2
 49
3.51600006
 49
-348.05774689
 53
180.0
 43
36.674999
 44
53.39999914
 45
-1.3615255549299E-14
 46
-111.17699862
 79
     2
 49
4.44674984
 49
-106.73024654
 53
161.56500244
 43
32.25000143
 44
53.39999914
 45
-111.17690461
 46
0.0003298
 79
     2
 49
3.51600006
 49
-348.05774689
 53
135.0
 43
28.87499928
 44
54.45000172
 45
-111.17734083
 46
1.3322676295502E-14
 79
     2
 49
1.57200001
 49
-155.655756
 53
90.0
 43
27.82500029
 44
55.57499886
 45
-111.17699862
 46
6.8076277746497E-15
 79
     2
 49
2.22374998
 49
-108.95399809
 53
45.0
 43
27.82500029
 44
57.82500029
 45
1.3322676295502E-14
 46
111.17734083
 79
     2
 49
3.14474992
 49
-154.08375263
 53
18.43490028
 43
30.0
 44
60.0
 45
222.35461589
 46
111.1767185
 79
     2
 49
3.51600006
 49
-348.05774689
 53
21.80139923
 43
33.37499857
 44
61.12499714
 45
222.35408276
 46
111.17720082
 79
     2
 49
5.98725021
 49
-592.72052765
 53
0.0
 43
38.92500043
 44
63.37499857
 45
0.0
 46
111.17699862
 79
     2
 49
5.55899978
 49
-105.61800241
 53
348.69009399
 43
44.47499871
 44
63.37499857
 45
111.1775506
 46
0.00034628
 79
     2
 49
5.66925019
 49
-561.2257576
 53
333.43490601
 43
50.02500057
 44
62.25000143
 45
111.17741453
 46
-0.00041895
 79
     2
 49
4.97174978
 49
-243.62774849
 53
315.0
 43
54.45000172
 44
60.0
 45
111.17734083
 46
-2.6645352591004E-14
 79
     2
 49
3.14474992
 49
-154.08375263
 53
296.56509399
 43
56.69999957
 44
57.82500029
 45
111.17716174
 46
-111.17733144
 79
     2
 49
2.48624995
 49
-246.11400604
 53
270.0
 43
57.82500029
 44
55.57499886
 45
111.17699862
 46
-2.0422883323949E-14
 79
     2
 49
3.33525002
 49
-107.84174681
 53
225.0
 43
57.82500029
 44
52.27499843
 45
-1.9984014443253E-14
 46
-111.17734083
 79
     2
 49
3.14474992
 49
-154.08375263
 53
206.56500244
 43
55.57499886
 44
50.02500057
 45
-111.17750909
 46
-111.17698409
 79
     2
 49
2.48624995
 49
-246.11400604
 53
194.03619385
 43
20.02500057
 44
16.65000021
 45
-333.53127033
 46
-111.17713245
 79
     2
 49
4.58399981
 49
-453.81151199
 53
180.0
 43
15.59999943
 44
15.59999943
 45
-1.3615255549299E-14
 46
-111.17699862
 79
     2
 49
2.22374998
 49
-108.95399809
 53
153.43499756
 43
13.34999979
 44
15.59999943
 45
-111.17741453
 46
0.0002413
 79
     2
 49
2.48624995
 49
-246.11400604
 53
135.0
 43
11.10000014
 44
16.65000021
 45
-111.17734083
 46
1.3322676295502E-14
 79
     2
 49
3.14474992
 49
-154.08375263
 53
135.0
 43
8.92500043
 44
18.89999986
 45
-111.17734083
 46
1.3322676295502E-14
 79
     2
 49
3.14474992
 49
-154.08375263
 53
116.56500244
 43
6.67499989
 44
21.1499995
 45
-111.17698409
 46
111.17750909
 79
     2
 49
2.48624995
 49
-246.11400604
 53
90.0
 43
5.55000007
 44
23.32499921
 45
-111.17699862
 46
6.8076277746497E-15
 79
     2
 49
2.22374998
 49
-108.95399809
 53
71.56500244
 43
5.55000007
 44
25.57500064
 45
0.0003298
 46
111.17690461
 79
     2
 49
3.51600006
 49
-348.05774689
 53
45.0
 43
6.67499989
 44
28.87499928
 45
1.3322676295502E-14
 46
111.17734083
 79
     2
 49
4.71674994
 49
-152.51174927
 53
33.69010162
 43
9.97500032
 44
32.25000143
 45
111.1774526
 46
111.17716932
 79
     2
 49
4.00875002
 49
-396.84674263
 53
14.03619957
 43
13.34999979
 44
34.49999928
 45
333.53125922
 46
111.17716576
 79
     2
 49
4.58399981
 49
-453.81151199
 53
341.56509399
 43
17.77499914
 44
35.54999828
 45
111.17690461
 46
-0.00015215
 79
     2
 49
3.51600006
 49
-348.05774689
 53
333.43490601
 43
21.1499995
 44
34.49999928
 45
111.17741453
 46
-0.00041895
 79
     2
 49
2.48624995
 49
-246.11400604
 53
315.0
 43
23.32499921
 44
33.37499857
 45
111.17734083
 46
-2.6645352591004E-14
 79
     2
 49
3.14474992
 49
-154.08375263
 53
288.43490601
 43
25.57500064
 44
31.12500072
 45
111.17674071
 46
-222.35460479
 79
     2
 49
3.51600006
 49
-348.05774689
 53
288.43490601
 43
26.69999957
 44
27.82500029
 45
111.17674071
 46
-222.35460479
 79
     2
 49
3.51600006
 49
-348.05774689
 53
71.56500244
 43
26.69999957
 44
21.1499995
 45
0.0003298
 46
111.17690461
 79
     2
 49
3.51600006
 49
-348.05774689
 53
225.0
 43
28.87499928
 44
23.32499921
 45
-1.9984014443253E-14
 46
-111.17734083
 79
     2
 49
3.14474992
 49
-154.08375263
 53
213.69009399
 43
26.69999957
 44
21.1499995
 45
-111.1774674
 46
-111.17715452
 79
     2
 49
4.00875002
 49
-396.84674263
 53
213.69009399
 43
23.32499921
 44
18.89999986
 45
-111.1774674
 46
-111.17715452
 79
     2
 49
4.00875002
 49
-396.84674263
 53
206.56500244
 43
98.92499685
 44
47.77499914
 45
-111.17750909
 46
-111.17698409
 79
     2
 49
2.48624995
 49
-246.11400604
 53
201.80140686
 43
96.74999714
 44
46.72500014
 45
-222.35406796
 46
-111.17723043
 79
     2
 49
5.98725021
 49
-592.72052765
 53
225.0
 43
91.19999886
 44
44.47499871
 45
-1.9984014443253E-14
 46
-111.17734083
 79
     2
 49
1.57200001
 49
-155.655756
 53
243.43499756
 43
90.07500172
 44
43.35000157
 45
-0.0002413
 46
-111.17741453
 79
     2
 49
2.48624995
 49
-246.11400604
 53
225.0
 43
88.94999743
 44
41.10000014
 45
-1.9984014443253E-14
 46
-111.17734083
 79
     2
 49
1.57200001
 49
-155.655756
 53
206.56500244
 43
87.82500029
 44
40.05000114
 45
-111.17750909
 46
-111.17698409
 79
     2
 49
2.48624995
 49
-246.11400604
 53
198.43499756
 43
85.57499886
 44
38.92500043
 45
-222.35442714
 46
-111.17709601
 79
     2
 49
3.51600006
 49
-348.05774689
 53
180.0
 43
82.275002
 44
37.79999971
 45
-1.3615255549299E-14
 46
-111.17699862
 79
     2
 49
2.22374998
 49
-108.95399809
 53
153.43499756
 43
80.02500057
 44
37.79999971
 45
-111.17741453
 46
0.0002413
 79
     2
 49
4.97174978
 49
-243.62774849
 53
153.43499756
 43
75.59999943
 44
40.05000114
 45
-111.17741453
 46
0.0002413
 79
     2
 49
4.97174978
 49
-243.62774849
 53
135.0
 43
71.17499828
 44
42.22500086
 45
-111.17734083
 46
1.3322676295502E-14
 79
     2
 49
3.14474992
 49
-154.08375263
 53
116.56500244
 43
68.92499685
 44
44.47499871
 45
-111.17698409
 46
111.17750909
 79
     2
 49
2.48624995
 49
-246.11400604
 53
90.0
 43
67.79999971
 44
46.72500014
 45
-111.17699862
 46
6.8076277746497E-15
 79
     2
 49
2.22374998
 49
-108.95399809
 53
63.43489838
 43
67.79999971
 44
48.89999986
 45
0.00043375
 46
111.17741453
 79
     2
 49
2.48624995
 49
-246.11400604
 53
26.56509972
 43
68.92499685
 44
51.15000129
 45
111.17732034
 46
111.17717285
 79
     2
 49
4.97174978
 49
-243.62774849
 53
33.69010162
 43
73.349998
 44
53.39999914
 45
111.1774526
 46
111.17716932
 79
     2
 49
4.00875002
 49
-396.84674263
 53
45.0
 43
76.72499657
 44
55.57499886
 45
1.3322676295502E-14
 46
111.17734083
 79
     2
 49
3.14474992
 49
-154.08375263
 53
56.30989838
 43
78.90000343
 44
57.82500029
 45
111.17765803
 46
222.35435837
 79
     2
 49
4.00875002
 49
-396.84674263
 53
18.43490028
 43
81.14999771
 44
61.12499714
 45
222.35461589
 46
111.1767185
 79
     2
 49
3.51600006
 49
-348.05774689
 53
0.0
 43
84.52500343
 44
62.25000143
 45
0.0
 46
111.17699862
 79
     2
 49
4.44674984
 49
-106.73024654
 53
338.1986084
 43
88.94999743
 44
62.25000143
 45
333.53148263
 46
-111.17685958
 79
     2
 49
5.98725021
 49
-592.72052765
 53
315.0
 43
94.50000286
 44
60.0
 45
111.17734083
 46
-2.6645352591004E-14
 79
     2
 49
3.14474992
 49
-154.08375263
 53
315.0
 43
96.74999714
 44
57.82500029
 45
111.17734083
 46
-2.6645352591004E-14
 79
     2
 49
3.14474992
 49
-154.08375263
 53
296.56509399
 43
98.92499685
 44
55.57499886
 45
111.17716174
 46
-111.17733144
 79
     2
 49
2.48624995
 49
-246.11400604
 53
270.0
 43
100.05000114
 44
53.39999914
 45
111.17699862
 46
-2.0422883323949E-14
 79
     2
 49
3.33525002
 49
-107.84174681
 53
243.43499756
 43
100.05000114
 44
50.02500057
 45
-0.0002413
 46
-111.17741453
 79
     2
 49
2.48624995
 49
-246.11400604
 53
180.0
 43
50.02500057
 44
13.34999979
 45
-1.3615255549299E-14
 46
-111.17699862
 79
     2
 49
3.33525002
 49
-107.84174681
 53
168.69009399
 43
46.72500014
 44
13.34999979
 45
-111.1775506
 46
-0.00034628
 79
     2
 49
5.66925019
 49
-561.2257576
 53
146.30990601
 43
41.10000014
 44
14.47499961
 45
-222.35437318
 46
111.17762842
 79
     2
 49
4.00875002
 49
-396.84674263
 53
108.43499756
 43
37.79999971
 44
16.65000021
 45
-111.17709601
 46
222.35442714
 79
     2
 49
3.51600006
 49
-348.05774689
 53
108.43499756
 43
36.674999
 44
20.02500057
 45
-111.17709601
 46
222.35442714
 79
     2
 49
3.51600006
 49
-348.05774689
 53
75.96379852
 43
35.54999828
 44
23.32499921
 45
-0.00044578
 46
111.17705397
 79
     2
 49
4.58399981
 49
-453.81151199
 53
51.34019852
 43
36.674999
 44
27.82500029
 45
333.53146964
 46
444.70920334
 79
     2
 49
7.11899981
 49
-704.76224899
 53
29.74489975
 43
41.10000014
 44
33.37499857
 45
555.88606977
 46
333.53149537
 79
     2
 49
8.96324962
 49
-887.37602234
 53
6.34019995
 43
48.89999986
 44
37.79999971
 45
889.41769034
 46
111.17737119
 79
     2
 49
10.06725043
 49
-996.6847229
 53
348.69009399
 43
58.950001
 44
38.92500043
 45
111.1775506
 46
0.00034628
 79
     2
 49
5.66925019
 49
-561.2257576
 53
315.0
 43
64.50000286
 44
37.79999971
 45
111.17734083
 46
-2.6645352591004E-14
 79
     2
 49
4.71674994
 49
-152.51174927
 53
288.43490601
 43
67.79999971
 44
34.49999928
 45
111.17674071
 46
-222.35460479
 79
     2
 49
3.51600006
 49
-348.05774689
 53
270.0
 43
68.92499685
 44
31.12500072
 45
111.17699862
 46
-2.0422883323949E-14
 79
     2
 49
6.67050004
 49
-104.50650215
 53
251.56500244
 43
68.92499685
 44
24.44999993
 45
-0.0003298
 46
-111.17690461
 79
     2
 49
7.03125
 49
-344.54174995
 53
206.56500244
 43
66.67500257
 44
17.77499914
 45
-111.17750909
 46
-111.17698409
 79
     2
 49
4.97174978
 49
-243.62774849
 53
191.30990601
 43
62.25000143
 44
15.59999943
 45
-444.70879317
 46
-111.17734797
 79
     2
 49
5.66925019
 49
-561.2257576
 53
189.46229553
 43
56.69999957
 44
14.47499961
 45
-555.88628955
 46
-111.17706312
 79
     2
 49
6.76275015
 49
-669.50174332
 53
341.56509399
 43
6.67499989
 44
94.50000286
 45
111.17690461
 46
-0.00015215
 79
     2
 49
3.51600006
 49
-348.05774689
 53
315.0
 43
9.97500032
 44
93.37499857
 45
111.17734083
 46
-2.6645352591004E-14
 79
     2
 49
3.14474992
 49
-154.08375263
 53
270.0
 43
12.22499996
 44
91.19999886
 45
111.17699862
 46
-2.0422883323949E-14
 79
     2
 49
2.22374998
 49
-108.95399809
 53
251.56500244
 43
12.22499996
 44
88.94999743
 45
-0.0003298
 46
-111.17690461
 79
     2
 49
3.51600006
 49
-348.05774689
 53
225.0
 43
11.10000014
 44
85.57499886
 45
-1.9984014443253E-14
 46
-111.17734083
 79
     2
 49
1.57200001
 49
-155.655756
 53
180.0
 43
9.97500032
 44
84.52500343
 45
-1.3615255549299E-14
 46
-111.17699862
 79
     2
 49
2.22374998
 49
-108.95399809
 53
135.0
 43
7.79999971
 44
84.52500343
 45
-111.17734083
 46
1.3322676295502E-14
 79
     2
 49
3.14474992
 49
-154.08375263
 53
56.30989838
 43
4.4249998
 44
91.19999886
 45
111.17765803
 46
222.35435837
 79
     2
 49
4.00875002
 49
-396.84674263
 53
0.0
 43
21.1499995
 44
94.50000286
 45
0.0
 46
111.17699862
 79
     2
 49
4.44674984
 49
-106.73024654
 53
9.4623003
 43
25.57500064
 44
94.50000286
 45
555.88628029
 46
111.17710938
 79
     2
 49
6.76275015
 49
-669.50174332
 53
0.0
 43
32.25000143
 44
95.625
 45
0.0
 46
111.17699862
 79
     2
 49
4.44674984
 49
-106.73024654
 53
326.30990601
 43
36.674999
 44
95.625
 45
222.35437318
 46
-111.17762842
 79
     2
 49
4.00875002
 49
-396.84674263
 53
300.9637146
 43
40.05000114
 44
93.37499857
 45
222.35415334
 46
-333.53220907
 79
     2
 49
6.48300022
 49
-641.78627014
 53
270.0
 43
43.35000157
 44
87.82500029
 45
111.17699862
 46
-2.0422883323949E-14
 79
     2
 49
4.44674984
 49
-106.73024654
 53
236.30990601
 43
43.35000157
 44
83.39999914
 45
-111.17762842
 46
-222.35437318
 79
     2
 49
4.00875002
 49
-396.84674263
 53
251.56500244
 43
41.10000014
 44
80.02500057
 45
-0.0003298
 46
-111.17690461
 79
     2
 49
3.51600006
 49
-348.05774689
 53
213.69009399
 43
40.05000114
 44
76.72499657
 45
-111.1774674
 46
-111.17715452
 79
     2
 49
4.00875002
 49
-396.84674263
 53
198.43499756
 43
36.674999
 44
74.47500229
 45
-222.35442714
 46
-111.17709601
 79
     2
 49
3.51600006
 49
-348.05774689
 53
191.30990601
 43
33.37499857
 44
73.349998
 45
-444.70879317
 46
-111.17734797
 79
     2
 49
5.66925019
 49
-561.2257576
 53
180.0
 43
27.82500029
 44
72.30000257
 45
-1.3615255549299E-14
 46
-111.17699862
 79
     2
 49
5.55899978
 49
-105.61800241
 53
135.0
 43
22.20000029
 44
72.30000257
 45
-111.17734083
 46
1.3322676295502E-14
 79
     2
 49
3.14474992
 49
-154.08375263
 53
146.30990601
 43
20.02500057
 44
74.47500229
 45
-222.35437318
 46
111.17762842
 79
     2
 49
4.00875002
 49
-396.84674263
 53
161.56500244
 43
16.65000021
 44
76.72499657
 45
-111.17690461
 46
0.0003298
 79
     2
 49
3.51600006
 49
-348.05774689
 53
123.69010162
 43
13.34999979
 44
77.85000086
 45
-111.17716932
 46
111.1774526
 79
     2
 49
4.00875002
 49
-396.84674263
 53
90.0
 43
11.10000014
 44
81.14999771
 45
-111.17699862
 46
6.8076277746497E-15
 79
     2
 49
2.22374998
 49
-108.95399809
 53
78.69010162
 43
11.10000014
 44
83.39999914
 45
-0.00036109
 46
111.1775506
 79
     2
 49
5.66925019
 49
-561.2257576
 53
56.30989838
 43
12.22499996
 44
88.94999743
 45
111.17765803
 46
222.35435837
 79
     2
 49
4.00875002
 49
-396.84674263
 53
45.0
 43
14.47499961
 44
92.25000143
 45
1.3322676295502E-14
 46
111.17734083
 79
     2
 49
1.57200001
 49
-155.655756
 53
26.56509972
 43
15.59999943
 44
93.37499857
 45
111.17732034
 46
111.17717285
 79
     2
 49
2.48624995
 49
-246.11400604
 53
0.0
 43
17.77499914
 44
94.50000286
 45
0.0
 46
111.17699862
 79
     2
 49
3.33525002
 49
-107.84174681
 53
326.30990601
 43
12.22499996
 44
98.92499685
 45
222.35437318
 46
-111.17762842
 79
     2
 49
4.00875002
 49
-396.84674263
 53
333.43490601
 43
15.59999943
 44
96.74999714
 45
111.17741453
 46
-0.00041895
 79
     2
 49
2.48624995
 49
-246.11400604
 53
270.0
 43
17.77499914
 44
95.625
 45
111.17699862
 46
-2.0422883323949E-14
 79
     2
 49
1.11150004
 49
-110.06549835
 53
206.56500244
 43
17.77499914
 44
94.50000286
 45
-111.17750909
 46
-111.17698409
 79
     2
 49
2.48624995
 49
-246.11400604
 53
180.0
 43
15.59999943
 44
93.37499857
 45
-1.3615255549299E-14
 46
-111.17699862
 79
     2
 49
4.44674984
 49
-106.73024654
 53
165.96380615
 43
11.10000014
 44
93.37499857
 45
-111.17705397
 46
-0.00046058
 79
     2
 49
4.58399981
 49
-453.81151199
 53
135.0
 43
6.67499989
 44
94.50000286
 45
-111.17734083
 46
1.3322676295502E-14
 79
     2
 49
1.57200001
 49
-155.655756
 53
116.56500244
 43
5.55000007
 44
95.625
 45
-111.17698409
 46
111.17750909
 79
     2
 49
2.48624995
 49
-246.11400604
 53
63.43489838
 43
4.4249998
 44
97.79999971
 45
0.00043375
 46
111.17741453
 79
     2
 49
2.48624995
 49
-246.11400604
 53
26.56509972
 43
5.55000007
 44
100.05000114
 45
111.17732034
 46
111.17717285
 79
     2
 49
2.48624995
 49
-246.11400604
 53
0.0
 43
7.79999971
 44
101.17499828
 45
0.0
 46
111.17699862
 79
     2
 49
2.22374998
 49
-108.95399809
 53
315.0
 43
9.97500032
 44
101.17499828
 45
111.17734083
 46
-2.6645352591004E-14
 79
     2
 49
3.14474992
 49
-154.08375263
 53
236.30990601
 43
36.674999
 44
102.30000257
 45
-111.17762842
 46
-222.35437318
 79
     2
 49
4.00875002
 49
-396.84674263
 53
225.0
 43
34.49999928
 44
98.92499685
 45
-1.9984014443253E-14
 46
-111.17734083
 79
     2
 49
4.71674994
 49
-152.51174927
 53
191.30990601
 43
31.12500072
 44
95.625
 45
-444.70879317
 46
-111.17734797
 79
     2
 49
5.66925019
 49
-561.2257576
 53
180.0
 43
25.57500064
 44
94.50000286
 45
-1.3615255549299E-14
 46
-111.17699862
 79
     2
 49
4.44674984
 49
-106.73024654
 53
158.19859314
 43
21.1499995
 44
94.50000286
 45
-333.53145302
 46
111.17694841
 79
     2
 49
5.98725021
 49
-592.72052765
 53
146.30990601
 43
15.59999943
 44
96.74999714
 45
-222.35437318
 46
111.17762842
 79
     2
 49
4.00875002
 49
-396.84674263
 53
116.56500244
 43
12.22499996
 44
98.92499685
 45
-111.17698409
 46
111.17750909
 79
     2
 49
2.48624995
 49
-246.11400604
 53
90.0
 43
11.10000014
 44
101.17499828
 45
-111.17699862
 46
6.8076277746497E-15
 79
     2
 49
2.22374998
 49
-108.95399809
 53
45.0
 43
11.10000014
 44
103.42499971
 45
1.3322676295502E-14
 46
111.17734083
 79
     2
 49
3.14474992
 49
-154.08375263
 53
0.0
 43
13.34999979
 44
105.59999943
 45
0.0
 46
111.17699862
 79
     2
 49
8.8942498
 49
-102.28275061
 53
15.94540024
 43
22.20000029
 44
105.59999943
 45
333.53169492
 46
111.17739773
 79
     2
 49
8.09400022
 49
-801.28875732
 53
0.0
 43
30.0
 44
107.85000086
 45
0.0
 46
111.17699862
 79
     2
 49
4.44674984
 49
-106.73024654
 53
326.30990601
 43
34.49999928
 44
107.85000086
 45
222.35437318
 46
-111.17762842
 79
     2
 49
4.00875002
 49
-396.84674263
 53
251.56500244
 43
37.79999971
 44
105.59999943
 45
-0.0003298
 46
-111.17690461
 79
     2
 49
3.51600006
 49
-348.05774689
 53
243.43499756
 43
52.27499843
 44
73.349998
 45
-0.0002413
 46
-111.17741453
 79
     2
 49
2.48624995
 49
-246.11400604
 53
180.0
 43
51.15000129
 44
71.17499828
 45
-1.3615255549299E-14
 46
-111.17699862
 79
     2
 49
4.44674984
 49
-106.73024654
 53
194.03619385
 43
46.72500014
 44
71.17499828
 45
-333.53127033
 46
-111.17713245
 79
     2
 49
4.58399981
 49
-453.81151199
 53
180.0
 43
42.22500086
 44
70.05000114
 45
-1.3615255549299E-14
 46
-111.17699862
 79
     2
 49
3.33525002
 49
-107.84174681
 53
135.0
 43
38.92500043
 44
70.05000114
 45
-111.17734083
 46
1.3322676295502E-14
 79
     2
 49
3.14474992
 49
-154.08375263
 53
90.0
 43
36.674999
 44
72.30000257
 45
-111.17699862
 46
6.8076277746497E-15
 79
     2
 49
2.22374998
 49
-108.95399809
 53
18.43490028
 43
36.674999
 44
74.47500229
 45
222.35461589
 46
111.1767185
 79
     2
 49
3.51600006
 49
-348.05774689
 53
14.03619957
 43
40.05000114
 44
75.59999943
 45
333.53125922
 46
111.17716576
 79
     2
 49
4.58399981
 49
-453.81151199
 53
0.0
 43
44.47499871
 44
76.72499657
 45
0.0
 46
111.17699862
 79
     2
 49
4.44674984
 49
-106.73024654
 53
326.30990601
 43
48.89999986
 44
76.72499657
 45
222.35437318
 46
-111.17762842
 79
     2
 49
4.00875002
 49
-396.84674263
 53
270.0
 43
61.12499714
 44
74.47500229
 45
111.17699862
 46
-2.0422883323949E-14
 79
     2
 49
2.22374998
 49
-108.95399809
 53
206.56500244
 43
61.12499714
 44
72.30000257
 45
-111.17750909
 46
-111.17698409
 79
     2
 49
2.48624995
 49
-246.11400604
 53
180.0
 43
58.950001
 44
71.17499828
 45
-1.3615255549299E-14
 46
-111.17699862
 79
     2
 49
3.33525002
 49
-107.84174681
 53
153.43499756
 43
55.57499886
 44
71.17499828
 45
-111.17741453
 46
0.0002413
 79
     2
 49
2.48624995
 49
-246.11400604
 53
135.0
 43
53.39999914
 44
72.30000257
 45
-111.17734083
 46
1.3322676295502E-14
 79
     2
 49
1.57200001
 49
-155.655756
 53
90.0
 43
52.27499843
 44
73.349998
 45
-111.17699862
 46
6.8076277746497E-15
 79
     2
 49
2.22374998
 49
-108.95399809
 53
26.56509972
 43
52.27499843
 44
75.59999943
 45
111.17732034
 46
111.17717285
 79
     2
 49
2.48624995
 49
-246.11400604
 53
0.0
 43
54.45000172
 44
76.72499657
 45
0.0
 46
111.17699862
 79
     2
 49
4.44674984
 49
-106.73024654
 53
333.43490601
 43
58.950001
 44
76.72499657
 45
111.17741453
 46
-0.00041895
 79
     2
 49
2.48624995
 49
-246.11400604
 53
180.0
 43
73.349998
 44
68.92499685
 45
-1.3615255549299E-14
 46
-111.17699862
 79
     2
 49
3.33525002
 49
-107.84174681
 53
165.96380615
 43
70.05000114
 44
68.92499685
 45
-111.17705397
 46
-0.00046058
 79
     2
 49
4.58399981
 49
-453.81151199
 53
146.30990601
 43
65.625
 44
70.05000114
 45
-222.35437318
 46
111.17762842
 79
     2
 49
4.00875002
 49
-396.84674263
 53
116.56500244
 43
62.25000143
 44
72.30000257
 45
-111.17698409
 46
111.17750909
 79
     2
 49
2.48624995
 49
-246.11400604
 53
90.0
 43
61.12499714
 44
74.47500229
 45
-111.17699862
 46
6.8076277746497E-15
 79
     2
 49
2.22374998
 49
-108.95399809
 53
33.69010162
 43
61.12499714
 44
76.72499657
 45
111.1774526
 46
111.17716932
 79
     2
 49
4.00875002
 49
-396.84674263
 53
18.43490028
 43
64.50000286
 44
78.90000343
 45
222.35461589
 46
111.1767185
 79
     2
 49
3.51600006
 49
-348.05774689
 53
0.0
 43
67.79999971
 44
80.02500057
 45
0.0
 46
111.17699862
 79
     2
 49
4.44674984
 49
-106.73024654
 53
350.53768921
 43
72.30000257
 44
80.02500057
 45
111.17694947
 46
0.00014621
 79
     2
 49
6.76275015
 49
-669.50174332
 53
296.56509399
 43
78.90000343
 44
78.90000343
 45
111.17716174
 46
-111.17733144
 79
     2
 49
2.48624995
 49
-246.11400604
 53
270.0
 43
80.02500057
 44
76.72499657
 45
111.17699862
 46
-2.0422883323949E-14
 79
     2
 49
4.44674984
 49
-106.73024654
 53
243.43499756
 43
80.02500057
 44
72.30000257
 45
-0.0002413
 46
-111.17741453
 79
     2
 49
2.48624995
 49
-246.11400604
 53
198.43499756
 43
78.90000343
 44
70.05000114
 45
-222.35442714
 46
-111.17709601
 79
     2
 49
3.51600006
 49
-348.05774689
 53
180.0
 43
75.59999943
 44
68.92499685
 45
-1.3615255549299E-14
 46
-111.17699862
 79
     2
 49
2.22374998
 49
-108.95399809
 53
180.0
 43
57.82500029
 44
76.72499657
 45
-1.3615255549299E-14
 46
-111.17699862
 79
     2
 49
10.00575006
 49
-101.17125034
 53
165.96380615
 43
47.77499914
 44
76.72499657
 45
-111.17705397
 46
-0.00046058
 79
     2
 49
4.58399981
 49
-453.81151199
 53
135.0
 43
43.35000157
 44
77.85000086
 45
-111.17734083
 46
1.3322676295502E-14
 79
     2
 49
1.57200001
 49
-155.655756
 53
90.0
 43
42.22500086
 44
78.90000343
 45
-111.17699862
 46
6.8076277746497E-15
 79
     2
 49
2.22374998
 49
-108.95399809
 53
63.43489838
 43
42.22500086
 44
81.14999771
 45
0.00043375
 46
111.17741453
 79
     2
 49
2.48624995
 49
-246.11400604
 53
18.43490028
 43
43.35000157
 44
83.39999914
 45
222.35461589
 46
111.1767185
 79
     2
 49
3.51600006
 49
-348.05774689
 53
11.30990028
 43
46.72500014
 44
84.52500343
 45
444.70880427
 46
111.17730356
 79
     2
 49
5.66925019
 49
-561.2257576
 53
0.0
 43
52.27499843
 44
85.57499886
 45
0.0
 46
111.17699862
 79
     2
 49
4.44674984
 49
-106.73024654
 53
0.0
 43
56.69999957
 44
85.57499886
 45
0.0
 46
111.17699862
 79
     2
 49
4.44674984
 49
-106.73024654
 53
333.43490601
 43
61.12499714
 44
85.57499886
 45
111.17741453
 46
-0.00041895
 79
     2
 49
4.97174978
 49
-243.62774849
 53
296.56509399
 43
65.625
 44
83.39999914
 45
111.17716174
 46
-111.17733144
 79
     2
 49
2.48624995
 49
-246.11400604
 53
270.0
 43
66.67500257
 44
81.14999771
 45
111.17699862
 46
-2.0422883323949E-14
 79
     2
 49
1.11150004
 49
-110.06549835
 53
206.56500244
 43
66.67500257
 44
80.02500057
 45
-111.17750909
 46
-111.17698409
 79
     2
 49
2.48624995
 49
-246.11400604
 53
206.56500244
 43
64.50000286
 44
78.90000343
 45
-111.17750909
 46
-111.17698409
 79
     2
 49
2.48624995
 49
-246.11400604
 53
206.56500244
 43
62.25000143
 44
77.85000086
 45
-111.17750909
 46
-111.17698409
 79
     2
 49
2.48624995
 49
-246.11400604
 53
180.0
 43
60.0
 44
76.72499657
 45
-1.3615255549299E-14
 46
-111.17699862
 79
     2
 49
2.22374998
 49
-108.95399809
 53
63.43489838
 43
35.54999828
 44
100.05000114
 45
0.00043375
 46
111.17741453
 79
     2
 49
2.48624995
 49
-246.11400604
 53
45.0
 43
36.674999
 44
102.30000257
 45
1.3322676295502E-14
 46
111.17734083
 79
     2
 49
3.14474992
 49
-154.08375263
 53
0.0
 43
38.92500043
 44
104.47500229
 45
0.0
 46
111.17699862
 79
     2
 49
3.33525002
 49
-107.84174681
 53
341.56509399
 43
42.22500086
 44
104.47500229
 45
111.17690461
 46
-0.00015215
 79
     2
 49
3.51600006
 49
-348.05774689
 53
270.0
 43
45.59999943
 44
103.42499971
 45
111.17699862
 46
-2.0422883323949E-14
 79
     2
 49
2.22374998
 49
-108.95399809
 53
243.43499756
 43
45.59999943
 44
101.17499828
 45
-0.0002413
 46
-111.17741453
 79
     2
 49
2.48624995
 49
-246.11400604
 53
213.69009399
 43
44.47499871
 44
98.92499685
 45
-111.1774674
 46
-111.17715452
 79
     2
 49
4.00875002
 49
-396.84674263
 53
180.0
 43
41.10000014
 44
96.74999714
 45
-1.3615255549299E-14
 46
-111.17699862
 79
     2
 49
2.22374998
 49
-108.95399809
 53
161.56500244
 43
38.92500043
 44
96.74999714
 45
-111.17690461
 46
0.0003298
 79
     2
 49
3.51600006
 49
-348.05774689
 53
90.0
 43
35.54999828
 44
97.79999971
 45
-111.17699862
 46
6.8076277746497E-15
 79
     2
 49
2.22374998
 49
-108.95399809
 53
90.0
 43
57.82500029
 44
91.19999886
 45
-111.17699862
 46
6.8076277746497E-15
 79
     2
 49
2.22374998
 49
-108.95399809
 53
26.56509972
 43
57.82500029
 44
93.37499857
 45
111.17732034
 46
111.17717285
 79
     2
 49
2.48624995
 49
-246.11400604
 53
11.30990028
 43
60.0
 44
94.50000286
 45
444.70880427
 46
111.17730356
 79
     2
 49
5.66925019
 49
-561.2257576
 53
315.0
 43
65.625
 44
95.625
 45
111.17734083
 46
-2.6645352591004E-14
 79
     2
 49
3.14474992
 49
-154.08375263
 53
251.56500244
 43
67.79999971
 44
93.37499857
 45
-0.0003298
 46
-111.17690461
 79
     2
 49
3.51600006
 49
-348.05774689
 53
206.56500244
 43
66.67500257
 44
90.07500172
 45
-111.17750909
 46
-111.17698409
 79
     2
 49
2.48624995
 49
-246.11400604
 53
180.0
 43
64.50000286
 44
88.94999743
 45
-1.3615255549299E-14
 46
-111.17699862
 79
     2
 49
3.33525002
 49
-107.84174681
 53
146.30990601
 43
61.12499714
 44
88.94999743
 45
-222.35437318
 46
111.17762842
 79
     2
 49
4.00875002
 49
-396.84674263
 53
26.56509972
 43
46.72500014
 44
92.25000143
 45
111.17732034
 46
111.17717285
 79
     2
 49
2.48624995
 49
-246.11400604
 53
0.0
 43
48.89999986
 44
93.37499857
 45
0.0
 46
111.17699862
 79
     2
 49
4.44674984
 49
-106.73024654
 53
333.43490601
 43
53.39999914
 44
93.37499857
 45
111.17741453
 46
-0.00041895
 79
     2
 49
4.97174978
 49
-243.62774849
 53
296.56509399
 43
57.82500029
 44
91.19999886
 45
111.17716174
 46
-111.17733144
 79
     2
 49
2.48624995
 49
-246.11400604
 53
270.0
 43
58.950001
 44
88.94999743
 45
111.17699862
 46
-2.0422883323949E-14
 79
     2
 49
2.22374998
 49
-108.95399809
 53
206.56500244
 43
58.950001
 44
86.70000315
 45
-111.17750909
 46
-111.17698409
 79
     2
 49
2.48624995
 49
-246.11400604
 53
180.0
 43
56.69999957
 44
85.57499886
 45
-1.3615255549299E-14
 46
-111.17699862
 79
     2
 49
4.44674984
 49
-106.73024654
 53
191.30990601
 43
52.27499843
 44
85.57499886
 45
-444.70879317
 46
-111.17734797
 79
     2
 49
5.66925019
 49
-561.2257576
 53
153.43499756
 43
46.72500014
 44
84.52500343
 45
-111.17741453
 46
0.0002413
 79
     2
 49
2.48624995
 49
-246.11400604
 53
90.0
 43
44.47499871
 44
85.57499886
 45
-111.17699862
 46
6.8076277746497E-15
 79
     2
 49
2.22374998
 49
-108.95399809
 53
63.43489838
 43
44.47499871
 44
87.82500029
 45
0.00043375
 46
111.17741453
 79
     2
 49
2.48624995
 49
-246.11400604
 53
63.43489838
 43
45.59999943
 44
90.07500172
 45
0.00043375
 46
111.17741453
 79
     2
 49
2.48624995
 49
-246.11400604
 53
21.80139923
 43
46.72500014
 44
100.05000114
 45
222.35408276
 46
111.17720082
 79
     2
 49
5.98725021
 49
-592.72052765
 53
0.0
 43
52.27499843
 44
102.30000257
 45
0.0
 46
111.17699862
 79
     2
 49
5.55899978
 49
-105.61800241
 53
348.69009399
 43
57.82500029
 44
102.30000257
 45
111.1775506
 46
0.00034628
 79
     2
 49
5.66925019
 49
-561.2257576
 53
341.56509399
 43
63.37499857
 44
101.17499828
 45
111.17690461
 46
-0.00015215
 79
     2
 49
3.51600006
 49
-348.05774689
 53
296.56509399
 43
66.67500257
 44
100.05000114
 45
111.17716174
 46
-111.17733144
 79
     2
 49
2.48624995
 49
-246.11400604
 53
270.0
 43
67.79999971
 44
97.79999971
 45
111.17699862
 46
-2.0422883323949E-14
 79
     2
 49
1.11150004
 49
-110.06549835
 53
198.43499756
 43
67.79999971
 44
96.74999714
 45
-222.35442714
 46
-111.17709601
 79
     2
 49
3.51600006
 49
-348.05774689
 53
191.30990601
 43
64.50000286
 44
95.625
 45
-444.70879317
 46
-111.17734797
 79
     2
 49
5.66925019
 49
-561.2257576
 53
191.30990601
 43
58.950001
 44
94.50000286
 45
-444.70879317
 46
-111.17734797
 79
     2
 49
5.66925019
 49
-561.2257576
 53
180.0
 43
53.39999914
 44
93.37499857
 45
-1.3615255549299E-14
 46
-111.17699862
 79
     2
 49
4.44674984
 49
-106.73024654
 53
206.56500244
 43
48.89999986
 44
93.37499857
 45
-111.17750909
 46
-111.17698409
 79
     2
 49
2.48624995
 49
-246.11400604
 53
180.0
 43
46.72500014
 44
92.25000143
 45
-1.3615255549299E-14
 46
-111.17699862
 79
     2
 49
3.33525002
 49
-107.84174681
 53
153.43499756
 43
43.35000157
 44
92.25000143
 45
-111.17741453
 46
0.0002413
 79
     2
 49
2.48624995
 49
-246.11400604
 53
90.0
 43
41.10000014
 44
93.37499857
 45
-111.17699862
 46
6.8076277746497E-15
 79
     2
 49
2.22374998
 49
-108.95399809
 53
45.0
 43
41.10000014
 44
95.625
 45
1.3322676295502E-14
 46
111.17734083
 79
     2
 49
4.71674994
 49
-152.51174927
 53
26.56509972
 43
44.47499871
 44
98.92499685
 45
111.17732034
 46
111.17717285
 79
     2
 49
2.48624995
 49
-246.11400604
 53
18.43490028
 43
71.17499828
 44
96.74999714
 45
222.35461589
 46
111.1767185
 79
     2
 49
3.51600006
 49
-348.05774689
 53
341.56509399
 43
74.47500229
 44
97.79999971
 45
111.17690461
 46
-0.00015215
 79
     2
 49
7.03125
 49
-344.54174995
 53
315.0
 43
81.14999771
 44
95.625
 45
111.17734083
 46
-2.6645352591004E-14
 79
     2
 49
4.71674994
 49
-152.51174927
 53
303.69009399
 43
84.52500343
 44
92.25000143
 45
111.17715452
 46
-111.1774674
 79
     2
 49
4.00875002
 49
-396.84674263
 53
270.0
 43
86.70000315
 44
88.94999743
 45
111.17699862
 46
-2.0422883323949E-14
 79
     2
 49
4.44674984
 49
-106.73024654
 53
270.0
 43
86.70000315
 44
84.52500343
 45
111.17699862
 46
-2.0422883323949E-14
 79
     2
 49
2.22374998
 49
-108.95399809
 53
225.0
 43
86.70000315
 44
82.275002
 45
-1.9984014443253E-14
 46
-111.17734083
 79
     2
 49
1.57200001
 49
-155.655756
 53
225.0
 43
85.57499886
 44
81.14999771
 45
-1.9984014443253E-14
 46
-111.17734083
 79
     2
 49
3.14474992
 49
-154.08375263
 53
180.0
 43
83.39999914
 44
78.90000343
 45
-1.3615255549299E-14
 46
-111.17699862
 79
     2
 49
2.22374998
 49
-108.95399809
 53
170.53770447
 43
81.14999771
 44
78.90000343
 45
-111.17694947
 46
-0.00017582
 79
     2
 49
6.76275015
 49
-669.50174332
 53
170.53770447
 43
74.47500229
 44
80.02500057
 45
-111.17694947
 46
-0.00017582
 79
     2
 49
6.76275015
 49
-669.50174332
 53
135.0
 43
67.79999971
 44
81.14999771
 45
-111.17734083
 46
1.3322676295502E-14
 79
     2
 49
3.14474992
 49
-154.08375263
 53
90.0
 43
65.625
 44
83.39999914
 45
-111.17699862
 46
6.8076277746497E-15
 79
     2
 49
3.33525002
 49
-107.84174681
 53
68.19860077
 43
65.625
 44
86.70000315
 45
111.17690399
 46
333.53146783
 79
     2
 49
5.98725021
 49
-592.72052765
 53
53.13010025
 43
67.79999971
 44
92.25000143
 45
222.35476622
 46
333.53174692
 79
     2
 49
5.55899978
 49
-550.32749176
 53
104.03620148
 43
81.14999771
 44
68.92499685
 45
-111.17717686
 46
333.53125552
 79
     2
 49
4.58399981
 49
-453.81151199
 53
71.56500244
 43
80.02500057
 44
73.349998
 45
0.0003298
 46
111.17690461
 79
     2
 49
3.51600006
 49
-348.05774689
 53
45.0
 43
81.14999771
 44
76.72499657
 45
1.3322676295502E-14
 46
111.17734083
 79
     2
 49
3.14474992
 49
-154.08375263
 53
33.69010162
 43
83.39999914
 44
78.90000343
 45
111.1774526
 46
111.17716932
 79
     2
 49
4.00875002
 49
-396.84674263
 53
0.0
 43
86.70000315
 44
81.14999771
 45
0.0
 46
111.17699862
 79
     2
 49
4.44674984
 49
-106.73024654
 53
326.30990601
 43
91.19999886
 44
81.14999771
 45
222.35437318
 46
-111.17762842
 79
     2
 49
4.00875002
 49
-396.84674263
 53
315.0
 43
94.50000286
 44
78.90000343
 45
111.17734083
 46
-2.6645352591004E-14
 79
     2
 49
6.28949985
 49
-150.93900204
 53
300.9637146
 43
98.92499685
 44
74.47500229
 45
222.35415334
 46
-333.53220907
 79
     2
 49
6.48300022
 49
-641.78627014
 53
284.0362854
 43
102.30000257
 44
68.92499685
 45
111.1776654
 46
-333.53109268
 79
     2
 49
4.58399981
 49
-453.81151199
 53
270.0
 43
103.42499971
 44
64.50000286
 45
111.17699862
 46
-2.0422883323949E-14
 79
     2
 49
3.33525002
 49
-107.84174681
 53
243.43499756
 43
103.42499971
 44
61.12499714
 45
-0.0002413
 46
-111.17741453
 79
     2
 49
2.48624995
 49
-246.11400604
 53
206.56500244
 43
102.30000257
 44
58.950001
 45
-111.17750909
 46
-111.17698409
 79
     2
 49
2.48624995
 49
-246.11400604
 53
180.0
 43
100.05000114
 44
57.82500029
 45
-1.3615255549299E-14
 46
-111.17699862
 79
     2
 49
3.33525002
 49
-107.84174681
 53
135.0
 43
96.74999714
 44
57.82500029
 45
-111.17734083
 46
1.3322676295502E-14
 79
     2
 49
3.14474992
 49
-154.08375263
 53
146.30990601
 43
94.50000286
 44
60.0
 45
-222.35437318
 46
111.17762842
 79
     2
 49
4.00875002
 49
-396.84674263
 53
165.96380615
 43
91.19999886
 44
62.25000143
 45
-111.17705397
 46
-0.00046058
 79
     2
 49
4.58399981
 49
-453.81151199
 53
153.43499756
 43
86.70000315
 44
63.37499857
 45
-111.17741453
 46
0.0002413
 79
     2
 49
2.48624995
 49
-246.11400604
 53
126.86990356
 43
84.52500343
 44
64.50000286
 45
-111.17715887
 46
111.17743524
 79
     2
 49
5.55899978
 49
-550.32749176
 53
71.56500244
 43
98.92499685
 44
76.72499657
 45
0.0003298
 46
111.17690461
 79
     2
 49
3.51600006
 49
-348.05774689
 53
26.56509972
 43
100.05000114
 44
80.02500057
 45
111.17732034
 46
111.17717285
 79
     2
 49
2.48624995
 49
-246.11400604
 53
18.43490028
 43
102.30000257
 44
81.14999771
 45
222.35461589
 46
111.1767185
 79
     2
 49
3.51600006
 49
-348.05774689
 53
0.0
 43
105.59999943
 44
82.275002
 45
0.0
 46
111.17699862
 79
     2
 49
2.22374998
 49
-108.95399809
 53
333.43490601
 43
107.85000086
 44
82.275002
 45
111.17741453
 46
-0.00041895
 79
     2
 49
2.48624995
 49
-246.11400604
 53
0.0
 43
110.10000229
 44
81.14999771
 45
0.0
 46
111.17699862
 79
     2
 49
1.11150004
 49
-110.06549835
 53
333.43490601
 43
0.0
 44
81.14999771
 45
111.17741453
 46
-0.00041895
 79
     2
 49
4.97174978
 49
-243.62774849
 53
296.56509399
 43
4.4249998
 44
78.90000343
 45
111.17716174
 46
-111.17733144
 79
     2
 49
2.48624995
 49
-246.11400604
 53
251.56500244
 43
5.55000007
 44
76.72499657
 45
-0.0003298
 46
-111.17690461
 79
     2
 49
3.51600006
 49
-348.05774689
 53
251.56500244
 43
4.4249998
 44
73.349998
 45
-0.0003298
 46
-111.17690461
 79
     2
 49
3.51600006
 49
-348.05774689
 53
243.43499756
 43
3.29999998
 44
70.05000114
 45
-0.0002413
 46
-111.17741453
 79
     2
 49
2.48624995
 49
-246.11400604
 53
206.56500244
 43
2.25000009
 44
67.79999971
 45
-111.17750909
 46
-111.17698409
 79
     2
 49
2.48624995
 49
-246.11400604
 53
225.0
 43
111.14999771
 44
66.67500257
 45
-1.9984014443253E-14
 46
-111.17734083
 79
     2
 49
1.57200001
 49
-155.655756
 53
135.0
 43
105.59999943
 44
65.625
 45
-111.17734083
 46
1.3322676295502E-14
 79
     2
 49
3.14474992
 49
-154.08375263
 53
123.69010162
 43
103.42499971
 44
67.79999971
 45
-111.17716932
 46
111.1774526
 79
     2
 49
4.00875002
 49
-396.84674263
 53
116.56500244
 43
101.17499828
 44
71.17499828
 45
-111.17698409
 46
111.17750909
 79
     2
 49
2.48624995
 49
-246.11400604
 53
108.43499756
 43
100.05000114
 44
73.349998
 45
-111.17709601
 46
222.35442714
 79
     2
 49
3.51600006
 49
-348.05774689
 53
153.43499756
 43
91.19999886
 44
81.14999771
 45
-111.17741453
 46
0.0002413
 79
     2
 49
2.48624995
 49
-246.11400604
 53
123.69010162
 43
88.94999743
 44
82.275002
 45
-111.17716932
 46
111.1774526
 79
     2
 49
4.00875002
 49
-396.84674263
 53
90.0
 43
86.70000315
 44
85.57499886
 45
-111.17699862
 46
6.8076277746497E-15
 79
     2
 49
2.22374998
 49
-108.95399809
 53
45.0
 43
86.70000315
 44
87.82500029
 45
1.3322676295502E-14
 46
111.17734083
 79
     2
 49
1.57200001
 49
-155.655756
 53
26.56509972
 43
87.82500029
 44
88.94999743
 45
111.17732034
 46
111.17717285
 79
     2
 49
2.48624995
 49
-246.11400604
 53
345.9637146
 43
90.07500172
 44
90.07500172
 45
111.17705397
 46
0.00028293
 79
     2
 49
4.58399981
 49
-453.81151199
 53
315.0
 43
94.50000286
 44
88.94999743
 45
111.17734083
 46
-2.6645352591004E-14
 79
     2
 49
3.14474992
 49
-154.08375263
 53
270.0
 43
96.74999714
 44
86.70000315
 45
111.17699862
 46
-2.0422883323949E-14
 79
     2
 49
3.33525002
 49
-107.84174681
 53
243.43499756
 43
96.74999714
 44
83.39999914
 45
-0.0002413
 46
-111.17741453
 79
     2
 49
2.48624995
 49
-246.11400604
 53
206.56500244
 43
95.625
 44
81.14999771
 45
-111.17750909
 46
-111.17698409
 79
     2
 49
2.48624995
 49
-246.11400604
 53
153.43499756
 43
93.37499857
 44
80.02500057
 45
-111.17741453
 46
0.0002413
 79
     2
 49
2.48624995
 49
-246.11400604
 53
198.43499756
 43
5.55000007
 44
82.275002
 45
-222.35442714
 46
-111.17709601
 79
     2
 49
3.51600006
 49
-348.05774689
 53
180.0
 43
2.25000009
 44
81.14999771
 45
-1.3615255549299E-14
 46
-111.17699862
 79
     2
 49
2.22374998
 49
-108.95399809
 53
180.0
 43
111.14999771
 44
81.14999771
 45
-1.3615255549299E-14
 46
-111.17699862
 79
     2
 49
1.11150004
 49
-110.06549835
 53
153.43499756
 43
110.10000229
 44
81.14999771
 45
-111.17741453
 46
0.0002413
 79
     2
 49
2.48624995
 49
-246.11400604
 53
180.0
 43
107.85000086
 44
82.275002
 45
-1.3615255549299E-14
 46
-111.17699862
 79
     2
 49
2.22374998
 49
-108.95399809
 53
198.43499756
 43
105.59999943
 44
82.275002
 45
-222.35442714
 46
-111.17709601
 79
     2
 49
3.51600006
 49
-348.05774689
 53
180.0
 43
102.30000257
 44
81.14999771
 45
-1.3615255549299E-14
 46
-111.17699862
 79
     2
 49
3.33525002
 49
-107.84174681
 53
135.0
 43
98.92499685
 44
81.14999771
 45
-111.17734083
 46
1.3322676295502E-14
 79
     2
 49
1.57200001
 49
-155.655756
 53
135.0
 43
97.79999971
 44
82.275002
 45
-111.17734083
 46
1.3322676295502E-14
 79
     2
 49
1.57200001
 49
-155.655756
 53
90.0
 43
96.74999714
 44
83.39999914
 45
-111.17699862
 46
6.8076277746497E-15
 79
     2
 49
1.11150004
 49
-110.06549835
 53
45.0
 43
96.74999714
 44
84.52500343
 45
1.3322676295502E-14
 46
111.17734083
 79
     2
 49
3.14474992
 49
-154.08375263
 53
26.56509972
 43
98.92499685
 44
86.70000315
 45
111.17732034
 46
111.17717285
 79
     2
 49
2.48624995
 49
-246.11400604
 53
14.03619957
 43
101.17499828
 44
87.82500029
 45
333.53125922
 46
111.17716576
 79
     2
 49
4.58399981
 49
-453.81151199
 53
0.0
 43
105.59999943
 44
88.94999743
 45
0.0
 46
111.17699862
 79
     2
 49
3.33525002
 49
-107.84174681
 53
333.43490601
 43
108.974998
 44
88.94999743
 45
111.17741453
 46
-0.00041895
 79
     2
 49
2.48624995
 49
-246.11400604
 53
0.0
 43
0.0
 44
87.82500029
 45
0.0
 46
111.17699862
 79
     2
 49
1.11150004
 49
-110.06549835
 53
0.0
 43
1.12500004
 44
87.82500029
 45
0.0
 46
111.17699862
 79
     2
 49
1.11150004
 49
-110.06549835
 53
341.56509399
 43
2.25000009
 44
87.82500029
 45
111.17690461
 46
-0.00015215
 79
     2
 49
3.51600006
 49
-348.05774689
 53
315.0
 43
5.55000007
 44
86.70000315
 45
111.17734083
 46
-2.6645352591004E-14
 79
     2
 49
1.57200001
 49
-155.655756
 53
270.0
 43
6.67499989
 44
85.57499886
 45
111.17699862
 46
-2.0422883323949E-14
 79
     2
 49
2.22374998
 49
-108.95399809
 53
225.0
 43
6.67499989
 44
83.39999914
 45
-1.9984014443253E-14
 46
-111.17734083
 79
     2
 49
1.57200001
 49
-155.655756
 53
161.56500244
 43
105.59999943
 44
88.94999743
 45
-111.17690461
 46
0.0003298
 79
     2
 49
3.51600006
 49
-348.05774689
 53
135.0
 43
102.30000257
 44
90.07500172
 45
-111.17734083
 46
1.3322676295502E-14
 79
     2
 49
1.57200001
 49
-155.655756
 53
116.56500244
 43
101.17499828
 44
91.19999886
 45
-111.17698409
 46
111.17750909
 79
     2
 49
2.48624995
 49
-246.11400604
 53
90.0
 43
100.05000114
 44
93.37499857
 45
-111.17699862
 46
6.8076277746497E-15
 79
     2
 49
2.22374998
 49
-108.95399809
 53
63.43489838
 43
100.05000114
 44
95.625
 45
0.00043375
 46
111.17741453
 79
     2
 49
2.48624995
 49
-246.11400604
 53
33.69010162
 43
101.17499828
 44
97.79999971
 45
111.1774526
 46
111.17716932
 79
     2
 49
4.00875002
 49
-396.84674263
 53
0.0
 43
104.47500229
 44
100.05000114
 45
0.0
 46
111.17699862
 79
     2
 49
4.44674984
 49
-106.73024654
 53
333.43490601
 43
108.974998
 44
100.05000114
 45
111.17741453
 46
-0.00041895
 79
     2
 49
2.48624995
 49
-246.11400604
 53
0.0
 43
0.0
 44
98.92499685
 45
0.0
 46
111.17699862
 79
     2
 49
1.11150004
 49
-110.06549835
 53
326.30990601
 43
1.12500004
 44
98.92499685
 45
222.35437318
 46
-111.17762842
 79
     2
 49
4.00875002
 49
-396.84674263
 53
296.56509399
 43
4.4249998
 44
96.74999714
 45
111.17716174
 46
-111.17733144
 79
     2
 49
2.48624995
 49
-246.11400604
 53
251.56500244
 43
5.55000007
 44
94.50000286
 45
-0.0003298
 46
-111.17690461
 79
     2
 49
3.51600006
 49
-348.05774689
 53
225.0
 43
3.29999998
 44
88.94999743
 45
-1.9984014443253E-14
 46
-111.17734083
 79
     2
 49
1.57200001
 49
-155.655756
 53
180.0
 43
2.25000009
 44
87.82500029
 45
-1.3615255549299E-14
 46
-111.17699862
 79
     2
 49
1.11150004
 49
-110.06549835
 53
153.43499756
 43
111.14999771
 44
87.82500029
 45
-111.17741453
 46
0.0002413
 79
     2
 49
2.48624995
 49
-246.11400604
 53
180.0
 43
1.12500004
 44
87.82500029
 45
-1.3615255549299E-14
 46
-111.17699862
 79
     2
 49
1.11150004
 49
-110.06549835
 53
180.0
 43
108.974998
 44
88.94999743
 45
-1.3615255549299E-14
 46
-111.17699862
 79
     2
 49
3.33525002
 49
-107.84174681
 53
90.0
 43
85.57499886
 44
91.19999886
 45
-111.17699862
 46
6.8076277746497E-15
 79
     2
 49
1.11150004
 49
-110.06549835
 53
45.0
 43
85.57499886
 44
92.25000143
 45
1.3322676295502E-14
 46
111.17734083
 79
     2
 49
1.57200001
 49
-155.655756
 53
18.43490028
 43
86.70000315
 44
93.37499857
 45
222.35461589
 46
111.1767185
 79
     2
 49
3.51600006
 49
-348.05774689
 53
345.9637146
 43
90.07500172
 44
94.50000286
 45
111.17705397
 46
0.00028293
 79
     2
 49
4.58399981
 49
-453.81151199
 53
0.0
 43
94.50000286
 44
93.37499857
 45
0.0
 46
111.17699862
 79
     2
 49
5.55899978
 49
-105.61800241
 53
296.56509399
 43
100.05000114
 44
93.37499857
 45
111.17716174
 46
-111.17733144
 79
     2
 49
2.48624995
 49
-246.11400604
 53
270.0
 43
101.17499828
 44
91.19999886
 45
111.17699862
 46
-2.0422883323949E-14
 79
     2
 49
1.11150004
 49
-110.06549835
 53
225.0
 43
101.17499828
 44
90.07500172
 45
-1.9984014443253E-14
 46
-111.17734083
 79
     2
 49
1.57200001
 49
-155.655756
 53
180.0
 43
100.05000114
 44
88.94999743
 45
-1.3615255549299E-14
 46
-111.17699862
 79
     2
 49
5.55899978
 49
-105.61800241
 53
165.96380615
 43
94.50000286
 44
88.94999743
 45
-111.17705397
 46
-0.00046058
 79
     2
 49
4.58399981
 49
-453.81151199
 53
206.56500244
 43
90.07500172
 44
90.07500172
 45
-111.17750909
 46
-111.17698409
 79
     2
 49
2.48624995
 49
-246.11400604
 53
135.0
 43
87.82500029
 44
88.94999743
 45
-111.17734083
 46
1.3322676295502E-14
 79
     2
 49
1.57200001
 49
-155.655756
 53
135.0
 43
86.70000315
 44
90.07500172
 45
-111.17734083
 46
1.3322676295502E-14
 79
     2
 49
1.57200001
 49
-155.655756
 53
180.0
 43
60.0
 44
106.72499657
 45
-1.3615255549299E-14
 46
-111.17699862
 79
     2
 49
1.11150004
 49
-110.06549835
 53
225.0
 43
58.950001
 44
106.72499657
 45
-1.9984014443253E-14
 46
-111.17734083
 79
     2
 49
1.57200001
 49
-155.655756
 53
270.0
 43
57.82500029
 44
105.59999943
 45
111.17699862
 46
-2.0422883323949E-14
 79
     2
 49
1.11150004
 49
-110.06549835
 53
270.0
 43
57.82500029
 44
104.47500229
 45
111.17699862
 46
-2.0422883323949E-14
 79
     2
 49
1.11150004
 49
-110.06549835
 53
315.0
 43
57.82500029
 44
103.42499971
 45
111.17734083
 46
-2.6645352591004E-14
 79
     2
 49
1.57200001
 49
-155.655756
 53
0.0
 43
58.950001
 44
102.30000257
 45
0.0
 46
111.17699862
 79
     2
 49
1.11150004
 49
-110.06549835
 53
0.0
 43
60.0
 44
102.30000257
 45
0.0
 46
111.17699862
 79
     2
 49
1.11150004
 49
-110.06549835
 53
333.43490601
 43
61.12499714
 44
102.30000257
 45
111.17741453
 46
-0.00041895
 79
     2
 49
2.48624995
 49
-246.11400604
 53
0.0
 43
63.37499857
 44
101.17499828
 45
0.0
 46
111.17699862
 79
     2
 49
1.11150004
 49
-110.06549835
 53
0.0
 43
64.50000286
 44
101.17499828
 45
0.0
 46
111.17699862
 79
     2
 49
1.11150004
 49
-110.06549835
 53
45.0
 43
65.625
 44
101.17499828
 45
1.3322676295502E-14
 46
111.17734083
 79
     2
 49
1.57200001
 49
-155.655756
 53
63.43489838
 43
66.67500257
 44
102.30000257
 45
0.00043375
 46
111.17741453
 79
     2
 49
2.48624995
 49
-246.11400604
 53
135.0
 43
67.79999971
 44
104.47500229
 45
-111.17734083
 46
1.3322676295502E-14
 79
     2
 49
1.57200001
 49
-155.655756
 53
180.0
 43
66.67500257
 44
105.59999943
 45
-1.3615255549299E-14
 46
-111.17699862
 79
     2
 49
1.11150004
 49
-110.06549835
 53
90.0
 43
73.349998
 44
107.85000086
 45
-111.17699862
 46
6.8076277746497E-15
 79
     2
 49
1.11150004
 49
-110.06549835
 53
135.0
 43
73.349998
 44
108.974998
 45
-111.17734083
 46
1.3322676295502E-14
 79
     2
 49
1.57200001
 49
-155.655756
 53
165.96380615
 43
72.30000257
 44
110.10000229
 45
-111.17705397
 46
-0.00046058
 79
     2
 49
4.58399981
 49
-453.81151199
 53
225.0
 43
60.0
 44
111.14999771
 45
-1.9984014443253E-14
 46
-111.17734083
 79
     2
 49
1.57200001
 49
-155.655756
 53
270.0
 43
58.950001
 44
110.10000229
 45
111.17699862
 46
-2.0422883323949E-14
 79
     2
 49
1.11150004
 49
-110.06549835
 53
270.0
 43
58.950001
 44
108.974998
 45
111.17699862
 46
-2.0422883323949E-14
 79
     2
 49
1.11150004
 49
-110.06549835
 53
315.0
 43
58.950001
 44
107.85000086
 45
111.17734083
 46
-2.6645352591004E-14
 79
     2
 49
1.57200001
 49
-155.655756
 53
0.0
 43
60.0
 44
106.72499657
 45
0.0
 46
111.17699862
 79
     2
 49
3.33525002
 49
-107.84174681
 53
341.56509399
 43
63.37499857
 44
106.72499657
 45
111.17690461
 46
-0.00015215
 79
     2
 49
3.51600006
 49
-348.05774689
 53
0.0
 43
66.67500257
 44
105.59999943
 45
0.0
 46
111.17699862
 79
     2
 49
2.22374998
 49
-108.95399809
 53
26.56509972
 43
68.92499685
 44
105.59999943
 45
111.17732034
 46
111.17717285
 79
     2
 49
2.48624995
 49
-246.11400604
 53
45.0
 43
98.92499685
 44
102.30000257
 45
1.3322676295502E-14
 46
111.17734083
 79
     2
 49
1.57200001
 49
-155.655756
 53
206.56500244
 43
98.92499685
 44
102.30000257
 45
-111.17750909
 46
-111.17698409
 79
     2
 49
2.48624995
 49
-246.11400604
 53
206.56500244
 43
96.74999714
 44
101.17499828
 45
-111.17750909
 46
-111.17698409
 79
     2
 49
2.48624995
 49
-246.11400604
 53
206.56500244
 43
94.50000286
 44
100.05000114
 45
-111.17750909
 46
-111.17698409
 79
     2
 49
2.48624995
 49
-246.11400604
 53
206.56500244
 43
92.25000143
 44
98.92499685
 45
-111.17750909
 46
-111.17698409
 79
     2
 49
2.48624995
 49
-246.11400604
 53
243.43499756
 43
90.07500172
 44
97.79999971
 45
-0.0002413
 46
-111.17741453
 79
     2
 49
2.48624995
 49
-246.11400604
 53
225.0
 43
88.94999743
 44
95.625
 45
-1.9984014443253E-14
 46
-111.17734083
 79
     2
 49
1.57200001
 49
-155.655756
 53
225.0
 43
87.82500029
 44
94.50000286
 45
-1.9984014443253E-14
 46
-111.17734083
 79
     2
 49
1.57200001
 49
-155.655756
 53
180.0
 43
86.70000315
 44
93.37499857
 45
-1.3615255549299E-14
 46
-111.17699862
 79
     2
 49
2.22374998
 49
-108.95399809
 53
135.0
 43
84.52500343
 44
93.37499857
 45
-111.17734083
 46
1.3322676295502E-14
 79
     2
 49
1.57200001
 49
-155.655756
 53
153.43499756
 43
83.39999914
 44
94.50000286
 45
-111.17741453
 46
0.0002413
 79
     2
 49
2.48624995
 49
-246.11400604
 53
161.56500244
 43
81.14999771
 44
95.625
 45
-111.17690461
 46
0.0003298
 79
     2
 49
3.51600006
 49
-348.05774689
 53
161.56500244
 43
77.85000086
 44
96.74999714
 45
-111.17690461
 46
0.0003298
 79
     2
 49
3.51600006
 49
-348.05774689
 53
198.43499756
 43
74.47500229
 44
97.79999971
 45
-222.35442714
 46
-111.17709601
 79
     2
 49
3.51600006
 49
-348.05774689
 53
153.43499756
 43
71.17499828
 44
96.74999714
 45
-111.17741453
 46
0.0002413
 79
     2
 49
2.48624995
 49
-246.11400604
 53
135.0
 43
68.92499685
 44
97.79999971
 45
-111.17734083
 46
1.3322676295502E-14
 79
     2
 49
1.57200001
 49
-155.655756
 53
116.56500244
 43
67.79999971
 44
98.92499685
 45
-111.17698409
 46
111.17750909
 79
     2
 49
2.48624995
 49
-246.11400604
 53
90.0
 43
66.67500257
 44
101.17499828
 45
-111.17699862
 46
6.8076277746497E-15
 79
     2
 49
1.11150004
 49
-110.06549835
 53
63.43489838
 43
66.67500257
 44
102.30000257
 45
0.00043375
 46
111.17741453
 79
     2
 49
2.48624995
 49
-246.11400604
 53
45.0
 43
67.79999971
 44
104.47500229
 45
1.3322676295502E-14
 46
111.17734083
 79
     2
 49
1.57200001
 49
-155.655756
 53
18.43490028
 43
68.92499685
 44
105.59999943
 45
222.35461589
 46
111.1767185
 79
     2
 49
3.51600006
 49
-348.05774689
 53
26.56509972
 43
72.30000257
 44
106.72499657
 45
111.17732034
 46
111.17717285
 79
     2
 49
2.48624995
 49
-246.11400604
 53
33.69010162
 43
74.47500229
 44
107.85000086
 45
111.1774526
 46
111.17716932
 79
     2
 49
4.00875002
 49
-396.84674263
 53
45.0
 43
77.85000086
 44
110.10000229
 45
1.3322676295502E-14
 46
111.17734083
 79
     2
 49
1.57200001
 49
-155.655756
 53
63.43489838
 43
78.90000343
 44
0.0
 45
0.00043375
 46
111.17741453
 79
     2
 49
2.48624995
 49
-246.11400604
 53
45.0
 43
80.02500057
 44
2.25000009
 45
1.3322676295502E-14
 46
111.17734083
 79
     2
 49
1.57200001
 49
-155.655756
 53
26.56509972
 43
81.14999771
 44
3.29999998
 45
111.17732034
 46
111.17717285
 79
     2
 49
2.48624995
 49
-246.11400604
 53
26.56509972
 43
83.39999914
 44
4.4249998
 45
111.17732034
 46
111.17717285
 79
     2
 49
2.48624995
 49
-246.11400604
 53
345.9637146
 43
85.57499886
 44
5.55000007
 45
111.17705397
 46
0.00028293
 79
     2
 49
4.58399981
 49
-453.81151199
 53
341.56509399
 43
90.07500172
 44
4.4249998
 45
111.17690461
 46
-0.00015215
 79
     2
 49
3.51600006
 49
-348.05774689
 53
326.30990601
 43
93.37499857
 44
3.29999998
 45
222.35437318
 46
-111.17762842
 79
     2
 49
4.00875002
 49
-396.84674263
 53
315.0
 43
96.74999714
 44
1.12500004
 45
111.17734083
 46
-2.6645352591004E-14
 79
     2
 49
1.57200001
 49
-155.655756
 53
315.0
 43
97.79999971
 44
111.14999771
 45
111.17734083
 46
-2.6645352591004E-14
 79
     2
 49
1.57200001
 49
-155.655756
 53
296.56509399
 43
98.92499685
 44
110.10000229
 45
111.17716174
 46
-111.17733144
 79
     2
 49
2.48624995
 49
-246.11400604
 53
270.0
 43
100.05000114
 44
107.85000086
 45
111.17699862
 46
-2.0422883323949E-14
 79
     2
 49
2.22374998
 49
-108.95399809
 53
270.0
 43
100.05000114
 44
105.59999943
 45
111.17699862
 46
-2.0422883323949E-14
 79
     2
 49
2.22374998
 49
-108.95399809
 47
0.775229
 98
        1
 10
0.0
 20
0.0
  0
3DFACE
  5
60E
102
{ACAD_REACTORS
330
60F
102
}
100
AcDbEntity
  8
Ech.1_5
 62
     9
  6
CONTINUOUS
370
    -3
100
AcDbFace
 70
     0
 10
32277.38258603
 20
-8972.14074725
 30
2500.0
 11
32277.38258603
 21
-8586.01903156
 31
2500.0
 12
32137.38258602
 22
-8586.01903156
 32
2500.0
 13
32137.38258602
 23
-8972.14000038
 33
2500.0
  0
HATCH
  5
60F
100
AcDbEntity
  8
Ech.1_5
 62
     9
  6
CONTINUOUS
100
AcDbHatch
 10
0.0
 20
0.0
 30
0.0
210
0.0
220
0.0
230
1.0
  2
HONEY
 70
     0
 71
     1
 91
        1
 92
        7
 72
     0
 73
     1
 93
        4
 10
32277.38258603
 20
-8972.14074725
 10
32277.38258603
 20
-8586.01903156
 10
32137.38258602
 20
-8586.01903156
 10
32137.38258602
 20
-8972.14000038
 97
        1
330
60E
 75
     0
 76
     2
 52
0.0
 41
1.0
 77
     0
 78
     3
 53
0.0
 43
0.0
 44
0.0
 45
24.24869878
 46
13.99999976
 79
     2
 49
16.1658003
 49
-32.33160059
 53
120.0
 43
0.0
 44
0.0
 45
-24.24870483
 46
13.99998927
 79
     2
 49
16.1658003
 49
-32.33160059
 53
60.0
 43
0.0
 44
0.0
 45
-6.0588658231242E-06
 46
27.99998903
 79
     4
 49
0.0
 49
-32.33160059
 49
16.1658003
 49
0.0
 47
0.775229
 98
        1
 10
0.0
 20
0.0
  0
LWPOLYLINE
  5
610
100
AcDbEntity
  8
Ech.1_5
 62
   190
  6
CONTINUOUS
370
    -3
100
AcDbPolyline
 90
        4
 70
     1
 43
0.0
 10
32257.38220587
 20
-8382.01903061
 10
32257.38220587
 20
-8582.01903061
 10
32277.38220587
 20
-8582.01903061
 10
32277.38220587
 20
-8382.01903061
  0
LWPOLYLINE
  5
611
100
AcDbEntity
  8
Ech.1_5
 62
     9
  6
CONTINUOUS
370
    -3
100
AcDbPolyline
 90
        6
 70
     0
 43
0.0
 10
32712.11746445
 20
-8548.01902775
 10
32712.11894027
 20
-8683.12652782
 10
32730.09628867
 20
-8699.61203102
 10
32694.14058866
 20
-8685.50209049
 10
32712.11894027
 20
-8701.98844532
 10
32712.11811798
 20
-8988.68241333
  0
LINE
  5
612
100
AcDbEntity
  8
Ech.1_5
 62
   190
  6
CONTINUOUS
370
    -3
100
AcDbLine
 10
32257.38220587
 20
-8537.01902775
 30
0.0
 11
32257.38220587
 21
-8217.03866881
 31
0.0
  0
LWPOLYLINE
  5
613
100
AcDbEntity
  8
Ech.1_5
 62
   190
  6
CONTINUOUS
370
    -3
100
AcDbPolyline
 90
        8
 70
     1
 43
0.0
 10
32077.38220587
 20
-8217.03767508
 10
32077.38220587
 20
-8582.01903061
 10
32257.38220587
 20
-8582.01903061
 10
32257.38220587
 20
-8217.0378248
 10
32158.67762658
 20
-8217.03742426
 10
32142.1912725
 20
-8235.01577585
 10
32156.30121252
 20
-8199.06007593
 10
32139.81570936
 20
-8217.03742426
  0
LWPOLYLINE
  5
614
100
AcDbEntity
  8
Ech.1_5
 62
   190
  6
CONTINUOUS
370
    -3
100
AcDbPolyline
 90
        3
 70
     0
 43
0.0
 10
32192.03759582
 20
-8582.01903061
 10
32219.61761703
 20
-8574.63884167
 42
-0.26305507
 10
32248.20393686
 20
-8582.01903061
  0
LWPOLYLINE
  5
615
102
{ACAD_REACTORS
330
616
102
}
100
AcDbEntity
  8
Ech.1_5
 62
     9
  6
CONTINUOUS
370
    -3
100
AcDbPolyline
 90
        8
 70
     1
 43
0.0
 38
2500.0
 39
-2500.0
 10
32712.11783584
 20
-8582.01903061
 10
32277.38220587
 20
-8582.01903061
 10
32277.38220587
 20
-8802.01903061
 10
32712.11847564
 20
-8802.01903061
 10
32712.11894027
 20
-8701.98844532
 10
32694.14058866
 20
-8685.50209049
 10
32730.09628867
 20
-8699.61203102
 10
32712.11894027
 20
-8683.12652782
  0
HATCH
  5
616
100
AcDbEntity
  8
Ech.1_5
 62
     9
  6
CONTINUOUS
100
AcDbHatch
 10
0.0
 20
0.0
 30
0.0
210
0.0
220
0.0
230
1.0
  2
AR-CONC
 70
     0
 71
     1
 91
        1
 92
        7
 72
     0
 73
     1
 93
        8
 10
32712.11783584
 20
-8582.01903061
 10
32277.38220587
 20
-8582.01903061
 10
32277.38220587
 20
-8802.01903061
 10
32712.11847564
 20
-8802.01903061
 10
32712.11894027
 20
-8701.98844532
 10
32694.14058866
 20
-8685.50209049
 10
32730.09628867
 20
-8699.61203102
 10
32712.11894027
 20
-8683.12652782
 97
        1
330
615
 75
     0
 76
     2
 52
0.0
 41
0.11811097
 77
     0
 78
    13
 53
50.0
 43
0.0
 44
0.0
 45
-18.84283637
 46
1.64853443
 79
     2
 49
1.97029307
 49
-21.67322338
 53
355.0
 43
0.0
 44
0.0
 45
-3.64507756
 46
19.76051824
 79
     2
 49
1.57623377
 49
-17.3385787
 53
100.45140076
 43
1.57023568
 44
-0.13737749
 45
-15.19777228
 46
-18.11197244
 79
     2
 49
1.67449124
 49
-18.41940522
 53
46.18420029
 43
0.0
 44
5.25411576
 45
-28.03703353
 46
4.34827878
 79
     2
 49
2.95543872
 49
-32.50983238
 53
96.63559723
 43
2.33641885
 44
4.89175692
 45
-24.55412615
 46
-25.59063404
 79
     2
 49
2.51173697
 49
-27.62910426
 53
351.1842041
 43
0.0
 44
5.25411576
 45
24.55410288
 46
25.59065715
 79
     2
 49
2.36435249
 49
-26.00786805
 53
21.0
 43
2.62705699
 44
3.94058615
 45
-15.68109068
 46
10.57702905
 79
     2
 49
1.97029307
 49
-21.67322338
 53
326.0
 43
2.62705699
 44
3.94058615
 45
6.39203268
 46
19.05010734
 79
     2
 49
1.57623377
 49
-17.3385787
 53
71.45140076
 43
3.93381357
 44
3.05916555
 45
-22.07312962
 46
-8.47306182
 79
     2
 49
1.67449124
 49
-18.41940522
 53
37.5
 43
0.0
 44
0.0
 45
0.31944534
 46
8.74531245
 79
     6
 49
0.01875
 49
-17.12841332
 49
0.01875
 49
-17.60128498
 49
0.01875
 49
-17.40425348
 53
7.5
 43
0.0
 44
0.0
 45
6.91098818
 46
10.3614222
 79
     6
 49
0.01875
 49
-10.03535807
 49
0.01875
 49
-16.7343539
 49
0.01875
 49
-6.6333206
 53
-32.5
 43
-5.85833833
 44
0.0
 45
14.02382061
 46
-0.59253003
 79
     6
 49
0.01875
 49
-6.56764314
 49
0.01875
 49
-20.49104869
 49
0.01875
 49
-27.19004452
 53
-42.5
 43
-8.48539531
 44
0.0
 45
15.32063571
 46
2.62981542
 79
     6
 49
0.01875
 49
-8.53793621
 49
0.01875
 49
-13.60815793
 49
0.01875
 49
-19.30887222
 47
0.775229
 98
        1
 10
0.0
 20
0.0
  0
LWPOLYLINE
  5
617
100
AcDbEntity
  8
Ech.1_5
 62
   190
  6
CONTINUOUS
370
    -3
100
AcDbPolyline
 90
        4
 70
     1
 43
0.0
 10
32257.38220587
 20
-8582.01903061
 10
32257.38220587
 20
-8537.01903061
 10
32077.38220587
 20
-8537.01903061
 10
32077.38220587
 20
-8582.01903061
  0
LWPOLYLINE
  5
618
100
AcDbEntity
  8
Ech.1_5
 62
     5
  6
CONTINUOUS
370
    -3
100
AcDbPolyline
 90
        5
 70
     0
 43
0.0
 10
32077.38220587
 20
-8582.01903061
 10
32077.38220587
 20
-8537.01903061
 10
32257.38220587
 20
-8537.01903061
 10
32257.38220587
 20
-8582.01903061
 10
32077.38220587
 20
-8582.01903061
  0
LINE
  5
619
100
AcDbEntity
  8
Ech.1_5
 62
     7
  6
CONTINUOUS
370
    -3
100
AcDbLine
 10
32275.63404439
 20
-8852.01903347
 30
0.0
 11
32271.6340442
 21
-8852.01903347
 31
0.0
  0
LINE
  5
61A
100
AcDbEntity
  8
Ech.1_5
 62
     7
  6
CONTINUOUS
370
    -3
100
AcDbLine
 10
32275.63404439
 20
-8582.01903061
 30
0.0
 11
32275.63404439
 21
-8852.01903347
 31
0.0
  0
LINE
  5
61B
100
AcDbEntity
  8
Ech.1_5
 62
     7
  6
CONTINUOUS
370
    -3
100
AcDbLine
 10
32275.63404439
 20
-8582.01903061
 30
0.0
 11
32115.63404005
 21
-8582.01903061
 31
0.0
  0
LINE
  5
61C
100
AcDbEntity
  8
Ech.1_5
 62
     7
  6
CONTINUOUS
370
    -3
100
AcDbLine
 10
32115.63404005
 20
-8586.01903156
 30
0.0
 11
32115.63404005
 21
-8582.01903061
 31
0.0
  0
LINE
  5
61D
100
AcDbEntity
  8
Ech.1_5
 62
     7
  6
CONTINUOUS
370
    -3
100
AcDbLine
 10
32271.6340442
 20
-8586.01903156
 30
0.0
 11
32115.63404005
 21
-8586.01903156
 31
0.0
  0
LINE
  5
61E
100
AcDbEntity
  8
Ech.1_5
 62
     7
  6
CONTINUOUS
370
    -3
100
AcDbLine
 10
32271.6340442
 20
-8586.01903156
 30
0.0
 11
32271.6340442
 21
-8852.01903347
 31
0.0
  0
LINE
  5
61F
100
AcDbEntity
  8
Ech.1_5
 62
     7
  6
CONTINUOUS
370
    -3
100
AcDbLine
 10
32271.6340442
 20
-8732.0190287
 30
0.0
 11
32115.63404005
 21
-8586.01903156
 31
0.0
  0
LWPOLYLINE
  5
620
102
{ACAD_REACTORS
330
621
102
}
100
AcDbEntity
  8
Ech.1_5
 62
     7
  6
CONTINUOUS
370
    -3
100
AcDbPolyline
 90
        6
 70
     1
 43
0.0
 10
32275.63404439
 20
-8582.01903061
 10
32115.63404005
 20
-8582.01903061
 10
32115.63404005
 20
-8586.01903156
 10
32271.6340442
 20
-8586.01903156
 10
32271.6340442
 20
-8852.01903347
 10
32275.63404439
 20
-8852.01903347
  0
HATCH
  5
621
100
AcDbEntity
  8
Ech.1_5
 62
     7
  6
CONTINUOUS
100
AcDbHatch
 10
0.0
 20
0.0
 30
0.0
210
0.0
220
0.0
230
1.0
  2
SOLID
 70
     1
 71
     1
 91
        1
 92
        7
 72
     0
 73
     1
 93
        6
 10
32275.63404439
 20
-8582.01903061
 10
32115.63404005
 20
-8582.01903061
 10
32115.63404005
 20
-8586.01903156
 10
32271.6340442
 20
-8586.01903156
 10
32271.6340442
 20
-8852.01903347
 10
32275.63404439
 20
-8852.01903347
 97
        1
330
620
 75
     0
 76
     2
 47
0.775229
 98
        1
 10
0.0
 20
0.0
  0
LWPOLYLINE
  5
622
100
AcDbEntity
  8
Ech.1_5
 62
     7
  6
DASHDOT
370
     5
100
AcDbPolyline
 90
        4
 70
     1
 43
0.0
 10
32518.72243697
 20
-9237.40522674
 10
32675.48825687
 20
-9237.40522674
 10
32675.48825687
 20
-9039.03137211
 10
32518.72243697
 20
-9039.03137211
  0
LWPOLYLINE
  5
623
100
AcDbEntity
  8
Ech.1_5
 62
   190
  6
CONTINUOUS
370
    -3
100
AcDbPolyline
 90
        3
 70
     0
 43
0.0
 10
32602.3410046
 20
-9191.3067551
 10
32478.6012223
 20
-9216.46042065
 10
32456.69318292
 20
-9216.46042065
  0
INSERT
  5
624
100
AcDbEntity
  8
Ech.1_5
 62
   190
  6
CONTINUOUS
370
    -3
100
AcDbBlockReference
  2
CDWK_EXTR_4
 10
32602.3410046
 20
-9191.3067551
 30
0.0
 41
5.0
 42
5.0
 43
5.0
 50
191.49045005
  0
LWPOLYLINE
  5
625
100
AcDbEntity
  8
Ech.1_5
 62
     9
  6
CONTINUOUS
100
AcDbPolyline
 90
       27
 70
     0
 43
0.0
 10
32030.25558875
 20
-8492.63353924
 10
32030.38220587
 20
-8492.29906563
 10
32030.38220587
 20
-8464.91560177
 10
32037.38220587
 20
-8464.91560177
 10
32037.38220587
 20
-8474.91560177
 10
32043.38220587
 20
-8474.91560177
 10
32043.38220587
 20
-8446.91560177
 10
32039.38220587
 20
-8442.91560177
 10
32043.38220587
 20
-8438.91560177
 10
32043.38220587
 20
-8374.91560177
 10
32039.38220587
 20
-8370.91560177
 10
32043.38220587
 20
-8366.91560177
 10
32043.38220587
 20
-8330.91560177
 10
32036.38220587
 20
-8330.91560177
 10
32036.38220587
 20
-8325.91560177
 10
32033.88220587
 20
-8320.91560177
 10
32031.38220587
 20
-8325.91560177
 10
32031.38220587
 20
-8356.84453396
 10
32031.00160353
 20
-8358.75795082
 10
32024.84667196
 20
-8365.45113567
 10
32023.38220587
 20
-8368.98666958
 10
32023.38220587
 20
-8488.07341389
 10
32024.34252827
 20
-8489.70328239
 10
32029.07864912
 20
-8492.67463211
 10
32029.49065049
 20
-8492.91560177
 10
32029.80446798
 20
-8492.91560177
 10
32030.25558875
 20
-8492.63353924
  0
LWPOLYLINE
  5
626
100
AcDbEntity
  8
Ech.1_5
 62
     9
  6
BYBLOCK
100
AcDbPolyline
 90
       23
 70
     0
 43
0.0
 10
32023.38220587
 20
-8610.39718536
 10
32023.38220587
 20
-8513.98666958
 10
32024.84667196
 20
-8510.45113567
 10
32031.00160353
 20
-8503.75795082
 10
32031.38220587
 20
-8501.84453396
 10
32031.38220587
 20
-8470.91560177
 10
32033.88220587
 20
-8465.91560177
 10
32036.38220587
 20
-8470.91560177
 10
32036.38220587
 20
-8475.91560177
 10
32043.38220587
 20
-8475.91560177
 10
32043.38220587
 20
-8511.91560177
 10
32039.38220587
 20
-8515.91560177
 10
32043.38220587
 20
-8519.91560177
 10
32043.38220587
 20
-8583.91560177
 10
32039.38220587
 20
-8587.91560177
 10
32043.38220587
 20
-8591.91560177
 10
32043.38220587
 20
-8591.91560177
 10
32031.13829227
 20
-8607.81287578
 10
32028.32149543
 20
-8611.47015385
 10
32027.23203539
 20
-8612.01903061
 10
32024.47665487
 20
-8612.01903061
 10
32023.38220587
 20
-8610.39718536
 10
32023.38220587
 20
-8605.08855728
  0
3DFACE
  5
627
102
{ACAD_REACTORS
330
628
102
}
100
AcDbEntity
  8
Ech.1_5
 62
     9
  6
CONTINUOUS
370
    -3
100
AcDbFace
 70
     0
 10
32277.38258603
 20
-8972.14083771
 30
2500.0
 11
32477.38220587
 21
-8972.14168004
 31
2500.0
 12
32477.38220587
 22
-8802.01757135
 32
2500.0
 13
32277.38220587
 23
-8802.01903061
 33
2500.0
  0
HATCH
  5
628
100
AcDbEntity
  8
Ech.1_5
 62
     9
  6
CONTINUOUS
100
AcDbHatch
 10
0.0
 20
0.0
 30
0.0
210
0.0
220
0.0
230
1.0
  2
AR-CONC
 70
     0
 71
     1
 91
        1
 92
        7
 72
     0
 73
     1
 93
        4
 10
32277.38258603
 20
-8972.14083771
 10
32477.38220587
 20
-8972.14168004
 10
32477.38220587
 20
-8802.01757135
 10
32277.38220587
 20
-8802.01903061
 97
        1
330
627
 75
     0
 76
     2
 52
0.0
 41
0.11811097
 77
     0
 78
    13
 53
50.0
 43
0.0
 44
0.0
 45
-18.84283637
 46
1.64853443
 79
     2
 49
1.97029307
 49
-21.67322338
 53
355.0
 43
0.0
 44
0.0
 45
-3.64507756
 46
19.76051824
 79
     2
 49
1.57623377
 49
-17.3385787
 53
100.45140076
 43
1.57023568
 44
-0.13737749
 45
-15.19777228
 46
-18.11197244
 79
     2
 49
1.67449124
 49
-18.41940522
 53
46.18420029
 43
0.0
 44
5.25411576
 45
-28.03703353
 46
4.34827878
 79
     2
 49
2.95543872
 49
-32.50983238
 53
96.63559723
 43
2.33641885
 44
4.89175692
 45
-24.55412615
 46
-25.59063404
 79
     2
 49
2.51173697
 49
-27.62910426
 53
351.1842041
 43
0.0
 44
5.25411576
 45
24.55410288
 46
25.59065715
 79
     2
 49
2.36435249
 49
-26.00786805
 53
21.0
 43
2.62705699
 44
3.94058615
 45
-15.68109068
 46
10.57702905
 79
     2
 49
1.97029307
 49
-21.67322338
 53
326.0
 43
2.62705699
 44
3.94058615
 45
6.39203268
 46
19.05010734
 79
     2
 49
1.57623377
 49
-17.3385787
 53
71.45140076
 43
3.93381357
 44
3.05916555
 45
-22.07312962
 46
-8.47306182
 79
     2
 49
1.67449124
 49
-18.41940522
 53
37.5
 43
0.0
 44
0.0
 45
0.31944534
 46
8.74531245
 79
     6
 49
0.01875
 49
-17.12841332
 49
0.01875
 49
-17.60128498
 49
0.01875
 49
-17.40425348
 53
7.5
 43
0.0
 44
0.0
 45
6.91098818
 46
10.3614222
 79
     6
 49
0.01875
 49
-10.03535807
 49
0.01875
 49
-16.7343539
 49
0.01875
 49
-6.6333206
 53
-32.5
 43
-5.85833833
 44
0.0
 45
14.02382061
 46
-0.59253003
 79
     6
 49
0.01875
 49
-6.56764314
 49
0.01875
 49
-20.49104869
 49
0.01875
 49
-27.19004452
 53
-42.5
 43
-8.48539531
 44
0.0
 45
15.32063571
 46
2.62981542
 79
     6
 49
0.01875
 49
-8.53793621
 49
0.01875
 49
-13.60815793
 49
0.01875
 49
-19.30887222
 47
0.775229
 98
        1
 10
0.0
 20
0.0
  0
3DFACE
  5
629
102
{ACAD_REACTORS
330
62A
102
}
100
AcDbEntity
  8
Ech.1_5
 62
     9
  6
CONTINUOUS
370
    -3
100
AcDbFace
 70
     0
 10
32477.38216426
 20
-8972.14171747
 30
2500.0
 11
32712.12209803
 21
-8972.14181141
 31
2500.0
 12
32712.12100572
 22
-8872.14316467
 32
2500.0
 13
32477.38220587
 23
-8872.14316515
 33
2500.0
  0
HATCH
  5
62A
100
AcDbEntity
  8
Ech.1_5
 62
     9
  6
CONTINUOUS
100
AcDbHatch
 10
0.0
 20
0.0
 30
0.0
210
0.0
220
0.0
230
1.0
  2
SSTNWSB
 70
     0
 71
     1
 91
        1
 92
        7
 72
     0
 73
     1
 93
        4
 10
32477.38216426
 20
-8972.14171747
 10
32712.12209803
 20
-8972.14181141
 10
32712.12100572
 20
-8872.14316467
 10
32477.38220587
 20
-8872.14316515
 97
        1
330
629
 75
     0
 76
     2
 52
0.0
 41
1.0
 77
     0
 78
  1001
 53
90.0
 43
11.10000014
 44
80.02500057
 45
-111.17699862
 46
6.8076277746497E-15
 79
     2
 49
1.11150004
 49
-110.06549835
 53
45.0
 43
9.97500032
 44
78.90000343
 45
1.3322676295502E-14
 46
111.17734083
 79
     2
 49
1.57200001
 49
-155.655756
 53
26.56509972
 43
7.79999971
 44
77.85000086
 45
111.17732034
 46
111.17717285
 79
     2
 49
2.48624995
 49
-246.11400604
 53
0.0
 43
5.55000007
 44
77.85000086
 45
0.0
 46
111.17699862
 79
     2
 49
2.22374998
 49
-108.95399809
 53
296.56509399
 43
4.4249998
 44
80.02500057
 45
111.17716174
 46
-111.17733144
 79
     2
 49
2.48624995
 49
-246.11400604
 53
243.43499756
 43
5.55000007
 44
82.275002
 45
-0.0002413
 46
-111.17741453
 79
     2
 49
2.48624995
 49
-246.11400604
 53
206.56500244
 43
7.79999971
 44
83.39999914
 45
-111.17750909
 46
-111.17698409
 79
     2
 49
2.48624995
 49
-246.11400604
 53
180.0
 43
9.97500032
 44
83.39999914
 45
-1.3615255549299E-14
 46
-111.17699862
 79
     2
 49
2.22374998
 49
-108.95399809
 53
135.0
 43
11.10000014
 44
82.275002
 45
-111.17734083
 46
1.3322676295502E-14
 79
     2
 49
1.57200001
 49
-155.655756
 53
0.0
 43
95.625
 44
77.85000086
 45
0.0
 46
111.17699862
 79
     2
 49
3.33525002
 49
-107.84174681
 53
315.0
 43
94.50000286
 44
78.90000343
 45
111.17734083
 46
-2.6645352591004E-14
 79
     2
 49
1.57200001
 49
-155.655756
 53
270.0
 43
94.50000286
 44
80.02500057
 45
111.17699862
 46
-2.0422883323949E-14
 79
     2
 49
1.11150004
 49
-110.06549835
 53
225.0
 43
95.625
 44
81.14999771
 45
-1.9984014443253E-14
 46
-111.17734083
 79
     2
 49
1.57200001
 49
-155.655756
 53
225.0
 43
96.74999714
 44
82.275002
 45
-1.9984014443253E-14
 46
-111.17734083
 79
     2
 49
1.57200001
 49
-155.655756
 53
153.43499756
 43
98.92499685
 44
81.14999771
 45
-111.17741453
 46
0.0002413
 79
     2
 49
2.48624995
 49
-246.11400604
 53
135.0
 43
100.05000114
 44
80.02500057
 45
-111.17734083
 46
1.3322676295502E-14
 79
     2
 49
1.57200001
 49
-155.655756
 53
63.43489838
 43
98.92499685
 44
77.85000086
 45
0.00043375
 46
111.17741453
 79
     2
 49
2.48624995
 49
-246.11400604
 53
135.0
 43
60.0
 44
85.57499886
 45
-111.17734083
 46
1.3322676295502E-14
 79
     2
 49
1.57200001
 49
-155.655756
 53
180.0
 43
61.12499714
 44
85.57499886
 45
-1.3615255549299E-14
 46
-111.17699862
 79
     2
 49
1.11150004
 49
-110.06549835
 53
161.56500244
 43
64.50000286
 44
84.52500343
 45
-111.17690461
 46
0.0003298
 79
     2
 49
3.51600006
 49
-348.05774689
 53
225.0
 43
65.625
 44
85.57499886
 45
-1.9984014443253E-14
 46
-111.17734083
 79
     2
 49
1.57200001
 49
-155.655756
 53
270.0
 43
65.625
 44
87.82500029
 45
111.17699862
 46
-2.0422883323949E-14
 79
     2
 49
2.22374998
 49
-108.95399809
 53
333.43490601
 43
63.37499857
 44
88.94999743
 45
111.17741453
 46
-0.00041895
 79
     2
 49
2.48624995
 49
-246.11400604
 53
0.0
 43
60.0
 44
88.94999743
 45
0.0
 46
111.17699862
 79
     2
 49
3.33525002
 49
-107.84174681
 53
45.0
 43
58.950001
 44
87.82500029
 45
1.3322676295502E-14
 46
111.17734083
 79
     2
 49
1.57200001
 49
-155.655756
 53
0.0
 43
105.59999943
 44
65.625
 45
0.0
 46
111.17699862
 79
     2
 49
4.44674984
 49
-106.73024654
 53
180.0
 43
104.47500229
 44
58.950001
 45
-1.3615255549299E-14
 46
-111.17699862
 79
     2
 49
2.22374998
 49
-108.95399809
 53
180.0
 43
108.974998
 44
44.47499871
 45
-1.3615255549299E-14
 46
-111.17699862
 79
     2
 49
1.11150004
 49
-110.06549835
 53
26.56509972
 43
108.974998
 44
44.47499871
 45
111.17732034
 46
111.17717285
 79
     2
 49
2.48624995
 49
-246.11400604
 53
296.56509399
 43
4.4249998
 44
88.94999743
 45
111.17716174
 46
-111.17733144
 79
     2
 49
2.48624995
 49
-246.11400604
 53
270.0
 43
4.4249998
 44
91.19999886
 45
111.17699862
 46
-2.0422883323949E-14
 79
     2
 49
2.22374998
 49
-108.95399809
 53
63.43489838
 43
3.29999998
 44
88.94999743
 45
0.00043375
 46
111.17741453
 79
     2
 49
2.48624995
 49
-246.11400604
 53
26.56509972
 43
71.17499828
 44
106.72499657
 45
111.17732034
 46
111.17717285
 79
     2
 49
2.48624995
 49
-246.11400604
 53
168.69009399
 43
65.625
 44
105.59999943
 45
-111.1775506
 46
-0.00034628
 79
     2
 49
5.66925019
 49
-561.2257576
 53
26.56509972
 43
91.19999886
 44
97.79999971
 45
111.17732034
 46
111.17717285
 79
     2
 49
2.48624995
 49
-246.11400604
 53
26.56509972
 43
93.37499857
 44
98.92499685
 45
111.17732034
 46
111.17717285
 79
     2
 49
2.48624995
 49
-246.11400604
 53
26.56509972
 43
95.625
 44
100.05000114
 45
111.17732034
 46
111.17717285
 79
     2
 49
2.48624995
 49
-246.11400604
 53
0.0
 43
97.79999971
 44
101.17499828
 45
0.0
 46
111.17699862
 79
     2
 49
2.22374998
 49
-108.95399809
 53
315.0
 43
100.05000114
 44
101.17499828
 45
111.17734083
 46
-2.6645352591004E-14
 79
     2
 49
1.57200001
 49
-155.655756
 53
270.0
 43
101.17499828
 44
100.05000114
 45
111.17699862
 46
-2.0422883323949E-14
 79
     2
 49
2.22374998
 49
-108.95399809
 53
243.43499756
 43
101.17499828
 44
97.79999971
 45
-0.0002413
 46
-111.17741453
 79
     2
 49
2.48624995
 49
-246.11400604
 53
225.0
 43
100.05000114
 44
95.625
 45
-1.9984014443253E-14
 46
-111.17734083
 79
     2
 49
1.57200001
 49
-155.655756
 53
194.03619385
 43
98.92499685
 44
94.50000286
 45
-333.53127033
 46
-111.17713245
 79
     2
 49
4.58399981
 49
-453.81151199
 53
161.56500244
 43
94.50000286
 44
93.37499857
 45
-111.17690461
 46
0.0003298
 79
     2
 49
3.51600006
 49
-348.05774689
 53
135.0
 43
91.19999886
 44
94.50000286
 45
-111.17734083
 46
1.3322676295502E-14
 79
     2
 49
1.57200001
 49
-155.655756
 53
90.0
 43
90.07500172
 44
95.625
 45
-111.17699862
 46
6.8076277746497E-15
 79
     2
 49
1.11150004
 49
-110.06549835
 53
45.0
 43
90.07500172
 44
96.74999714
 45
1.3322676295502E-14
 46
111.17734083
 79
     2
 49
1.57200001
 49
-155.655756
 53
165.96380615
 43
63.37499857
 44
61.12499714
 45
-111.17705397
 46
-0.00046058
 79
     2
 49
4.58399981
 49
-453.81151199
 53
18.43490028
 43
81.14999771
 44
36.674999
 45
222.35461589
 46
111.1767185
 79
     2
 49
3.51600006
 49
-348.05774689
 53
0.0
 43
84.52500343
 44
37.79999971
 45
0.0
 46
111.17699862
 79
     2
 49
3.33525002
 49
-107.84174681
 53
341.56509399
 43
87.82500029
 44
37.79999971
 45
111.17690461
 46
-0.00015215
 79
     2
 49
3.51600006
 49
-348.05774689
 53
341.56509399
 43
91.19999886
 44
36.674999
 45
111.17690461
 46
-0.00015215
 79
     2
 49
3.51600006
 49
-348.05774689
 53
296.56509399
 43
94.50000286
 44
35.54999828
 45
111.17716174
 46
-111.17733144
 79
     2
 49
2.48624995
 49
-246.11400604
 53
270.0
 43
95.625
 44
33.37499857
 45
111.17699862
 46
-2.0422883323949E-14
 79
     2
 49
4.44674984
 49
-106.73024654
 53
225.0
 43
95.625
 44
28.87499928
 45
-1.9984014443253E-14
 46
-111.17734083
 79
     2
 49
1.57200001
 49
-155.655756
 53
206.56500244
 43
94.50000286
 44
27.82500029
 45
-111.17750909
 46
-111.17698409
 79
     2
 49
2.48624995
 49
-246.11400604
 53
180.0
 43
92.25000143
 44
26.69999957
 45
-1.3615255549299E-14
 46
-111.17699862
 79
     2
 49
8.8942498
 49
-102.28275061
 53
153.43499756
 43
83.39999914
 44
26.69999957
 45
-111.17741453
 46
0.0002413
 79
     2
 49
2.48624995
 49
-246.11400604
 53
135.0
 43
81.14999771
 44
27.82500029
 45
-111.17734083
 46
1.3322676295502E-14
 79
     2
 49
3.14474992
 49
-154.08375263
 53
116.56500244
 43
78.90000343
 44
30.0
 45
-111.17698409
 46
111.17750909
 79
     2
 49
2.48624995
 49
-246.11400604
 53
90.0
 43
77.85000086
 44
32.25000143
 45
-111.17699862
 46
6.8076277746497E-15
 79
     2
 49
1.11150004
 49
-110.06549835
 53
63.43489838
 43
77.85000086
 44
33.37499857
 45
0.00043375
 46
111.17741453
 79
     2
 49
2.48624995
 49
-246.11400604
 53
26.56509972
 43
78.90000343
 44
35.54999828
 45
111.17732034
 46
111.17717285
 79
     2
 49
2.48624995
 49
-246.11400604
 53
45.0
 43
2.25000009
 44
52.27499843
 45
1.3322676295502E-14
 46
111.17734083
 79
     2
 49
3.14474992
 49
-154.08375263
 53
0.0
 43
4.4249998
 44
54.45000172
 45
0.0
 46
111.17699862
 79
     2
 49
2.22374998
 49
-108.95399809
 53
0.0
 43
6.67499989
 44
54.45000172
 45
0.0
 46
111.17699862
 79
     2
 49
3.33525002
 49
-107.84174681
 53
315.0
 43
9.97500032
 44
54.45000172
 45
111.17734083
 46
-2.6645352591004E-14
 79
     2
 49
3.14474992
 49
-154.08375263
 53
270.0
 43
12.22499996
 44
52.27499843
 45
111.17699862
 46
-2.0422883323949E-14
 79
     2
 49
2.22374998
 49
-108.95399809
 53
225.0
 43
12.22499996
 44
50.02500057
 45
-1.9984014443253E-14
 46
-111.17734083
 79
     2
 49
3.14474992
 49
-154.08375263
 53
206.56500244
 43
9.97500032
 44
47.77499914
 45
-111.17750909
 46
-111.17698409
 79
     2
 49
2.48624995
 49
-246.11400604
 53
180.0
 43
7.79999971
 44
46.72500014
 45
-1.3615255549299E-14
 46
-111.17699862
 79
     2
 49
4.44674984
 49
-106.73024654
 53
153.43499756
 43
3.29999998
 44
46.72500014
 45
-111.17741453
 46
0.0002413
 79
     2
 49
2.48624995
 49
-246.11400604
 53
206.56500244
 43
103.42499971
 44
53.39999914
 45
-111.17750909
 46
-111.17698409
 79
     2
 49
2.48624995
 49
-246.11400604
 53
270.0
 43
101.17499828
 44
52.27499843
 45
111.17699862
 46
-2.0422883323949E-14
 79
     2
 49
2.22374998
 49
-108.95399809
 53
315.0
 43
101.17499828
 44
50.02500057
 45
111.17734083
 46
-2.6645352591004E-14
 79
     2
 49
1.57200001
 49
-155.655756
 53
333.43490601
 43
102.30000257
 44
48.89999986
 45
111.17741453
 46
-0.00041895
 79
     2
 49
2.48624995
 49
-246.11400604
 53
315.0
 43
104.47500229
 44
47.77499914
 45
111.17734083
 46
-2.6645352591004E-14
 79
     2
 49
1.57200001
 49
-155.655756
 53
315.0
 43
105.59999943
 44
46.72500014
 45
111.17734083
 46
-2.6645352591004E-14
 79
     2
 49
3.14474992
 49
-154.08375263
 53
45.0
 43
0.0
 44
45.59999943
 45
1.3322676295502E-14
 46
111.17734083
 79
     2
 49
1.57200001
 49
-155.655756
 53
90.0
 43
1.12500004
 44
46.72500014
 45
-111.17699862
 46
6.8076277746497E-15
 79
     2
 49
2.22374998
 49
-108.95399809
 53
63.43489838
 43
1.12500004
 44
48.89999986
 45
0.00043375
 46
111.17741453
 79
     2
 49
2.48624995
 49
-246.11400604
 53
90.0
 43
2.25000009
 44
51.15000129
 45
-111.17699862
 46
6.8076277746497E-15
 79
     2
 49
1.11150004
 49
-110.06549835
 53
135.0
 43
2.25000009
 44
52.27499843
 45
-111.17734083
 46
1.3322676295502E-14
 79
     2
 49
1.57200001
 49
-155.655756
 53
180.0
 43
1.12500004
 44
53.39999914
 45
-1.3615255549299E-14
 46
-111.17699862
 79
     2
 49
1.11150004
 49
-110.06549835
 53
180.0
 43
111.14999771
 44
53.39999914
 45
-1.3615255549299E-14
 46
-111.17699862
 79
     2
 49
4.44674984
 49
-106.73024654
 53
0.0
 43
110.10000229
 44
60.0
 45
0.0
 46
111.17699862
 79
     2
 49
1.11150004
 49
-110.06549835
 53
0.0
 43
0.0
 44
60.0
 45
0.0
 46
111.17699862
 79
     2
 49
5.55899978
 49
-105.61800241
 53
26.56509972
 43
5.55000007
 44
60.0
 45
111.17732034
 46
111.17717285
 79
     2
 49
2.48624995
 49
-246.11400604
 53
90.0
 43
7.79999971
 44
61.12499714
 45
-111.17699862
 46
6.8076277746497E-15
 79
     2
 49
1.11150004
 49
-110.06549835
 53
90.0
 43
7.79999971
 44
62.25000143
 45
-111.17699862
 46
6.8076277746497E-15
 79
     2
 49
1.11150004
 49
-110.06549835
 53
135.0
 43
7.79999971
 44
63.37499857
 45
-111.17734083
 46
1.3322676295502E-14
 79
     2
 49
1.57200001
 49
-155.655756
 53
153.43499756
 43
6.67499989
 44
64.50000286
 45
-111.17741453
 46
0.0002413
 79
     2
 49
2.48624995
 49
-246.11400604
 53
180.0
 43
4.4249998
 44
65.625
 45
-1.3615255549299E-14
 46
-111.17699862
 79
     2
 49
4.44674984
 49
-106.73024654
 53
180.0
 43
111.14999771
 44
65.625
 45
-1.3615255549299E-14
 46
-111.17699862
 79
     2
 49
1.11150004
 49
-110.06549835
 53
194.03619385
 43
110.10000229
 44
65.625
 45
-333.53127033
 46
-111.17713245
 79
     2
 49
4.58399981
 49
-453.81151199
 53
206.56500244
 43
105.59999943
 44
64.50000286
 45
-111.17750909
 46
-111.17698409
 79
     2
 49
2.48624995
 49
-246.11400604
 53
270.0
 43
103.42499971
 44
63.37499857
 45
111.17699862
 46
-2.0422883323949E-14
 79
     2
 49
1.11150004
 49
-110.06549835
 53
270.0
 43
103.42499971
 44
62.25000143
 45
111.17699862
 46
-2.0422883323949E-14
 79
     2
 49
1.11150004
 49
-110.06549835
 53
315.0
 43
103.42499971
 44
61.12499714
 45
111.17734083
 46
-2.6645352591004E-14
 79
     2
 49
1.57200001
 49
-155.655756
 53
0.0
 43
104.47500229
 44
60.0
 45
0.0
 46
111.17699862
 79
     2
 49
2.22374998
 49
-108.95399809
 53
0.0
 43
106.72499657
 44
60.0
 45
0.0
 46
111.17699862
 79
     2
 49
3.33525002
 49
-107.84174681
 53
194.03619385
 43
9.97500032
 44
55.57499886
 45
-333.53127033
 46
-111.17713245
 79
     2
 49
4.58399981
 49
-453.81151199
 53
180.0
 43
5.55000007
 44
54.45000172
 45
-1.3615255549299E-14
 46
-111.17699862
 79
     2
 49
5.55899978
 49
-105.61800241
 53
194.03619385
 43
111.14999771
 44
54.45000172
 45
-333.53127033
 46
-111.17713245
 79
     2
 49
4.58399981
 49
-453.81151199
 53
180.0
 43
106.72499657
 44
53.39999914
 45
-1.3615255549299E-14
 46
-111.17699862
 79
     2
 49
3.33525002
 49
-107.84174681
 53
153.43499756
 43
103.42499971
 44
53.39999914
 45
-111.17741453
 46
0.0002413
 79
     2
 49
2.48624995
 49
-246.11400604
 53
135.0
 43
101.17499828
 44
54.45000172
 45
-111.17734083
 46
1.3322676295502E-14
 79
     2
 49
1.57200001
 49
-155.655756
 53
90.0
 43
100.05000114
 44
55.57499886
 45
-111.17699862
 46
6.8076277746497E-15
 79
     2
 49
1.11150004
 49
-110.06549835
 53
90.0
 43
100.05000114
 44
56.69999957
 45
-111.17699862
 46
6.8076277746497E-15
 79
     2
 49
1.11150004
 49
-110.06549835
 53
11.30990028
 43
104.47500229
 44
58.950001
 45
444.70880427
 46
111.17730356
 79
     2
 49
5.66925019
 49
-561.2257576
 53
0.0
 43
110.10000229
 44
60.0
 45
0.0
 46
111.17699862
 79
     2
 49
1.11150004
 49
-110.06549835
 53
0.0
 43
0.0
 44
60.0
 45
0.0
 46
111.17699862
 79
     2
 49
3.33525002
 49
-107.84174681
 53
0.0
 43
3.29999998
 44
60.0
 45
0.0
 46
111.17699862
 79
     2
 49
4.44674984
 49
-106.73024654
 53
333.43490601
 43
7.79999971
 44
60.0
 45
111.17741453
 46
-0.00041895
 79
     2
 49
2.48624995
 49
-246.11400604
 53
315.0
 43
9.97500032
 44
58.950001
 45
111.17734083
 46
-2.6645352591004E-14
 79
     2
 49
1.57200001
 49
-155.655756
 53
270.0
 43
11.10000014
 44
57.82500029
 45
111.17699862
 46
-2.0422883323949E-14
 79
     2
 49
1.11150004
 49
-110.06549835
 53
225.0
 43
11.10000014
 44
56.69999957
 45
-1.9984014443253E-14
 46
-111.17734083
 79
     2
 49
1.57200001
 49
-155.655756
 53
333.43490601
 43
8.92500043
 44
71.17499828
 45
111.17741453
 46
-0.00041895
 79
     2
 49
2.48624995
 49
-246.11400604
 53
315.0
 43
11.10000014
 44
70.05000114
 45
111.17734083
 46
-2.6645352591004E-14
 79
     2
 49
1.57200001
 49
-155.655756
 53
296.56509399
 43
12.22499996
 44
68.92499685
 45
111.17716174
 46
-111.17733144
 79
     2
 49
2.48624995
 49
-246.11400604
 53
270.0
 43
13.34999979
 44
66.67500257
 45
111.17699862
 46
-2.0422883323949E-14
 79
     2
 49
2.22374998
 49
-108.95399809
 53
225.0
 43
13.34999979
 44
64.50000286
 45
-1.9984014443253E-14
 46
-111.17734083
 79
     2
 49
1.57200001
 49
-155.655756
 53
180.0
 43
12.22499996
 44
63.37499857
 45
-1.3615255549299E-14
 46
-111.17699862
 79
     2
 49
2.22374998
 49
-108.95399809
 53
161.56500244
 43
9.97500032
 44
63.37499857
 45
-111.17690461
 46
0.0003298
 79
     2
 49
3.51600006
 49
-348.05774689
 53
146.30990601
 43
6.67499989
 44
64.50000286
 45
-222.35437318
 46
111.17762842
 79
     2
 49
4.00875002
 49
-396.84674263
 53
90.0
 43
3.29999998
 44
66.67500257
 45
-111.17699862
 46
6.8076277746497E-15
 79
     2
 49
1.11150004
 49
-110.06549835
 53
90.0
 43
3.29999998
 44
67.79999971
 45
-111.17699862
 46
6.8076277746497E-15
 79
     2
 49
2.22374998
 49
-108.95399809
 53
45.0
 43
3.29999998
 44
70.05000114
 45
1.3322676295502E-14
 46
111.17734083
 79
     2
 49
3.14474992
 49
-154.08375263
 53
0.0
 43
7.79999971
 44
77.85000086
 45
0.0
 46
111.17699862
 79
     2
 49
4.44674984
 49
-106.73024654
 53
345.9637146
 43
12.22499996
 44
77.85000086
 45
111.17705397
 46
0.00028293
 79
     2
 49
4.58399981
 49
-453.81151199
 53
326.30990601
 43
16.65000021
 44
76.72499657
 45
222.35437318
 46
-111.17762842
 79
     2
 49
4.00875002
 49
-396.84674263
 53
270.0
 43
20.02500057
 44
74.47500229
 45
111.17699862
 46
-2.0422883323949E-14
 79
     2
 49
2.22374998
 49
-108.95399809
 53
225.0
 43
20.02500057
 44
72.30000257
 45
-1.9984014443253E-14
 46
-111.17734083
 79
     2
 49
1.57200001
 49
-155.655756
 53
198.43499756
 43
18.89999986
 44
71.17499828
 45
-222.35442714
 46
-111.17709601
 79
     2
 49
3.51600006
 49
-348.05774689
 53
180.0
 43
15.59999943
 44
70.05000114
 45
-1.3615255549299E-14
 46
-111.17699862
 79
     2
 49
3.33525002
 49
-107.84174681
 53
161.56500244
 43
12.22499996
 44
70.05000114
 45
-111.17690461
 46
0.0003298
 79
     2
 49
3.51600006
 49
-348.05774689
 53
161.56500244
 43
8.92500043
 44
71.17499828
 45
-111.17690461
 46
0.0003298
 79
     2
 49
3.51600006
 49
-348.05774689
 53
135.0
 43
5.55000007
 44
72.30000257
 45
-111.17734083
 46
1.3322676295502E-14
 79
     2
 49
1.57200001
 49
-155.655756
 53
71.56500244
 43
4.4249998
 44
73.349998
 45
0.0003298
 46
111.17690461
 79
     2
 49
3.51600006
 49
-348.05774689
 53
26.56509972
 43
5.55000007
 44
76.72499657
 45
111.17732034
 46
111.17717285
 79
     2
 49
2.48624995
 49
-246.11400604
 53
26.56509972
 43
64.50000286
 44
2.25000009
 45
111.17732034
 46
111.17717285
 79
     2
 49
2.48624995
 49
-246.11400604
 53
18.43490028
 43
66.67500257
 44
3.29999998
 45
222.35461589
 46
111.1767185
 79
     2
 49
3.51600006
 49
-348.05774689
 53
0.0
 43
70.05000114
 44
4.4249998
 45
0.0
 46
111.17699862
 79
     2
 49
3.33525002
 49
-107.84174681
 53
345.9637146
 43
73.349998
 44
4.4249998
 45
111.17705397
 46
0.00028293
 79
     2
 49
4.58399981
 49
-453.81151199
 53
315.0
 43
77.85000086
 44
3.29999998
 45
111.17734083
 46
-2.6645352591004E-14
 79
     2
 49
1.57200001
 49
-155.655756
 53
270.0
 43
78.90000343
 44
2.25000009
 45
111.17699862
 46
-2.0422883323949E-14
 79
     2
 49
1.11150004
 49
-110.06549835
 53
225.0
 43
78.90000343
 44
1.12500004
 45
-1.9984014443253E-14
 46
-111.17734083
 79
     2
 49
1.57200001
 49
-155.655756
 53
198.43499756
 43
77.85000086
 44
111.14999771
 45
-222.35442714
 46
-111.17709601
 79
     2
 49
3.51600006
 49
-348.05774689
 53
180.0
 43
74.47500229
 44
110.10000229
 45
-1.3615255549299E-14
 46
-111.17699862
 79
     2
 49
3.33525002
 49
-107.84174681
 53
165.96380615
 43
71.17499828
 44
110.10000229
 45
-111.17705397
 46
-0.00046058
 79
     2
 49
4.58399981
 49
-453.81151199
 53
153.43499756
 43
66.67500257
 44
0.0
 45
-111.17741453
 46
0.0002413
 79
     2
 49
2.48624995
 49
-246.11400604
 53
90.0
 43
64.50000286
 44
1.12500004
 45
-111.17699862
 46
6.8076277746497E-15
 79
     2
 49
1.11150004
 49
-110.06549835
 53
270.0
 43
54.45000172
 44
4.4249998
 45
111.17699862
 46
-2.0422883323949E-14
 79
     2
 49
1.11150004
 49
-110.06549835
 53
315.0
 43
54.45000172
 44
3.29999998
 45
111.17734083
 46
-2.6645352591004E-14
 79
     2
 49
3.14474992
 49
-154.08375263
 53
333.43490601
 43
56.69999957
 44
1.12500004
 45
111.17741453
 46
-0.00041895
 79
     2
 49
2.48624995
 49
-246.11400604
 53
26.56509972
 43
61.12499714
 44
0.0
 45
111.17732034
 46
111.17717285
 79
     2
 49
2.48624995
 49
-246.11400604
 53
45.0
 43
63.37499857
 44
1.12500004
 45
1.3322676295502E-14
 46
111.17734083
 79
     2
 49
1.57200001
 49
-155.655756
 53
90.0
 43
64.50000286
 44
2.25000009
 45
-111.17699862
 46
6.8076277746497E-15
 79
     2
 49
1.11150004
 49
-110.06549835
 53
135.0
 43
64.50000286
 44
3.29999998
 45
-111.17734083
 46
1.3322676295502E-14
 79
     2
 49
1.57200001
 49
-155.655756
 53
153.43499756
 43
63.37499857
 44
4.4249998
 45
-111.17741453
 46
0.0002413
 79
     2
 49
2.48624995
 49
-246.11400604
 53
180.0
 43
62.25000143
 44
5.55000007
 45
-1.3615255549299E-14
 46
-111.17699862
 79
     2
 49
4.44674984
 49
-106.73024654
 53
198.43499756
 43
57.82500029
 44
5.55000007
 45
-222.35442714
 46
-111.17709601
 79
     2
 49
3.51600006
 49
-348.05774689
 53
180.0
 43
54.45000172
 44
4.4249998
 45
-1.3615255549299E-14
 46
-111.17699862
 79
     2
 49
2.22374998
 49
-108.95399809
 53
153.43499756
 43
52.27499843
 44
4.4249998
 45
-111.17741453
 46
0.0002413
 79
     2
 49
2.48624995
 49
-246.11400604
 53
161.56500244
 43
50.02500057
 44
5.55000007
 45
-111.17690461
 46
0.0003298
 79
     2
 49
3.51600006
 49
-348.05774689
 53
116.56500244
 43
46.72500014
 44
6.67499989
 45
-111.17698409
 46
111.17750909
 79
     2
 49
2.48624995
 49
-246.11400604
 53
90.0
 43
45.59999943
 44
8.92500043
 45
-111.17699862
 46
6.8076277746497E-15
 79
     2
 49
2.22374998
 49
-108.95399809
 53
45.0
 43
45.59999943
 44
11.10000014
 45
1.3322676295502E-14
 46
111.17734083
 79
     2
 49
3.14474992
 49
-154.08375263
 53
0.0
 43
47.77499914
 44
13.34999979
 45
0.0
 46
111.17699862
 79
     2
 49
2.22374998
 49
-108.95399809
 53
9.4623003
 43
50.02500057
 44
13.34999979
 45
555.88628029
 46
111.17710938
 79
     2
 49
6.76275015
 49
-669.50174332
 53
0.0
 43
56.69999957
 44
14.47499961
 45
0.0
 46
111.17699862
 79
     2
 49
3.33525002
 49
-107.84174681
 53
341.56509399
 43
60.0
 44
14.47499961
 45
111.17690461
 46
-0.00015215
 79
     2
 49
3.51600006
 49
-348.05774689
 53
333.43490601
 43
63.37499857
 44
13.34999979
 45
111.17741453
 46
-0.00041895
 79
     2
 49
2.48624995
 49
-246.11400604
 53
296.56509399
 43
65.625
 44
12.22499996
 45
111.17716174
 46
-111.17733144
 79
     2
 49
2.48624995
 49
-246.11400604
 53
270.0
 43
66.67500257
 44
9.97500032
 45
111.17699862
 46
-2.0422883323949E-14
 79
     2
 49
1.11150004
 49
-110.06549835
 53
243.43499756
 43
66.67500257
 44
8.92500043
 45
-0.0002413
 46
-111.17741453
 79
     2
 49
2.48624995
 49
-246.11400604
 53
198.43499756
 43
65.625
 44
6.67499989
 45
-222.35442714
 46
-111.17709601
 79
     2
 49
3.51600006
 49
-348.05774689
 53
180.0
 43
34.49999928
 44
15.59999943
 45
-1.3615255549299E-14
 46
-111.17699862
 79
     2
 49
3.33525002
 49
-107.84174681
 53
165.96380615
 43
31.12500072
 44
15.59999943
 45
-111.17705397
 46
-0.00046058
 79
     2
 49
4.58399981
 49
-453.81151199
 53
135.0
 43
26.69999957
 44
16.65000021
 45
-111.17734083
 46
1.3322676295502E-14
 79
     2
 49
1.57200001
 49
-155.655756
 53
90.0
 43
25.57500064
 44
17.77499914
 45
-111.17699862
 46
6.8076277746497E-15
 79
     2
 49
1.11150004
 49
-110.06549835
 53
63.43489838
 43
25.57500064
 44
18.89999986
 45
0.00043375
 46
111.17741453
 79
     2
 49
2.48624995
 49
-246.11400604
 53
45.0
 43
26.69999957
 44
21.1499995
 45
1.3322676295502E-14
 46
111.17734083
 79
     2
 49
3.14474992
 49
-154.08375263
 53
26.56509972
 43
28.87499928
 44
23.32499921
 45
111.17732034
 46
111.17717285
 79
     2
 49
2.48624995
 49
-246.11400604
 53
0.0
 43
31.12500072
 44
24.44999993
 45
0.0
 46
111.17699862
 79
     2
 49
2.22374998
 49
-108.95399809
 53
315.0
 43
33.37499857
 44
24.44999993
 45
111.17734083
 46
-2.6645352591004E-14
 79
     2
 49
3.14474992
 49
-154.08375263
 53
288.43490601
 43
35.54999828
 44
22.20000029
 45
111.17674071
 46
-222.35460479
 79
     2
 49
3.51600006
 49
-348.05774689
 53
270.0
 43
36.674999
 44
18.89999986
 45
111.17699862
 46
-2.0422883323949E-14
 79
     2
 49
2.22374998
 49
-108.95399809
 53
206.56500244
 43
36.674999
 44
16.65000021
 45
-111.17750909
 46
-111.17698409
 79
     2
 49
2.48624995
 49
-246.11400604
 53
135.0
 43
36.674999
 44
43.35000157
 45
-111.17734083
 46
1.3322676295502E-14
 79
     2
 49
1.57200001
 49
-155.655756
 53
90.0
 43
35.54999828
 44
44.47499871
 45
-111.17699862
 46
6.8076277746497E-15
 79
     2
 49
1.11150004
 49
-110.06549835
 53
63.43489838
 43
35.54999828
 44
45.59999943
 45
0.00043375
 46
111.17741453
 79
     2
 49
2.48624995
 49
-246.11400604
 53
63.43489838
 43
36.674999
 44
47.77499914
 45
0.00043375
 46
111.17741453
 79
     2
 49
2.48624995
 49
-246.11400604
 53
26.56509972
 43
37.79999971
 44
50.02500057
 45
111.17732034
 46
111.17717285
 79
     2
 49
2.48624995
 49
-246.11400604
 53
341.56509399
 43
40.05000114
 44
51.15000129
 45
111.17690461
 46
-0.00015215
 79
     2
 49
3.51600006
 49
-348.05774689
 53
315.0
 43
43.35000157
 44
50.02500057
 45
111.17734083
 46
-2.6645352591004E-14
 79
     2
 49
3.14474992
 49
-154.08375263
 53
270.0
 43
45.59999943
 44
47.77499914
 45
111.17699862
 46
-2.0422883323949E-14
 79
     2
 49
2.22374998
 49
-108.95399809
 53
213.69009399
 43
45.59999943
 44
45.59999943
 45
-111.1774674
 46
-111.17715452
 79
     2
 49
4.00875002
 49
-396.84674263
 53
206.56500244
 43
42.22500086
 44
43.35000157
 45
-111.17750909
 46
-111.17698409
 79
     2
 49
2.48624995
 49
-246.11400604
 53
116.56500244
 43
21.1499995
 44
40.05000114
 45
-111.17698409
 46
111.17750909
 79
     2
 49
2.48624995
 49
-246.11400604
 53
135.0
 43
20.02500057
 44
42.22500086
 45
-111.17734083
 46
1.3322676295502E-14
 79
     2
 49
1.57200001
 49
-155.655756
 53
180.0
 43
18.89999986
 44
43.35000157
 45
-1.3615255549299E-14
 46
-111.17699862
 79
     2
 49
2.22374998
 49
-108.95399809
 53
206.56500244
 43
16.65000021
 44
43.35000157
 45
-111.17750909
 46
-111.17698409
 79
     2
 49
2.48624995
 49
-246.11400604
 53
243.43499756
 43
14.47499961
 44
42.22500086
 45
-0.0002413
 46
-111.17741453
 79
     2
 49
2.48624995
 49
-246.11400604
 53
270.0
 43
13.34999979
 44
40.05000114
 45
111.17699862
 46
-2.0422883323949E-14
 79
     2
 49
2.22374998
 49
-108.95399809
 53
315.0
 43
13.34999979
 44
37.79999971
 45
111.17734083
 46
-2.6645352591004E-14
 79
     2
 49
1.57200001
 49
-155.655756
 53
333.43490601
 43
14.47499961
 44
36.674999
 45
111.17741453
 46
-0.00041895
 79
     2
 49
2.48624995
 49
-246.11400604
 53
0.0
 43
16.65000021
 44
35.54999828
 45
0.0
 46
111.17699862
 79
     2
 49
2.22374998
 49
-108.95399809
 53
45.0
 43
18.89999986
 44
35.54999828
 45
1.3322676295502E-14
 46
111.17734083
 79
     2
 49
1.57200001
 49
-155.655756
 53
153.43499756
 43
23.32499921
 44
33.37499857
 45
-111.17741453
 46
0.0002413
 79
     2
 49
2.48624995
 49
-246.11400604
 53
116.56500244
 43
21.1499995
 44
34.49999928
 45
-111.17698409
 46
111.17750909
 79
     2
 49
2.48624995
 49
-246.11400604
 53
71.56500244
 43
20.02500057
 44
36.674999
 45
0.0003298
 46
111.17690461
 79
     2
 49
3.51600006
 49
-348.05774689
 53
45.0
 43
21.1499995
 44
40.05000114
 45
1.3322676295502E-14
 46
111.17734083
 79
     2
 49
3.14474992
 49
-154.08375263
 53
0.0
 43
23.32499921
 44
42.22500086
 45
0.0
 46
111.17699862
 79
     2
 49
4.44674984
 49
-106.73024654
 53
315.0
 43
27.82500029
 44
42.22500086
 45
111.17734083
 46
-2.6645352591004E-14
 79
     2
 49
3.14474992
 49
-154.08375263
 53
243.43499756
 43
30.0
 44
40.05000114
 45
-0.0002413
 46
-111.17741453
 79
     2
 49
2.48624995
 49
-246.11400604
 53
225.0
 43
28.87499928
 44
37.79999971
 45
-1.9984014443253E-14
 46
-111.17734083
 79
     2
 49
3.14474992
 49
-154.08375263
 53
213.69009399
 43
26.69999957
 44
35.54999828
 45
-111.1774674
 46
-111.17715452
 79
     2
 49
4.00875002
 49
-396.84674263
 53
146.30990601
 43
30.0
 44
25.57500064
 45
-222.35437318
 46
111.17762842
 79
     2
 49
4.00875002
 49
-396.84674263
 53
108.43499756
 43
26.69999957
 44
27.82500029
 45
-111.17709601
 46
222.35442714
 79
     2
 49
3.51600006
 49
-348.05774689
 53
71.56500244
 43
25.57500064
 44
31.12500072
 45
0.0003298
 46
111.17690461
 79
     2
 49
3.51600006
 49
-348.05774689
 53
56.30989838
 43
26.69999957
 44
34.49999928
 45
111.17765803
 46
222.35435837
 79
     2
 49
4.00875002
 49
-396.84674263
 53
56.30989838
 43
28.87499928
 44
37.79999971
 45
111.17765803
 46
222.35435837
 79
     2
 49
4.00875002
 49
-396.84674263
 53
26.56509972
 43
31.12500072
 44
41.10000014
 45
111.17732034
 46
111.17717285
 79
     2
 49
2.48624995
 49
-246.11400604
 53
18.43490028
 43
33.37499857
 44
42.22500086
 45
222.35461589
 46
111.1767185
 79
     2
 49
3.51600006
 49
-348.05774689
 53
341.56509399
 43
36.674999
 44
43.35000157
 45
111.17690461
 46
-0.00015215
 79
     2
 49
3.51600006
 49
-348.05774689
 53
303.69009399
 43
40.05000114
 44
42.22500086
 45
111.17715452
 46
-111.1774674
 79
     2
 49
4.00875002
 49
-396.84674263
 53
270.0
 43
42.22500086
 44
38.92500043
 45
111.17699862
 46
-2.0422883323949E-14
 79
     2
 49
3.33525002
 49
-107.84174681
 53
243.43499756
 43
42.22500086
 44
35.54999828
 45
-0.0002413
 46
-111.17741453
 79
     2
 49
2.48624995
 49
-246.11400604
 53
231.3401947
 43
41.10000014
 44
33.37499857
 45
-333.53149924
 46
-444.70918113
 79
     2
 49
7.11899981
 49
-704.76224899
 53
213.69009399
 43
36.674999
 44
27.82500029
 45
-111.1774674
 46
-111.17715452
 79
     2
 49
4.00875002
 49
-396.84674263
 53
180.0
 43
33.37499857
 44
25.57500064
 45
-1.3615255549299E-14
 46
-111.17699862
 79
     2
 49
2.22374998
 49
-108.95399809
 53
180.0
 43
31.12500072
 44
25.57500064
 45
-1.3615255549299E-14
 46
-111.17699862
 79
     2
 49
1.11150004
 49
-110.06549835
 53
0.0
 43
32.25000143
 44
53.39999914
 45
0.0
 46
111.17699862
 79
     2
 49
2.22374998
 49
-108.95399809
 53
333.43490601
 43
34.49999928
 44
53.39999914
 45
111.17741453
 46
-0.00041895
 79
     2
 49
2.48624995
 49
-246.11400604
 53
296.56509399
 43
36.674999
 44
52.27499843
 45
111.17716174
 46
-111.17733144
 79
     2
 49
2.48624995
 49
-246.11400604
 53
243.43499756
 43
37.79999971
 44
50.02500057
 45
-0.0002413
 46
-111.17741453
 79
     2
 49
2.48624995
 49
-246.11400604
 53
236.30990601
 43
36.674999
 44
47.77499914
 45
-111.17762842
 46
-222.35437318
 79
     2
 49
4.00875002
 49
-396.84674263
 53
213.69009399
 43
34.49999928
 44
44.47499871
 45
-111.1774674
 46
-111.17715452
 79
     2
 49
4.00875002
 49
-396.84674263
 53
180.0
 43
31.12500072
 44
42.22500086
 45
-1.3615255549299E-14
 46
-111.17699862
 79
     2
 49
4.44674984
 49
-106.73024654
 53
180.0
 43
26.69999957
 44
42.22500086
 45
-1.3615255549299E-14
 46
-111.17699862
 79
     2
 49
3.33525002
 49
-107.84174681
 53
161.56500244
 43
23.32499921
 44
42.22500086
 45
-111.17690461
 46
0.0003298
 79
     2
 49
3.51600006
 49
-348.05774689
 53
180.0
 43
20.02500057
 44
43.35000157
 45
-1.3615255549299E-14
 46
-111.17699862
 79
     2
 49
4.44674984
 49
-106.73024654
 53
161.56500244
 43
15.59999943
 44
43.35000157
 45
-111.17690461
 46
0.0003298
 79
     2
 49
3.51600006
 49
-348.05774689
 53
135.0
 43
12.22499996
 44
44.47499871
 45
-111.17734083
 46
1.3322676295502E-14
 79
     2
 49
1.57200001
 49
-155.655756
 53
90.0
 43
11.10000014
 44
45.59999943
 45
-111.17699862
 46
6.8076277746497E-15
 79
     2
 49
2.22374998
 49
-108.95399809
 53
63.43489838
 43
11.10000014
 44
47.77499914
 45
0.00043375
 46
111.17741453
 79
     2
 49
2.48624995
 49
-246.11400604
 53
26.56509972
 43
12.22499996
 44
50.02500057
 45
111.17732034
 46
111.17717285
 79
     2
 49
2.48624995
 49
-246.11400604
 53
8.13010025
 43
14.47499961
 44
51.15000129
 45
667.06299833
 46
111.1773176
 79
     2
 49
7.86150008
 49
-778.28023911
 53
0.0
 43
22.20000029
 44
52.27499843
 45
0.0
 46
111.17699862
 79
     2
 49
3.33525002
 49
-107.84174681
 53
9.4623003
 43
25.57500064
 44
52.27499843
 45
555.88628029
 46
111.17710938
 79
     2
 49
6.76275015
 49
-669.50174332
 53
338.1986084
 43
61.12499714
 44
47.77499914
 45
333.53148263
 46
-111.17685958
 79
     2
 49
5.98725021
 49
-592.72052765
 53
315.0
 43
66.67500257
 44
45.59999943
 45
111.17734083
 46
-2.6645352591004E-14
 79
     2
 49
1.57200001
 49
-155.655756
 53
270.0
 43
67.79999971
 44
44.47499871
 45
111.17699862
 46
-2.0422883323949E-14
 79
     2
 49
1.11150004
 49
-110.06549835
 53
206.56500244
 43
67.79999971
 44
43.35000157
 45
-111.17750909
 46
-111.17698409
 79
     2
 49
2.48624995
 49
-246.11400604
 53
206.56500244
 43
65.625
 44
42.22500086
 45
-111.17750909
 46
-111.17698409
 79
     2
 49
2.48624995
 49
-246.11400604
 53
191.30990601
 43
63.37499857
 44
41.10000014
 45
-444.70879317
 46
-111.17734797
 79
     2
 49
5.66925019
 49
-561.2257576
 53
194.03619385
 43
57.82500029
 44
40.05000114
 45
-333.53127033
 46
-111.17713245
 79
     2
 49
4.58399981
 49
-453.81151199
 53
191.30990601
 43
53.39999914
 44
38.92500043
 45
-444.70879317
 46
-111.17734797
 79
     2
 49
5.66925019
 49
-561.2257576
 53
180.0
 43
47.77499914
 44
37.79999971
 45
-1.3615255549299E-14
 46
-111.17699862
 79
     2
 49
3.33525002
 49
-107.84174681
 53
153.43499756
 43
44.47499871
 44
37.79999971
 45
-111.17741453
 46
0.0002413
 79
     2
 49
2.48624995
 49
-246.11400604
 53
116.56500244
 43
42.22500086
 44
38.92500043
 45
-111.17698409
 46
111.17750909
 79
     2
 49
2.48624995
 49
-246.11400604
 53
90.0
 43
41.10000014
 44
41.10000014
 45
-111.17699862
 46
6.8076277746497E-15
 79
     2
 49
1.11150004
 49
-110.06549835
 53
33.69010162
 43
41.10000014
 44
42.22500086
 45
111.1774526
 46
111.17716932
 79
     2
 49
4.00875002
 49
-396.84674263
 53
33.69010162
 43
44.47499871
 44
44.47499871
 45
111.1774526
 46
111.17716932
 79
     2
 49
4.00875002
 49
-396.84674263
 53
26.56509972
 43
47.77499914
 44
46.72500014
 45
111.17732034
 46
111.17717285
 79
     2
 49
2.48624995
 49
-246.11400604
 53
9.4623003
 43
50.02500057
 44
47.77499914
 45
555.88628029
 46
111.17710938
 79
     2
 49
6.76275015
 49
-669.50174332
 53
345.9637146
 43
56.69999957
 44
48.89999986
 45
111.17705397
 46
0.00028293
 79
     2
 49
4.58399981
 49
-453.81151199
 53
180.0
 43
77.85000086
 44
34.49999928
 45
-1.3615255549299E-14
 46
-111.17699862
 79
     2
 49
1.11150004
 49
-110.06549835
 53
153.43499756
 43
76.72499657
 44
34.49999928
 45
-111.17741453
 46
0.0002413
 79
     2
 49
2.48624995
 49
-246.11400604
 53
161.56500244
 43
74.47500229
 44
35.54999828
 45
-111.17690461
 46
0.0003298
 79
     2
 49
3.51600006
 49
-348.05774689
 53
180.0
 43
71.17499828
 44
36.674999
 45
-1.3615255549299E-14
 46
-111.17699862
 79
     2
 49
2.22374998
 49
-108.95399809
 53
180.0
 43
68.92499685
 44
36.674999
 45
-1.3615255549299E-14
 46
-111.17699862
 79
     2
 49
2.22374998
 49
-108.95399809
 53
153.43499756
 43
66.67500257
 44
36.674999
 45
-111.17741453
 46
0.0002413
 79
     2
 49
2.48624995
 49
-246.11400604
 53
90.0
 43
64.50000286
 44
37.79999971
 45
-111.17699862
 46
6.8076277746497E-15
 79
     2
 49
3.33525002
 49
-107.84174681
 53
45.0
 43
64.50000286
 44
41.10000014
 45
1.3322676295502E-14
 46
111.17734083
 79
     2
 49
1.57200001
 49
-155.655756
 53
0.0
 43
65.625
 44
42.22500086
 45
0.0
 46
111.17699862
 79
     2
 49
3.33525002
 49
-107.84174681
 53
345.9637146
 43
68.92499685
 44
42.22500086
 45
111.17705397
 46
0.00028293
 79
     2
 49
4.58399981
 49
-453.81151199
 53
333.43490601
 43
73.349998
 44
41.10000014
 45
111.17741453
 46
-0.00041895
 79
     2
 49
4.97174978
 49
-243.62774849
 53
315.0
 43
77.85000086
 44
38.92500043
 45
111.17734083
 46
-2.6645352591004E-14
 79
     2
 49
1.57200001
 49
-155.655756
 53
270.0
 43
78.90000343
 44
37.79999971
 45
111.17699862
 46
-2.0422883323949E-14
 79
     2
 49
2.22374998
 49
-108.95399809
 53
225.0
 43
78.90000343
 44
35.54999828
 45
-1.9984014443253E-14
 46
-111.17734083
 79
     2
 49
1.57200001
 49
-155.655756
 53
165.96380615
 43
76.72499657
 44
20.02500057
 45
-111.17705397
 46
-0.00046058
 79
     2
 49
4.58399981
 49
-453.81151199
 53
180.0
 43
72.30000257
 44
21.1499995
 45
-1.3615255549299E-14
 46
-111.17699862
 79
     2
 49
2.22374998
 49
-108.95399809
 53
116.56500244
 43
70.05000114
 44
21.1499995
 45
-111.17698409
 46
111.17750909
 79
     2
 49
2.48624995
 49
-246.11400604
 53
90.0
 43
68.92499685
 44
23.32499921
 45
-111.17699862
 46
6.8076277746497E-15
 79
     2
 49
7.78275043
 49
-103.39500189
 53
108.43499756
 43
68.92499685
 44
31.12500072
 45
-111.17709601
 46
222.35442714
 79
     2
 49
3.51600006
 49
-348.05774689
 53
63.43489838
 43
67.79999971
 44
34.49999928
 45
0.00043375
 46
111.17741453
 79
     2
 49
2.48624995
 49
-246.11400604
 53
0.0
 43
68.92499685
 44
36.674999
 45
0.0
 46
111.17699862
 79
     2
 49
2.22374998
 49
-108.95399809
 53
341.56509399
 43
71.17499828
 44
36.674999
 45
111.17690461
 46
-0.00015215
 79
     2
 49
3.51600006
 49
-348.05774689
 53
315.0
 43
74.47500229
 44
35.54999828
 45
111.17734083
 46
-2.6645352591004E-14
 79
     2
 49
4.71674994
 49
-152.51174927
 53
284.0362854
 43
77.85000086
 44
32.25000143
 45
111.1776654
 46
-333.53109268
 79
     2
 49
4.58399981
 49
-453.81151199
 53
296.56509399
 43
78.90000343
 44
27.82500029
 45
111.17716174
 46
-111.17733144
 79
     2
 49
2.48624995
 49
-246.11400604
 53
270.0
 43
80.02500057
 44
25.57500064
 45
111.17699862
 46
-2.0422883323949E-14
 79
     2
 49
2.22374998
 49
-108.95399809
 53
243.43499756
 43
80.02500057
 44
23.32499921
 45
-0.0002413
 46
-111.17741453
 79
     2
 49
2.48624995
 49
-246.11400604
 53
206.56500244
 43
78.90000343
 44
21.1499995
 45
-111.17750909
 46
-111.17698409
 79
     2
 49
2.48624995
 49
-246.11400604
 53
270.0
 43
104.47500229
 44
33.37499857
 45
111.17699862
 46
-2.0422883323949E-14
 79
     2
 49
3.33525002
 49
-107.84174681
 53
243.43499756
 43
104.47500229
 44
30.0
 45
-0.0002413
 46
-111.17741453
 79
     2
 49
2.48624995
 49
-246.11400604
 53
206.56500244
 43
103.42499971
 44
27.82500029
 45
-111.17750909
 46
-111.17698409
 79
     2
 49
2.48624995
 49
-246.11400604
 53
180.0
 43
101.17499828
 44
26.69999957
 45
-1.3615255549299E-14
 46
-111.17699862
 79
     2
 49
2.22374998
 49
-108.95399809
 53
153.43499756
 43
98.92499685
 44
26.69999957
 45
-111.17741453
 46
0.0002413
 79
     2
 49
2.48624995
 49
-246.11400604
 53
135.0
 43
96.74999714
 44
27.82500029
 45
-111.17734083
 46
1.3322676295502E-14
 79
     2
 49
1.57200001
 49
-155.655756
 53
90.0
 43
95.625
 44
28.87499928
 45
-111.17699862
 46
6.8076277746497E-15
 79
     2
 49
2.22374998
 49
-108.95399809
 53
71.56500244
 43
95.625
 44
31.12500072
 45
0.0003298
 46
111.17690461
 79
     2
 49
3.51600006
 49
-348.05774689
 53
45.0
 43
96.74999714
 44
34.49999928
 45
1.3322676295502E-14
 46
111.17734083
 79
     2
 49
1.57200001
 49
-155.655756
 53
18.43490028
 43
97.79999971
 44
35.54999828
 45
222.35461589
 46
111.1767185
 79
     2
 49
3.51600006
 49
-348.05774689
 53
333.43490601
 43
101.17499828
 44
36.674999
 45
111.17741453
 46
-0.00041895
 79
     2
 49
2.48624995
 49
-246.11400604
 53
296.56509399
 43
103.42499971
 44
35.54999828
 45
111.17716174
 46
-111.17733144
 79
     2
 49
2.48624995
 49
-246.11400604
 53
63.43489838
 43
88.94999743
 44
41.10000014
 45
0.00043375
 46
111.17741453
 79
     2
 49
2.48624995
 49
-246.11400604
 53
45.0
 43
90.07500172
 44
43.35000157
 45
1.3322676295502E-14
 46
111.17734083
 79
     2
 49
1.57200001
 49
-155.655756
 53
21.80139923
 43
91.19999886
 44
44.47499871
 45
222.35408276
 46
111.17720082
 79
     2
 49
5.98725021
 49
-592.72052765
 53
18.43490028
 43
96.74999714
 44
46.72500014
 45
222.35461589
 46
111.1767185
 79
     2
 49
3.51600006
 49
-348.05774689
 53
0.0
 43
100.05000114
 44
47.77499914
 45
0.0
 46
111.17699862
 79
     2
 49
3.33525002
 49
-107.84174681
 53
333.43490601
 43
103.42499971
 44
47.77499914
 45
111.17741453
 46
-0.00041895
 79
     2
 49
2.48624995
 49
-246.11400604
 53
296.56509399
 43
105.59999943
 44
46.72500014
 45
111.17716174
 46
-111.17733144
 79
     2
 49
2.48624995
 49
-246.11400604
 53
270.0
 43
106.72499657
 44
44.47499871
 45
111.17699862
 46
-2.0422883323949E-14
 79
     2
 49
2.22374998
 49
-108.95399809
 53
243.43499756
 43
106.72499657
 44
42.22500086
 45
-0.0002413
 46
-111.17741453
 79
     2
 49
2.48624995
 49
-246.11400604
 53
225.0
 43
105.59999943
 44
40.05000114
 45
-1.9984014443253E-14
 46
-111.17734083
 79
     2
 49
1.57200001
 49
-155.655756
 53
213.69009399
 43
104.47500229
 44
38.92500043
 45
-111.1774674
 46
-111.17715452
 79
     2
 49
4.00875002
 49
-396.84674263
 53
194.03619385
 43
101.17499828
 44
36.674999
 45
-333.53127033
 46
-111.17713245
 79
     2
 49
4.58399981
 49
-453.81151199
 53
180.0
 43
96.74999714
 44
35.54999828
 45
-1.3615255549299E-14
 46
-111.17699862
 79
     2
 49
2.22374998
 49
-108.95399809
 53
153.43499756
 43
94.50000286
 44
35.54999828
 45
-111.17741453
 46
0.0002413
 79
     2
 49
4.97174978
 49
-243.62774849
 53
116.56500244
 43
90.07500172
 44
37.79999971
 45
-111.17698409
 46
111.17750909
 79
     2
 49
2.48624995
 49
-246.11400604
 53
90.0
 43
88.94999743
 44
40.05000114
 45
-111.17699862
 46
6.8076277746497E-15
 79
     2
 49
1.11150004
 49
-110.06549835
 53
180.0
 43
110.10000229
 44
14.47499961
 45
-1.3615255549299E-14
 46
-111.17699862
 79
     2
 49
3.33525002
 49
-107.84174681
 53
135.0
 43
106.72499657
 44
14.47499961
 45
-111.17734083
 46
1.3322676295502E-14
 79
     2
 49
3.14474992
 49
-154.08375263
 53
90.0
 43
104.47500229
 44
16.65000021
 45
-111.17699862
 46
6.8076277746497E-15
 79
     2
 49
3.33525002
 49
-107.84174681
 53
45.0
 43
104.47500229
 44
20.02500057
 45
1.3322676295502E-14
 46
111.17734083
 79
     2
 49
3.14474992
 49
-154.08375263
 53
18.43490028
 43
106.72499657
 44
22.20000029
 45
222.35461589
 46
111.1767185
 79
     2
 49
3.51600006
 49
-348.05774689
 53
0.0
 43
110.10000229
 44
23.32499921
 45
0.0
 46
111.17699862
 79
     2
 49
1.11150004
 49
-110.06549835
 53
0.0
 43
0.0
 44
23.32499921
 45
0.0
 46
111.17699862
 79
     2
 49
2.22374998
 49
-108.95399809
 53
341.56509399
 43
2.25000009
 44
23.32499921
 45
111.17690461
 46
-0.00015215
 79
     2
 49
3.51600006
 49
-348.05774689
 53
315.0
 43
5.55000007
 44
22.20000029
 45
111.17734083
 46
-2.6645352591004E-14
 79
     2
 49
3.14474992
 49
-154.08375263
 53
296.56509399
 43
7.79999971
 44
20.02500057
 45
111.17716174
 46
-111.17733144
 79
     2
 49
2.48624995
 49
-246.11400604
 53
225.0
 43
8.92500043
 44
17.77499914
 45
-1.9984014443253E-14
 46
-111.17734083
 79
     2
 49
3.14474992
 49
-154.08375263
 53
194.03619385
 43
6.67499989
 44
15.59999943
 45
-333.53127033
 46
-111.17713245
 79
     2
 49
4.58399981
 49
-453.81151199
 53
180.0
 43
2.25000009
 44
14.47499961
 45
-1.3615255549299E-14
 46
-111.17699862
 79
     2
 49
2.22374998
 49
-108.95399809
 53
180.0
 43
111.14999771
 44
14.47499961
 45
-1.3615255549299E-14
 46
-111.17699862
 79
     2
 49
1.11150004
 49
-110.06549835
 53
135.0
 43
102.30000257
 44
6.67499989
 45
-111.17734083
 46
1.3322676295502E-14
 79
     2
 49
1.57200001
 49
-155.655756
 53
135.0
 43
101.17499828
 44
7.79999971
 45
-111.17734083
 46
1.3322676295502E-14
 79
     2
 49
1.57200001
 49
-155.655756
 53
135.0
 43
100.05000114
 44
8.92500043
 45
-111.17734083
 46
1.3322676295502E-14
 79
     2
 49
1.57200001
 49
-155.655756
 53
116.56500244
 43
98.92499685
 44
9.97500032
 45
-111.17698409
 46
111.17750909
 79
     2
 49
2.48624995
 49
-246.11400604
 53
90.0
 43
97.79999971
 44
12.22499996
 45
-111.17699862
 46
6.8076277746497E-15
 79
     2
 49
2.22374998
 49
-108.95399809
 53
45.0
 43
97.79999971
 44
14.47499961
 45
1.3322676295502E-14
 46
111.17734083
 79
     2
 49
3.14474992
 49
-154.08375263
 53
0.0
 43
100.05000114
 44
16.65000021
 45
0.0
 46
111.17699862
 79
     2
 49
4.44674984
 49
-106.73024654
 53
315.0
 43
104.47500229
 44
16.65000021
 45
111.17734083
 46
-2.6645352591004E-14
 79
     2
 49
3.14474992
 49
-154.08375263
 53
0.0
 43
106.72499657
 44
14.47499961
 45
0.0
 46
111.17699862
 79
     2
 49
3.33525002
 49
-107.84174681
 53
333.43490601
 43
0.0
 44
14.47499961
 45
111.17741453
 46
-0.00041895
 79
     2
 49
2.48624995
 49
-246.11400604
 53
0.0
 43
110.10000229
 44
14.47499961
 45
0.0
 46
111.17699862
 79
     2
 49
1.11150004
 49
-110.06549835
 53
270.0
 43
2.25000009
 44
13.34999979
 45
111.17699862
 46
-2.0422883323949E-14
 79
     2
 49
2.22374998
 49
-108.95399809
 53
243.43499756
 43
2.25000009
 44
11.10000014
 45
-0.0002413
 46
-111.17741453
 79
     2
 49
2.48624995
 49
-246.11400604
 53
180.0
 43
1.12500004
 44
8.92500043
 45
-1.3615255549299E-14
 46
-111.17699862
 79
     2
 49
1.11150004
 49
-110.06549835
 53
180.0
 43
111.14999771
 44
8.92500043
 45
-1.3615255549299E-14
 46
-111.17699862
 79
     2
 49
1.11150004
 49
-110.06549835
 53
198.43499756
 43
110.10000229
 44
8.92500043
 45
-222.35442714
 46
-111.17709601
 79
     2
 49
3.51600006
 49
-348.05774689
 53
206.56500244
 43
106.72499657
 44
7.79999971
 45
-111.17750909
 46
-111.17698409
 79
     2
 49
2.48624995
 49
-246.11400604
 53
180.0
 43
104.47500229
 44
6.67499989
 45
-1.3615255549299E-14
 46
-111.17699862
 79
     2
 49
2.22374998
 49
-108.95399809
 53
33.69010162
 43
83.39999914
 44
9.97500032
 45
111.1774526
 46
111.17716932
 79
     2
 49
4.00875002
 49
-396.84674263
 53
0.0
 43
86.70000315
 44
12.22499996
 45
0.0
 46
111.17699862
 79
     2
 49
2.22374998
 49
-108.95399809
 53
341.56509399
 43
88.94999743
 44
12.22499996
 45
111.17690461
 46
-0.00015215
 79
     2
 49
3.51600006
 49
-348.05774689
 53
0.0
 43
92.25000143
 44
11.10000014
 45
0.0
 46
111.17699862
 79
     2
 49
3.33525002
 49
-107.84174681
 53
333.43490601
 43
95.625
 44
11.10000014
 45
111.17741453
 46
-0.00041895
 79
     2
 49
2.48624995
 49
-246.11400604
 53
326.30990601
 43
97.79999971
 44
9.97500032
 45
222.35437318
 46
-111.17762842
 79
     2
 49
4.00875002
 49
-396.84674263
 53
315.0
 43
101.17499828
 44
7.79999971
 45
111.17734083
 46
-2.6645352591004E-14
 79
     2
 49
1.57200001
 49
-155.655756
 53
270.0
 43
102.30000257
 44
6.67499989
 45
111.17699862
 46
-2.0422883323949E-14
 79
     2
 49
2.22374998
 49
-108.95399809
 53
243.43499756
 43
102.30000257
 44
4.4249998
 45
-0.0002413
 46
-111.17741453
 79
     2
 49
2.48624995
 49
-246.11400604
 53
206.56500244
 43
101.17499828
 44
2.25000009
 45
-111.17750909
 46
-111.17698409
 79
     2
 49
2.48624995
 49
-246.11400604
 53
161.56500244
 43
98.92499685
 44
1.12500004
 45
-111.17690461
 46
0.0003298
 79
     2
 49
3.51600006
 49
-348.05774689
 53
153.43499756
 43
95.625
 44
2.25000009
 45
-111.17741453
 46
0.0002413
 79
     2
 49
2.48624995
 49
-246.11400604
 53
161.56500244
 43
93.37499857
 44
3.29999998
 45
-111.17690461
 46
0.0003298
 79
     2
 49
3.51600006
 49
-348.05774689
 53
180.0
 43
90.07500172
 44
4.4249998
 45
-1.3615255549299E-14
 46
-111.17699862
 79
     2
 49
3.33525002
 49
-107.84174681
 53
146.30990601
 43
86.70000315
 44
4.4249998
 45
-222.35437318
 46
111.17762842
 79
     2
 49
4.00875002
 49
-396.84674263
 53
90.0
 43
83.39999914
 44
6.67499989
 45
-111.17699862
 46
6.8076277746497E-15
 79
     2
 49
3.33525002
 49
-107.84174681
 53
18.43490028
 43
74.47500229
 44
4.4249998
 45
222.35461589
 46
111.1767185
 79
     2
 49
3.51600006
 49
-348.05774689
 53
0.0
 43
77.85000086
 44
5.55000007
 45
0.0
 46
111.17699862
 79
     2
 49
2.22374998
 49
-108.95399809
 53
45.0
 43
80.02500057
 44
5.55000007
 45
1.3322676295502E-14
 46
111.17734083
 79
     2
 49
3.14474992
 49
-154.08375263
 53
63.43489838
 43
82.275002
 44
7.79999971
 45
0.00043375
 46
111.17741453
 79
     2
 49
2.48624995
 49
-246.11400604
 53
90.0
 43
83.39999914
 44
9.97500032
 45
-111.17699862
 46
6.8076277746497E-15
 79
     2
 49
1.11150004
 49
-110.06549835
 53
108.43499756
 43
83.39999914
 44
11.10000014
 45
-111.17709601
 46
222.35442714
 79
     2
 49
3.51600006
 49
-348.05774689
 53
135.0
 43
82.275002
 44
14.47499961
 45
-111.17734083
 46
1.3322676295502E-14
 79
     2
 49
4.71674994
 49
-152.51174927
 53
135.0
 43
78.90000343
 44
17.77499914
 45
-111.17734083
 46
1.3322676295502E-14
 79
     2
 49
3.14474992
 49
-154.08375263
 53
165.96380615
 43
76.72499657
 44
20.02500057
 45
-111.17705397
 46
-0.00046058
 79
     2
 49
4.58399981
 49
-453.81151199
 53
180.0
 43
72.30000257
 44
21.1499995
 45
-1.3615255549299E-14
 46
-111.17699862
 79
     2
 49
2.22374998
 49
-108.95399809
 53
225.0
 43
70.05000114
 44
21.1499995
 45
-1.9984014443253E-14
 46
-111.17734083
 79
     2
 49
3.14474992
 49
-154.08375263
 53
243.43499756
 43
67.79999971
 44
18.89999986
 45
-0.0002413
 46
-111.17741453
 79
     2
 49
2.48624995
 49
-246.11400604
 53
270.0
 43
66.67500257
 44
16.65000021
 45
111.17699862
 46
-2.0422883323949E-14
 79
     2
 49
3.33525002
 49
-107.84174681
 53
270.0
 43
66.67500257
 44
13.34999979
 45
111.17699862
 46
-2.0422883323949E-14
 79
     2
 49
4.44674984
 49
-106.73024654
 53
288.43490601
 43
66.67500257
 44
8.92500043
 45
111.17674071
 46
-222.35460479
 79
     2
 49
3.51600006
 49
-348.05774689
 53
333.43490601
 43
67.79999971
 44
5.55000007
 45
111.17741453
 46
-0.00041895
 79
     2
 49
2.48624995
 49
-246.11400604
 53
0.0
 43
70.05000114
 44
4.4249998
 45
0.0
 46
111.17699862
 79
     2
 49
4.44674984
 49
-106.73024654
 53
251.56500244
 43
13.34999979
 44
9.97500032
 45
-0.0003298
 46
-111.17690461
 79
     2
 49
3.51600006
 49
-348.05774689
 53
180.0
 43
12.22499996
 44
6.67499989
 45
-1.3615255549299E-14
 46
-111.17699862
 79
     2
 49
2.22374998
 49
-108.95399809
 53
161.56500244
 43
9.97500032
 44
6.67499989
 45
-111.17690461
 46
0.0003298
 79
     2
 49
3.51600006
 49
-348.05774689
 53
153.43499756
 43
6.67499989
 44
7.79999971
 45
-111.17741453
 46
0.0002413
 79
     2
 49
2.48624995
 49
-246.11400604
 53
135.0
 43
4.4249998
 44
8.92500043
 45
-111.17734083
 46
1.3322676295502E-14
 79
     2
 49
1.57200001
 49
-155.655756
 53
116.56500244
 43
3.29999998
 44
9.97500032
 45
-111.17698409
 46
111.17750909
 79
     2
 49
2.48624995
 49
-246.11400604
 53
63.43489838
 43
2.25000009
 44
12.22499996
 45
0.00043375
 46
111.17741453
 79
     2
 49
2.48624995
 49
-246.11400604
 53
26.56509972
 43
3.29999998
 44
14.47499961
 45
111.17732034
 46
111.17717285
 79
     2
 49
2.48624995
 49
-246.11400604
 53
0.0
 43
5.55000007
 44
15.59999943
 45
0.0
 46
111.17699862
 79
     2
 49
2.22374998
 49
-108.95399809
 53
333.43490601
 43
7.79999971
 44
15.59999943
 45
111.17741453
 46
-0.00041895
 79
     2
 49
4.97174978
 49
-243.62774849
 53
288.43490601
 43
12.22499996
 44
13.34999979
 45
111.17674071
 46
-222.35460479
 79
     2
 49
3.51600006
 49
-348.05774689
 53
75.96379852
 43
13.34999979
 44
8.92500043
 45
-0.00044578
 46
111.17705397
 79
     2
 49
4.58399981
 49
-453.81151199
 53
63.43489838
 43
14.47499961
 44
13.34999979
 45
0.00043375
 46
111.17741453
 79
     2
 49
2.48624995
 49
-246.11400604
 53
14.03619957
 43
15.59999943
 44
15.59999943
 45
333.53125922
 46
111.17716576
 79
     2
 49
4.58399981
 49
-453.81151199
 53
341.56509399
 43
20.02500057
 44
16.65000021
 45
111.17690461
 46
-0.00015215
 79
     2
 49
3.51600006
 49
-348.05774689
 53
296.56509399
 43
23.32499921
 44
15.59999943
 45
111.17716174
 46
-111.17733144
 79
     2
 49
2.48624995
 49
-246.11400604
 53
281.30990601
 43
24.44999993
 44
13.34999979
 45
111.17734797
 46
-444.70879317
 79
     2
 49
5.66925019
 49
-561.2257576
 53
281.30990601
 43
25.57500064
 44
7.79999971
 45
111.17734797
 46
-444.70879317
 79
     2
 49
5.66925019
 49
-561.2257576
 53
270.0
 43
26.69999957
 44
2.25000009
 45
111.17699862
 46
-2.0422883323949E-14
 79
     2
 49
2.22374998
 49
-108.95399809
 53
270.0
 43
26.69999957
 44
111.14999771
 45
111.17699862
 46
-2.0422883323949E-14
 79
     2
 49
2.22374998
 49
-108.95399809
 53
243.43499756
 43
26.69999957
 44
108.974998
 45
-0.0002413
 46
-111.17741453
 79
     2
 49
2.48624995
 49
-246.11400604
 53
198.43499756
 43
25.57500064
 44
106.72499657
 45
-222.35442714
 46
-111.17709601
 79
     2
 49
3.51600006
 49
-348.05774689
 53
180.0
 43
22.20000029
 44
105.59999943
 45
-1.3615255549299E-14
 46
-111.17699862
 79
     2
 49
6.67050004
 49
-104.50650215
 53
161.56500244
 43
15.59999943
 44
105.59999943
 45
-111.17690461
 46
0.0003298
 79
     2
 49
3.51600006
 49
-348.05774689
 53
116.56500244
 43
12.22499996
 44
106.72499657
 45
-111.17698409
 46
111.17750909
 79
     2
 49
2.48624995
 49
-246.11400604
 53
90.0
 43
11.10000014
 44
108.974998
 45
-111.17699862
 46
6.8076277746497E-15
 79
     2
 49
2.22374998
 49
-108.95399809
 53
75.96379852
 43
11.10000014
 44
0.0
 45
-0.00044578
 46
111.17705397
 79
     2
 49
4.58399981
 49
-453.81151199
 53
75.96379852
 43
12.22499996
 44
4.4249998
 45
-0.00044578
 46
111.17705397
 79
     2
 49
4.58399981
 49
-453.81151199
 53
26.56509972
 43
106.72499657
 44
6.67499989
 45
111.17732034
 46
111.17717285
 79
     2
 49
4.97174978
 49
-243.62774849
 53
0.0
 43
0.0
 44
8.92500043
 45
0.0
 46
111.17699862
 79
     2
 49
2.22374998
 49
-108.95399809
 53
341.56509399
 43
2.25000009
 44
8.92500043
 45
111.17690461
 46
-0.00015215
 79
     2
 49
3.51600006
 49
-348.05774689
 53
341.56509399
 43
5.55000007
 44
7.79999971
 45
111.17690461
 46
-0.00015215
 79
     2
 49
3.51600006
 49
-348.05774689
 53
315.0
 43
8.92500043
 44
6.67499989
 45
111.17734083
 46
-2.6645352591004E-14
 79
     2
 49
3.14474992
 49
-154.08375263
 53
270.0
 43
11.10000014
 44
4.4249998
 45
111.17699862
 46
-2.0422883323949E-14
 79
     2
 49
3.33525002
 49
-107.84174681
 53
270.0
 43
11.10000014
 44
1.12500004
 45
111.17699862
 46
-2.0422883323949E-14
 79
     2
 49
1.11150004
 49
-110.06549835
 53
270.0
 43
11.10000014
 44
111.14999771
 45
111.17699862
 46
-2.0422883323949E-14
 79
     2
 49
3.33525002
 49
-107.84174681
 53
258.69009399
 43
11.10000014
 44
107.85000086
 45
0.00034628
 46
-111.1775506
 79
     2
 49
5.66925019
 49
-561.2257576
 53
198.43499756
 43
9.97500032
 44
102.30000257
 45
-222.35442714
 46
-111.17709601
 79
     2
 49
3.51600006
 49
-348.05774689
 53
180.0
 43
6.67499989
 44
101.17499828
 45
-1.3615255549299E-14
 46
-111.17699862
 79
     2
 49
5.55899978
 49
-105.61800241
 53
180.0
 43
1.12500004
 44
101.17499828
 45
-1.3615255549299E-14
 46
-111.17699862
 79
     2
 49
1.11150004
 49
-110.06549835
 53
206.56500244
 43
111.14999771
 44
101.17499828
 45
-111.17750909
 46
-111.17698409
 79
     2
 49
2.48624995
 49
-246.11400604
 53
180.0
 43
108.974998
 44
100.05000114
 45
-1.3615255549299E-14
 46
-111.17699862
 79
     2
 49
2.22374998
 49
-108.95399809
 53
146.30990601
 43
106.72499657
 44
100.05000114
 45
-222.35437318
 46
111.17762842
 79
     2
 49
4.00875002
 49
-396.84674263
 53
116.56500244
 43
103.42499971
 44
102.30000257
 45
-111.17698409
 46
111.17750909
 79
     2
 49
2.48624995
 49
-246.11400604
 53
108.43499756
 43
102.30000257
 44
104.47500229
 45
-111.17709601
 46
222.35442714
 79
     2
 49
3.51600006
 49
-348.05774689
 53
90.0
 43
101.17499828
 44
107.85000086
 45
-111.17699862
 46
6.8076277746497E-15
 79
     2
 49
2.22374998
 49
-108.95399809
 53
71.56500244
 43
102.30000257
 44
0.0
 45
0.0003298
 46
111.17690461
 79
     2
 49
3.51600006
 49
-348.05774689
 53
45.0
 43
101.17499828
 44
110.10000229
 45
1.3322676295502E-14
 46
111.17734083
 79
     2
 49
1.57200001
 49
-155.655756
 53
45.0
 43
103.42499971
 44
3.29999998
 45
1.3322676295502E-14
 46
111.17734083
 79
     2
 49
4.71674994
 49
-152.51174927
 53
165.96380615
 43
65.625
 44
46.72500014
 45
-111.17705397
 46
-0.00046058
 79
     2
 49
4.58399981
 49
-453.81151199
 53
161.56500244
 43
61.12499714
 44
47.77499914
 45
-111.17690461
 46
0.0003298
 79
     2
 49
3.51600006
 49
-348.05774689
 53
116.56500244
 43
57.82500029
 44
48.89999986
 45
-111.17698409
 46
111.17750909
 79
     2
 49
2.48624995
 49
-246.11400604
 53
45.0
 43
56.69999957
 44
51.15000129
 45
1.3322676295502E-14
 46
111.17734083
 79
     2
 49
3.14474992
 49
-154.08375263
 53
345.9637146
 43
58.950001
 44
53.39999914
 45
111.17705397
 46
0.00028293
 79
     2
 49
4.58399981
 49
-453.81151199
 53
333.43490601
 43
63.37499857
 44
52.27499843
 45
111.17741453
 46
-0.00041895
 79
     2
 49
4.97174978
 49
-243.62774849
 53
270.0
 43
67.79999971
 44
50.02500057
 45
111.17699862
 46
-2.0422883323949E-14
 79
     2
 49
2.22374998
 49
-108.95399809
 53
206.56500244
 43
67.79999971
 44
47.77499914
 45
-111.17750909
 46
-111.17698409
 79
     2
 49
2.48624995
 49
-246.11400604
 53
165.96380615
 43
63.37499857
 44
52.27499843
 45
-111.17705397
 46
-0.00046058
 79
     2
 49
4.58399981
 49
-453.81151199
 53
90.0
 43
58.950001
 44
53.39999914
 45
-111.17699862
 46
6.8076277746497E-15
 79
     2
 49
2.22374998
 49
-108.95399809
 53
45.0
 43
58.950001
 44
55.57499886
 45
1.3322676295502E-14
 46
111.17734083
 79
     2
 49
1.57200001
 49
-155.655756
 53
18.43490028
 43
60.0
 44
56.69999957
 45
222.35461589
 46
111.1767185
 79
     2
 49
3.51600006
 49
-348.05774689
 53
345.9637146
 43
63.37499857
 44
57.82500029
 45
111.17705397
 46
0.00028293
 79
     2
 49
4.58399981
 49
-453.81151199
 53
345.9637146
 43
67.79999971
 44
56.69999957
 45
111.17705397
 46
0.00028293
 79
     2
 49
4.58399981
 49
-453.81151199
 53
270.0
 43
72.30000257
 44
55.57499886
 45
111.17699862
 46
-2.0422883323949E-14
 79
     2
 49
2.22374998
 49
-108.95399809
 53
213.69009399
 43
72.30000257
 44
53.39999914
 45
-111.1774674
 46
-111.17715452
 79
     2
 49
4.00875002
 49
-396.84674263
 53
168.69009399
 43
68.92499685
 44
51.15000129
 45
-111.1775506
 46
-0.00034628
 79
     2
 49
5.66925019
 49
-561.2257576
 53
11.30990028
 43
64.50000286
 44
60.0
 45
444.70880427
 46
111.17730356
 79
     2
 49
5.66925019
 49
-561.2257576
 53
0.0
 43
70.05000114
 44
61.12499714
 45
0.0
 46
111.17699862
 79
     2
 49
5.55899978
 49
-105.61800241
 53
341.56509399
 43
75.59999943
 44
61.12499714
 45
111.17690461
 46
-0.00015215
 79
     2
 49
3.51600006
 49
-348.05774689
 53
270.0
 43
78.90000343
 44
60.0
 45
111.17699862
 46
-2.0422883323949E-14
 79
     2
 49
2.22374998
 49
-108.95399809
 53
206.56500244
 43
78.90000343
 44
57.82500029
 45
-111.17750909
 46
-111.17698409
 79
     2
 49
4.97174978
 49
-243.62774849
 53
180.0
 43
74.47500229
 44
55.57499886
 45
-1.3615255549299E-14
 46
-111.17699862
 79
     2
 49
2.22374998
 49
-108.95399809
 53
165.96380615
 43
72.30000257
 44
55.57499886
 45
-111.17705397
 46
-0.00046058
 79
     2
 49
4.58399981
 49
-453.81151199
 53
161.56500244
 43
67.79999971
 44
56.69999957
 45
-111.17690461
 46
0.0003298
 79
     2
 49
3.51600006
 49
-348.05774689
 53
90.0
 43
64.50000286
 44
57.82500029
 45
-111.17699862
 46
6.8076277746497E-15
 79
     2
 49
1.11150004
 49
-110.06549835
 53
90.0
 43
64.50000286
 44
58.950001
 45
-111.17699862
 46
6.8076277746497E-15
 79
     2
 49
1.11150004
 49
-110.06549835
 53
243.43499756
 43
55.57499886
 44
62.25000143
 45
-0.0002413
 46
-111.17741453
 79
     2
 49
2.48624995
 49
-246.11400604
 53
315.0
 43
54.45000172
 44
60.0
 45
111.17734083
 46
-2.6645352591004E-14
 79
     2
 49
3.14474992
 49
-154.08375263
 53
341.56509399
 43
56.69999957
 44
57.82500029
 45
111.17690461
 46
-0.00015215
 79
     2
 49
3.51600006
 49
-348.05774689
 53
18.43490028
 43
60.0
 44
56.69999957
 45
222.35461589
 46
111.1767185
 79
     2
 49
3.51600006
 49
-348.05774689
 53
45.0
 43
63.37499857
 44
57.82500029
 45
1.3322676295502E-14
 46
111.17734083
 79
     2
 49
1.57200001
 49
-155.655756
 53
116.56500244
 43
64.50000286
 44
58.950001
 45
-111.17698409
 46
111.17750909
 79
     2
 49
2.48624995
 49
-246.11400604
 53
45.0
 43
45.59999943
 44
67.79999971
 45
1.3322676295502E-14
 46
111.17734083
 79
     2
 49
3.14474992
 49
-154.08375263
 53
18.43490028
 43
47.77499914
 44
70.05000114
 45
222.35461589
 46
111.1767185
 79
     2
 49
3.51600006
 49
-348.05774689
 53
354.80560303
 43
51.15000129
 44
71.17499828
 45
111.1768556
 46
0.0003337
 79
     2
 49
12.27975011
 49
-1215.71250916
 53
350.53768921
 43
63.37499857
 44
70.05000114
 45
111.17694947
 46
0.00014621
 79
     2
 49
6.76275015
 49
-669.50174332
 53
341.56509399
 43
70.05000114
 44
68.92499685
 45
111.17690461
 46
-0.00015215
 79
     2
 49
3.51600006
 49
-348.05774689
 53
315.0
 43
73.349998
 44
67.79999971
 45
111.17734083
 46
-2.6645352591004E-14
 79
     2
 49
1.57200001
 49
-155.655756
 53
270.0
 43
74.47500229
 44
66.67500257
 45
111.17699862
 46
-2.0422883323949E-14
 79
     2
 49
3.33525002
 49
-107.84174681
 53
225.0
 43
74.47500229
 44
63.37499857
 45
-1.9984014443253E-14
 46
-111.17734083
 79
     2
 49
1.57200001
 49
-155.655756
 53
198.43499756
 43
73.349998
 44
62.25000143
 45
-222.35442714
 46
-111.17709601
 79
     2
 49
3.51600006
 49
-348.05774689
 53
180.0
 43
70.05000114
 44
61.12499714
 45
-1.3615255549299E-14
 46
-111.17699862
 79
     2
 49
5.55899978
 49
-105.61800241
 53
168.69009399
 43
64.50000286
 44
61.12499714
 45
-111.1775506
 46
-0.00034628
 79
     2
 49
5.66925019
 49
-561.2257576
 53
180.0
 43
58.950001
 44
62.25000143
 45
-1.3615255549299E-14
 46
-111.17699862
 79
     2
 49
6.67050004
 49
-104.50650215
 53
165.96380615
 43
52.27499843
 44
62.25000143
 45
-111.17705397
 46
-0.00046058
 79
     2
 49
4.58399981
 49
-453.81151199
 53
135.0
 43
47.77499914
 44
63.37499857
 45
-111.17734083
 46
1.3322676295502E-14
 79
     2
 49
3.14474992
 49
-154.08375263
 53
153.43499756
 43
81.14999771
 44
68.92499685
 45
-111.17741453
 46
0.0002413
 79
     2
 49
2.48624995
 49
-246.11400604
 53
198.43499756
 43
78.90000343
 44
70.05000114
 45
-222.35442714
 46
-111.17709601
 79
     2
 49
3.51600006
 49
-348.05774689
 53
243.43499756
 43
75.59999943
 44
68.92499685
 45
-0.0002413
 46
-111.17741453
 79
     2
 49
2.48624995
 49
-246.11400604
 53
270.0
 43
74.47500229
 44
66.67500257
 45
111.17699862
 46
-2.0422883323949E-14
 79
     2
 49
2.22374998
 49
-108.95399809
 53
288.43490601
 43
74.47500229
 44
64.50000286
 45
111.17674071
 46
-222.35460479
 79
     2
 49
3.51600006
 49
-348.05774689
 53
341.56509399
 43
75.59999943
 44
61.12499714
 45
111.17690461
 46
-0.00015215
 79
     2
 49
3.51600006
 49
-348.05774689
 53
26.56509972
 43
78.90000343
 44
60.0
 45
111.17732034
 46
111.17717285
 79
     2
 49
2.48624995
 49
-246.11400604
 53
45.0
 43
81.14999771
 44
61.12499714
 45
1.3322676295502E-14
 46
111.17734083
 79
     2
 49
3.14474992
 49
-154.08375263
 53
90.0
 43
83.39999914
 44
63.37499857
 45
-111.17699862
 46
6.8076277746497E-15
 79
     2
 49
2.22374998
 49
-108.95399809
 53
123.69010162
 43
83.39999914
 44
65.625
 45
-111.17716932
 46
111.1774526
 79
     2
 49
4.00875002
 49
-396.84674263
 53
180.0
 43
30.0
 44
60.0
 45
-1.3615255549299E-14
 46
-111.17699862
 79
     2
 49
1.11150004
 49
-110.06549835
 53
135.0
 43
28.87499928
 44
60.0
 45
-111.17734083
 46
1.3322676295502E-14
 79
     2
 49
3.14474992
 49
-154.08375263
 53
116.56500244
 43
26.69999957
 44
62.25000143
 45
-111.17698409
 46
111.17750909
 79
     2
 49
2.48624995
 49
-246.11400604
 53
71.56500244
 43
25.57500064
 44
64.50000286
 45
0.0003298
 46
111.17690461
 79
     2
 49
3.51600006
 49
-348.05774689
 53
56.30989838
 43
26.69999957
 44
67.79999971
 45
111.17765803
 46
222.35435837
 79
     2
 49
4.00875002
 49
-396.84674263
 53
11.30990028
 43
28.87499928
 44
71.17499828
 45
444.70880427
 46
111.17730356
 79
     2
 49
5.66925019
 49
-561.2257576
 53
333.43490601
 43
34.49999928
 44
72.30000257
 45
111.17741453
 46
-0.00041895
 79
     2
 49
4.97174978
 49
-243.62774849
 53
0.0
 43
38.92500043
 44
70.05000114
 45
0.0
 46
111.17699862
 79
     2
 49
3.33525002
 49
-107.84174681
 53
326.30990601
 43
42.22500086
 44
70.05000114
 45
222.35437318
 46
-111.17762842
 79
     2
 49
4.00875002
 49
-396.84674263
 53
270.0
 43
45.59999943
 44
67.79999971
 45
111.17699862
 46
-2.0422883323949E-14
 79
     2
 49
2.22374998
 49
-108.95399809
 53
225.0
 43
45.59999943
 44
65.625
 45
-1.9984014443253E-14
 46
-111.17734083
 79
     2
 49
3.14474992
 49
-154.08375263
 53
18.43490028
 43
23.32499921
 44
66.67500257
 45
222.35461589
 46
111.1767185
 79
     2
 49
3.51600006
 49
-348.05774689
 53
90.0
 43
26.69999957
 44
67.79999971
 45
-111.17699862
 46
6.8076277746497E-15
 79
     2
 49
1.11150004
 49
-110.06549835
 53
116.56500244
 43
26.69999957
 44
68.92499685
 45
-111.17698409
 46
111.17750909
 79
     2
 49
2.48624995
 49
-246.11400604
 53
180.0
 43
25.57500064
 44
71.17499828
 45
-1.3615255549299E-14
 46
-111.17699862
 79
     2
 49
4.44674984
 49
-106.73024654
 53
191.30990601
 43
21.1499995
 44
71.17499828
 45
-444.70879317
 46
-111.17734797
 79
     2
 49
5.66925019
 49
-561.2257576
 53
225.0
 43
15.59999943
 44
70.05000114
 45
-1.9984014443253E-14
 46
-111.17734083
 79
     2
 49
1.57200001
 49
-155.655756
 53
270.0
 43
14.47499961
 44
68.92499685
 45
111.17699862
 46
-2.0422883323949E-14
 79
     2
 49
1.11150004
 49
-110.06549835
 53
315.0
 43
14.47499961
 44
67.79999971
 45
111.17734083
 46
-2.6645352591004E-14
 79
     2
 49
1.57200001
 49
-155.655756
 53
281.30990601
 43
25.57500064
 44
64.50000286
 45
111.17734797
 46
-444.70879317
 79
     2
 49
5.66925019
 49
-561.2257576
 53
270.0
 43
26.69999957
 44
58.950001
 45
111.17699862
 46
-2.0422883323949E-14
 79
     2
 49
3.33525002
 49
-107.84174681
 53
236.30990601
 43
26.69999957
 44
55.57499886
 45
-111.17762842
 46
-222.35437318
 79
     2
 49
4.00875002
 49
-396.84674263
 53
180.0
 43
24.44999993
 44
52.27499843
 45
-1.3615255549299E-14
 46
-111.17699862
 79
     2
 49
4.44674984
 49
-106.73024654
 53
180.0
 43
20.02500057
 44
52.27499843
 45
-1.3615255549299E-14
 46
-111.17699862
 79
     2
 49
5.55899978
 49
-105.61800241
 53
153.43499756
 43
14.47499961
 44
52.27499843
 45
-111.17741453
 46
0.0002413
 79
     2
 49
2.48624995
 49
-246.11400604
 53
108.43499756
 43
12.22499996
 44
53.39999914
 45
-111.17709601
 46
222.35442714
 79
     2
 49
3.51600006
 49
-348.05774689
 53
90.0
 43
11.10000014
 44
56.69999957
 45
-111.17699862
 46
6.8076277746497E-15
 79
     2
 49
3.33525002
 49
-107.84174681
 53
71.56500244
 43
11.10000014
 44
60.0
 45
0.0003298
 46
111.17690461
 79
     2
 49
3.51600006
 49
-348.05774689
 53
45.0
 43
12.22499996
 44
63.37499857
 45
1.3322676295502E-14
 46
111.17734083
 79
     2
 49
4.71674994
 49
-152.51174927
 53
0.0
 43
15.59999943
 44
66.67500257
 45
0.0
 46
111.17699862
 79
     2
 49
7.78275043
 49
-103.39500189
 53
315.0
 43
23.32499921
 44
66.67500257
 45
111.17734083
 46
-2.6645352591004E-14
 79
     2
 49
3.14474992
 49
-154.08375263
 53
26.56509972
 43
42.22500086
 44
6.67499989
 45
111.17732034
 46
111.17717285
 79
     2
 49
2.48624995
 49
-246.11400604
 53
45.0
 43
44.47499871
 44
7.79999971
 45
1.3322676295502E-14
 46
111.17734083
 79
     2
 49
1.57200001
 49
-155.655756
 53
90.0
 43
45.59999943
 44
8.92500043
 45
-111.17699862
 46
6.8076277746497E-15
 79
     2
 49
2.22374998
 49
-108.95399809
 53
116.56500244
 43
45.59999943
 44
11.10000014
 45
-111.17698409
 46
111.17750909
 79
     2
 49
2.48624995
 49
-246.11400604
 53
161.56500244
 43
44.47499871
 44
13.34999979
 45
-111.17690461
 46
0.0003298
 79
     2
 49
3.51600006
 49
-348.05774689
 53
161.56500244
 43
41.10000014
 44
14.47499961
 45
-111.17690461
 46
0.0003298
 79
     2
 49
3.51600006
 49
-348.05774689
 53
180.0
 43
37.79999971
 44
15.59999943
 45
-1.3615255549299E-14
 46
-111.17699862
 79
     2
 49
4.44674984
 49
-106.73024654
 53
194.03619385
 43
33.37499857
 44
15.59999943
 45
-333.53127033
 46
-111.17713245
 79
     2
 49
4.58399981
 49
-453.81151199
 53
236.30990601
 43
28.87499928
 44
14.47499961
 45
-111.17762842
 46
-222.35437318
 79
     2
 49
4.00875002
 49
-396.84674263
 53
251.56500244
 43
26.69999957
 44
11.10000014
 45
-0.0003298
 46
-111.17690461
 79
     2
 49
3.51600006
 49
-348.05774689
 53
288.43490601
 43
25.57500064
 44
7.79999971
 45
111.17674071
 46
-222.35460479
 79
     2
 49
3.51600006
 49
-348.05774689
 53
333.43490601
 43
26.69999957
 44
4.4249998
 45
111.17741453
 46
-0.00041895
 79
     2
 49
2.48624995
 49
-246.11400604
 53
11.30990028
 43
28.87499928
 44
3.29999998
 45
444.70880427
 46
111.17730356
 79
     2
 49
5.66925019
 49
-561.2257576
 53
191.30990601
 43
54.45000172
 44
103.42499971
 45
-444.70879317
 46
-111.17734797
 79
     2
 49
5.66925019
 49
-561.2257576
 53
161.56500244
 43
48.89999986
 44
102.30000257
 45
-111.17690461
 46
0.0003298
 79
     2
 49
3.51600006
 49
-348.05774689
 53
146.30990601
 43
45.59999943
 44
103.42499971
 45
-222.35437318
 46
111.17762842
 79
     2
 49
4.00875002
 49
-396.84674263
 53
161.56500244
 43
42.22500086
 44
105.59999943
 45
-111.17690461
 46
0.0003298
 79
     2
 49
3.51600006
 49
-348.05774689
 53
171.86990356
 43
38.92500043
 44
106.72499657
 45
-111.17691169
 46
-0.00022416
 79
     2
 49
7.86150008
 49
-778.28023911
 53
161.56500244
 43
31.12500072
 44
107.85000086
 45
-111.17690461
 46
0.0003298
 79
     2
 49
3.51600006
 49
-348.05774689
 53
116.56500244
 43
27.82500029
 44
108.974998
 45
-111.17698409
 46
111.17750909
 79
     2
 49
2.48624995
 49
-246.11400604
 53
63.43489838
 43
26.69999957
 44
0.0
 45
0.00043375
 46
111.17741453
 79
     2
 49
2.48624995
 49
-246.11400604
 53
26.56509972
 43
27.82500029
 44
2.25000009
 45
111.17732034
 46
111.17717285
 79
     2
 49
2.48624995
 49
-246.11400604
 53
14.03619957
 43
30.0
 44
3.29999998
 45
333.53125922
 46
111.17716576
 79
     2
 49
4.58399981
 49
-453.81151199
 53
18.43490028
 43
34.49999928
 44
4.4249998
 45
222.35461589
 46
111.1767185
 79
     2
 49
3.51600006
 49
-348.05774689
 53
14.03619957
 43
37.79999971
 44
5.55000007
 45
333.53125922
 46
111.17716576
 79
     2
 49
4.58399981
 49
-453.81151199
 53
0.0
 43
42.22500086
 44
6.67499989
 45
0.0
 46
111.17699862
 79
     2
 49
3.33525002
 49
-107.84174681
 53
345.9637146
 43
45.59999943
 44
6.67499989
 45
111.17705397
 46
0.00028293
 79
     2
 49
4.58399981
 49
-453.81151199
 53
333.43490601
 43
50.02500057
 44
5.55000007
 45
111.17741453
 46
-0.00041895
 79
     2
 49
4.97174978
 49
-243.62774849
 53
315.0
 43
54.45000172
 44
3.29999998
 45
111.17734083
 46
-2.6645352591004E-14
 79
     2
 49
4.71674994
 49
-152.51174927
 53
270.0
 43
57.82500029
 44
111.14999771
 45
111.17699862
 46
-2.0422883323949E-14
 79
     2
 49
2.22374998
 49
-108.95399809
 53
255.96380615
 43
57.82500029
 44
108.974998
 45
0.00046058
 46
-111.17705397
 79
     2
 49
4.58399981
 49
-453.81151199
 53
206.56500244
 43
56.69999957
 44
104.47500229
 45
-111.17750909
 46
-111.17698409
 79
     2
 49
2.48624995
 49
-246.11400604
 53
0.0
 43
3.29999998
 44
46.72500014
 45
0.0
 46
111.17699862
 79
     2
 49
4.44674984
 49
-106.73024654
 53
341.56509399
 43
7.79999971
 44
46.72500014
 45
111.17690461
 46
-0.00015215
 79
     2
 49
3.51600006
 49
-348.05774689
 53
315.0
 43
11.10000014
 44
45.59999943
 45
111.17734083
 46
-2.6645352591004E-14
 79
     2
 49
3.14474992
 49
-154.08375263
 53
270.0
 43
13.34999979
 44
43.35000157
 45
111.17699862
 46
-2.0422883323949E-14
 79
     2
 49
2.22374998
 49
-108.95399809
 53
258.69009399
 43
13.34999979
 44
41.10000014
 45
0.00034628
 46
-111.1775506
 79
     2
 49
5.66925019
 49
-561.2257576
 53
236.30990601
 43
12.22499996
 44
35.54999828
 45
-111.17762842
 46
-222.35437318
 79
     2
 49
4.00875002
 49
-396.84674263
 53
225.0
 43
9.97500032
 44
32.25000143
 45
-1.9984014443253E-14
 46
-111.17734083
 79
     2
 49
4.71674994
 49
-152.51174927
 53
225.0
 43
6.67499989
 44
28.87499928
 45
-1.9984014443253E-14
 46
-111.17734083
 79
     2
 49
4.71674994
 49
-152.51174927
 53
180.0
 43
111.14999771
 44
23.32499921
 45
-1.3615255549299E-14
 46
-111.17699862
 79
     2
 49
1.11150004
 49
-110.06549835
 53
213.69009399
 43
3.29999998
 44
25.57500064
 45
-111.1774674
 46
-111.17715452
 79
     2
 49
4.00875002
 49
-396.84674263
 53
180.0
 43
110.10000229
 44
23.32499921
 45
-1.3615255549299E-14
 46
-111.17699862
 79
     2
 49
2.22374998
 49
-108.95399809
 53
153.43499756
 43
107.85000086
 44
23.32499921
 45
-111.17741453
 46
0.0002413
 79
     2
 49
2.48624995
 49
-246.11400604
 53
101.30989838
 43
105.59999943
 44
24.44999993
 45
-111.17728875
 46
444.70880798
 79
     2
 49
5.66925019
 49
-561.2257576
 53
90.0
 43
104.47500229
 44
30.0
 45
-111.17699862
 46
6.8076277746497E-15
 79
     2
 49
4.44674984
 49
-106.73024654
 53
75.96379852
 43
104.47500229
 44
34.49999928
 45
-0.00044578
 46
111.17705397
 79
     2
 49
4.58399981
 49
-453.81151199
 53
71.56500244
 43
105.59999943
 44
38.92500043
 45
0.0003298
 46
111.17690461
 79
     2
 49
3.51600006
 49
-348.05774689
 53
36.86989975
 43
106.72499657
 44
42.22500086
 45
111.17744264
 46
111.17715147
 79
     2
 49
5.55899978
 49
-550.32749176
 53
18.43490028
 43
0.0
 44
45.59999943
 45
222.35461589
 46
111.1767185
 79
     2
 49
3.51600006
 49
-348.05774689
 53
213.69009399
 43
103.42499971
 44
18.89999986
 45
-111.1774674
 46
-111.17715452
 79
     2
 49
4.00875002
 49
-396.84674263
 53
206.56500244
 43
100.05000114
 44
16.65000021
 45
-111.17750909
 46
-111.17698409
 79
     2
 49
2.48624995
 49
-246.11400604
 53
225.0
 43
97.79999971
 44
15.59999943
 45
-1.9984014443253E-14
 46
-111.17734083
 79
     2
 49
3.14474992
 49
-154.08375263
 53
206.56500244
 43
95.625
 44
13.34999979
 45
-111.17750909
 46
-111.17698409
 79
     2
 49
2.48624995
 49
-246.11400604
 53
180.0
 43
93.37499857
 44
12.22499996
 45
-1.3615255549299E-14
 46
-111.17699862
 79
     2
 49
2.22374998
 49
-108.95399809
 53
180.0
 43
91.19999886
 44
12.22499996
 45
-1.3615255549299E-14
 46
-111.17699862
 79
     2
 49
5.55899978
 49
-105.61800241
 53
146.30990601
 43
85.57499886
 44
12.22499996
 45
-222.35437318
 46
111.17762842
 79
     2
 49
4.00875002
 49
-396.84674263
 53
116.56500244
 43
82.275002
 44
14.47499961
 45
-111.17698409
 46
111.17750909
 79
     2
 49
2.48624995
 49
-246.11400604
 53
108.43499756
 43
81.14999771
 44
16.65000021
 45
-111.17709601
 46
222.35442714
 79
     2
 49
3.51600006
 49
-348.05774689
 53
90.0
 43
80.02500057
 44
20.02500057
 45
-111.17699862
 46
6.8076277746497E-15
 79
     2
 49
3.33525002
 49
-107.84174681
 53
63.43489838
 43
80.02500057
 44
23.32499921
 45
0.00043375
 46
111.17741453
 79
     2
 49
2.48624995
 49
-246.11400604
 53
26.56509972
 43
81.14999771
 44
25.57500064
 45
111.17732034
 46
111.17717285
 79
     2
 49
2.48624995
 49
-246.11400604
 53
0.0
 43
83.39999914
 44
26.69999957
 45
0.0
 46
111.17699862
 79
     2
 49
10.00575006
 49
-101.17125034
 53
352.875
 43
93.37499857
 44
26.69999957
 45
111.17747939
 46
-0.00034
 79
     2
 49
8.96324962
 49
-887.37602234
 53
341.56509399
 43
102.30000257
 44
25.57500064
 45
111.17690461
 46
-0.00015215
 79
     2
 49
3.51600006
 49
-348.05774689
 53
270.0
 43
105.59999943
 44
24.44999993
 45
111.17699862
 46
-2.0422883323949E-14
 79
     2
 49
2.22374998
 49
-108.95399809
 53
243.43499756
 43
105.59999943
 44
22.20000029
 45
-0.0002413
 46
-111.17741453
 79
     2
 49
2.48624995
 49
-246.11400604
 53
225.0
 43
104.47500229
 44
20.02500057
 45
-1.9984014443253E-14
 46
-111.17734083
 79
     2
 49
1.57200001
 49
-155.655756
 53
194.03619385
 43
53.39999914
 44
48.89999986
 45
-333.53127033
 46
-111.17713245
 79
     2
 49
4.58399981
 49
-453.81151199
 53
180.0
 43
48.89999986
 44
47.77499914
 45
-1.3615255549299E-14
 46
-111.17699862
 79
     2
 49
2.22374998
 49
-108.95399809
 53
146.30990601
 43
46.72500014
 44
47.77499914
 45
-222.35437318
 46
111.17762842
 79
     2
 49
4.00875002
 49
-396.84674263
 53
146.30990601
 43
43.35000157
 44
50.02500057
 45
-222.35437318
 46
111.17762842
 79
     2
 49
4.00875002
 49
-396.84674263
 53
161.56500244
 43
40.05000114
 44
52.27499843
 45
-111.17690461
 46
0.0003298
 79
     2
 49
3.51600006
 49
-348.05774689
 53
180.0
 43
36.674999
 44
53.39999914
 45
-1.3615255549299E-14
 46
-111.17699862
 79
     2
 49
4.44674984
 49
-106.73024654
 53
161.56500244
 43
32.25000143
 44
53.39999914
 45
-111.17690461
 46
0.0003298
 79
     2
 49
3.51600006
 49
-348.05774689
 53
135.0
 43
28.87499928
 44
54.45000172
 45
-111.17734083
 46
1.3322676295502E-14
 79
     2
 49
1.57200001
 49
-155.655756
 53
90.0
 43
27.82500029
 44
55.57499886
 45
-111.17699862
 46
6.8076277746497E-15
 79
     2
 49
2.22374998
 49
-108.95399809
 53
45.0
 43
27.82500029
 44
57.82500029
 45
1.3322676295502E-14
 46
111.17734083
 79
     2
 49
3.14474992
 49
-154.08375263
 53
18.43490028
 43
30.0
 44
60.0
 45
222.35461589
 46
111.1767185
 79
     2
 49
3.51600006
 49
-348.05774689
 53
21.80139923
 43
33.37499857
 44
61.12499714
 45
222.35408276
 46
111.17720082
 79
     2
 49
5.98725021
 49
-592.72052765
 53
0.0
 43
38.92500043
 44
63.37499857
 45
0.0
 46
111.17699862
 79
     2
 49
5.55899978
 49
-105.61800241
 53
348.69009399
 43
44.47499871
 44
63.37499857
 45
111.1775506
 46
0.00034628
 79
     2
 49
5.66925019
 49
-561.2257576
 53
333.43490601
 43
50.02500057
 44
62.25000143
 45
111.17741453
 46
-0.00041895
 79
     2
 49
4.97174978
 49
-243.62774849
 53
315.0
 43
54.45000172
 44
60.0
 45
111.17734083
 46
-2.6645352591004E-14
 79
     2
 49
3.14474992
 49
-154.08375263
 53
296.56509399
 43
56.69999957
 44
57.82500029
 45
111.17716174
 46
-111.17733144
 79
     2
 49
2.48624995
 49
-246.11400604
 53
270.0
 43
57.82500029
 44
55.57499886
 45
111.17699862
 46
-2.0422883323949E-14
 79
     2
 49
3.33525002
 49
-107.84174681
 53
225.0
 43
57.82500029
 44
52.27499843
 45
-1.9984014443253E-14
 46
-111.17734083
 79
     2
 49
3.14474992
 49
-154.08375263
 53
206.56500244
 43
55.57499886
 44
50.02500057
 45
-111.17750909
 46
-111.17698409
 79
     2
 49
2.48624995
 49
-246.11400604
 53
194.03619385
 43
20.02500057
 44
16.65000021
 45
-333.53127033
 46
-111.17713245
 79
     2
 49
4.58399981
 49
-453.81151199
 53
180.0
 43
15.59999943
 44
15.59999943
 45
-1.3615255549299E-14
 46
-111.17699862
 79
     2
 49
2.22374998
 49
-108.95399809
 53
153.43499756
 43
13.34999979
 44
15.59999943
 45
-111.17741453
 46
0.0002413
 79
     2
 49
2.48624995
 49
-246.11400604
 53
135.0
 43
11.10000014
 44
16.65000021
 45
-111.17734083
 46
1.3322676295502E-14
 79
     2
 49
3.14474992
 49
-154.08375263
 53
135.0
 43
8.92500043
 44
18.89999986
 45
-111.17734083
 46
1.3322676295502E-14
 79
     2
 49
3.14474992
 49
-154.08375263
 53
116.56500244
 43
6.67499989
 44
21.1499995
 45
-111.17698409
 46
111.17750909
 79
     2
 49
2.48624995
 49
-246.11400604
 53
90.0
 43
5.55000007
 44
23.32499921
 45
-111.17699862
 46
6.8076277746497E-15
 79
     2
 49
2.22374998
 49
-108.95399809
 53
71.56500244
 43
5.55000007
 44
25.57500064
 45
0.0003298
 46
111.17690461
 79
     2
 49
3.51600006
 49
-348.05774689
 53
45.0
 43
6.67499989
 44
28.87499928
 45
1.3322676295502E-14
 46
111.17734083
 79
     2
 49
4.71674994
 49
-152.51174927
 53
33.69010162
 43
9.97500032
 44
32.25000143
 45
111.1774526
 46
111.17716932
 79
     2
 49
4.00875002
 49
-396.84674263
 53
14.03619957
 43
13.34999979
 44
34.49999928
 45
333.53125922
 46
111.17716576
 79
     2
 49
4.58399981
 49
-453.81151199
 53
341.56509399
 43
17.77499914
 44
35.54999828
 45
111.17690461
 46
-0.00015215
 79
     2
 49
3.51600006
 49
-348.05774689
 53
333.43490601
 43
21.1499995
 44
34.49999928
 45
111.17741453
 46
-0.00041895
 79
     2
 49
2.48624995
 49
-246.11400604
 53
315.0
 43
23.32499921
 44
33.37499857
 45
111.17734083
 46
-2.6645352591004E-14
 79
     2
 49
3.14474992
 49
-154.08375263
 53
288.43490601
 43
25.57500064
 44
31.12500072
 45
111.17674071
 46
-222.35460479
 79
     2
 49
3.51600006
 49
-348.05774689
 53
288.43490601
 43
26.69999957
 44
27.82500029
 45
111.17674071
 46
-222.35460479
 79
     2
 49
3.51600006
 49
-348.05774689
 53
71.56500244
 43
26.69999957
 44
21.1499995
 45
0.0003298
 46
111.17690461
 79
     2
 49
3.51600006
 49
-348.05774689
 53
225.0
 43
28.87499928
 44
23.32499921
 45
-1.9984014443253E-14
 46
-111.17734083
 79
     2
 49
3.14474992
 49
-154.08375263
 53
213.69009399
 43
26.69999957
 44
21.1499995
 45
-111.1774674
 46
-111.17715452
 79
     2
 49
4.00875002
 49
-396.84674263
 53
213.69009399
 43
23.32499921
 44
18.89999986
 45
-111.1774674
 46
-111.17715452
 79
     2
 49
4.00875002
 49
-396.84674263
 53
206.56500244
 43
98.92499685
 44
47.77499914
 45
-111.17750909
 46
-111.17698409
 79
     2
 49
2.48624995
 49
-246.11400604
 53
201.80140686
 43
96.74999714
 44
46.72500014
 45
-222.35406796
 46
-111.17723043
 79
     2
 49
5.98725021
 49
-592.72052765
 53
225.0
 43
91.19999886
 44
44.47499871
 45
-1.9984014443253E-14
 46
-111.17734083
 79
     2
 49
1.57200001
 49
-155.655756
 53
243.43499756
 43
90.07500172
 44
43.35000157
 45
-0.0002413
 46
-111.17741453
 79
     2
 49
2.48624995
 49
-246.11400604
 53
225.0
 43
88.94999743
 44
41.10000014
 45
-1.9984014443253E-14
 46
-111.17734083
 79
     2
 49
1.57200001
 49
-155.655756
 53
206.56500244
 43
87.82500029
 44
40.05000114
 45
-111.17750909
 46
-111.17698409
 79
     2
 49
2.48624995
 49
-246.11400604
 53
198.43499756
 43
85.57499886
 44
38.92500043
 45
-222.35442714
 46
-111.17709601
 79
     2
 49
3.51600006
 49
-348.05774689
 53
180.0
 43
82.275002
 44
37.79999971
 45
-1.3615255549299E-14
 46
-111.17699862
 79
     2
 49
2.22374998
 49
-108.95399809
 53
153.43499756
 43
80.02500057
 44
37.79999971
 45
-111.17741453
 46
0.0002413
 79
     2
 49
4.97174978
 49
-243.62774849
 53
153.43499756
 43
75.59999943
 44
40.05000114
 45
-111.17741453
 46
0.0002413
 79
     2
 49
4.97174978
 49
-243.62774849
 53
135.0
 43
71.17499828
 44
42.22500086
 45
-111.17734083
 46
1.3322676295502E-14
 79
     2
 49
3.14474992
 49
-154.08375263
 53
116.56500244
 43
68.92499685
 44
44.47499871
 45
-111.17698409
 46
111.17750909
 79
     2
 49
2.48624995
 49
-246.11400604
 53
90.0
 43
67.79999971
 44
46.72500014
 45
-111.17699862
 46
6.8076277746497E-15
 79
     2
 49
2.22374998
 49
-108.95399809
 53
63.43489838
 43
67.79999971
 44
48.89999986
 45
0.00043375
 46
111.17741453
 79
     2
 49
2.48624995
 49
-246.11400604
 53
26.56509972
 43
68.92499685
 44
51.15000129
 45
111.17732034
 46
111.17717285
 79
     2
 49
4.97174978
 49
-243.62774849
 53
33.69010162
 43
73.349998
 44
53.39999914
 45
111.1774526
 46
111.17716932
 79
     2
 49
4.00875002
 49
-396.84674263
 53
45.0
 43
76.72499657
 44
55.57499886
 45
1.3322676295502E-14
 46
111.17734083
 79
     2
 49
3.14474992
 49
-154.08375263
 53
56.30989838
 43
78.90000343
 44
57.82500029
 45
111.17765803
 46
222.35435837
 79
     2
 49
4.00875002
 49
-396.84674263
 53
18.43490028
 43
81.14999771
 44
61.12499714
 45
222.35461589
 46
111.1767185
 79
     2
 49
3.51600006
 49
-348.05774689
 53
0.0
 43
84.52500343
 44
62.25000143
 45
0.0
 46
111.17699862
 79
     2
 49
4.44674984
 49
-106.73024654
 53
338.1986084
 43
88.94999743
 44
62.25000143
 45
333.53148263
 46
-111.17685958
 79
     2
 49
5.98725021
 49
-592.72052765
 53
315.0
 43
94.50000286
 44
60.0
 45
111.17734083
 46
-2.6645352591004E-14
 79
     2
 49
3.14474992
 49
-154.08375263
 53
315.0
 43
96.74999714
 44
57.82500029
 45
111.17734083
 46
-2.6645352591004E-14
 79
     2
 49
3.14474992
 49
-154.08375263
 53
296.56509399
 43
98.92499685
 44
55.57499886
 45
111.17716174
 46
-111.17733144
 79
     2
 49
2.48624995
 49
-246.11400604
 53
270.0
 43
100.05000114
 44
53.39999914
 45
111.17699862
 46
-2.0422883323949E-14
 79
     2
 49
3.33525002
 49
-107.84174681
 53
243.43499756
 43
100.05000114
 44
50.02500057
 45
-0.0002413
 46
-111.17741453
 79
     2
 49
2.48624995
 49
-246.11400604
 53
180.0
 43
50.02500057
 44
13.34999979
 45
-1.3615255549299E-14
 46
-111.17699862
 79
     2
 49
3.33525002
 49
-107.84174681
 53
168.69009399
 43
46.72500014
 44
13.34999979
 45
-111.1775506
 46
-0.00034628
 79
     2
 49
5.66925019
 49
-561.2257576
 53
146.30990601
 43
41.10000014
 44
14.47499961
 45
-222.35437318
 46
111.17762842
 79
     2
 49
4.00875002
 49
-396.84674263
 53
108.43499756
 43
37.79999971
 44
16.65000021
 45
-111.17709601
 46
222.35442714
 79
     2
 49
3.51600006
 49
-348.05774689
 53
108.43499756
 43
36.674999
 44
20.02500057
 45
-111.17709601
 46
222.35442714
 79
     2
 49
3.51600006
 49
-348.05774689
 53
75.96379852
 43
35.54999828
 44
23.32499921
 45
-0.00044578
 46
111.17705397
 79
     2
 49
4.58399981
 49
-453.81151199
 53
51.34019852
 43
36.674999
 44
27.82500029
 45
333.53146964
 46
444.70920334
 79
     2
 49
7.11899981
 49
-704.76224899
 53
29.74489975
 43
41.10000014
 44
33.37499857
 45
555.88606977
 46
333.53149537
 79
     2
 49
8.96324962
 49
-887.37602234
 53
6.34019995
 43
48.89999986
 44
37.79999971
 45
889.41769034
 46
111.17737119
 79
     2
 49
10.06725043
 49
-996.6847229
 53
348.69009399
 43
58.950001
 44
38.92500043
 45
111.1775506
 46
0.00034628
 79
     2
 49
5.66925019
 49
-561.2257576
 53
315.0
 43
64.50000286
 44
37.79999971
 45
111.17734083
 46
-2.6645352591004E-14
 79
     2
 49
4.71674994
 49
-152.51174927
 53
288.43490601
 43
67.79999971
 44
34.49999928
 45
111.17674071
 46
-222.35460479
 79
     2
 49
3.51600006
 49
-348.05774689
 53
270.0
 43
68.92499685
 44
31.12500072
 45
111.17699862
 46
-2.0422883323949E-14
 79
     2
 49
6.67050004
 49
-104.50650215
 53
251.56500244
 43
68.92499685
 44
24.44999993
 45
-0.0003298
 46
-111.17690461
 79
     2
 49
7.03125
 49
-344.54174995
 53
206.56500244
 43
66.67500257
 44
17.77499914
 45
-111.17750909
 46
-111.17698409
 79
     2
 49
4.97174978
 49
-243.62774849
 53
191.30990601
 43
62.25000143
 44
15.59999943
 45
-444.70879317
 46
-111.17734797
 79
     2
 49
5.66925019
 49
-561.2257576
 53
189.46229553
 43
56.69999957
 44
14.47499961
 45
-555.88628955
 46
-111.17706312
 79
     2
 49
6.76275015
 49
-669.50174332
 53
341.56509399
 43
6.67499989
 44
94.50000286
 45
111.17690461
 46
-0.00015215
 79
     2
 49
3.51600006
 49
-348.05774689
 53
315.0
 43
9.97500032
 44
93.37499857
 45
111.17734083
 46
-2.6645352591004E-14
 79
     2
 49
3.14474992
 49
-154.08375263
 53
270.0
 43
12.22499996
 44
91.19999886
 45
111.17699862
 46
-2.0422883323949E-14
 79
     2
 49
2.22374998
 49
-108.95399809
 53
251.56500244
 43
12.22499996
 44
88.94999743
 45
-0.0003298
 46
-111.17690461
 79
     2
 49
3.51600006
 49
-348.05774689
 53
225.0
 43
11.10000014
 44
85.57499886
 45
-1.9984014443253E-14
 46
-111.17734083
 79
     2
 49
1.57200001
 49
-155.655756
 53
180.0
 43
9.97500032
 44
84.52500343
 45
-1.3615255549299E-14
 46
-111.17699862
 79
     2
 49
2.22374998
 49
-108.95399809
 53
135.0
 43
7.79999971
 44
84.52500343
 45
-111.17734083
 46
1.3322676295502E-14
 79
     2
 49
3.14474992
 49
-154.08375263
 53
56.30989838
 43
4.4249998
 44
91.19999886
 45
111.17765803
 46
222.35435837
 79
     2
 49
4.00875002
 49
-396.84674263
 53
0.0
 43
21.1499995
 44
94.50000286
 45
0.0
 46
111.17699862
 79
     2
 49
4.44674984
 49
-106.73024654
 53
9.4623003
 43
25.57500064
 44
94.50000286
 45
555.88628029
 46
111.17710938
 79
     2
 49
6.76275015
 49
-669.50174332
 53
0.0
 43
32.25000143
 44
95.625
 45
0.0
 46
111.17699862
 79
     2
 49
4.44674984
 49
-106.73024654
 53
326.30990601
 43
36.674999
 44
95.625
 45
222.35437318
 46
-111.17762842
 79
     2
 49
4.00875002
 49
-396.84674263
 53
300.9637146
 43
40.05000114
 44
93.37499857
 45
222.35415334
 46
-333.53220907
 79
     2
 49
6.48300022
 49
-641.78627014
 53
270.0
 43
43.35000157
 44
87.82500029
 45
111.17699862
 46
-2.0422883323949E-14
 79
     2
 49
4.44674984
 49
-106.73024654
 53
236.30990601
 43
43.35000157
 44
83.39999914
 45
-111.17762842
 46
-222.35437318
 79
     2
 49
4.00875002
 49
-396.84674263
 53
251.56500244
 43
41.10000014
 44
80.02500057
 45
-0.0003298
 46
-111.17690461
 79
     2
 49
3.51600006
 49
-348.05774689
 53
213.69009399
 43
40.05000114
 44
76.72499657
 45
-111.1774674
 46
-111.17715452
 79
     2
 49
4.00875002
 49
-396.84674263
 53
198.43499756
 43
36.674999
 44
74.47500229
 45
-222.35442714
 46
-111.17709601
 79
     2
 49
3.51600006
 49
-348.05774689
 53
191.30990601
 43
33.37499857
 44
73.349998
 45
-444.70879317
 46
-111.17734797
 79
     2
 49
5.66925019
 49
-561.2257576
 53
180.0
 43
27.82500029
 44
72.30000257
 45
-1.3615255549299E-14
 46
-111.17699862
 79
     2
 49
5.55899978
 49
-105.61800241
 53
135.0
 43
22.20000029
 44
72.30000257
 45
-111.17734083
 46
1.3322676295502E-14
 79
     2
 49
3.14474992
 49
-154.08375263
 53
146.30990601
 43
20.02500057
 44
74.47500229
 45
-222.35437318
 46
111.17762842
 79
     2
 49
4.00875002
 49
-396.84674263
 53
161.56500244
 43
16.65000021
 44
76.72499657
 45
-111.17690461
 46
0.0003298
 79
     2
 49
3.51600006
 49
-348.05774689
 53
123.69010162
 43
13.34999979
 44
77.85000086
 45
-111.17716932
 46
111.1774526
 79
     2
 49
4.00875002
 49
-396.84674263
 53
90.0
 43
11.10000014
 44
81.14999771
 45
-111.17699862
 46
6.8076277746497E-15
 79
     2
 49
2.22374998
 49
-108.95399809
 53
78.69010162
 43
11.10000014
 44
83.39999914
 45
-0.00036109
 46
111.1775506
 79
     2
 49
5.66925019
 49
-561.2257576
 53
56.30989838
 43
12.22499996
 44
88.94999743
 45
111.17765803
 46
222.35435837
 79
     2
 49
4.00875002
 49
-396.84674263
 53
45.0
 43
14.47499961
 44
92.25000143
 45
1.3322676295502E-14
 46
111.17734083
 79
     2
 49
1.57200001
 49
-155.655756
 53
26.56509972
 43
15.59999943
 44
93.37499857
 45
111.17732034
 46
111.17717285
 79
     2
 49
2.48624995
 49
-246.11400604
 53
0.0
 43
17.77499914
 44
94.50000286
 45
0.0
 46
111.17699862
 79
     2
 49
3.33525002
 49
-107.84174681
 53
326.30990601
 43
12.22499996
 44
98.92499685
 45
222.35437318
 46
-111.17762842
 79
     2
 49
4.00875002
 49
-396.84674263
 53
333.43490601
 43
15.59999943
 44
96.74999714
 45
111.17741453
 46
-0.00041895
 79
     2
 49
2.48624995
 49
-246.11400604
 53
270.0
 43
17.77499914
 44
95.625
 45
111.17699862
 46
-2.0422883323949E-14
 79
     2
 49
1.11150004
 49
-110.06549835
 53
206.56500244
 43
17.77499914
 44
94.50000286
 45
-111.17750909
 46
-111.17698409
 79
     2
 49
2.48624995
 49
-246.11400604
 53
180.0
 43
15.59999943
 44
93.37499857
 45
-1.3615255549299E-14
 46
-111.17699862
 79
     2
 49
4.44674984
 49
-106.73024654
 53
165.96380615
 43
11.10000014
 44
93.37499857
 45
-111.17705397
 46
-0.00046058
 79
     2
 49
4.58399981
 49
-453.81151199
 53
135.0
 43
6.67499989
 44
94.50000286
 45
-111.17734083
 46
1.3322676295502E-14
 79
     2
 49
1.57200001
 49
-155.655756
 53
116.56500244
 43
5.55000007
 44
95.625
 45
-111.17698409
 46
111.17750909
 79
     2
 49
2.48624995
 49
-246.11400604
 53
63.43489838
 43
4.4249998
 44
97.79999971
 45
0.00043375
 46
111.17741453
 79
     2
 49
2.48624995
 49
-246.11400604
 53
26.56509972
 43
5.55000007
 44
100.05000114
 45
111.17732034
 46
111.17717285
 79
     2
 49
2.48624995
 49
-246.11400604
 53
0.0
 43
7.79999971
 44
101.17499828
 45
0.0
 46
111.17699862
 79
     2
 49
2.22374998
 49
-108.95399809
 53
315.0
 43
9.97500032
 44
101.17499828
 45
111.17734083
 46
-2.6645352591004E-14
 79
     2
 49
3.14474992
 49
-154.08375263
 53
236.30990601
 43
36.674999
 44
102.30000257
 45
-111.17762842
 46
-222.35437318
 79
     2
 49
4.00875002
 49
-396.84674263
 53
225.0
 43
34.49999928
 44
98.92499685
 45
-1.9984014443253E-14
 46
-111.17734083
 79
     2
 49
4.71674994
 49
-152.51174927
 53
191.30990601
 43
31.12500072
 44
95.625
 45
-444.70879317
 46
-111.17734797
 79
     2
 49
5.66925019
 49
-561.2257576
 53
180.0
 43
25.57500064
 44
94.50000286
 45
-1.3615255549299E-14
 46
-111.17699862
 79
     2
 49
4.44674984
 49
-106.73024654
 53
158.19859314
 43
21.1499995
 44
94.50000286
 45
-333.53145302
 46
111.17694841
 79
     2
 49
5.98725021
 49
-592.72052765
 53
146.30990601
 43
15.59999943
 44
96.74999714
 45
-222.35437318
 46
111.17762842
 79
     2
 49
4.00875002
 49
-396.84674263
 53
116.56500244
 43
12.22499996
 44
98.92499685
 45
-111.17698409
 46
111.17750909
 79
     2
 49
2.48624995
 49
-246.11400604
 53
90.0
 43
11.10000014
 44
101.17499828
 45
-111.17699862
 46
6.8076277746497E-15
 79
     2
 49
2.22374998
 49
-108.95399809
 53
45.0
 43
11.10000014
 44
103.42499971
 45
1.3322676295502E-14
 46
111.17734083
 79
     2
 49
3.14474992
 49
-154.08375263
 53
0.0
 43
13.34999979
 44
105.59999943
 45
0.0
 46
111.17699862
 79
     2
 49
8.8942498
 49
-102.28275061
 53
15.94540024
 43
22.20000029
 44
105.59999943
 45
333.53169492
 46
111.17739773
 79
     2
 49
8.09400022
 49
-801.28875732
 53
0.0
 43
30.0
 44
107.85000086
 45
0.0
 46
111.17699862
 79
     2
 49
4.44674984
 49
-106.73024654
 53
326.30990601
 43
34.49999928
 44
107.85000086
 45
222.35437318
 46
-111.17762842
 79
     2
 49
4.00875002
 49
-396.84674263
 53
251.56500244
 43
37.79999971
 44
105.59999943
 45
-0.0003298
 46
-111.17690461
 79
     2
 49
3.51600006
 49
-348.05774689
 53
243.43499756
 43
52.27499843
 44
73.349998
 45
-0.0002413
 46
-111.17741453
 79
     2
 49
2.48624995
 49
-246.11400604
 53
180.0
 43
51.15000129
 44
71.17499828
 45
-1.3615255549299E-14
 46
-111.17699862
 79
     2
 49
4.44674984
 49
-106.73024654
 53
194.03619385
 43
46.72500014
 44
71.17499828
 45
-333.53127033
 46
-111.17713245
 79
     2
 49
4.58399981
 49
-453.81151199
 53
180.0
 43
42.22500086
 44
70.05000114
 45
-1.3615255549299E-14
 46
-111.17699862
 79
     2
 49
3.33525002
 49
-107.84174681
 53
135.0
 43
38.92500043
 44
70.05000114
 45
-111.17734083
 46
1.3322676295502E-14
 79
     2
 49
3.14474992
 49
-154.08375263
 53
90.0
 43
36.674999
 44
72.30000257
 45
-111.17699862
 46
6.8076277746497E-15
 79
     2
 49
2.22374998
 49
-108.95399809
 53
18.43490028
 43
36.674999
 44
74.47500229
 45
222.35461589
 46
111.1767185
 79
     2
 49
3.51600006
 49
-348.05774689
 53
14.03619957
 43
40.05000114
 44
75.59999943
 45
333.53125922
 46
111.17716576
 79
     2
 49
4.58399981
 49
-453.81151199
 53
0.0
 43
44.47499871
 44
76.72499657
 45
0.0
 46
111.17699862
 79
     2
 49
4.44674984
 49
-106.73024654
 53
326.30990601
 43
48.89999986
 44
76.72499657
 45
222.35437318
 46
-111.17762842
 79
     2
 49
4.00875002
 49
-396.84674263
 53
270.0
 43
61.12499714
 44
74.47500229
 45
111.17699862
 46
-2.0422883323949E-14
 79
     2
 49
2.22374998
 49
-108.95399809
 53
206.56500244
 43
61.12499714
 44
72.30000257
 45
-111.17750909
 46
-111.17698409
 79
     2
 49
2.48624995
 49
-246.11400604
 53
180.0
 43
58.950001
 44
71.17499828
 45
-1.3615255549299E-14
 46
-111.17699862
 79
     2
 49
3.33525002
 49
-107.84174681
 53
153.43499756
 43
55.57499886
 44
71.17499828
 45
-111.17741453
 46
0.0002413
 79
     2
 49
2.48624995
 49
-246.11400604
 53
135.0
 43
53.39999914
 44
72.30000257
 45
-111.17734083
 46
1.3322676295502E-14
 79
     2
 49
1.57200001
 49
-155.655756
 53
90.0
 43
52.27499843
 44
73.349998
 45
-111.17699862
 46
6.8076277746497E-15
 79
     2
 49
2.22374998
 49
-108.95399809
 53
26.56509972
 43
52.27499843
 44
75.59999943
 45
111.17732034
 46
111.17717285
 79
     2
 49
2.48624995
 49
-246.11400604
 53
0.0
 43
54.45000172
 44
76.72499657
 45
0.0
 46
111.17699862
 79
     2
 49
4.44674984
 49
-106.73024654
 53
333.43490601
 43
58.950001
 44
76.72499657
 45
111.17741453
 46
-0.00041895
 79
     2
 49
2.48624995
 49
-246.11400604
 53
180.0
 43
73.349998
 44
68.92499685
 45
-1.3615255549299E-14
 46
-111.17699862
 79
     2
 49
3.33525002
 49
-107.84174681
 53
165.96380615
 43
70.05000114
 44
68.92499685
 45
-111.17705397
 46
-0.00046058
 79
     2
 49
4.58399981
 49
-453.81151199
 53
146.30990601
 43
65.625
 44
70.05000114
 45
-222.35437318
 46
111.17762842
 79
     2
 49
4.00875002
 49
-396.84674263
 53
116.56500244
 43
62.25000143
 44
72.30000257
 45
-111.17698409
 46
111.17750909
 79
     2
 49
2.48624995
 49
-246.11400604
 53
90.0
 43
61.12499714
 44
74.47500229
 45
-111.17699862
 46
6.8076277746497E-15
 79
     2
 49
2.22374998
 49
-108.95399809
 53
33.69010162
 43
61.12499714
 44
76.72499657
 45
111.1774526
 46
111.17716932
 79
     2
 49
4.00875002
 49
-396.84674263
 53
18.43490028
 43
64.50000286
 44
78.90000343
 45
222.35461589
 46
111.1767185
 79
     2
 49
3.51600006
 49
-348.05774689
 53
0.0
 43
67.79999971
 44
80.02500057
 45
0.0
 46
111.17699862
 79
     2
 49
4.44674984
 49
-106.73024654
 53
350.53768921
 43
72.30000257
 44
80.02500057
 45
111.17694947
 46
0.00014621
 79
     2
 49
6.76275015
 49
-669.50174332
 53
296.56509399
 43
78.90000343
 44
78.90000343
 45
111.17716174
 46
-111.17733144
 79
     2
 49
2.48624995
 49
-246.11400604
 53
270.0
 43
80.02500057
 44
76.72499657
 45
111.17699862
 46
-2.0422883323949E-14
 79
     2
 49
4.44674984
 49
-106.73024654
 53
243.43499756
 43
80.02500057
 44
72.30000257
 45
-0.0002413
 46
-111.17741453
 79
     2
 49
2.48624995
 49
-246.11400604
 53
198.43499756
 43
78.90000343
 44
70.05000114
 45
-222.35442714
 46
-111.17709601
 79
     2
 49
3.51600006
 49
-348.05774689
 53
180.0
 43
75.59999943
 44
68.92499685
 45
-1.3615255549299E-14
 46
-111.17699862
 79
     2
 49
2.22374998
 49
-108.95399809
 53
180.0
 43
57.82500029
 44
76.72499657
 45
-1.3615255549299E-14
 46
-111.17699862
 79
     2
 49
10.00575006
 49
-101.17125034
 53
165.96380615
 43
47.77499914
 44
76.72499657
 45
-111.17705397
 46
-0.00046058
 79
     2
 49
4.58399981
 49
-453.81151199
 53
135.0
 43
43.35000157
 44
77.85000086
 45
-111.17734083
 46
1.3322676295502E-14
 79
     2
 49
1.57200001
 49
-155.655756
 53
90.0
 43
42.22500086
 44
78.90000343
 45
-111.17699862
 46
6.8076277746497E-15
 79
     2
 49
2.22374998
 49
-108.95399809
 53
63.43489838
 43
42.22500086
 44
81.14999771
 45
0.00043375
 46
111.17741453
 79
     2
 49
2.48624995
 49
-246.11400604
 53
18.43490028
 43
43.35000157
 44
83.39999914
 45
222.35461589
 46
111.1767185
 79
     2
 49
3.51600006
 49
-348.05774689
 53
11.30990028
 43
46.72500014
 44
84.52500343
 45
444.70880427
 46
111.17730356
 79
     2
 49
5.66925019
 49
-561.2257576
 53
0.0
 43
52.27499843
 44
85.57499886
 45
0.0
 46
111.17699862
 79
     2
 49
4.44674984
 49
-106.73024654
 53
0.0
 43
56.69999957
 44
85.57499886
 45
0.0
 46
111.17699862
 79
     2
 49
4.44674984
 49
-106.73024654
 53
333.43490601
 43
61.12499714
 44
85.57499886
 45
111.17741453
 46
-0.00041895
 79
     2
 49
4.97174978
 49
-243.62774849
 53
296.56509399
 43
65.625
 44
83.39999914
 45
111.17716174
 46
-111.17733144
 79
     2
 49
2.48624995
 49
-246.11400604
 53
270.0
 43
66.67500257
 44
81.14999771
 45
111.17699862
 46
-2.0422883323949E-14
 79
     2
 49
1.11150004
 49
-110.06549835
 53
206.56500244
 43
66.67500257
 44
80.02500057
 45
-111.17750909
 46
-111.17698409
 79
     2
 49
2.48624995
 49
-246.11400604
 53
206.56500244
 43
64.50000286
 44
78.90000343
 45
-111.17750909
 46
-111.17698409
 79
     2
 49
2.48624995
 49
-246.11400604
 53
206.56500244
 43
62.25000143
 44
77.85000086
 45
-111.17750909
 46
-111.17698409
 79
     2
 49
2.48624995
 49
-246.11400604
 53
180.0
 43
60.0
 44
76.72499657
 45
-1.3615255549299E-14
 46
-111.17699862
 79
     2
 49
2.22374998
 49
-108.95399809
 53
63.43489838
 43
35.54999828
 44
100.05000114
 45
0.00043375
 46
111.17741453
 79
     2
 49
2.48624995
 49
-246.11400604
 53
45.0
 43
36.674999
 44
102.30000257
 45
1.3322676295502E-14
 46
111.17734083
 79
     2
 49
3.14474992
 49
-154.08375263
 53
0.0
 43
38.92500043
 44
104.47500229
 45
0.0
 46
111.17699862
 79
     2
 49
3.33525002
 49
-107.84174681
 53
341.56509399
 43
42.22500086
 44
104.47500229
 45
111.17690461
 46
-0.00015215
 79
     2
 49
3.51600006
 49
-348.05774689
 53
270.0
 43
45.59999943
 44
103.42499971
 45
111.17699862
 46
-2.0422883323949E-14
 79
     2
 49
2.22374998
 49
-108.95399809
 53
243.43499756
 43
45.59999943
 44
101.17499828
 45
-0.0002413
 46
-111.17741453
 79
     2
 49
2.48624995
 49
-246.11400604
 53
213.69009399
 43
44.47499871
 44
98.92499685
 45
-111.1774674
 46
-111.17715452
 79
     2
 49
4.00875002
 49
-396.84674263
 53
180.0
 43
41.10000014
 44
96.74999714
 45
-1.3615255549299E-14
 46
-111.17699862
 79
     2
 49
2.22374998
 49
-108.95399809
 53
161.56500244
 43
38.92500043
 44
96.74999714
 45
-111.17690461
 46
0.0003298
 79
     2
 49
3.51600006
 49
-348.05774689
 53
90.0
 43
35.54999828
 44
97.79999971
 45
-111.17699862
 46
6.8076277746497E-15
 79
     2
 49
2.22374998
 49
-108.95399809
 53
90.0
 43
57.82500029
 44
91.19999886
 45
-111.17699862
 46
6.8076277746497E-15
 79
     2
 49
2.22374998
 49
-108.95399809
 53
26.56509972
 43
57.82500029
 44
93.37499857
 45
111.17732034
 46
111.17717285
 79
     2
 49
2.48624995
 49
-246.11400604
 53
11.30990028
 43
60.0
 44
94.50000286
 45
444.70880427
 46
111.17730356
 79
     2
 49
5.66925019
 49
-561.2257576
 53
315.0
 43
65.625
 44
95.625
 45
111.17734083
 46
-2.6645352591004E-14
 79
     2
 49
3.14474992
 49
-154.08375263
 53
251.56500244
 43
67.79999971
 44
93.37499857
 45
-0.0003298
 46
-111.17690461
 79
     2
 49
3.51600006
 49
-348.05774689
 53
206.56500244
 43
66.67500257
 44
90.07500172
 45
-111.17750909
 46
-111.17698409
 79
     2
 49
2.48624995
 49
-246.11400604
 53
180.0
 43
64.50000286
 44
88.94999743
 45
-1.3615255549299E-14
 46
-111.17699862
 79
     2
 49
3.33525002
 49
-107.84174681
 53
146.30990601
 43
61.12499714
 44
88.94999743
 45
-222.35437318
 46
111.17762842
 79
     2
 49
4.00875002
 49
-396.84674263
 53
26.56509972
 43
46.72500014
 44
92.25000143
 45
111.17732034
 46
111.17717285
 79
     2
 49
2.48624995
 49
-246.11400604
 53
0.0
 43
48.89999986
 44
93.37499857
 45
0.0
 46
111.17699862
 79
     2
 49
4.44674984
 49
-106.73024654
 53
333.43490601
 43
53.39999914
 44
93.37499857
 45
111.17741453
 46
-0.00041895
 79
     2
 49
4.97174978
 49
-243.62774849
 53
296.56509399
 43
57.82500029
 44
91.19999886
 45
111.17716174
 46
-111.17733144
 79
     2
 49
2.48624995
 49
-246.11400604
 53
270.0
 43
58.950001
 44
88.94999743
 45
111.17699862
 46
-2.0422883323949E-14
 79
     2
 49
2.22374998
 49
-108.95399809
 53
206.56500244
 43
58.950001
 44
86.70000315
 45
-111.17750909
 46
-111.17698409
 79
     2
 49
2.48624995
 49
-246.11400604
 53
180.0
 43
56.69999957
 44
85.57499886
 45
-1.3615255549299E-14
 46
-111.17699862
 79
     2
 49
4.44674984
 49
-106.73024654
 53
191.30990601
 43
52.27499843
 44
85.57499886
 45
-444.70879317
 46
-111.17734797
 79
     2
 49
5.66925019
 49
-561.2257576
 53
153.43499756
 43
46.72500014
 44
84.52500343
 45
-111.17741453
 46
0.0002413
 79
     2
 49
2.48624995
 49
-246.11400604
 53
90.0
 43
44.47499871
 44
85.57499886
 45
-111.17699862
 46
6.8076277746497E-15
 79
     2
 49
2.22374998
 49
-108.95399809
 53
63.43489838
 43
44.47499871
 44
87.82500029
 45
0.00043375
 46
111.17741453
 79
     2
 49
2.48624995
 49
-246.11400604
 53
63.43489838
 43
45.59999943
 44
90.07500172
 45
0.00043375
 46
111.17741453
 79
     2
 49
2.48624995
 49
-246.11400604
 53
21.80139923
 43
46.72500014
 44
100.05000114
 45
222.35408276
 46
111.17720082
 79
     2
 49
5.98725021
 49
-592.72052765
 53
0.0
 43
52.27499843
 44
102.30000257
 45
0.0
 46
111.17699862
 79
     2
 49
5.55899978
 49
-105.61800241
 53
348.69009399
 43
57.82500029
 44
102.30000257
 45
111.1775506
 46
0.00034628
 79
     2
 49
5.66925019
 49
-561.2257576
 53
341.56509399
 43
63.37499857
 44
101.17499828
 45
111.17690461
 46
-0.00015215
 79
     2
 49
3.51600006
 49
-348.05774689
 53
296.56509399
 43
66.67500257
 44
100.05000114
 45
111.17716174
 46
-111.17733144
 79
     2
 49
2.48624995
 49
-246.11400604
 53
270.0
 43
67.79999971
 44
97.79999971
 45
111.17699862
 46
-2.0422883323949E-14
 79
     2
 49
1.11150004
 49
-110.06549835
 53
198.43499756
 43
67.79999971
 44
96.74999714
 45
-222.35442714
 46
-111.17709601
 79
     2
 49
3.51600006
 49
-348.05774689
 53
191.30990601
 43
64.50000286
 44
95.625
 45
-444.70879317
 46
-111.17734797
 79
     2
 49
5.66925019
 49
-561.2257576
 53
191.30990601
 43
58.950001
 44
94.50000286
 45
-444.70879317
 46
-111.17734797
 79
     2
 49
5.66925019
 49
-561.2257576
 53
180.0
 43
53.39999914
 44
93.37499857
 45
-1.3615255549299E-14
 46
-111.17699862
 79
     2
 49
4.44674984
 49
-106.73024654
 53
206.56500244
 43
48.89999986
 44
93.37499857
 45
-111.17750909
 46
-111.17698409
 79
     2
 49
2.48624995
 49
-246.11400604
 53
180.0
 43
46.72500014
 44
92.25000143
 45
-1.3615255549299E-14
 46
-111.17699862
 79
     2
 49
3.33525002
 49
-107.84174681
 53
153.43499756
 43
43.35000157
 44
92.25000143
 45
-111.17741453
 46
0.0002413
 79
     2
 49
2.48624995
 49
-246.11400604
 53
90.0
 43
41.10000014
 44
93.37499857
 45
-111.17699862
 46
6.8076277746497E-15
 79
     2
 49
2.22374998
 49
-108.95399809
 53
45.0
 43
41.10000014
 44
95.625
 45
1.3322676295502E-14
 46
111.17734083
 79
     2
 49
4.71674994
 49
-152.51174927
 53
26.56509972
 43
44.47499871
 44
98.92499685
 45
111.17732034
 46
111.17717285
 79
     2
 49
2.48624995
 49
-246.11400604
 53
18.43490028
 43
71.17499828
 44
96.74999714
 45
222.35461589
 46
111.1767185
 79
     2
 49
3.51600006
 49
-348.05774689
 53
341.56509399
 43
74.47500229
 44
97.79999971
 45
111.17690461
 46
-0.00015215
 79
     2
 49
7.03125
 49
-344.54174995
 53
315.0
 43
81.14999771
 44
95.625
 45
111.17734083
 46
-2.6645352591004E-14
 79
     2
 49
4.71674994
 49
-152.51174927
 53
303.69009399
 43
84.52500343
 44
92.25000143
 45
111.17715452
 46
-111.1774674
 79
     2
 49
4.00875002
 49
-396.84674263
 53
270.0
 43
86.70000315
 44
88.94999743
 45
111.17699862
 46
-2.0422883323949E-14
 79
     2
 49
4.44674984
 49
-106.73024654
 53
270.0
 43
86.70000315
 44
84.52500343
 45
111.17699862
 46
-2.0422883323949E-14
 79
     2
 49
2.22374998
 49
-108.95399809
 53
225.0
 43
86.70000315
 44
82.275002
 45
-1.9984014443253E-14
 46
-111.17734083
 79
     2
 49
1.57200001
 49
-155.655756
 53
225.0
 43
85.57499886
 44
81.14999771
 45
-1.9984014443253E-14
 46
-111.17734083
 79
     2
 49
3.14474992
 49
-154.08375263
 53
180.0
 43
83.39999914
 44
78.90000343
 45
-1.3615255549299E-14
 46
-111.17699862
 79
     2
 49
2.22374998
 49
-108.95399809
 53
170.53770447
 43
81.14999771
 44
78.90000343
 45
-111.17694947
 46
-0.00017582
 79
     2
 49
6.76275015
 49
-669.50174332
 53
170.53770447
 43
74.47500229
 44
80.02500057
 45
-111.17694947
 46
-0.00017582
 79
     2
 49
6.76275015
 49
-669.50174332
 53
135.0
 43
67.79999971
 44
81.14999771
 45
-111.17734083
 46
1.3322676295502E-14
 79
     2
 49
3.14474992
 49
-154.08375263
 53
90.0
 43
65.625
 44
83.39999914
 45
-111.17699862
 46
6.8076277746497E-15
 79
     2
 49
3.33525002
 49
-107.84174681
 53
68.19860077
 43
65.625
 44
86.70000315
 45
111.17690399
 46
333.53146783
 79
     2
 49
5.98725021
 49
-592.72052765
 53
53.13010025
 43
67.79999971
 44
92.25000143
 45
222.35476622
 46
333.53174692
 79
     2
 49
5.55899978
 49
-550.32749176
 53
104.03620148
 43
81.14999771
 44
68.92499685
 45
-111.17717686
 46
333.53125552
 79
     2
 49
4.58399981
 49
-453.81151199
 53
71.56500244
 43
80.02500057
 44
73.349998
 45
0.0003298
 46
111.17690461
 79
     2
 49
3.51600006
 49
-348.05774689
 53
45.0
 43
81.14999771
 44
76.72499657
 45
1.3322676295502E-14
 46
111.17734083
 79
     2
 49
3.14474992
 49
-154.08375263
 53
33.69010162
 43
83.39999914
 44
78.90000343
 45
111.1774526
 46
111.17716932
 79
     2
 49
4.00875002
 49
-396.84674263
 53
0.0
 43
86.70000315
 44
81.14999771
 45
0.0
 46
111.17699862
 79
     2
 49
4.44674984
 49
-106.73024654
 53
326.30990601
 43
91.19999886
 44
81.14999771
 45
222.35437318
 46
-111.17762842
 79
     2
 49
4.00875002
 49
-396.84674263
 53
315.0
 43
94.50000286
 44
78.90000343
 45
111.17734083
 46
-2.6645352591004E-14
 79
     2
 49
6.28949985
 49
-150.93900204
 53
300.9637146
 43
98.92499685
 44
74.47500229
 45
222.35415334
 46
-333.53220907
 79
     2
 49
6.48300022
 49
-641.78627014
 53
284.0362854
 43
102.30000257
 44
68.92499685
 45
111.1776654
 46
-333.53109268
 79
     2
 49
4.58399981
 49
-453.81151199
 53
270.0
 43
103.42499971
 44
64.50000286
 45
111.17699862
 46
-2.0422883323949E-14
 79
     2
 49
3.33525002
 49
-107.84174681
 53
243.43499756
 43
103.42499971
 44
61.12499714
 45
-0.0002413
 46
-111.17741453
 79
     2
 49
2.48624995
 49
-246.11400604
 53
206.56500244
 43
102.30000257
 44
58.950001
 45
-111.17750909
 46
-111.17698409
 79
     2
 49
2.48624995
 49
-246.11400604
 53
180.0
 43
100.05000114
 44
57.82500029
 45
-1.3615255549299E-14
 46
-111.17699862
 79
     2
 49
3.33525002
 49
-107.84174681
 53
135.0
 43
96.74999714
 44
57.82500029
 45
-111.17734083
 46
1.3322676295502E-14
 79
     2
 49
3.14474992
 49
-154.08375263
 53
146.30990601
 43
94.50000286
 44
60.0
 45
-222.35437318
 46
111.17762842
 79
     2
 49
4.00875002
 49
-396.84674263
 53
165.96380615
 43
91.19999886
 44
62.25000143
 45
-111.17705397
 46
-0.00046058
 79
     2
 49
4.58399981
 49
-453.81151199
 53
153.43499756
 43
86.70000315
 44
63.37499857
 45
-111.17741453
 46
0.0002413
 79
     2
 49
2.48624995
 49
-246.11400604
 53
126.86990356
 43
84.52500343
 44
64.50000286
 45
-111.17715887
 46
111.17743524
 79
     2
 49
5.55899978
 49
-550.32749176
 53
71.56500244
 43
98.92499685
 44
76.72499657
 45
0.0003298
 46
111.17690461
 79
     2
 49
3.51600006
 49
-348.05774689
 53
26.56509972
 43
100.05000114
 44
80.02500057
 45
111.17732034
 46
111.17717285
 79
     2
 49
2.48624995
 49
-246.11400604
 53
18.43490028
 43
102.30000257
 44
81.14999771
 45
222.35461589
 46
111.1767185
 79
     2
 49
3.51600006
 49
-348.05774689
 53
0.0
 43
105.59999943
 44
82.275002
 45
0.0
 46
111.17699862
 79
     2
 49
2.22374998
 49
-108.95399809
 53
333.43490601
 43
107.85000086
 44
82.275002
 45
111.17741453
 46
-0.00041895
 79
     2
 49
2.48624995
 49
-246.11400604
 53
0.0
 43
110.10000229
 44
81.14999771
 45
0.0
 46
111.17699862
 79
     2
 49
1.11150004
 49
-110.06549835
 53
333.43490601
 43
0.0
 44
81.14999771
 45
111.17741453
 46
-0.00041895
 79
     2
 49
4.97174978
 49
-243.62774849
 53
296.56509399
 43
4.4249998
 44
78.90000343
 45
111.17716174
 46
-111.17733144
 79
     2
 49
2.48624995
 49
-246.11400604
 53
251.56500244
 43
5.55000007
 44
76.72499657
 45
-0.0003298
 46
-111.17690461
 79
     2
 49
3.51600006
 49
-348.05774689
 53
251.56500244
 43
4.4249998
 44
73.349998
 45
-0.0003298
 46
-111.17690461
 79
     2
 49
3.51600006
 49
-348.05774689
 53
243.43499756
 43
3.29999998
 44
70.05000114
 45
-0.0002413
 46
-111.17741453
 79
     2
 49
2.48624995
 49
-246.11400604
 53
206.56500244
 43
2.25000009
 44
67.79999971
 45
-111.17750909
 46
-111.17698409
 79
     2
 49
2.48624995
 49
-246.11400604
 53
225.0
 43
111.14999771
 44
66.67500257
 45
-1.9984014443253E-14
 46
-111.17734083
 79
     2
 49
1.57200001
 49
-155.655756
 53
135.0
 43
105.59999943
 44
65.625
 45
-111.17734083
 46
1.3322676295502E-14
 79
     2
 49
3.14474992
 49
-154.08375263
 53
123.69010162
 43
103.42499971
 44
67.79999971
 45
-111.17716932
 46
111.1774526
 79
     2
 49
4.00875002
 49
-396.84674263
 53
116.56500244
 43
101.17499828
 44
71.17499828
 45
-111.17698409
 46
111.17750909
 79
     2
 49
2.48624995
 49
-246.11400604
 53
108.43499756
 43
100.05000114
 44
73.349998
 45
-111.17709601
 46
222.35442714
 79
     2
 49
3.51600006
 49
-348.05774689
 53
153.43499756
 43
91.19999886
 44
81.14999771
 45
-111.17741453
 46
0.0002413
 79
     2
 49
2.48624995
 49
-246.11400604
 53
123.69010162
 43
88.94999743
 44
82.275002
 45
-111.17716932
 46
111.1774526
 79
     2
 49
4.00875002
 49
-396.84674263
 53
90.0
 43
86.70000315
 44
85.57499886
 45
-111.17699862
 46
6.8076277746497E-15
 79
     2
 49
2.22374998
 49
-108.95399809
 53
45.0
 43
86.70000315
 44
87.82500029
 45
1.3322676295502E-14
 46
111.17734083
 79
     2
 49
1.57200001
 49
-155.655756
 53
26.56509972
 43
87.82500029
 44
88.94999743
 45
111.17732034
 46
111.17717285
 79
     2
 49
2.48624995
 49
-246.11400604
 53
345.9637146
 43
90.07500172
 44
90.07500172
 45
111.17705397
 46
0.00028293
 79
     2
 49
4.58399981
 49
-453.81151199
 53
315.0
 43
94.50000286
 44
88.94999743
 45
111.17734083
 46
-2.6645352591004E-14
 79
     2
 49
3.14474992
 49
-154.08375263
 53
270.0
 43
96.74999714
 44
86.70000315
 45
111.17699862
 46
-2.0422883323949E-14
 79
     2
 49
3.33525002
 49
-107.84174681
 53
243.43499756
 43
96.74999714
 44
83.39999914
 45
-0.0002413
 46
-111.17741453
 79
     2
 49
2.48624995
 49
-246.11400604
 53
206.56500244
 43
95.625
 44
81.14999771
 45
-111.17750909
 46
-111.17698409
 79
     2
 49
2.48624995
 49
-246.11400604
 53
153.43499756
 43
93.37499857
 44
80.02500057
 45
-111.17741453
 46
0.0002413
 79
     2
 49
2.48624995
 49
-246.11400604
 53
198.43499756
 43
5.55000007
 44
82.275002
 45
-222.35442714
 46
-111.17709601
 79
     2
 49
3.51600006
 49
-348.05774689
 53
180.0
 43
2.25000009
 44
81.14999771
 45
-1.3615255549299E-14
 46
-111.17699862
 79
     2
 49
2.22374998
 49
-108.95399809
 53
180.0
 43
111.14999771
 44
81.14999771
 45
-1.3615255549299E-14
 46
-111.17699862
 79
     2
 49
1.11150004
 49
-110.06549835
 53
153.43499756
 43
110.10000229
 44
81.14999771
 45
-111.17741453
 46
0.0002413
 79
     2
 49
2.48624995
 49
-246.11400604
 53
180.0
 43
107.85000086
 44
82.275002
 45
-1.3615255549299E-14
 46
-111.17699862
 79
     2
 49
2.22374998
 49
-108.95399809
 53
198.43499756
 43
105.59999943
 44
82.275002
 45
-222.35442714
 46
-111.17709601
 79
     2
 49
3.51600006
 49
-348.05774689
 53
180.0
 43
102.30000257
 44
81.14999771
 45
-1.3615255549299E-14
 46
-111.17699862
 79
     2
 49
3.33525002
 49
-107.84174681
 53
135.0
 43
98.92499685
 44
81.14999771
 45
-111.17734083
 46
1.3322676295502E-14
 79
     2
 49
1.57200001
 49
-155.655756
 53
135.0
 43
97.79999971
 44
82.275002
 45
-111.17734083
 46
1.3322676295502E-14
 79
     2
 49
1.57200001
 49
-155.655756
 53
90.0
 43
96.74999714
 44
83.39999914
 45
-111.17699862
 46
6.8076277746497E-15
 79
     2
 49
1.11150004
 49
-110.06549835
 53
45.0
 43
96.74999714
 44
84.52500343
 45
1.3322676295502E-14
 46
111.17734083
 79
     2
 49
3.14474992
 49
-154.08375263
 53
26.56509972
 43
98.92499685
 44
86.70000315
 45
111.17732034
 46
111.17717285
 79
     2
 49
2.48624995
 49
-246.11400604
 53
14.03619957
 43
101.17499828
 44
87.82500029
 45
333.53125922
 46
111.17716576
 79
     2
 49
4.58399981
 49
-453.81151199
 53
0.0
 43
105.59999943
 44
88.94999743
 45
0.0
 46
111.17699862
 79
     2
 49
3.33525002
 49
-107.84174681
 53
333.43490601
 43
108.974998
 44
88.94999743
 45
111.17741453
 46
-0.00041895
 79
     2
 49
2.48624995
 49
-246.11400604
 53
0.0
 43
0.0
 44
87.82500029
 45
0.0
 46
111.17699862
 79
     2
 49
1.11150004
 49
-110.06549835
 53
0.0
 43
1.12500004
 44
87.82500029
 45
0.0
 46
111.17699862
 79
     2
 49
1.11150004
 49
-110.06549835
 53
341.56509399
 43
2.25000009
 44
87.82500029
 45
111.17690461
 46
-0.00015215
 79
     2
 49
3.51600006
 49
-348.05774689
 53
315.0
 43
5.55000007
 44
86.70000315
 45
111.17734083
 46
-2.6645352591004E-14
 79
     2
 49
1.57200001
 49
-155.655756
 53
270.0
 43
6.67499989
 44
85.57499886
 45
111.17699862
 46
-2.0422883323949E-14
 79
     2
 49
2.22374998
 49
-108.95399809
 53
225.0
 43
6.67499989
 44
83.39999914
 45
-1.9984014443253E-14
 46
-111.17734083
 79
     2
 49
1.57200001
 49
-155.655756
 53
161.56500244
 43
105.59999943
 44
88.94999743
 45
-111.17690461
 46
0.0003298
 79
     2
 49
3.51600006
 49
-348.05774689
 53
135.0
 43
102.30000257
 44
90.07500172
 45
-111.17734083
 46
1.3322676295502E-14
 79
     2
 49
1.57200001
 49
-155.655756
 53
116.56500244
 43
101.17499828
 44
91.19999886
 45
-111.17698409
 46
111.17750909
 79
     2
 49
2.48624995
 49
-246.11400604
 53
90.0
 43
100.05000114
 44
93.37499857
 45
-111.17699862
 46
6.8076277746497E-15
 79
     2
 49
2.22374998
 49
-108.95399809
 53
63.43489838
 43
100.05000114
 44
95.625
 45
0.00043375
 46
111.17741453
 79
     2
 49
2.48624995
 49
-246.11400604
 53
33.69010162
 43
101.17499828
 44
97.79999971
 45
111.1774526
 46
111.17716932
 79
     2
 49
4.00875002
 49
-396.84674263
 53
0.0
 43
104.47500229
 44
100.05000114
 45
0.0
 46
111.17699862
 79
     2
 49
4.44674984
 49
-106.73024654
 53
333.43490601
 43
108.974998
 44
100.05000114
 45
111.17741453
 46
-0.00041895
 79
     2
 49
2.48624995
 49
-246.11400604
 53
0.0
 43
0.0
 44
98.92499685
 45
0.0
 46
111.17699862
 79
     2
 49
1.11150004
 49
-110.06549835
 53
326.30990601
 43
1.12500004
 44
98.92499685
 45
222.35437318
 46
-111.17762842
 79
     2
 49
4.00875002
 49
-396.84674263
 53
296.56509399
 43
4.4249998
 44
96.74999714
 45
111.17716174
 46
-111.17733144
 79
     2
 49
2.48624995
 49
-246.11400604
 53
251.56500244
 43
5.55000007
 44
94.50000286
 45
-0.0003298
 46
-111.17690461
 79
     2
 49
3.51600006
 49
-348.05774689
 53
225.0
 43
3.29999998
 44
88.94999743
 45
-1.9984014443253E-14
 46
-111.17734083
 79
     2
 49
1.57200001
 49
-155.655756
 53
180.0
 43
2.25000009
 44
87.82500029
 45
-1.3615255549299E-14
 46
-111.17699862
 79
     2
 49
1.11150004
 49
-110.06549835
 53
153.43499756
 43
111.14999771
 44
87.82500029
 45
-111.17741453
 46
0.0002413
 79
     2
 49
2.48624995
 49
-246.11400604
 53
180.0
 43
1.12500004
 44
87.82500029
 45
-1.3615255549299E-14
 46
-111.17699862
 79
     2
 49
1.11150004
 49
-110.06549835
 53
180.0
 43
108.974998
 44
88.94999743
 45
-1.3615255549299E-14
 46
-111.17699862
 79
     2
 49
3.33525002
 49
-107.84174681
 53
90.0
 43
85.57499886
 44
91.19999886
 45
-111.17699862
 46
6.8076277746497E-15
 79
     2
 49
1.11150004
 49
-110.06549835
 53
45.0
 43
85.57499886
 44
92.25000143
 45
1.3322676295502E-14
 46
111.17734083
 79
     2
 49
1.57200001
 49
-155.655756
 53
18.43490028
 43
86.70000315
 44
93.37499857
 45
222.35461589
 46
111.1767185
 79
     2
 49
3.51600006
 49
-348.05774689
 53
345.9637146
 43
90.07500172
 44
94.50000286
 45
111.17705397
 46
0.00028293
 79
     2
 49
4.58399981
 49
-453.81151199
 53
0.0
 43
94.50000286
 44
93.37499857
 45
0.0
 46
111.17699862
 79
     2
 49
5.55899978
 49
-105.61800241
 53
296.56509399
 43
100.05000114
 44
93.37499857
 45
111.17716174
 46
-111.17733144
 79
     2
 49
2.48624995
 49
-246.11400604
 53
270.0
 43
101.17499828
 44
91.19999886
 45
111.17699862
 46
-2.0422883323949E-14
 79
     2
 49
1.11150004
 49
-110.06549835
 53
225.0
 43
101.17499828
 44
90.07500172
 45
-1.9984014443253E-14
 46
-111.17734083
 79
     2
 49
1.57200001
 49
-155.655756
 53
180.0
 43
100.05000114
 44
88.94999743
 45
-1.3615255549299E-14
 46
-111.17699862
 79
     2
 49
5.55899978
 49
-105.61800241
 53
165.96380615
 43
94.50000286
 44
88.94999743
 45
-111.17705397
 46
-0.00046058
 79
     2
 49
4.58399981
 49
-453.81151199
 53
206.56500244
 43
90.07500172
 44
90.07500172
 45
-111.17750909
 46
-111.17698409
 79
     2
 49
2.48624995
 49
-246.11400604
 53
135.0
 43
87.82500029
 44
88.94999743
 45
-111.17734083
 46
1.3322676295502E-14
 79
     2
 49
1.57200001
 49
-155.655756
 53
135.0
 43
86.70000315
 44
90.07500172
 45
-111.17734083
 46
1.3322676295502E-14
 79
     2
 49
1.57200001
 49
-155.655756
 53
180.0
 43
60.0
 44
106.72499657
 45
-1.3615255549299E-14
 46
-111.17699862
 79
     2
 49
1.11150004
 49
-110.06549835
 53
225.0
 43
58.950001
 44
106.72499657
 45
-1.9984014443253E-14
 46
-111.17734083
 79
     2
 49
1.57200001
 49
-155.655756
 53
270.0
 43
57.82500029
 44
105.59999943
 45
111.17699862
 46
-2.0422883323949E-14
 79
     2
 49
1.11150004
 49
-110.06549835
 53
270.0
 43
57.82500029
 44
104.47500229
 45
111.17699862
 46
-2.0422883323949E-14
 79
     2
 49
1.11150004
 49
-110.06549835
 53
315.0
 43
57.82500029
 44
103.42499971
 45
111.17734083
 46
-2.6645352591004E-14
 79
     2
 49
1.57200001
 49
-155.655756
 53
0.0
 43
58.950001
 44
102.30000257
 45
0.0
 46
111.17699862
 79
     2
 49
1.11150004
 49
-110.06549835
 53
0.0
 43
60.0
 44
102.30000257
 45
0.0
 46
111.17699862
 79
     2
 49
1.11150004
 49
-110.06549835
 53
333.43490601
 43
61.12499714
 44
102.30000257
 45
111.17741453
 46
-0.00041895
 79
     2
 49
2.48624995
 49
-246.11400604
 53
0.0
 43
63.37499857
 44
101.17499828
 45
0.0
 46
111.17699862
 79
     2
 49
1.11150004
 49
-110.06549835
 53
0.0
 43
64.50000286
 44
101.17499828
 45
0.0
 46
111.17699862
 79
     2
 49
1.11150004
 49
-110.06549835
 53
45.0
 43
65.625
 44
101.17499828
 45
1.3322676295502E-14
 46
111.17734083
 79
     2
 49
1.57200001
 49
-155.655756
 53
63.43489838
 43
66.67500257
 44
102.30000257
 45
0.00043375
 46
111.17741453
 79
     2
 49
2.48624995
 49
-246.11400604
 53
135.0
 43
67.79999971
 44
104.47500229
 45
-111.17734083
 46
1.3322676295502E-14
 79
     2
 49
1.57200001
 49
-155.655756
 53
180.0
 43
66.67500257
 44
105.59999943
 45
-1.3615255549299E-14
 46
-111.17699862
 79
     2
 49
1.11150004
 49
-110.06549835
 53
90.0
 43
73.349998
 44
107.85000086
 45
-111.17699862
 46
6.8076277746497E-15
 79
     2
 49
1.11150004
 49
-110.06549835
 53
135.0
 43
73.349998
 44
108.974998
 45
-111.17734083
 46
1.3322676295502E-14
 79
     2
 49
1.57200001
 49
-155.655756
 53
165.96380615
 43
72.30000257
 44
110.10000229
 45
-111.17705397
 46
-0.00046058
 79
     2
 49
4.58399981
 49
-453.81151199
 53
225.0
 43
60.0
 44
111.14999771
 45
-1.9984014443253E-14
 46
-111.17734083
 79
     2
 49
1.57200001
 49
-155.655756
 53
270.0
 43
58.950001
 44
110.10000229
 45
111.17699862
 46
-2.0422883323949E-14
 79
     2
 49
1.11150004
 49
-110.06549835
 53
270.0
 43
58.950001
 44
108.974998
 45
111.17699862
 46
-2.0422883323949E-14
 79
     2
 49
1.11150004
 49
-110.06549835
 53
315.0
 43
58.950001
 44
107.85000086
 45
111.17734083
 46
-2.6645352591004E-14
 79
     2
 49
1.57200001
 49
-155.655756
 53
0.0
 43
60.0
 44
106.72499657
 45
0.0
 46
111.17699862
 79
     2
 49
3.33525002
 49
-107.84174681
 53
341.56509399
 43
63.37499857
 44
106.72499657
 45
111.17690461
 46
-0.00015215
 79
     2
 49
3.51600006
 49
-348.05774689
 53
0.0
 43
66.67500257
 44
105.59999943
 45
0.0
 46
111.17699862
 79
     2
 49
2.22374998
 49
-108.95399809
 53
26.56509972
 43
68.92499685
 44
105.59999943
 45
111.17732034
 46
111.17717285
 79
     2
 49
2.48624995
 49
-246.11400604
 53
45.0
 43
98.92499685
 44
102.30000257
 45
1.3322676295502E-14
 46
111.17734083
 79
     2
 49
1.57200001
 49
-155.655756
 53
206.56500244
 43
98.92499685
 44
102.30000257
 45
-111.17750909
 46
-111.17698409
 79
     2
 49
2.48624995
 49
-246.11400604
 53
206.56500244
 43
96.74999714
 44
101.17499828
 45
-111.17750909
 46
-111.17698409
 79
     2
 49
2.48624995
 49
-246.11400604
 53
206.56500244
 43
94.50000286
 44
100.05000114
 45
-111.17750909
 46
-111.17698409
 79
     2
 49
2.48624995
 49
-246.11400604
 53
206.56500244
 43
92.25000143
 44
98.92499685
 45
-111.17750909
 46
-111.17698409
 79
     2
 49
2.48624995
 49
-246.11400604
 53
243.43499756
 43
90.07500172
 44
97.79999971
 45
-0.0002413
 46
-111.17741453
 79
     2
 49
2.48624995
 49
-246.11400604
 53
225.0
 43
88.94999743
 44
95.625
 45
-1.9984014443253E-14
 46
-111.17734083
 79
     2
 49
1.57200001
 49
-155.655756
 53
225.0
 43
87.82500029
 44
94.50000286
 45
-1.9984014443253E-14
 46
-111.17734083
 79
     2
 49
1.57200001
 49
-155.655756
 53
180.0
 43
86.70000315
 44
93.37499857
 45
-1.3615255549299E-14
 46
-111.17699862
 79
     2
 49
2.22374998
 49
-108.95399809
 53
135.0
 43
84.52500343
 44
93.37499857
 45
-111.17734083
 46
1.3322676295502E-14
 79
     2
 49
1.57200001
 49
-155.655756
 53
153.43499756
 43
83.39999914
 44
94.50000286
 45
-111.17741453
 46
0.0002413
 79
     2
 49
2.48624995
 49
-246.11400604
 53
161.56500244
 43
81.14999771
 44
95.625
 45
-111.17690461
 46
0.0003298
 79
     2
 49
3.51600006
 49
-348.05774689
 53
161.56500244
 43
77.85000086
 44
96.74999714
 45
-111.17690461
 46
0.0003298
 79
     2
 49
3.51600006
 49
-348.05774689
 53
198.43499756
 43
74.47500229
 44
97.79999971
 45
-222.35442714
 46
-111.17709601
 79
     2
 49
3.51600006
 49
-348.05774689
 53
153.43499756
 43
71.17499828
 44
96.74999714
 45
-111.17741453
 46
0.0002413
 79
     2
 49
2.48624995
 49
-246.11400604
 53
135.0
 43
68.92499685
 44
97.79999971
 45
-111.17734083
 46
1.3322676295502E-14
 79
     2
 49
1.57200001
 49
-155.655756
 53
116.56500244
 43
67.79999971
 44
98.92499685
 45
-111.17698409
 46
111.17750909
 79
     2
 49
2.48624995
 49
-246.11400604
 53
90.0
 43
66.67500257
 44
101.17499828
 45
-111.17699862
 46
6.8076277746497E-15
 79
     2
 49
1.11150004
 49
-110.06549835
 53
63.43489838
 43
66.67500257
 44
102.30000257
 45
0.00043375
 46
111.17741453
 79
     2
 49
2.48624995
 49
-246.11400604
 53
45.0
 43
67.79999971
 44
104.47500229
 45
1.3322676295502E-14
 46
111.17734083
 79
     2
 49
1.57200001
 49
-155.655756
 53
18.43490028
 43
68.92499685
 44
105.59999943
 45
222.35461589
 46
111.1767185
 79
     2
 49
3.51600006
 49
-348.05774689
 53
26.56509972
 43
72.30000257
 44
106.72499657
 45
111.17732034
 46
111.17717285
 79
     2
 49
2.48624995
 49
-246.11400604
 53
33.69010162
 43
74.47500229
 44
107.85000086
 45
111.1774526
 46
111.17716932
 79
     2
 49
4.00875002
 49
-396.84674263
 53
45.0
 43
77.85000086
 44
110.10000229
 45
1.3322676295502E-14
 46
111.17734083
 79
     2
 49
1.57200001
 49
-155.655756
 53
63.43489838
 43
78.90000343
 44
0.0
 45
0.00043375
 46
111.17741453
 79
     2
 49
2.48624995
 49
-246.11400604
 53
45.0
 43
80.02500057
 44
2.25000009
 45
1.3322676295502E-14
 46
111.17734083
 79
     2
 49
1.57200001
 49
-155.655756
 53
26.56509972
 43
81.14999771
 44
3.29999998
 45
111.17732034
 46
111.17717285
 79
     2
 49
2.48624995
 49
-246.11400604
 53
26.56509972
 43
83.39999914
 44
4.4249998
 45
111.17732034
 46
111.17717285
 79
     2
 49
2.48624995
 49
-246.11400604
 53
345.9637146
 43
85.57499886
 44
5.55000007
 45
111.17705397
 46
0.00028293
 79
     2
 49
4.58399981
 49
-453.81151199
 53
341.56509399
 43
90.07500172
 44
4.4249998
 45
111.17690461
 46
-0.00015215
 79
     2
 49
3.51600006
 49
-348.05774689
 53
326.30990601
 43
93.37499857
 44
3.29999998
 45
222.35437318
 46
-111.17762842
 79
     2
 49
4.00875002
 49
-396.84674263
 53
315.0
 43
96.74999714
 44
1.12500004
 45
111.17734083
 46
-2.6645352591004E-14
 79
     2
 49
1.57200001
 49
-155.655756
 53
315.0
 43
97.79999971
 44
111.14999771
 45
111.17734083
 46
-2.6645352591004E-14
 79
     2
 49
1.57200001
 49
-155.655756
 53
296.56509399
 43
98.92499685
 44
110.10000229
 45
111.17716174
 46
-111.17733144
 79
     2
 49
2.48624995
 49
-246.11400604
 53
270.0
 43
100.05000114
 44
107.85000086
 45
111.17699862
 46
-2.0422883323949E-14
 79
     2
 49
2.22374998
 49
-108.95399809
 53
270.0
 43
100.05000114
 44
105.59999943
 45
111.17699862
 46
-2.0422883323949E-14
 79
     2
 49
2.22374998
 49
-108.95399809
 47
0.775229
 98
        1
 10
0.0
 20
0.0
  0
LWPOLYLINE
  5
62B
100
AcDbEntity
  8
Ech.1_5
 62
     1
  6
CADWORK_22
 48
-5.0
370
    35
100
AcDbPolyline
 90
        3
 70
     0
 43
0.0
 10
32172.50082797
 20
-8582.00941995
 10
32257.38220587
 20
-8582.01903061
 10
32257.38220587
 20
-8217.03866881
  0
3DFACE
  5
62C
102
{ACAD_REACTORS
330
62D
102
}
100
AcDbEntity
  8
Ech.1_5
 62
     9
  6
CONTINUOUS
370
    -3
100
AcDbFace
 70
     0
 10
32277.38220587
 20
-8217.03812293
 30
2500.0
 11
32277.38220587
 21
-8582.01903061
 31
2500.0
 12
32477.38220587
 22
-8582.05100958
 32
2500.0
 13
32477.38220587
 23
-8217.03802661
 33
2500.0
  0
HATCH
  5
62D
100
AcDbEntity
  8
Ech.1_5
 62
     9
  6
CONTINUOUS
100
AcDbHatch
 10
0.0
 20
0.0
 30
0.0
210
0.0
220
0.0
230
1.0
  2
AR-CONC
 70
     0
 71
     1
 91
        1
 92
        7
 72
     0
 73
     1
 93
        4
 10
32277.38220587
 20
-8217.03812293
 10
32277.38220587
 20
-8582.01903061
 10
32477.38220587
 20
-8582.05100958
 10
32477.38220587
 20
-8217.03802661
 97
        1
330
62C
 75
     0
 76
     2
 52
0.0
 41
0.11811097
 77
     0
 78
    13
 53
50.0
 43
0.0
 44
0.0
 45
-18.84283637
 46
1.64853443
 79
     2
 49
1.97029307
 49
-21.67322338
 53
355.0
 43
0.0
 44
0.0
 45
-3.64507756
 46
19.76051824
 79
     2
 49
1.57623377
 49
-17.3385787
 53
100.45140076
 43
1.57023568
 44
-0.13737749
 45
-15.19777228
 46
-18.11197244
 79
     2
 49
1.67449124
 49
-18.41940522
 53
46.18420029
 43
0.0
 44
5.25411576
 45
-28.03703353
 46
4.34827878
 79
     2
 49
2.95543872
 49
-32.50983238
 53
96.63559723
 43
2.33641885
 44
4.89175692
 45
-24.55412615
 46
-25.59063404
 79
     2
 49
2.51173697
 49
-27.62910426
 53
351.1842041
 43
0.0
 44
5.25411576
 45
24.55410288
 46
25.59065715
 79
     2
 49
2.36435249
 49
-26.00786805
 53
21.0
 43
2.62705699
 44
3.94058615
 45
-15.68109068
 46
10.57702905
 79
     2
 49
1.97029307
 49
-21.67322338
 53
326.0
 43
2.62705699
 44
3.94058615
 45
6.39203268
 46
19.05010734
 79
     2
 49
1.57623377
 49
-17.3385787
 53
71.45140076
 43
3.93381357
 44
3.05916555
 45
-22.07312962
 46
-8.47306182
 79
     2
 49
1.67449124
 49
-18.41940522
 53
37.5
 43
0.0
 44
0.0
 45
0.31944534
 46
8.74531245
 79
     6
 49
0.01875
 49
-17.12841332
 49
0.01875
 49
-17.60128498
 49
0.01875
 49
-17.40425348
 53
7.5
 43
0.0
 44
0.0
 45
6.91098818
 46
10.3614222
 79
     6
 49
0.01875
 49
-10.03535807
 49
0.01875
 49
-16.7343539
 49
0.01875
 49
-6.6333206
 53
-32.5
 43
-5.85833833
 44
0.0
 45
14.02382061
 46
-0.59253003
 79
     6
 49
0.01875
 49
-6.56764314
 49
0.01875
 49
-20.49104869
 49
0.01875
 49
-27.19004452
 53
-42.5
 43
-8.48539531
 44
0.0
 45
15.32063571
 46
2.62981542
 79
     6
 49
0.01875
 49
-8.53793621
 49
0.01875
 49
-13.60815793
 49
0.01875
 49
-19.30887222
 47
0.775229
 98
        1
 10
0.0
 20
0.0
  0
LWPOLYLINE
  5
62E
100
AcDbEntity
  8
Ech.1_5
 62
   190
  6
CONTINUOUS
370
    -3
100
AcDbPolyline
 90
        5
 70
     0
 43
0.0
 10
31753.90000489
 20
-9512.40601397
 10
32738.90000489
 20
-9512.40601397
 10
32738.90000489
 20
-8157.40601397
 10
31753.90000489
 20
-8157.40601397
 10
31753.90000489
 20
-9512.40601397
  0
LWPOLYLINE
  5
62F
100
AcDbEntity
  8
Ech.1_5
 62
   190
  6
CONTINUOUS
370
    -3
100
AcDbPolyline
 90
      120
 70
     0
 43
0.0
 10
32274.04887254
 20
-8582.01903061
 42
1.14028181
 10
32273.18614044
 20
-8575.46594504
 10
32261.5782713
 20
-8578.57211617
 42
-1.30322619
 10
32261.5782713
 20
-8572.13261171
 10
32273.18614044
 20
-8575.23878284
 42
1.30322619
 10
32273.18614044
 20
-8568.79927837
 10
32261.5782713
 20
-8571.90544951
 42
-1.30322619
 10
32261.5782713
 20
-8565.46594504
 10
32273.18614044
 20
-8568.57211617
 42
1.30322619
 10
32273.18614044
 20
-8562.13261171
 10
32261.5782713
 20
-8565.23878284
 42
-1.30322619
 10
32261.5782713
 20
-8558.79927837
 10
32273.18614044
 20
-8561.90544951
 42
1.30322619
 10
32273.18614044
 20
-8555.46594504
 10
32261.5782713
 20
-8558.57211617
 42
-1.30322619
 10
32261.5782713
 20
-8552.13261171
 10
32273.18614044
 20
-8555.23878284
 42
1.30322619
 10
32273.18614044
 20
-8548.79927837
 10
32261.5782713
 20
-8551.90544951
 42
-1.30322619
 10
32261.5782713
 20
-8545.46594504
 10
32273.18614044
 20
-8548.57211617
 42
1.30322619
 10
32273.18614044
 20
-8542.13261171
 10
32261.5782713
 20
-8545.23878284
 42
-1.30322619
 10
32261.5782713
 20
-8538.79927837
 10
32273.18614044
 20
-8541.90544951
 42
1.30322619
 10
32273.18614044
 20
-8535.46594504
 10
32261.5782713
 20
-8538.57211617
 42
-1.30322619
 10
32261.5782713
 20
-8532.13261171
 10
32273.18614044
 20
-8535.23878284
 42
1.30322619
 10
32273.18614044
 20
-8528.79927837
 10
32261.5782713
 20
-8531.90544951
 42
-1.30322619
 10
32261.5782713
 20
-8525.46594504
 10
32273.18614044
 20
-8528.57211617
 42
1.30322619
 10
32273.18614044
 20
-8522.13261171
 10
32261.5782713
 20
-8525.23878284
 42
-1.30322619
 10
32261.5782713
 20
-8518.79927837
 10
32273.18614044
 20
-8521.90544951
 42
1.30322619
 10
32273.18614044
 20
-8515.46594504
 10
32261.5782713
 20
-8518.57211617
 42
-1.30322619
 10
32261.5782713
 20
-8512.13261171
 10
32273.18614044
 20
-8515.23878284
 42
1.30322619
 10
32273.18614044
 20
-8508.79927837
 10
32261.5782713
 20
-8511.90544951
 42
-1.30322619
 10
32261.5782713
 20
-8505.46594504
 10
32273.18614044
 20
-8508.57211617
 42
1.30322619
 10
32273.18614044
 20
-8502.13261171
 10
32261.5782713
 20
-8505.23878284
 42
-1.30322619
 10
32261.5782713
 20
-8498.79927837
 10
32273.18614044
 20
-8501.90544951
 42
1.30322619
 10
32273.18614044
 20
-8495.46594504
 10
32261.5782713
 20
-8498.57211617
 42
-1.30322619
 10
32261.5782713
 20
-8492.13261171
 10
32273.18614044
 20
-8495.23878284
 42
1.30322619
 10
32273.18614044
 20
-8488.79927837
 10
32261.5782713
 20
-8491.90544951
 42
-1.30322619
 10
32261.5782713
 20
-8485.46594504
 10
32273.18614044
 20
-8488.57211617
 42
1.30322619
 10
32273.18614044
 20
-8482.13261171
 10
32261.5782713
 20
-8485.23878284
 42
-1.30322619
 10
32261.5782713
 20
-8478.79927837
 10
32273.18614044
 20
-8481.90544951
 42
1.30322619
 10
32273.18614044
 20
-8475.46594504
 10
32261.5782713
 20
-8478.57211617
 42
-1.30322619
 10
32261.5782713
 20
-8472.13261171
 10
32273.18614044
 20
-8475.23878284
 42
1.30322619
 10
32273.18614044
 20
-8468.79927837
 10
32261.5782713
 20
-8471.90544951
 42
-1.30322619
 10
32261.5782713
 20
-8465.46594504
 10
32273.18614044
 20
-8468.57211617
 42
1.30322619
 10
32273.18614044
 20
-8462.13261171
 10
32261.5782713
 20
-8465.23878284
 42
-1.30322619
 10
32261.5782713
 20
-8458.79927837
 10
32273.18614044
 20
-8461.90544951
 42
1.30322619
 10
32273.18614044
 20
-8455.46594504
 10
32261.5782713
 20
-8458.57211617
 42
-1.30322619
 10
32261.5782713
 20
-8452.13261171
 10
32273.18614044
 20
-8455.23878284
 42
1.30322619
 10
32273.18614044
 20
-8448.79927837
 10
32261.5782713
 20
-8451.90544951
 42
-1.30322619
 10
32261.5782713
 20
-8445.46594504
 10
32273.18614044
 20
-8448.57211617
 42
1.30322619
 10
32273.18614044
 20
-8442.13261171
 10
32261.5782713
 20
-8445.23878284
 42
-1.30322619
 10
32261.5782713
 20
-8438.79927837
 10
32273.18614044
 20
-8441.90544951
 42
1.30322619
 10
32273.18614044
 20
-8435.46594504
 10
32261.5782713
 20
-8438.57211617
 42
-1.30322619
 10
32261.5782713
 20
-8432.13261171
 10
32273.18614044
 20
-8435.23878284
 42
1.30322619
 10
32273.18614044
 20
-8428.79927837
 10
32261.5782713
 20
-8431.90544951
 42
-1.30322619
 10
32261.5782713
 20
-8425.46594504
 10
32273.18614044
 20
-8428.57211617
 42
1.30322619
 10
32273.18614044
 20
-8422.13261171
 10
32261.5782713
 20
-8425.23878284
 42
-1.30322619
 10
32261.5782713
 20
-8418.79927837
 10
32273.18614044
 20
-8421.90544951
 42
1.30322619
 10
32273.18614044
 20
-8415.46594504
 10
32261.5782713
 20
-8418.57211617
 42
-1.30322619
 10
32261.5782713
 20
-8412.13261171
 10
32273.18614044
 20
-8415.23878284
 42
1.30322619
 10
32273.18614044
 20
-8408.79927837
 10
32261.5782713
 20
-8411.90544951
 42
-1.30322619
 10
32261.5782713
 20
-8405.46594504
 10
32273.18614044
 20
-8408.57211617
 42
1.30322619
 10
32273.18614044
 20
-8402.13261171
 10
32261.5782713
 20
-8405.23878284
 42
-1.30322619
 10
32261.5782713
 20
-8398.79927837
 10
32273.18614044
 20
-8401.90544951
 42
1.30322619
 10
32273.18614044
 20
-8395.46594504
 10
32261.5782713
 20
-8398.57211617
 42
-1.30322619
 10
32261.5782713
 20
-8392.13261171
 10
32273.18614044
 20
-8395.23878284
 42
1.30322619
 10
32273.18614044
 20
-8388.79927837
 10
32261.5782713
 20
-8391.90544951
 42
-1.30322619
 10
32261.5782713
 20
-8385.46594504
 10
32273.18614044
 20
-8388.57211617
 42
1.30322619
 10
32273.18614044
 20
-8382.13261171
 10
32261.5782713
 20
-8385.23878284
 42
-0.52586277
 10
32257.38220587
 20
-8382.01903061
  0
LWPOLYLINE
  5
630
100
AcDbEntity
  8
Ech.1_5
 62
     9
  6
CONTINUOUS
370
    -3
100
AcDbPolyline
 90
       40
 70
     0
 43
0.0
 10
32477.38220585
 20
-8860.45580947
 42
1.14028181
 10
32500.35867838
 20
-8857.43089238
 10
32489.46780025
 20
-8816.73130378
 42
-1.30322619
 10
32512.04603398
 20
-8816.73130374
 10
32501.15515601
 20
-8857.43089238
 42
1.30322619
 10
32523.73338974
 20
-8857.43089233
 10
32512.8425116
 20
-8816.73130374
 42
-1.30322619
 10
32535.42074533
 20
-8816.73130369
 10
32524.52986736
 20
-8857.43089233
 42
1.30322619
 10
32547.10810109
 20
-8857.43089228
 10
32536.21722296
 20
-8816.73130369
 42
-1.30322619
 10
32558.79545668
 20
-8816.73130364
 10
32547.90457872
 20
-8857.43089228
 42
1.30322619
 10
32570.48281244
 20
-8857.43089223
 10
32559.59193431
 20
-8816.73130364
 42
-1.30322619
 10
32582.17016804
 20
-8816.7313036
 10
32571.27929007
 20
-8857.43089223
 42
1.30322619
 10
32593.8575238
 20
-8857.43089219
 10
32582.96664566
 20
-8816.73130359
 42
-1.30322619
 10
32605.54487939
 20
-8816.73130355
 10
32594.65400142
 20
-8857.43089219
 42
1.30322619
 10
32617.23223515
 20
-8857.43089214
 10
32606.34135702
 20
-8816.73130355
 42
-1.30322619
 10
32628.91959075
 20
-8816.7313035
 10
32618.02871278
 20
-8857.43089214
 42
1.30322619
 10
32640.60694651
 20
-8857.43089209
 10
32629.71606837
 20
-8816.7313035
 42
-1.30322619
 10
32652.2943021
 20
-8816.73130345
 10
32641.40342413
 20
-8857.43089209
 42
1.30322619
 10
32663.98165786
 20
-8857.43089204
 10
32653.09077973
 20
-8816.73130345
 42
-1.30322619
 10
32675.66901346
 20
-8816.73130341
 10
32664.77813549
 20
-8857.43089204
 42
1.30322619
 10
32687.35636922
 20
-8857.430892
 10
32676.46549108
 20
-8816.7313034
 42
-1.30322619
 10
32699.04372481
 20
-8816.73130336
 10
32688.15284684
 20
-8857.430892
 42
1.30322619
 10
32710.73108057
 20
-8857.43089195
 10
32699.84020244
 20
-8816.73130336
 42
-0.51983248
 10
32712.12100558
 20
-8802.0611795
  0
LWPOLYLINE
  5
631
102
{ACAD_REACTORS
330
632
102
}
100
AcDbEntity
  8
Ech.1_5
 62
     9
  6
CONTINUOUS
370
    -3
100
AcDbPolyline
 90
        4
 70
     1
 43
0.0
 10
32712.11746445
 20
-8582.05251352
 10
32712.11746445
 20
-8568.05251317
 10
32567.23498815
 20
-8568.05251352
 10
32567.23498815
 20
-8582.05251352
  0
HATCH
  5
632
100
AcDbEntity
  8
Ech.1_5
 62
     9
  6
CONTINUOUS
100
AcDbHatch
 10
0.0
 20
0.0
 30
0.0
210
0.0
220
0.0
230
1.0
  2
ANSI31
 70
     0
 71
     1
 91
        1
 92
        7
 72
     0
 73
     1
 93
        4
 10
32712.11746445
 20
-8582.05251352
 10
32712.11746445
 20
-8568.05251317
 10
32567.23498815
 20
-8568.05251352
 10
32567.23498815
 20
-8582.05251352
 97
        1
330
631
 75
     0
 76
     2
 52
90.0
 41
3.14962605
 77
     0
 78
     1
 53
-45.0
 43
0.0
 44
0.0
 45
7.07106781
 46
7.07106781
 79
     0
 47
0.775229
 98
        1
 10
0.0
 20
0.0
  0
LWPOLYLINE
  5
633
100
AcDbEntity
  8
Ech.1_5
 62
   254
  6
CONTINUOUS
370
    -3
100
AcDbPolyline
 90
        4
 70
     1
 43
0.0
 10
32497.38220587
 20
-8582.05100958
 10
32547.38220587
 20
-8582.05100958
 10
32547.38220587
 20
-8217.03802661
 10
32497.38220587
 20
-8217.03802661
  0
LWPOLYLINE
  5
634
100
AcDbEntity
  8
Ech.1_5
 62
     9
  6
CONTINUOUS
100
AcDbPolyline
 90
        6
 70
     0
 43
0.0
 10
32560.38362106
 20
-8502.38574068
 10
32563.38220585
 20
-8502.38580934
 42
-0.41421356
 10
32573.38220585
 20
-8512.38580934
 10
32573.38220585
 20
-8568.05058329
 10
32560.38220587
 20
-8568.05058519
 10
32560.38220587
 20
-8502.38581221
  0
LWPOLYLINE
  5
635
102
{ACAD_REACTORS
330
636
102
}
100
AcDbEntity
  8
Ech.1_5
 62
     9
  6
CONTINUOUS
370
    -3
100
AcDbPolyline
 90
        4
 70
     1
 43
0.0
 10
32560.38220587
 20
-8217.03802661
 10
32547.38220587
 20
-8217.03802661
 10
32547.38220587
 20
-8572.05058519
 10
32560.38220587
 20
-8572.05058519
  0
HATCH
  5
636
100
AcDbEntity
  8
Ech.1_5
 62
     9
  6
CONTINUOUS
100
AcDbHatch
 10
0.0
 20
0.0
 30
0.0
210
0.0
220
0.0
230
1.0
  2
DOTS2
 70
     0
 71
     1
 91
        1
 92
        7
 72
     0
 73
     1
 93
        4
 10
32560.38220587
 20
-8217.03802661
 10
32547.38220587
 20
-8217.03802661
 10
32547.38220587
 20
-8572.05058519
 10
32560.38220587
 20
-8572.05058519
 97
        1
330
635
 75
     0
 76
     2
 52
0.0
 41
4.72440952
 77
     0
 78
     1
 53
0.0
 43
0.0
 44
0.0
 45
3.75
 46
3.535
 79
     2
 49
0.0
 49
-3.535
 47
0.775229
 98
        1
 10
0.0
 20
0.0
  0
LWPOLYLINE
  5
637
102
{ACAD_REACTORS
330
638
102
}
100
AcDbEntity
  8
Ech.1_5
 62
     9
  6
CONTINUOUS
370
    -3
100
AcDbPolyline
 90
       12
 70
     1
 43
0.0
 10
32499.38090017
 20
-8546.95718424
 10
32497.38220587
 20
-8546.95718424
 10
32497.38220587
 20
-8576.95718424
 10
32547.27999618
 20
-8576.95718424
 10
32547.27999618
 20
-8546.95718424
 10
32545.27999618
 20
-8546.95718424
 10
32545.27999618
 20
-8548.95718424
 10
32545.27999618
 20
-8548.95718424
 10
32545.27999618
 20
-8574.95718424
 10
32499.38090017
 20
-8574.95718424
 10
32499.38090017
 20
-8548.95718424
 10
32499.38090017
 20
-8548.95718424
  0
HATCH
  5
638
100
AcDbEntity
  8
Ech.1_5
 62
     9
  6
CONTINUOUS
100
AcDbHatch
 10
0.0
 20
0.0
 30
0.0
210
0.0
220
0.0
230
1.0
  2
SOLID
 70
     1
 71
     1
 91
        1
 92
        7
 72
     0
 73
     1
 93
       10
 10
32499.38090017
 20
-8546.95718424
 10
32497.38220587
 20
-8546.95718424
 10
32497.38220587
 20
-8576.95718424
 10
32547.27999618
 20
-8576.95718424
 10
32547.27999618
 20
-8546.95718424
 10
32545.27999618
 20
-8546.95718424
 10
32545.27999618
 20
-8548.95718424
 10
32545.27999618
 20
-8574.95718424
 10
32499.38090017
 20
-8574.95718424
 10
32499.38090017
 20
-8548.95718424
 97
        1
330
637
 75
     0
 76
     2
 47
0.775229
 98
        1
 10
0.0
 20
0.0
  0
LWPOLYLINE
  5
639
100
AcDbEntity
  8
Ech.1_5
 62
     9
  6
CONTINUOUS
100
AcDbPolyline
 90
       21
 70
     0
 43
0.0
 10
32027.98450158
 20
-8217.03890055
 10
32024.84667196
 20
-8220.45113567
 10
32023.38220587
 20
-8223.98666958
 10
32023.38220587
 20
-8343.07341389
 10
32024.34252827
 20
-8344.70328239
 10
32029.07864912
 20
-8347.67463211
 10
32029.49065049
 20
-8347.91560177
 10
32029.80446798
 20
-8347.91560177
 10
32030.25558875
 20
-8347.63353924
 10
32030.38220587
 20
-8347.29906563
 10
32030.38220587
 20
-8319.91560177
 10
32037.38220587
 20
-8319.91560177
 10
32037.38220587
 20
-8329.91560177
 10
32043.38220587
 20
-8329.91560177
 10
32043.38220587
 20
-8301.91560177
 10
32039.38220587
 20
-8297.91560177
 10
32043.38220587
 20
-8293.91560177
 10
32043.38220587
 20
-8229.91560177
 10
32039.38220587
 20
-8225.91560177
 10
32043.38220587
 20
-8221.91560177
 10
32043.38220587
 20
-8217.03890055
  0
LWPOLYLINE
  5
63A
100
AcDbEntity
  8
Ech.1_5
 62
   190
  6
CONTINUOUS
370
    -3
100
AcDbPolyline
 90
       20
 70
     0
 43
0.0
 10
32107.38220587
 20
-8217.03767508
 42
1.14028181
 10
32115.1467947
 20
-8276.01544518
 10
32219.61761703
 20
-8248.05990497
 42
-1.30322619
 10
32219.61761703
 20
-8306.01544518
 10
32115.1467947
 20
-8278.05990497
 42
1.30322619
 10
32115.1467947
 20
-8336.01544518
 10
32219.61761703
 20
-8308.05990497
 42
-1.30322619
 10
32219.61761703
 20
-8366.01544518
 10
32115.1467947
 20
-8338.05990497
 42
1.30322619
 10
32115.14679471
 20
-8396.01544518
 10
32219.61761703
 20
-8368.05990497
 42
-1.30322619
 10
32219.61761703
 20
-8426.01544518
 10
32115.14679471
 20
-8398.05990497
 42
1.30322619
 10
32115.14679471
 20
-8456.01544518
 10
32219.61761703
 20
-8428.05990497
 42
-1.30322619
 10
32219.61761703
 20
-8486.01544518
 10
32115.14679471
 20
-8458.05990497
 42
1.30322619
 10
32115.14679471
 20
-8516.01544518
 10
32219.61761703
 20
-8488.05990497
 42
-0.74512316
 10
32249.75954778
 20
-8537.01903061
  0
LWPOLYLINE
  5
63B
100
AcDbEntity
  8
Ech.1_5
 62
     9
  6
CONTINUOUS
370
    -3
100
AcDbPolyline
 90
       86
 70
     0
 43
0.0
 10
32505.7155392
 20
-8217.03802661
 42
1.14028181
 10
32507.87236943
 20
-8233.42074053
 10
32536.8920423
 20
-8225.65531269
 42
-1.30322619
 10
32536.8920423
 20
-8241.75407386
 10
32507.87236943
 20
-8233.98864603
 42
1.30322619
 10
32507.87236943
 20
-8250.08740719
 10
32536.8920423
 20
-8242.32197936
 42
-1.30322619
 10
32536.8920423
 20
-8258.42074053
 10
32507.87236943
 20
-8250.65531269
 42
1.30322619
 10
32507.87236943
 20
-8266.75407386
 10
32536.8920423
 20
-8258.98864603
 42
-1.30322619
 10
32536.8920423
 20
-8275.08740719
 10
32507.87236943
 20
-8267.32197936
 42
1.30322619
 10
32507.87236943
 20
-8283.42074053
 10
32536.8920423
 20
-8275.65531269
 42
-1.30322619
 10
32536.8920423
 20
-8291.75407386
 10
32507.87236943
 20
-8283.98864603
 42
1.30322619
 10
32507.87236943
 20
-8300.08740719
 10
32536.8920423
 20
-8292.32197936
 42
-1.30322619
 10
32536.8920423
 20
-8308.42074053
 10
32507.87236943
 20
-8300.65531269
 42
1.30322619
 10
32507.87236943
 20
-8316.75407386
 10
32536.8920423
 20
-8308.98864603
 42
-1.30322619
 10
32536.8920423
 20
-8325.08740719
 10
32507.87236943
 20
-8317.32197936
 42
1.30322619
 10
32507.87236943
 20
-8333.42074053
 10
32536.8920423
 20
-8325.65531269
 42
-1.30322619
 10
32536.8920423
 20
-8341.75407386
 10
32507.87236943
 20
-8333.98864603
 42
1.30322619
 10
32507.87236943
 20
-8350.08740719
 10
32536.8920423
 20
-8342.32197936
 42
-1.30322619
 10
32536.8920423
 20
-8358.42074053
 10
32507.87236943
 20
-8350.65531269
 42
1.30322619
 10
32507.87236943
 20
-8366.75407386
 10
32536.8920423
 20
-8358.98864603
 42
-1.30322619
 10
32536.8920423
 20
-8375.08740719
 10
32507.87236943
 20
-8367.32197936
 42
1.30322619
 10
32507.87236943
 20
-8383.42074053
 10
32536.8920423
 20
-8375.65531269
 42
-1.30322619
 10
32536.8920423
 20
-8391.75407386
 10
32507.87236943
 20
-8383.98864603
 42
1.30322619
 10
32507.87236943
 20
-8400.08740719
 10
32536.8920423
 20
-8392.32197936
 42
-1.30322619
 10
32536.8920423
 20
-8408.42074053
 10
32507.87236943
 20
-8400.65531269
 42
1.30322619
 10
32507.87236943
 20
-8416.75407386
 10
32536.8920423
 20
-8408.98864603
 42
-1.30322619
 10
32536.8920423
 20
-8425.08740719
 10
32507.87236943
 20
-8417.32197936
 42
1.30322619
 10
32507.87236943
 20
-8433.42074053
 10
32536.8920423
 20
-8425.65531269
 42
-1.30322619
 10
32536.8920423
 20
-8441.75407386
 10
32507.87236943
 20
-8433.98864603
 42
1.30322619
 10
32507.87236943
 20
-8450.08740719
 10
32536.8920423
 20
-8442.32197936
 42
-1.30322619
 10
32536.8920423
 20
-8458.42074053
 10
32507.87236943
 20
-8450.65531269
 42
1.30322619
 10
32507.87236943
 20
-8466.75407386
 10
32536.8920423
 20
-8458.98864603
 42
-1.30322619
 10
32536.8920423
 20
-8475.08740719
 10
32507.87236943
 20
-8467.32197936
 42
1.30322619
 10
32507.87236943
 20
-8483.42074053
 10
32536.8920423
 20
-8475.65531269
 42
-1.30322619
 10
32536.8920423
 20
-8491.75407386
 10
32507.87236943
 20
-8483.98864603
 42
1.30322619
 10
32507.87236943
 20
-8500.08740719
 10
32536.8920423
 20
-8492.32197936
 42
-1.30322619
 10
32536.8920423
 20
-8508.42074053
 10
32507.87236943
 20
-8500.65531269
 42
1.30322619
 10
32507.87236943
 20
-8516.75407386
 10
32536.8920423
 20
-8508.98864603
 42
-1.30322619
 10
32536.8920423
 20
-8525.08740719
 10
32507.87236943
 20
-8517.32197936
 42
1.30322619
 10
32507.87236943
 20
-8533.42074053
 10
32536.8920423
 20
-8525.65531269
 42
-1.30322619
 10
32536.8920423
 20
-8541.75407386
 10
32507.87236943
 20
-8533.98864603
 42
1.30322619
 10
32507.87236943
 20
-8550.08740719
 10
32536.8920423
 20
-8542.32197936
 42
-1.30322619
 10
32536.8920423
 20
-8558.42074053
 10
32507.87236943
 20
-8550.65531269
 42
1.30322619
 10
32507.87236943
 20
-8566.75407386
 10
32536.8920423
 20
-8558.98864603
 42
-1.30322619
 10
32536.8920423
 20
-8575.08740719
 10
32507.87236943
 20
-8567.32197936
 42
0.82638429
 10
32500.73289681
 20
-8582.05100958
  0
LWPOLYLINE
  5
63C
100
AcDbEntity
  8
Ech.1_5
 62
     9
  6
CONTINUOUS
100
AcDbPolyline
 90
       21
 70
     0
 43
0.0
 10
32027.98450158
 20
-8217.03890055
 10
32024.84667196
 20
-8220.45113567
 10
32023.38220587
 20
-8223.98666958
 10
32023.38220587
 20
-8343.07341389
 10
32024.34252827
 20
-8344.70328239
 10
32029.07864912
 20
-8347.67463211
 10
32029.49065049
 20
-8347.91560177
 10
32029.80446798
 20
-8347.91560177
 10
32030.25558875
 20
-8347.63353924
 10
32030.38220587
 20
-8347.29906563
 10
32030.38220587
 20
-8319.91560177
 10
32037.38220587
 20
-8319.91560177
 10
32037.38220587
 20
-8329.91560177
 10
32043.38220587
 20
-8329.91560177
 10
32043.38220587
 20
-8301.91560177
 10
32039.38220587
 20
-8297.91560177
 10
32043.38220587
 20
-8293.91560177
 10
32043.38220587
 20
-8229.91560177
 10
32039.38220587
 20
-8225.91560177
 10
32043.38220587
 20
-8221.91560177
 10
32043.38220587
 20
-8217.03890055
  0
LWPOLYLINE
  5
63D
100
AcDbEntity
  8
Ech.1_5
 62
     9
  6
CONTINUOUS
100
AcDbPolyline
 90
       27
 70
     0
 43
0.0
 10
32030.25558875
 20
-8492.63353924
 10
32030.38220587
 20
-8492.29906563
 10
32030.38220587
 20
-8464.91560177
 10
32037.38220587
 20
-8464.91560177
 10
32037.38220587
 20
-8474.91560177
 10
32043.38220587
 20
-8474.91560177
 10
32043.38220587
 20
-8446.91560177
 10
32039.38220587
 20
-8442.91560177
 10
32043.38220587
 20
-8438.91560177
 10
32043.38220587
 20
-8374.91560177
 10
32039.38220587
 20
-8370.91560177
 10
32043.38220587
 20
-8366.91560177
 10
32043.38220587
 20
-8330.91560177
 10
32036.38220587
 20
-8330.91560177
 10
32036.38220587
 20
-8325.91560177
 10
32033.88220587
 20
-8320.91560177
 10
32031.38220587
 20
-8325.91560177
 10
32031.38220587
 20
-8356.84453396
 10
32031.00160353
 20
-8358.75795082
 10
32024.84667196
 20
-8365.45113567
 10
32023.38220587
 20
-8368.98666958
 10
32023.38220587
 20
-8488.07341389
 10
32024.34252827
 20
-8489.70328239
 10
32029.07864912
 20
-8492.67463211
 10
32029.49065049
 20
-8492.91560177
 10
32029.80446798
 20
-8492.91560177
 10
32030.25558875
 20
-8492.63353924
  0
LWPOLYLINE
  5
63E
100
AcDbEntity
  8
Ech.1_5
 62
     9
  6
BYBLOCK
100
AcDbPolyline
 90
       23
 70
     0
 43
0.0
 10
32023.38220587
 20
-8610.39718536
 10
32023.38220587
 20
-8513.98666958
 10
32024.84667196
 20
-8510.45113567
 10
32031.00160353
 20
-8503.75795082
 10
32031.38220587
 20
-8501.84453396
 10
32031.38220587
 20
-8470.91560177
 10
32033.88220587
 20
-8465.91560177
 10
32036.38220587
 20
-8470.91560177
 10
32036.38220587
 20
-8475.91560177
 10
32043.38220587
 20
-8475.91560177
 10
32043.38220587
 20
-8511.91560177
 10
32039.38220587
 20
-8515.91560177
 10
32043.38220587
 20
-8519.91560177
 10
32043.38220587
 20
-8583.91560177
 10
32039.38220587
 20
-8587.91560177
 10
32043.38220587
 20
-8591.91560177
 10
32043.38220587
 20
-8591.91560177
 10
32031.13829227
 20
-8607.81287578
 10
32028.32149543
 20
-8611.47015385
 10
32027.23203539
 20
-8612.01903061
 10
32024.47665487
 20
-8612.01903061
 10
32023.38220587
 20
-8610.39718536
 10
32023.38220587
 20
-8605.08855728
  0
LINE
  5
63F
100
AcDbEntity
  8
Ech.1_5
 62
   150
  6
CADWORK_22
370
    35
100
AcDbLine
 10
32066.88220587
 20
-8217.03890055
 30
2500.0
 11
32066.88220587
 21
-8582.01903061
 31
2500.0
  0
LWPOLYLINE
  5
640
100
AcDbEntity
  8
Ech.1_5
 62
     4
  6
CONTINUOUS
370
    70
100
AcDbPolyline
 90
        3
 70
     0
 43
0.0
 10
32046.27792353
 20
-8582.72082332
 10
32064.77273234
 20
-8582.72082332
 10
32064.77273234
 20
-8544.47306255
  0
LWPOLYLINE
  5
641
100
AcDbEntity
  8
Ech.1_5
 62
     9
  6
CONTINUOUS
370
    -3
100
AcDbPolyline
 90
        4
 70
     0
 43
0.0
 10
32043.38220587
 20
-8217.03890055
 10
32043.38220587
 20
-8567.42447952
 10
32068.38220587
 20
-8567.42447952
 10
32068.38220587
 20
-8217.03890055
  0
LWPOLYLINE
  5
642
100
AcDbEntity
  8
Ech.1_5
 62
   190
  6
CONTINUOUS
370
    -3
100
AcDbPolyline
 90
        6
 70
     0
 43
0.0
 10
31972.61342718
 20
-8217.03890055
 10
32139.81570936
 20
-8217.03742426
 10
32156.30121252
 20
-8199.06007593
 10
32142.1912725
 20
-8235.01577585
 10
32158.67762658
 20
-8217.03742426
 10
32587.94790082
 20
-8217.03824633
  0
LWPOLYLINE
  5
643
100
AcDbEntity
  8
Ech.1_5
 62
   190
100
AcDbPolyline
 90
        5
 70
     0
 43
0.0
 10
31770.96778654
 20
-8176.27531705
 10
31905.39656553
 20
-8176.27531705
 10
31905.39656553
 20
-8232.99827587
 10
31770.96778654
 20
-8232.99827587
 10
31770.96778654
 20
-8176.27531705
  0
HATCH
  5
644
100
AcDbEntity
  8
Ech.1_5
 62
   190
100
AcDbHatch
 10
0.0
 20
0.0
 30
0.0
210
0.0
220
0.0
230
1.0
  2
SOLID
 70
     1
 71
     0
 91
        1
 92
        7
 72
     0
 73
     1
 93
        4
 10
31789.24783233
 20
-8209.93212818
 10
31839.24783233
 20
-8209.93212818
 10
31839.24783233
 20
-8202.51699065
 10
31789.24783233
 20
-8202.51699065
 97
        0
 75
     0
 76
     2
 47
0.775229
 98
        1
 10
0.0
 20
0.0
  0
LWPOLYLINE
  5
645
100
AcDbEntity
  8
Ech.1_5
 62
   190
100
AcDbPolyline
 90
        5
 70
     0
 43
0.0
 10
31789.24783233
 20
-8209.93212818
 10
31839.24783233
 20
-8209.93212818
 10
31839.24783233
 20
-8202.51699065
 10
31789.24783233
 20
-8202.51699065
 10
31789.24783233
 20
-8209.93212818
  0
LWPOLYLINE
  5
646
100
AcDbEntity
  8
Ech.1_5
 62
   190
100
AcDbPolyline
 90
        5
 70
     0
 43
0.0
 10
31839.24783233
 20
-8209.93212818
 10
31889.24783233
 20
-8209.93212818
 10
31889.24783233
 20
-8202.51699065
 10
31839.24783233
 20
-8202.51699065
 10
31839.24783233
 20
-8209.93212818
  0
TEXT
  5
647
100
AcDbEntity
  8
Ech.1_5
 62
   190
100
AcDbText
 10
31800.54212495
 20
-8192.93098757
 30
0.0
 40
8.00000012
  1
Echelle en mm
  7
ARIAL
 50
0.0
 41
1.0
 51
0.0
100
AcDbText
  0
TEXT
  5
648
100
AcDbEntity
  8
Ech.1_5
 62
   190
100
AcDbText
 10
31786.5615402
 20
-8221.1408231
 30
0.0
 40
8.00000012
  1
0
  7
ARIAL
 50
0.0
 41
1.0
 51
0.0
100
AcDbText
  0
TEXT
  5
649
100
AcDbEntity
  8
Ech.1_5
 62
   190
100
AcDbText
 10
31873.1585981
 20
-8221.1408231
 30
0.0
 40
8.00000012
  1
100
  7
ARIAL
 50
0.0
 41
1.0
 51
0.0
100
AcDbText
  0
TEXT
  5
64A
100
AcDbEntity
  8
Ech.1_5
 62
   190
100
AcDbText
 10
31834.41816653
 20
-8221.1408231
 30
0.0
 40
8.00000012
  1
50
  7
ARIAL
 50
0.0
 41
1.0
 51
0.0
100
AcDbText
  0
INSERT
  5
64B
100
AcDbEntity
  8
Ech.1_5
 62
     0
370
    -3
100
AcDbBlockReference
  2
*D3
 10
0.0
 20
0.0
 30
0.0
  0
INSERT
  5
64C
100
AcDbEntity
  8
Ech.1_5
 62
     0
370
    -3
100
AcDbBlockReference
  2
*D4
 10
0.0
 20
0.0
 30
0.0
  0
INSERT
  5
64D
100
AcDbEntity
  8
Ech.1_5
 62
     0
370
    -3
100
AcDbBlockReference
  2
*D5
 10
0.0
 20
0.0
 30
0.0
  0
ENDSEC
  0
SECTION
  2
OBJECTS
  0
DICTIONARY
  5
1
100
AcDbDictionary
  3
ACAD_GROUP
350
2
  3
ACAD_MLINESTYLE
350
3
  0
DICTIONARY
  5
2
102
{CDWK_REACTORS
330
1
102
}
100
AcDbDictionary
  0
DICTIONARY
  5
3
102
{CDWK_REACTORS
330
1
102
}
100
AcDbDictionary
  3
STANDARD
350
4
  0
MLINESTYLE
  5
4
102
{CDWK_REACTORS
330
3
102
}
100
AcDbMlineStyle
  2
STANDARD
 70
     0
  3

 62
     0
 51
90.0
 52
90.0
 71
     2
 49
0.5
 62
   256
  6
BYLAYER
 49
-0.5
 62
   256
  6
BYLAYER
  0
ENDSEC
  0
EOF
