  0
SECTION
  2
HEADER
  9
$ACADVER
  1
AC1014
  9
$DWGCODEPAGE
  3
ANSI_1252
  9
$INSBASE
 10
0.0
 20
0.0
 30
0.0
  9
$EXTMIN
 10
1033.98771282
 20
-21718.34332712
  9
$EXTMAX
 10
122326.07664696
 20
2240.3362527
  9
$LIMMIN
 10
1033.98771282
 20
-21718.34332712
  9
$LIMMAX
 10
122326.07664696
 20
2240.3362527
  9
$ORTHOMODE
 70
     0
  9
$REGENMODE
 70
     1
  9
$FILLMODE
 70
     1
  9
$QTEXTMODE
 70
     0
  9
$MIRRTEXT
 70
     1
  9
$DRAGMODE
 70
     2
  9
$LTSCALE
 40
5.0
  9
$OSMODE
 70
     0
  9
$ATTMODE
 70
     1
  9
$TEXTSIZE
 40
3.5
  9
$TRACEWID
 40
1.0
  9
$TEXTSTYLE
  7
STANDARD
  9
$CLAYER
  8
0
  9
$CELTYPE
  6
BYLAYER
  9
$CECOLOR
 62
   256
  9
$DIMSCALE
 40
1.0
  9
$DIMASZ
 40
2.0
  9
$DIMEXO
 40
5.0
  9
$DIMDLI
 40
10.0
  9
$DIMRND
 40
0.0
  9
$DIMDLE
 40
2.0
  9
$DIMEXE
 40
2.0
  9
$DIMTP
 40
0.0
  9
$DIMTM
 40
0.0
  9
$DIMTXT
 40
2.5
  9
$DIMCEN
 40
1.5
  9
$DIMTSZ
 40
0.0
  9
$DIMTOL
 70
     0
  9
$DIMLIM
 70
     0
  9
$DIMTIH
 70
     1
  9
$DIMTOH
 70
     0
  9
$DIMSE1
 70
     0
  9
$DIMSE2
 70
     0
  9
$DIMTAD
 70
     1
  9
$DIMZIN
 70
     8
  9
$DIMBLK
  1

  9
$DIMASO
 70
     1
  9
$DIMSHO
 70
     1
  9
$DIMPOST
  1

  9
$DIMAPOST
  1

  9
$DIMALT
 70
     0
  9
$DIMALTD
 70
     2
  9
$DIMALTF
 40
25.4
  9
$DIMLFAC
 40
1.0
  9
$DIMTOFL
 70
     0
  9
$DIMTVP
 40
0.0
  9
$DIMTIX
 70
     0
  9
$DIMSOXD
 70
     0
  9
$DIMSAH
 70
     0
  9
$DIMBLK1
  1

  9
$DIMBLK2
  1

  9
$DIMSTYLE
  2
*UNNAMED
  9
$DIMCLRD
 70
   190
  9
$DIMCLRE
 70
   190
  9
$DIMCLRT
 70
   190
  9
$DIMTFAC
 40
1.0
  9
$DIMGAP
 40
0.09
  9
$DIMUNIT
 70
     2
  9
$LUNITS
 70
     2
  9
$LUPREC
 70
     6
  9
$AXISMODE
 70
     0
  9
$AXISUNIT
 10
0.0
 20
0.0
  9
$SKETCHINC
 40
0.1
  9
$FILLETRAD
 40
0.0
  9
$AUNITS
 70
     0
  9
$AUPREC
 70
     0
  9
$MENU
  1
ACAD
  9
$ELEVATION
 40
0.0
  9
$PELEVATION
 40
0.0
  9
$THICKNESS
 40
0.0
  9
$LIMCHECK
 70
     0
  9
$BLIPMODE
 70
     1
  9
$CHAMFERA
 40
0.0
  9
$CHAMFERB
 40
0.0
  9
$SKPOLY
 70
     1
  9
$TDCREATE
 40
2457808.0000000000
  9
$TDUPDATE
 40
2457808.0000000000
  9
$TDINDWG
 40
0.0
  9
$TDUSRTIMER
 40
0.0
  9
$USRTIMER
 70
     1
  9
$ANGBASE
 50
0.0
  9
$ANGDIR
 70
     0
  9
$PDMODE
 70
     0
  9
$PDSIZE
 40
0.0
  9
$PLINEWID
 40
0.0
  9
$COORDS
 70
     2
  9
$SPLFRAME
 70
     0
  9
$SPLINETYPE
 70
     6
  9
$SPLINESEGS
 70
     8
  9
$ATTDIA
 70
     1
  9
$ATTREQ
 70
     1
  9
$HANDLING
 70
     1
  9
$HANDSEED
  5
     65E
  9
$SURFTAB1
 70
     6
  9
$SURFTAB2
 70
     6
  9
$SURFTYPE
 70
     6
  9
$SURFU
 70
     6
  9
$SURFV
 70
     6
  9
$UCSNAME
  2

  9
$UCSORG
 10
0.0
 20
0.0
 30
0.0
  9
$UCSXDIR
 10
1.0
 20
0.0
 30
0.0
  9
$UCSYDIR
 10
0.0
 20
1.0
 30
0.0
  9
$PUCSNAME
  2

  9
$PUCSORG
 10
0.0
 20
0.0
 30
0.0
  9
$PUCSXDIR
 10
1.0
 20
0.0
 30
0.0
  9
$PUCSYDIR
 10
0.0
 20
1.0
 30
0.0
  9
$USERI1
 70
     0
  9
$USERI2
 70
     0
  9
$USERI3
 70
     0
  9
$USERI4
 70
     0
  9
$USERI5
 70
     0
  9
$USERR1
 40
0.0
  9
$USERR2
 40
0.0
  9
$USERR3
 40
0.0
  9
$USERR4
 40
0.0
  9
$USERR5
 40
0.0
  9
$WORLDVIEW
 70
     1
  9
$SHADEDGE
 70
     3
  9
$SHADEDIF
 70
    70
  9
$TILEMODE
 70
     1
  9
$MAXACTVP
 70
    16
  9
$PINSBASE
 10
0.0
 20
0.0
 30
0.0
  9
$PLIMCHECK
 70
     0
  9
$PEXTMIN
 10
1.0000000000000E+20
 20
1.0000000000000E+20
 30
1.0000000000000E+20
  9
$PEXTMAX
 10
-1.0000000000000E+20
 20
-1.0000000000000E+20
 30
-1.0000000000000E+20
  9
$PLIMMIN
 10
0.0
 20
0.0
  9
$UNITMODE
 70
     0
  9
$VISRETAIN
 70
     0
  9
$MEASUREMENT
 70
     1
  0
ENDSEC
  0
SECTION
  2
TABLES
  0
TABLE
  2
VPORT
  5
4A2
100
AcDbSymbolTable
 70
     1
  0
ENDTAB
  0
TABLE
  2
STYLE
  5
4A3
100
AcDbSymbolTable
 70
     4
  0
STYLE
  5
4A4
100
AcDbSymbolTableRecord
100
AcDbTextStyleTableRecord
  2
STANDARD
 70
     0
 40
0.0
 41
1.0
 50
0.0
 71
     0
 42
3.5
  3
MONOTXT
  4

  0
STYLE
  5
4A5
100
AcDbSymbolTableRecord
100
AcDbTextStyleTableRecord
  2
SYMAP
 70
     0
 40
0.0
 41
1.0
 50
0.0
 71
     0
 42
3.5
  3
SYMAP
  4

  0
STYLE
  5
4A6
100
AcDbSymbolTableRecord
100
AcDbTextStyleTableRecord
  2
CADWORK1
 70
     0
 40
0.0
 41
1.0
 50
0.0
 71
     0
 42
3.5
  3
MONOTXT
  4

  0
STYLE
  5
4A7
100
AcDbSymbolTableRecord
100
AcDbTextStyleTableRecord
  2
MONOTXT
 70
     0
 40
0.0
 41
1.0
 50
0.0
 71
     0
 42
3.5
  3
MONOTXT
  4

  0
STYLE
  5
4A8
100
AcDbSymbolTableRecord
100
AcDbTextStyleTableRecord
  2
TAHOMA
 70
     0
 40
0.0
 41
1.0
 50
0.0
 71
     0
 42
3.5
  3

  4

1001
ACAD
1000
Tahoma
1071
        0
  0
STYLE
  5
4A9
100
AcDbSymbolTableRecord
100
AcDbTextStyleTableRecord
  2
ARIAL
 70
     0
 40
0.0
 41
1.0
 50
0.0
 71
     0
 42
3.5
  3

  4

1001
ACAD
1000
Arial
1071
        0
  0
ENDTAB
  0
TABLE
  2
LTYPE
  5
4AA
100
AcDbSymbolTable
 70
    15
  0
LTYPE
  5
4AB
100
AcDbSymbolTableRecord
100
AcDbLinetypeTableRecord
  2
BYBLOCK
 70
    64
  3

 72
    65
 73
     0
 40
0.0
  0
LTYPE
  5
4AC
100
AcDbSymbolTableRecord
100
AcDbLinetypeTableRecord
  2
BYLAYER
 70
    64
  3

 72
    65
 73
     0
 40
0.0
  0
LTYPE
  5
4AD
100
AcDbSymbolTableRecord
100
AcDbLinetypeTableRecord
  2
CONTINUOUS
 70
    64
  3
Solid line
 72
    65
 73
     0
 40
0.0
  0
LTYPE
  5
4AE
100
AcDbSymbolTableRecord
100
AcDbLinetypeTableRecord
  2
DOT2
 70
    64
  3
...............................................
 72
    65
 73
     2
 40
1.25
 49
0.0
 74
     0
 49
-1.25
 74
     0
  0
LTYPE
  5
4AF
100
AcDbSymbolTableRecord
100
AcDbLinetypeTableRecord
  2
CADWORK_13
 70
    64
  3
13 =======================================
 72
    65
 73
     2
 40
4.0
 49
2.0
 74
     0
 49
-2.0
 74
     0
  0
LTYPE
  5
4B0
100
AcDbSymbolTableRecord
100
AcDbLinetypeTableRecord
  2
DASHDOT
 70
    64
  3
 __ . __ . __ . __ . __ . __ . __ . __ . __ . __
 72
    65
 73
     4
 40
10.0
 49
5.0
 74
     0
 49
-2.5
 74
     0
 49
0.0
 74
     0
 49
-2.5
 74
     0
  0
LTYPE
  5
4B1
100
AcDbSymbolTableRecord
100
AcDbLinetypeTableRecord
  2
CENTER
 70
    64
  3
 ____ _ ____ _ ____ _ ____ _ ____ _ ____ _ ____
 72
    65
 73
     4
 40
20.0
 49
12.5
 74
     0
 49
-2.5
 74
     0
 49
2.5
 74
     0
 49
-2.5
 74
     0
  0
LTYPE
  5
4B2
100
AcDbSymbolTableRecord
100
AcDbLinetypeTableRecord
  2
DASHEDX2
 70
    64
  3
____  ____  ____  ____  ____  ____  ____  ____
 72
    65
 73
     2
 40
3.75
 49
2.5
 74
     0
 49
-1.25
 74
     0
  0
LTYPE
  5
4B3
100
AcDbSymbolTableRecord
100
AcDbLinetypeTableRecord
  2
CADWORK_22
 70
    64
  3
22 =======================================
 72
    65
 73
     0
 40
0.0
  0
LTYPE
  5
4B4
100
AcDbSymbolTableRecord
100
AcDbLinetypeTableRecord
  2
DAL
 70
    64
  3
Solid line (for MAPS)
 72
    65
 73
     0
 40
0.0
  0
LTYPE
  5
4B5
100
AcDbSymbolTableRecord
100
AcDbLinetypeTableRecord
  2
MUR
 70
    64
  3
Solid line (for MAPS)
 72
    65
 73
     0
 40
0.0
  0
LTYPE
  5
4B6
100
AcDbSymbolTableRecord
100
AcDbLinetypeTableRecord
  2
SOM
 70
    64
  3
Solid line (for MAPS)
 72
    65
 73
     0
 40
0.0
  0
LTYPE
  5
4B7
100
AcDbSymbolTableRecord
100
AcDbLinetypeTableRecord
  2
COL
 70
    64
  3
Solid line (for MAPS)
 72
    65
 73
     0
 40
0.0
  0
LTYPE
  5
4B8
100
AcDbSymbolTableRecord
100
AcDbLinetypeTableRecord
  2
LGN
 70
    64
  3
Solid line (for MAPS)
 72
    65
 73
     0
 40
0.0
  0
LTYPE
  5
4B9
100
AcDbSymbolTableRecord
100
AcDbLinetypeTableRecord
  2
PNT
 70
    64
  3
Solid line (for MAPS)
 72
    65
 73
     0
 40
0.0
  0
ENDTAB
  0
TABLE
  2
LAYER
  5
4BA
100
AcDbSymbolTable
 70
    32
  0
LAYER
  5
4BB
100
AcDbSymbolTableRecord
100
AcDbLayerTableRecord
  2
Standard
 70
     0
 62
     7
  6
CONTINUOUS
370
    -3
  0
LAYER
  5
4BC
100
AcDbSymbolTableRecord
100
AcDbLayerTableRecord
  2
Ech.1_1
 70
     0
 62
     7
  6
CONTINUOUS
370
    -3
  0
LAYER
  5
4BD
100
AcDbSymbolTableRecord
100
AcDbLayerTableRecord
  2
Ech.1_2
 70
     0
 62
     7
  6
CONTINUOUS
370
    -3
  0
LAYER
  5
4BE
100
AcDbSymbolTableRecord
100
AcDbLayerTableRecord
  2
Ech.1_5
 70
     0
 62
     7
  6
CONTINUOUS
370
    -3
  0
LAYER
  5
4BF
100
AcDbSymbolTableRecord
100
AcDbLayerTableRecord
  2
Ech.1_10
 70
     0
 62
     7
  6
CONTINUOUS
370
    -3
  0
LAYER
  5
4C0
100
AcDbSymbolTableRecord
100
AcDbLayerTableRecord
  2
Ech.1_20
 70
     0
 62
     7
  6
CONTINUOUS
370
    -3
  0
LAYER
  5
4C1
100
AcDbSymbolTableRecord
100
AcDbLayerTableRecord
  2
Ech.1_25
 70
     0
 62
     7
  6
CONTINUOUS
370
    -3
  0
LAYER
  5
4C2
100
AcDbSymbolTableRecord
100
AcDbLayerTableRecord
  2
Ech.1_33
 70
     0
 62
     7
  6
CONTINUOUS
370
    -3
  0
LAYER
  5
4C3
100
AcDbSymbolTableRecord
100
AcDbLayerTableRecord
  2
Ech.1_50
 70
     0
 62
     7
  6
CONTINUOUS
370
    -3
  0
LAYER
  5
4C4
100
AcDbSymbolTableRecord
100
AcDbLayerTableRecord
  2
Ech.1_75
 70
     0
 62
     7
  6
CONTINUOUS
370
    -3
  0
LAYER
  5
4C5
100
AcDbSymbolTableRecord
100
AcDbLayerTableRecord
  2
Ech.1_100
 70
     0
 62
     7
  6
CONTINUOUS
370
    -3
  0
LAYER
  5
4C6
100
AcDbSymbolTableRecord
100
AcDbLayerTableRecord
  2
Ech.1_200
 70
     0
 62
     7
  6
CONTINUOUS
370
    -3
  0
LAYER
  5
4C7
100
AcDbSymbolTableRecord
100
AcDbLayerTableRecord
  2
Ech.1_500
 70
     0
 62
     7
  6
CONTINUOUS
370
    -3
  0
LAYER
  5
4C8
100
AcDbSymbolTableRecord
100
AcDbLayerTableRecord
  2
Ech.1_1000
 70
     0
 62
     7
  6
CONTINUOUS
370
    -3
  0
LAYER
  5
4C9
100
AcDbSymbolTableRecord
100
AcDbLayerTableRecord
  2
Cadres traceur
 70
     0
 62
     7
  6
CONTINUOUS
370
    18
  0
LAYER
  5
4CA
100
AcDbSymbolTableRecord
100
AcDbLayerTableRecord
  2
Cadres laser
 70
     0
 62
     7
  6
CONTINUOUS
370
    18
  0
LAYER
  5
4CB
100
AcDbSymbolTableRecord
100
AcDbLayerTableRecord
  2
Légende d_aide
 70
     0
 62
     7
  6
CONTINUOUS
370
    18
  0
LAYER
  5
4CC
100
AcDbSymbolTableRecord
100
AcDbLayerTableRecord
  2
hachures ok
 70
     0
 62
     7
  6
CONTINUOUS
370
    18
  0
LAYER
  5
4CD
100
AcDbSymbolTableRecord
100
AcDbLayerTableRecord
  2
ossature bois
 70
     0
 62
     7
  6
CONTINUOUS
370
    18
  0
LAYER
  5
4CE
100
AcDbSymbolTableRecord
100
AcDbLayerTableRecord
  2
VR
 70
     0
 62
     7
  6
CONTINUOUS
370
    25
  0
LAYER
  5
4CF
100
AcDbSymbolTableRecord
100
AcDbLayerTableRecord
  2
Calque1
 70
     0
 62
     7
  6
CONTINUOUS
370
     9
  0
LAYER
  5
4D0
100
AcDbSymbolTableRecord
100
AcDbLayerTableRecord
  2
0
 70
     0
 62
     7
  6
CONTINUOUS
370
    -3
  0
LAYER
  5
4D1
100
AcDbSymbolTableRecord
100
AcDbLayerTableRecord
  2
menuiserie
 70
     0
 62
     7
  6
CONTINUOUS
370
    -3
  0
LAYER
  5
4D2
100
AcDbSymbolTableRecord
100
AcDbLayerTableRecord
  2
cotation
 70
     0
 62
   250
  6
CONTINUOUS
370
     9
  0
LAYER
  5
4D3
100
AcDbSymbolTableRecord
100
AcDbLayerTableRecord
  2
Defpoints
 70
     0
 62
    10
  6
CONTINUOUS
370
    -3
  0
LAYER
  5
4D4
100
AcDbSymbolTableRecord
100
AcDbLayerTableRecord
  2
HACHURE
 70
     0
 62
   254
  6
CONTINUOUS
370
    25
  0
LAYER
  5
4D5
100
AcDbSymbolTableRecord
100
AcDbLayerTableRecord
  2
mat1
 70
     0
 62
     7
  6
CONTINUOUS
370
    30
  0
LAYER
  5
4D6
100
AcDbSymbolTableRecord
100
AcDbLayerTableRecord
  2
mat2
 70
     0
 62
     7
  6
CONTINUOUS
370
     5
  0
LAYER
  5
4D7
100
AcDbSymbolTableRecord
100
AcDbLayerTableRecord
  2
hach
 70
     0
 62
     8
  6
CONTINUOUS
370
     5
  0
LAYER
  5
4D8
100
AcDbSymbolTableRecord
100
AcDbLayerTableRecord
  2
menuiseries
 70
     0
 62
     7
  6
CONTINUOUS
370
     9
  0
LAYER
  5
4D9
100
AcDbSymbolTableRecord
100
AcDbLayerTableRecord
  2
BétonMétal
 70
     0
 62
     7
  6
CONTINUOUS
370
    80
  0
LAYER
  5
4DA
100
AcDbSymbolTableRecord
100
AcDbLayerTableRecord
  2
bois
 70
     0
 62
     7
  6
CONTINUOUS
370
    60
  0
ENDTAB
  0
TABLE
  2
VIEW
  5
4DB
100
AcDbSymbolTable
 70
     0
  0
ENDTAB
  0
TABLE
  2
UCS
  5
4DC
100
AcDbSymbolTable
 70
     0
  0
ENDTAB
  0
TABLE
  2
APPID
  5
4DD
100
AcDbSymbolTable
 70
     1
  0
APPID
  5
4DE
100
AcDbSymbolTableRecord
100
AcDbRegAppTableRecord
  2
ACAD
 70
     0
  0
ENDTAB
  0
TABLE
  2
DIMSTYLE
  5
4DF
100
AcDbSymbolTable
 70
     0
  0
ENDTAB
  0
TABLE
  2
BLOCK_RECORD
  5
4E0
100
AcDbSymbolTable
 70
     0
  0
BLOCK_RECORD
  5
4E1
100
AcDbSymbolTableRecord
100
AcDbBlockTableRecord
  2
*MODEL_SPACE
  0
BLOCK_RECORD
  5
4E2
100
AcDbSymbolTableRecord
100
AcDbBlockTableRecord
  2
*PAPER_SPACE
  0
BLOCK_RECORD
  5
4E3
100
AcDbSymbolTableRecord
100
AcDbBlockTableRecord
  2
CDWK_EXTR_0
  0
BLOCK_RECORD
  5
4E4
100
AcDbSymbolTableRecord
100
AcDbBlockTableRecord
  2
CDWK_EXTR_1D
  0
BLOCK_RECORD
  5
4E5
100
AcDbSymbolTableRecord
100
AcDbBlockTableRecord
  2
CDWK_EXTR_1G
  0
BLOCK_RECORD
  5
4E6
100
AcDbSymbolTableRecord
100
AcDbBlockTableRecord
  2
CDWK_EXTR_2
  0
BLOCK_RECORD
  5
4E7
100
AcDbSymbolTableRecord
100
AcDbBlockTableRecord
  2
CDWK_EXTR_3
  0
BLOCK_RECORD
  5
4E8
100
AcDbSymbolTableRecord
100
AcDbBlockTableRecord
  2
CDWK_EXTR_4
  0
BLOCK_RECORD
  5
4E9
100
AcDbSymbolTableRecord
100
AcDbBlockTableRecord
  2
CDWK_PTTYP0
  0
BLOCK_RECORD
  5
4EA
100
AcDbSymbolTableRecord
100
AcDbBlockTableRecord
  2
CDWK_PTTYP1
  0
BLOCK_RECORD
  5
4EB
100
AcDbSymbolTableRecord
100
AcDbBlockTableRecord
  2
CDWK_PTTYP2
  0
BLOCK_RECORD
  5
4EC
100
AcDbSymbolTableRecord
100
AcDbBlockTableRecord
  2
CDWK_PTTYP3
  0
BLOCK_RECORD
  5
4ED
100
AcDbSymbolTableRecord
100
AcDbBlockTableRecord
  2
CDWK_PTTYP4
  0
BLOCK_RECORD
  5
4EE
100
AcDbSymbolTableRecord
100
AcDbBlockTableRecord
  2
CDWK_PTTYP5
  0
BLOCK_RECORD
  5
4EF
100
AcDbSymbolTableRecord
100
AcDbBlockTableRecord
  2
CDWK_PTTYP6
  0
BLOCK_RECORD
  5
4F0
100
AcDbSymbolTableRecord
100
AcDbBlockTableRecord
  2
CDWK_PTTYP7
  0
BLOCK_RECORD
  5
4F1
100
AcDbSymbolTableRecord
100
AcDbBlockTableRecord
  2
CDWK_PTTYP8
  0
BLOCK_RECORD
  5
4F2
100
AcDbSymbolTableRecord
100
AcDbBlockTableRecord
  2
CDWK_PTTYP9
  0
BLOCK_RECORD
  5
4F3
100
AcDbSymbolTableRecord
100
AcDbBlockTableRecord
  2
CDWK_PTTYP10
  0
BLOCK_RECORD
  5
4F4
100
AcDbSymbolTableRecord
100
AcDbBlockTableRecord
  2
CDWK_PTTYP11
  0
BLOCK_RECORD
  5
4F5
100
AcDbSymbolTableRecord
100
AcDbBlockTableRecord
  2
CDWK_PTTYP12
  0
BLOCK_RECORD
  5
4F6
100
AcDbSymbolTableRecord
100
AcDbBlockTableRecord
  2
CDWK_PTTYP13
  0
BLOCK_RECORD
  5
4F7
100
AcDbSymbolTableRecord
100
AcDbBlockTableRecord
  2
CDWK_PTTYP14
  0
BLOCK_RECORD
  5
4F8
100
AcDbSymbolTableRecord
100
AcDbBlockTableRecord
  2
CDWK_PTTYP15
  0
BLOCK_RECORD
  5
4F9
100
AcDbSymbolTableRecord
100
AcDbBlockTableRecord
  2
CDWK_PTTYP16
  0
BLOCK_RECORD
  5
4FA
100
AcDbSymbolTableRecord
100
AcDbBlockTableRecord
  2
CDWK_PTTYP17
  0
BLOCK_RECORD
  5
4FB
100
AcDbSymbolTableRecord
100
AcDbBlockTableRecord
  2
CDWK_PTTYP18
  0
BLOCK_RECORD
  5
4FC
100
AcDbSymbolTableRecord
100
AcDbBlockTableRecord
  2
CDWK_PTTYP19
  0
BLOCK_RECORD
  5
4FD
100
AcDbSymbolTableRecord
100
AcDbBlockTableRecord
  2
CDWK_PTTYP20
  0
BLOCK_RECORD
  5
4FE
100
AcDbSymbolTableRecord
100
AcDbBlockTableRecord
  2
CDWK_PTTYP21
  0
BLOCK_RECORD
  5
4FF
100
AcDbSymbolTableRecord
100
AcDbBlockTableRecord
  2
CDWK_PTTYP22
  0
BLOCK_RECORD
  5
500
100
AcDbSymbolTableRecord
100
AcDbBlockTableRecord
  2
CDWK_PTTYP23
  0
BLOCK_RECORD
  5
501
100
AcDbSymbolTableRecord
100
AcDbBlockTableRecord
  2
CDWK_PTTYP24
  0
BLOCK_RECORD
  5
502
100
AcDbSymbolTableRecord
100
AcDbBlockTableRecord
  2
CDWK_PTTYP25
  0
BLOCK_RECORD
  5
503
100
AcDbSymbolTableRecord
100
AcDbBlockTableRecord
  2
CDWK_PTTYP26
  0
BLOCK_RECORD
  5
504
100
AcDbSymbolTableRecord
100
AcDbBlockTableRecord
  2
CDWK_PTTYP27
  0
BLOCK_RECORD
  5
505
100
AcDbSymbolTableRecord
100
AcDbBlockTableRecord
  2
CDWK_PTTYP28
  0
BLOCK_RECORD
  5
506
100
AcDbSymbolTableRecord
100
AcDbBlockTableRecord
  2
CDWK_PTTYP29
  0
BLOCK_RECORD
  5
507
100
AcDbSymbolTableRecord
100
AcDbBlockTableRecord
  2
CDWK_PTTYP30
  0
BLOCK_RECORD
  5
508
100
AcDbSymbolTableRecord
100
AcDbBlockTableRecord
  2
CDWK_PTTYP31
  0
BLOCK_RECORD
  5
509
100
AcDbSymbolTableRecord
100
AcDbBlockTableRecord
  2
CDWK_PTTYP32
  0
BLOCK_RECORD
  5
50A
100
AcDbSymbolTableRecord
100
AcDbBlockTableRecord
  2
CDWK_PTTYP33
  0
BLOCK_RECORD
  5
50B
100
AcDbSymbolTableRecord
100
AcDbBlockTableRecord
  2
CDWK_PTTYP34
  0
BLOCK_RECORD
  5
50C
100
AcDbSymbolTableRecord
100
AcDbBlockTableRecord
  2
CDWK_PTTYP35
  0
BLOCK_RECORD
  5
50D
100
AcDbSymbolTableRecord
100
AcDbBlockTableRecord
  2
CDWK_PTTYP36
  0
BLOCK_RECORD
  5
50E
100
AcDbSymbolTableRecord
100
AcDbBlockTableRecord
  2
CDWK_PTTYP37
  0
BLOCK_RECORD
  5
50F
100
AcDbSymbolTableRecord
100
AcDbBlockTableRecord
  2
CDWK_PTTYP38
  0
BLOCK_RECORD
  5
510
100
AcDbSymbolTableRecord
100
AcDbBlockTableRecord
  2
*X1
  0
BLOCK_RECORD
  5
511
100
AcDbSymbolTableRecord
100
AcDbBlockTableRecord
  2
*X2
  0
ENDTAB
  0
ENDSEC
  0
SECTION
  2
BLOCKS
  0
BLOCK
  5
512
100
AcDbEntity
  8
0
100
AcDbBlockBegin
  2
*MODEL_SPACE
 70
     0
 10
0.0
 20
0.0
 30
0.0
  3
*MODEL_SPACE
  1

  0
ENDBLK
  5
513
100
AcDbEntity
100
AcDbBlockEnd
  0
BLOCK
  5
514
100
AcDbEntity
  8
0
100
AcDbBlockBegin
  2
*PAPER_SPACE
 70
     0
 10
0.0
 20
0.0
 30
0.0
  3
*PAPER_SPACE
  1

  0
ENDBLK
  5
515
100
AcDbEntity
100
AcDbBlockEnd
  0
BLOCK
  5
516
100
AcDbEntity
  8
0
100
AcDbBlockBegin
  2
CDWK_EXTR_0
 70
     0
 10
0.0
 20
0.0
 30
0.0
  3
CDWK_EXTR_0
  1

  4
Cadwork line-extremity
  0
LINE
  5
517
100
AcDbEntity
  8
0
 62
     0
370
    -2
100
AcDbLine
 10
0.0
 20
0.0
 30
0.0
 11
2.0
 21
0.5
 31
0.0
  0
LINE
  5
518
100
AcDbEntity
  8
0
 62
     0
370
    -2
100
AcDbLine
 10
0.0
 20
0.0
 30
0.0
 11
2.0
 21
-0.5
 31
0.0
  0
LINE
  5
519
100
AcDbEntity
  8
0
 62
     0
370
    -2
100
AcDbLine
 10
2.0
 20
0.5
 30
0.0
 11
2.0
 21
-0.5
 31
0.0
  0
ENDBLK
  5
51A
100
AcDbEntity
100
AcDbBlockEnd
  0
BLOCK
  5
51B
100
AcDbEntity
  8
0
100
AcDbBlockBegin
  2
CDWK_EXTR_1D
 70
     0
 10
0.0
 20
0.0
 30
0.0
  3
CDWK_EXTR_1D
  1

  4
Cadwork line-extremity
  0
LINE
  5
51C
100
AcDbEntity
  8
0
 62
     0
370
    -2
100
AcDbLine
 10
0.0
 20
0.0
 30
0.0
 11
0.0
 21
1.0
 31
0.0
  0
LINE
  5
51D
100
AcDbEntity
  8
0
 62
     0
370
    -2
100
AcDbLine
 10
0.0
 20
1.0
 30
0.0
 11
0.5
 21
1.5
 31
0.0
  0
LINE
  5
51E
100
AcDbEntity
  8
0
 62
     0
370
    -2
100
AcDbLine
 10
0.5
 20
1.5
 30
0.0
 11
1.5
 21
1.5
 31
0.0
  0
ENDBLK
  5
51F
100
AcDbEntity
100
AcDbBlockEnd
  0
BLOCK
  5
520
100
AcDbEntity
  8
0
100
AcDbBlockBegin
  2
CDWK_EXTR_1G
 70
     0
 10
0.0
 20
0.0
 30
0.0
  3
CDWK_EXTR_1G
  1

  4
Cadwork line-extremity
  0
LINE
  5
521
100
AcDbEntity
  8
0
 62
     0
370
    -2
100
AcDbLine
 10
0.0
 20
0.0
 30
0.0
 11
0.0
 21
-1.0
 31
0.0
  0
LINE
  5
522
100
AcDbEntity
  8
0
 62
     0
370
    -2
100
AcDbLine
 10
0.0
 20
-1.0
 30
0.0
 11
0.5
 21
-1.5
 31
0.0
  0
LINE
  5
523
100
AcDbEntity
  8
0
 62
     0
370
    -2
100
AcDbLine
 10
0.5
 20
-1.5
 30
0.0
 11
1.5
 21
-1.5
 31
0.0
  0
ENDBLK
  5
524
100
AcDbEntity
100
AcDbBlockEnd
  0
BLOCK
  5
525
100
AcDbEntity
  8
0
100
AcDbBlockBegin
  2
CDWK_EXTR_2
 70
     0
 10
0.0
 20
0.0
 30
0.0
  3
CDWK_EXTR_2
  1

  4
Cadwork line-extremity
  0
SOLID
  5
526
100
AcDbEntity
  8
0
 62
     0
100
AcDbTrace
 10
0.0
 20
0.0
 11
2.0
 21
0.5
 12
2.0
 22
-0.5
 13
2.0
 23
-0.5
  0
ENDBLK
  5
527
100
AcDbEntity
100
AcDbBlockEnd
  0
BLOCK
  5
528
100
AcDbEntity
  8
0
100
AcDbBlockBegin
  2
CDWK_EXTR_3
 70
     0
 10
0.0
 20
0.0
 30
0.0
  3
CDWK_EXTR_3
  1

  4
Cadwork line-extremity
  0
SOLID
  5
529
100
AcDbEntity
  8
0
 62
     0
100
AcDbTrace
 10
0.0
 20
0.0
 11
2.0
 21
0.5
 12
2.0
 22
-0.5
 13
2.0
 23
-0.5
  0
LINE
  5
52A
100
AcDbEntity
  8
0
 62
     0
370
    -2
100
AcDbLine
 10
0.0
 20
1.0
 30
0.0
 11
0.0
 21
-1.0
 31
0.0
  0
ENDBLK
  5
52B
100
AcDbEntity
100
AcDbBlockEnd
  0
BLOCK
  5
52C
100
AcDbEntity
  8
0
100
AcDbBlockBegin
  2
CDWK_EXTR_4
 70
     0
 10
0.0
 20
0.0
 30
0.0
  3
CDWK_EXTR_4
  1

  4
Cadwork line-extremity
  0
HATCH
  5
52D
100
AcDbEntity
  8
0
 62
     0
370
    -2
100
AcDbHatch
 10
0.0
 20
0.0
 30
0.0
210
0.0
220
0.0
230
1.0
  2
SOLID
 70
     1
 71
     0
 91
        1
 92
        1
 93
        1
 72
     2
 10
0.0
 20
0.0
 40
0.5
 50
0.0
 51
360.0
 73
     1
 97
        0
 75
     0
 76
     1
 98
        1
 10
0.0
 20
0.0
  0
ENDBLK
  5
52E
100
AcDbEntity
100
AcDbBlockEnd
  0
BLOCK
  5
52F
100
AcDbEntity
  8
0
100
AcDbBlockBegin
  2
CDWK_PTTYP0
 70
     0
 10
0.0
 20
0.0
 30
0.0
  3
CDWK_PTTYP0
  1

  4
Cadwork point
  0
POINT
  5
530
100
AcDbEntity
  8
0
 62
     0
100
AcDbPoint
 10
0.0
 20
0.0
 30
0.0
  0
ENDBLK
  5
531
100
AcDbEntity
100
AcDbBlockEnd
  0
BLOCK
  5
532
100
AcDbEntity
  8
0
100
AcDbBlockBegin
  2
CDWK_PTTYP1
 70
     0
 10
0.0
 20
0.0
 30
0.0
  3
CDWK_PTTYP1
  1

  4
Cadwork node
  0
LINE
  5
533
100
AcDbEntity
  8
0
 62
     0
370
    -2
100
AcDbLine
 10
-0.5
 20
0.5
 30
0.0
 11
0.5
 21
0.5
 31
0.0
  0
LINE
  5
534
100
AcDbEntity
  8
0
 62
     0
370
    -2
100
AcDbLine
 10
0.5
 20
0.5
 30
0.0
 11
0.5
 21
-0.5
 31
0.0
  0
LINE
  5
535
100
AcDbEntity
  8
0
 62
     0
370
    -2
100
AcDbLine
 10
0.5
 20
-0.5
 30
0.0
 11
-0.5
 21
-0.5
 31
0.0
  0
LINE
  5
536
100
AcDbEntity
  8
0
 62
     0
370
    -2
100
AcDbLine
 10
-0.5
 20
-0.5
 30
0.0
 11
-0.5
 21
0.5
 31
0.0
  0
ENDBLK
  5
537
100
AcDbEntity
100
AcDbBlockEnd
  0
BLOCK
  5
538
100
AcDbEntity
  8
0
100
AcDbBlockBegin
  2
CDWK_PTTYP2
 70
     0
 10
0.0
 20
0.0
 30
0.0
  3
CDWK_PTTYP2
  1

  4
Cadwork node
  0
LINE
  5
539
100
AcDbEntity
  8
0
 62
     0
370
    -2
100
AcDbLine
 10
0.0
 20
0.5
 30
0.0
 11
0.0
 21
-0.5
 31
0.0
  0
LINE
  5
53A
100
AcDbEntity
  8
0
 62
     0
370
    -2
100
AcDbLine
 10
-0.5
 20
0.0
 30
0.0
 11
0.5
 21
0.0
 31
0.0
  0
ENDBLK
  5
53B
100
AcDbEntity
100
AcDbBlockEnd
  0
BLOCK
  5
53C
100
AcDbEntity
  8
0
100
AcDbBlockBegin
  2
CDWK_PTTYP3
 70
     0
 10
0.0
 20
0.0
 30
0.0
  3
CDWK_PTTYP3
  1

  4
Cadwork node
  0
CIRCLE
  5
53D
100
AcDbEntity
  8
0
 62
     0
370
    -2
100
AcDbCircle
 10
0.0
 20
0.0
 30
0.0
 40
0.5
  0
ENDBLK
  5
53E
100
AcDbEntity
100
AcDbBlockEnd
  0
BLOCK
  5
53F
100
AcDbEntity
  8
0
100
AcDbBlockBegin
  2
CDWK_PTTYP4
 70
     0
 10
0.0
 20
0.0
 30
0.0
  3
CDWK_PTTYP4
  1

  4
Cadwork node
  0
HATCH
  5
540
100
AcDbEntity
  8
0
 62
     0
370
    -2
100
AcDbHatch
 10
0.0
 20
0.0
 30
0.0
210
0.0
220
0.0
230
1.0
  2
SOLID
 70
     1
 71
     0
 91
        1
 92
        1
 93
        1
 72
     2
 10
0.0
 20
0.0
 40
0.5
 50
0.0
 51
360.0
 73
     1
 97
        0
 75
     0
 76
     1
 98
        1
 10
0.0
 20
0.0
  0
ENDBLK
  5
541
100
AcDbEntity
100
AcDbBlockEnd
  0
BLOCK
  5
542
100
AcDbEntity
  8
0
100
AcDbBlockBegin
  2
CDWK_PTTYP5
 70
     0
 10
0.0
 20
0.0
 30
0.0
  3
CDWK_PTTYP5
  1

  4
Cadwork node
  0
LINE
  5
543
100
AcDbEntity
  8
0
 62
     0
370
    -2
100
AcDbLine
 10
-0.5
 20
0.5
 30
0.0
 11
0.5
 21
0.5
 31
0.0
  0
LINE
  5
544
100
AcDbEntity
  8
0
 62
     0
370
    -2
100
AcDbLine
 10
0.5
 20
0.5
 30
0.0
 11
0.5
 21
-0.5
 31
0.0
  0
LINE
  5
545
100
AcDbEntity
  8
0
 62
     0
370
    -2
100
AcDbLine
 10
0.5
 20
-0.5
 30
0.0
 11
-0.5
 21
-0.5
 31
0.0
  0
LINE
  5
546
100
AcDbEntity
  8
0
 62
     0
370
    -2
100
AcDbLine
 10
-0.5
 20
-0.5
 30
0.0
 11
-0.5
 21
0.5
 31
0.0
  0
SOLID
  5
547
100
AcDbEntity
  8
0
 62
     0
100
AcDbTrace
 10
-0.5
 20
-0.5
 11
-0.5
 21
0.0
 12
0.0
 22
-0.5
 13
0.0
 23
0.0
  0
SOLID
  5
548
100
AcDbEntity
  8
0
 62
     0
100
AcDbTrace
 10
0.0
 20
0.0
 11
0.0
 21
0.5
 12
0.5
 22
0.0
 13
0.5
 23
0.5
  0
ENDBLK
  5
549
100
AcDbEntity
100
AcDbBlockEnd
  0
BLOCK
  5
54A
100
AcDbEntity
  8
0
100
AcDbBlockBegin
  2
CDWK_PTTYP6
 70
     0
 10
0.0
 20
0.0
 30
0.0
  3
CDWK_PTTYP6
  1

  4
Cadwork node
  0
LINE
  5
54B
100
AcDbEntity
  8
0
 62
     0
370
    -2
100
AcDbLine
 10
-0.5
 20
0.5
 30
0.0
 11
0.5
 21
0.5
 31
0.0
  0
LINE
  5
54C
100
AcDbEntity
  8
0
 62
     0
370
    -2
100
AcDbLine
 10
0.5
 20
0.5
 30
0.0
 11
0.5
 21
-0.5
 31
0.0
  0
LINE
  5
54D
100
AcDbEntity
  8
0
 62
     0
370
    -2
100
AcDbLine
 10
0.5
 20
-0.5
 30
0.0
 11
-0.5
 21
-0.5
 31
0.0
  0
LINE
  5
54E
100
AcDbEntity
  8
0
 62
     0
370
    -2
100
AcDbLine
 10
-0.5
 20
-0.5
 30
0.0
 11
-0.5
 21
0.5
 31
0.0
  0
SOLID
  5
54F
100
AcDbEntity
  8
0
 62
     0
100
AcDbTrace
 10
-0.5
 20
-0.5
 11
-0.5
 21
0.5
 12
0.5
 22
0.5
 13
0.5
 23
0.5
  0
ENDBLK
  5
550
100
AcDbEntity
100
AcDbBlockEnd
  0
BLOCK
  5
551
100
AcDbEntity
  8
0
100
AcDbBlockBegin
  2
CDWK_PTTYP7
 70
     0
 10
0.0
 20
0.0
 30
0.0
  3
CDWK_PTTYP7
  1

  4
Cadwork node
  0
LINE
  5
552
100
AcDbEntity
  8
0
 62
     0
370
    -2
100
AcDbLine
 10
-0.5
 20
0.5
 30
0.0
 11
0.5
 21
0.5
 31
0.0
  0
LINE
  5
553
100
AcDbEntity
  8
0
 62
     0
370
    -2
100
AcDbLine
 10
0.5
 20
0.5
 30
0.0
 11
0.5
 21
-0.5
 31
0.0
  0
LINE
  5
554
100
AcDbEntity
  8
0
 62
     0
370
    -2
100
AcDbLine
 10
0.5
 20
-0.5
 30
0.0
 11
-0.5
 21
-0.5
 31
0.0
  0
LINE
  5
555
100
AcDbEntity
  8
0
 62
     0
370
    -2
100
AcDbLine
 10
-0.5
 20
-0.5
 30
0.0
 11
-0.5
 21
0.5
 31
0.0
  0
LINE
  5
556
100
AcDbEntity
  8
0
 62
     0
370
    -2
100
AcDbLine
 10
0.0
 20
0.5
 30
0.0
 11
0.0
 21
-0.5
 31
0.0
  0
LINE
  5
557
100
AcDbEntity
  8
0
 62
     0
370
    -2
100
AcDbLine
 10
-0.5
 20
0.0
 30
0.0
 11
0.5
 21
0.0
 31
0.0
  0
ENDBLK
  5
558
100
AcDbEntity
100
AcDbBlockEnd
  0
BLOCK
  5
559
100
AcDbEntity
  8
0
100
AcDbBlockBegin
  2
CDWK_PTTYP8
 70
     0
 10
0.0
 20
0.0
 30
0.0
  3
CDWK_PTTYP8
  1

  4
Cadwork node
  0
SOLID
  5
55A
100
AcDbEntity
  8
0
 62
     0
100
AcDbTrace
 10
-0.5
 20
0.5
 11
0.5
 21
0.5
 12
-0.5
 22
-0.5
 13
0.5
 23
-0.5
  0
ENDBLK
  5
55B
100
AcDbEntity
100
AcDbBlockEnd
  0
BLOCK
  5
55C
100
AcDbEntity
  8
0
100
AcDbBlockBegin
  2
CDWK_PTTYP9
 70
     0
 10
0.0
 20
0.0
 30
0.0
  3
CDWK_PTTYP9
  1

  4
Cadwork node
  0
CIRCLE
  5
55D
100
AcDbEntity
  8
0
 62
     0
370
    -2
100
AcDbCircle
 10
0.0
 20
0.0
 30
0.0
 40
0.5
  0
CIRCLE
  5
55E
100
AcDbEntity
  8
0
 62
     0
370
    -2
100
AcDbCircle
 10
0.0
 20
0.0
 30
0.0
 40
0.16666667
  0
ENDBLK
  5
55F
100
AcDbEntity
100
AcDbBlockEnd
  0
BLOCK
  5
560
100
AcDbEntity
  8
0
100
AcDbBlockBegin
  2
CDWK_PTTYP10
 70
     0
 10
0.0
 20
0.0
 30
0.0
  3
CDWK_PTTYP10
  1

  4
Cadwork node
  0
CIRCLE
  5
561
100
AcDbEntity
  8
0
 62
     0
370
    -2
100
AcDbCircle
 10
0.0
 20
0.0
 30
0.0
 40
0.5
  0
ENDBLK
  5
562
100
AcDbEntity
100
AcDbBlockEnd
  0
BLOCK
  5
563
100
AcDbEntity
  8
0
100
AcDbBlockBegin
  2
CDWK_PTTYP11
 70
     0
 10
0.0
 20
0.0
 30
0.0
  3
CDWK_PTTYP11
  1

  4
Cadwork node
  0
CIRCLE
  5
564
100
AcDbEntity
  8
0
 62
     0
370
    -2
100
AcDbCircle
 10
0.0
 20
0.0
 30
0.0
 40
0.5
  0
CIRCLE
  5
565
100
AcDbEntity
  8
0
 62
     0
370
    -2
100
AcDbCircle
 10
0.0
 20
0.0
 30
0.0
 40
0.25
  0
ENDBLK
  5
566
100
AcDbEntity
100
AcDbBlockEnd
  0
BLOCK
  5
567
100
AcDbEntity
  8
0
100
AcDbBlockBegin
  2
CDWK_PTTYP12
 70
     0
 10
0.0
 20
0.0
 30
0.0
  3
CDWK_PTTYP12
  1

  4
Cadwork node
  0
CIRCLE
  5
568
100
AcDbEntity
  8
0
 62
     0
370
    -2
100
AcDbCircle
 10
0.0
 20
0.0
 30
0.0
 40
0.5
  0
CIRCLE
  5
569
100
AcDbEntity
  8
0
 62
     0
370
    -2
100
AcDbCircle
 10
0.25
 20
0.0
 30
0.0
 40
0.25
  0
ENDBLK
  5
56A
100
AcDbEntity
100
AcDbBlockEnd
  0
BLOCK
  5
56B
100
AcDbEntity
  8
0
100
AcDbBlockBegin
  2
CDWK_PTTYP13
 70
     0
 10
0.0
 20
0.0
 30
0.0
  3
CDWK_PTTYP13
  1

  4
Cadwork node
  0
CIRCLE
  5
56C
100
AcDbEntity
  8
0
 62
     0
370
    -2
100
AcDbCircle
 10
0.0
 20
0.0
 30
0.0
 40
0.5
  0
CIRCLE
  5
56D
100
AcDbEntity
  8
0
 62
     0
370
    -2
100
AcDbCircle
 10
0.25
 20
0.0
 30
0.0
 40
0.25
  0
CIRCLE
  5
56E
100
AcDbEntity
  8
0
 62
     0
370
    -2
100
AcDbCircle
 10
-0.25
 20
0.0
 30
0.0
 40
0.25
  0
ENDBLK
  5
56F
100
AcDbEntity
100
AcDbBlockEnd
  0
BLOCK
  5
570
100
AcDbEntity
  8
0
100
AcDbBlockBegin
  2
CDWK_PTTYP14
 70
     0
 10
0.0
 20
0.0
 30
0.0
  3
CDWK_PTTYP14
  1

  4
Cadwork node
  0
POINT
  5
571
100
AcDbEntity
  8
0
 62
     0
100
AcDbPoint
 10
0.0
 20
0.0
 30
0.0
  0
ENDBLK
  5
572
100
AcDbEntity
100
AcDbBlockEnd
  0
BLOCK
  5
573
100
AcDbEntity
  8
0
100
AcDbBlockBegin
  2
CDWK_PTTYP15
 70
     0
 10
0.0
 20
0.0
 30
0.0
  3
CDWK_PTTYP15
  1

  4
Cadwork node
  0
POINT
  5
574
100
AcDbEntity
  8
0
 62
     0
100
AcDbPoint
 10
0.0
 20
0.0
 30
0.0
  0
ENDBLK
  5
575
100
AcDbEntity
100
AcDbBlockEnd
  0
BLOCK
  5
576
100
AcDbEntity
  8
0
100
AcDbBlockBegin
  2
CDWK_PTTYP16
 70
     0
 10
0.0
 20
0.0
 30
0.0
  3
CDWK_PTTYP16
  1

  4
Cadwork node
  0
LINE
  5
577
100
AcDbEntity
  8
0
 62
     0
370
    -2
100
AcDbLine
 10
-0.5
 20
-0.28867513
 30
0.0
 11
0.5
 21
-0.28867513
 31
0.0
  0
LINE
  5
578
100
AcDbEntity
  8
0
 62
     0
370
    -2
100
AcDbLine
 10
0.5
 20
-0.28867513
 30
0.0
 11
0.0
 21
0.57735027
 31
0.0
  0
LINE
  5
579
100
AcDbEntity
  8
0
 62
     0
370
    -2
100
AcDbLine
 10
0.0
 20
0.57735027
 30
0.0
 11
-0.5
 21
-0.28867513
 31
0.0
  0
CIRCLE
  5
57A
100
AcDbEntity
  8
0
 62
     0
370
    -2
100
AcDbCircle
 10
0.0
 20
0.0
 30
0.0
 40
0.28867513
  0
ENDBLK
  5
57B
100
AcDbEntity
100
AcDbBlockEnd
  0
BLOCK
  5
57C
100
AcDbEntity
  8
0
100
AcDbBlockBegin
  2
CDWK_PTTYP17
 70
     0
 10
0.0
 20
0.0
 30
0.0
  3
CDWK_PTTYP17
  1

  4
Cadwork node
  0
CIRCLE
  5
57D
100
AcDbEntity
  8
0
 62
     0
370
    -2
100
AcDbCircle
 10
0.0
 20
0.0
 30
0.0
 40
0.5
  0
HATCH
  5
57E
100
AcDbEntity
  8
0
 62
     0
370
    -2
100
AcDbHatch
 10
0.0
 20
0.0
 30
0.0
210
0.0
220
0.0
230
1.0
  2
SOLID
 70
     1
 71
     0
 91
        1
 92
        1
 93
        1
 72
     2
 10
0.0
 20
0.0
 40
0.25
 50
0.0
 51
360.0
 73
     1
 97
        0
 75
     0
 76
     1
 98
        1
 10
0.0
 20
0.0
  0
ENDBLK
  5
57F
100
AcDbEntity
100
AcDbBlockEnd
  0
BLOCK
  5
580
100
AcDbEntity
  8
0
100
AcDbBlockBegin
  2
CDWK_PTTYP18
 70
     0
 10
0.0
 20
0.0
 30
0.0
  3
CDWK_PTTYP18
  1

  4
Cadwork node
  0
CIRCLE
  5
581
100
AcDbEntity
  8
0
 62
     0
370
    -2
100
AcDbCircle
 10
0.0
 20
0.0
 30
0.0
 40
0.5
  0
CIRCLE
  5
582
100
AcDbEntity
  8
0
 62
     0
370
    -2
100
AcDbCircle
 10
0.0
 20
0.0
 30
0.0
 40
0.2
  0
ENDBLK
  5
583
100
AcDbEntity
100
AcDbBlockEnd
  0
BLOCK
  5
584
100
AcDbEntity
  8
0
100
AcDbBlockBegin
  2
CDWK_PTTYP19
 70
     0
 10
0.0
 20
0.0
 30
0.0
  3
CDWK_PTTYP19
  1

  4
Cadwork node
  0
CIRCLE
  5
585
100
AcDbEntity
  8
0
 62
     0
370
    -2
100
AcDbCircle
 10
0.0
 20
0.0
 30
0.0
 40
0.4
  0
CIRCLE
  5
586
100
AcDbEntity
  8
0
 62
     0
370
    -2
100
AcDbCircle
 10
0.0
 20
0.0
 30
0.0
 40
0.25
  0
LINE
  5
587
100
AcDbEntity
  8
0
 62
     0
370
    -2
100
AcDbLine
 10
-0.25
 20
0.0
 30
0.0
 11
0.25
 21
0.0
 31
0.0
  0
ENDBLK
  5
588
100
AcDbEntity
100
AcDbBlockEnd
  0
BLOCK
  5
589
100
AcDbEntity
  8
0
100
AcDbBlockBegin
  2
CDWK_PTTYP20
 70
     0
 10
0.0
 20
0.0
 30
0.0
  3
CDWK_PTTYP20
  1

  4
Cadwork node
  0
CIRCLE
  5
58A
100
AcDbEntity
  8
0
 62
     0
370
    -2
100
AcDbCircle
 10
0.0
 20
0.0
 30
0.0
 40
0.5
  0
CIRCLE
  5
58B
100
AcDbEntity
  8
0
 62
     0
370
    -2
100
AcDbCircle
 10
0.0
 20
0.0
 30
0.0
 40
0.3
  0
ENDBLK
  5
58C
100
AcDbEntity
100
AcDbBlockEnd
  0
BLOCK
  5
58D
100
AcDbEntity
  8
0
100
AcDbBlockBegin
  2
CDWK_PTTYP21
 70
     0
 10
0.0
 20
0.0
 30
0.0
  3
CDWK_PTTYP21
  1

  4
Cadwork node
  0
CIRCLE
  5
58E
100
AcDbEntity
  8
0
 62
     0
370
    -2
100
AcDbCircle
 10
0.0
 20
0.0
 30
0.0
 40
0.5
  0
LINE
  5
58F
100
AcDbEntity
  8
0
 62
     0
370
    -2
100
AcDbLine
 10
-0.5
 20
0.0
 30
0.0
 11
0.5
 21
0.0
 31
0.0
  0
ENDBLK
  5
590
100
AcDbEntity
100
AcDbBlockEnd
  0
BLOCK
  5
591
100
AcDbEntity
  8
0
100
AcDbBlockBegin
  2
CDWK_PTTYP22
 70
     0
 10
0.0
 20
0.0
 30
0.0
  3
CDWK_PTTYP22
  1

  4
Cadwork node
  0
POINT
  5
592
100
AcDbEntity
  8
0
 62
     0
100
AcDbPoint
 10
0.0
 20
0.0
 30
0.0
  0
ENDBLK
  5
593
100
AcDbEntity
100
AcDbBlockEnd
  0
BLOCK
  5
594
100
AcDbEntity
  8
0
100
AcDbBlockBegin
  2
CDWK_PTTYP23
 70
     0
 10
0.0
 20
0.0
 30
0.0
  3
CDWK_PTTYP23
  1

  4
Cadwork node
  0
POINT
  5
595
100
AcDbEntity
  8
0
 62
     0
100
AcDbPoint
 10
0.0
 20
0.0
 30
0.0
  0
ENDBLK
  5
596
100
AcDbEntity
100
AcDbBlockEnd
  0
BLOCK
  5
597
100
AcDbEntity
  8
0
100
AcDbBlockBegin
  2
CDWK_PTTYP24
 70
     0
 10
0.0
 20
0.0
 30
0.0
  3
CDWK_PTTYP24
  1

  4
Cadwork node
  0
POINT
  5
598
100
AcDbEntity
  8
0
 62
     0
100
AcDbPoint
 10
0.0
 20
0.0
 30
0.0
  0
ENDBLK
  5
599
100
AcDbEntity
100
AcDbBlockEnd
  0
BLOCK
  5
59A
100
AcDbEntity
  8
0
100
AcDbBlockBegin
  2
CDWK_PTTYP25
 70
     0
 10
0.0
 20
0.0
 30
0.0
  3
CDWK_PTTYP25
  1

  4
Cadwork node
  0
LINE
  5
59B
100
AcDbEntity
  8
0
 62
     0
370
    -2
100
AcDbLine
 10
-0.43290044
 20
-0.25
 30
0.0
 11
0.43290044
 21
-0.25
 31
0.0
  0
LINE
  5
59C
100
AcDbEntity
  8
0
 62
     0
370
    -2
100
AcDbLine
 10
-0.43290044
 20
-0.25
 30
0.0
 11
0.0
 21
0.5
 31
0.0
  0
LINE
  5
59D
100
AcDbEntity
  8
0
 62
     0
370
    -2
100
AcDbLine
 10
0.43290044
 20
-0.25
 30
0.0
 11
0.0
 21
0.5
 31
0.0
  0
CIRCLE
  5
59E
100
AcDbEntity
  8
0
 62
     0
370
    -2
100
AcDbCircle
 10
0.0
 20
0.0
 30
0.0
 40
0.5
  0
ENDBLK
  5
59F
100
AcDbEntity
100
AcDbBlockEnd
  0
BLOCK
  5
5A0
100
AcDbEntity
  8
0
100
AcDbBlockBegin
  2
CDWK_PTTYP26
 70
     0
 10
0.0
 20
0.0
 30
0.0
  3
CDWK_PTTYP26
  1

  4
Cadwork node
  0
LINE
  5
5A1
100
AcDbEntity
  8
0
 62
     0
370
    -2
100
AcDbLine
 10
-0.5
 20
-0.28850001
 30
0.0
 11
0.5
 21
-0.28850001
 31
0.0
  0
LINE
  5
5A2
100
AcDbEntity
  8
0
 62
     0
370
    -2
100
AcDbLine
 10
-0.5
 20
-0.28850001
 30
0.0
 11
0.0
 21
0.57736721
 31
0.0
  0
LINE
  5
5A3
100
AcDbEntity
  8
0
 62
     0
370
    -2
100
AcDbLine
 10
0.5
 20
-0.28850001
 30
0.0
 11
0.0
 21
0.57736721
 31
0.0
  0
CIRCLE
  5
5A4
100
AcDbEntity
  8
0
 62
     0
370
    -2
100
AcDbCircle
 10
0.0
 20
0.0
 30
0.0
 40
0.1312336
  0
ENDBLK
  5
5A5
100
AcDbEntity
100
AcDbBlockEnd
  0
BLOCK
  5
5A6
100
AcDbEntity
  8
0
100
AcDbBlockBegin
  2
CDWK_PTTYP27
 70
     0
 10
0.0
 20
0.0
 30
0.0
  3
CDWK_PTTYP27
  1

  4
Cadwork node
  0
LINE
  5
5A7
100
AcDbEntity
  8
0
 62
     0
370
    -2
100
AcDbLine
 10
-0.43290044
 20
-0.25
 30
0.0
 11
0.43290044
 21
-0.25
 31
0.0
  0
LINE
  5
5A8
100
AcDbEntity
  8
0
 62
     0
370
    -2
100
AcDbLine
 10
-0.43290044
 20
-0.25
 30
0.0
 11
0.0
 21
0.5
 31
0.0
  0
LINE
  5
5A9
100
AcDbEntity
  8
0
 62
     0
370
    -2
100
AcDbLine
 10
0.43290044
 20
-0.25
 30
0.0
 11
0.0
 21
0.5
 31
0.0
  0
CIRCLE
  5
5AA
100
AcDbEntity
  8
0
 62
     0
370
    -2
100
AcDbCircle
 10
0.0
 20
0.0
 30
0.0
 40
0.5
  0
CIRCLE
  5
5AB
100
AcDbEntity
  8
0
 62
     0
370
    -2
100
AcDbCircle
 10
0.0
 20
0.0
 30
0.0
 40
0.1312336
  0
ENDBLK
  5
5AC
100
AcDbEntity
100
AcDbBlockEnd
  0
BLOCK
  5
5AD
100
AcDbEntity
  8
0
100
AcDbBlockBegin
  2
CDWK_PTTYP28
 70
     0
 10
0.0
 20
0.0
 30
0.0
  3
CDWK_PTTYP28
  1

  4
Cadwork node
  0
POINT
  5
5AE
100
AcDbEntity
  8
0
 62
     0
100
AcDbPoint
 10
0.0
 20
0.0
 30
0.0
  0
ENDBLK
  5
5AF
100
AcDbEntity
100
AcDbBlockEnd
  0
BLOCK
  5
5B0
100
AcDbEntity
  8
0
100
AcDbBlockBegin
  2
CDWK_PTTYP29
 70
     0
 10
0.0
 20
0.0
 30
0.0
  3
CDWK_PTTYP29
  1

  4
Cadwork node
  0
CIRCLE
  5
5B1
100
AcDbEntity
  8
0
 62
     0
370
    -2
100
AcDbCircle
 10
0.0
 20
0.0
 30
0.0
 40
0.5
  0
CIRCLE
  5
5B2
100
AcDbEntity
  8
0
 62
     0
370
    -2
100
AcDbCircle
 10
0.0
 20
0.0
 30
0.0
 40
0.375
  0
CIRCLE
  5
5B3
100
AcDbEntity
  8
0
 62
     0
370
    -2
100
AcDbCircle
 10
0.0
 20
0.0
 30
0.0
 40
0.21875
  0
ENDBLK
  5
5B4
100
AcDbEntity
100
AcDbBlockEnd
  0
BLOCK
  5
5B5
100
AcDbEntity
  8
0
100
AcDbBlockBegin
  2
CDWK_PTTYP30
 70
     0
 10
0.0
 20
0.0
 30
0.0
  3
CDWK_PTTYP30
  1

  4
Cadwork node
  0
LINE
  5
5B6
100
AcDbEntity
  8
0
 62
     0
370
    -2
100
AcDbLine
 10
0.17680339
 20
0.17680339
 30
0.0
 11
0.5
 21
0.5
 31
0.0
  0
LINE
  5
5B7
100
AcDbEntity
  8
0
 62
     0
370
    -2
100
AcDbLine
 10
-0.17680339
 20
0.17680339
 30
0.0
 11
-0.5
 21
0.5
 31
0.0
  0
LINE
  5
5B8
100
AcDbEntity
  8
0
 62
     0
370
    -2
100
AcDbLine
 10
0.17680339
 20
-0.17680339
 30
0.0
 11
0.5
 21
-0.5
 31
0.0
  0
LINE
  5
5B9
100
AcDbEntity
  8
0
 62
     0
370
    -2
100
AcDbLine
 10
-0.17680339
 20
-0.17680339
 30
0.0
 11
-0.5
 21
-0.5
 31
0.0
  0
ENDBLK
  5
5BA
100
AcDbEntity
100
AcDbBlockEnd
  0
BLOCK
  5
5BB
100
AcDbEntity
  8
0
100
AcDbBlockBegin
  2
CDWK_PTTYP31
 70
     0
 10
0.0
 20
0.0
 30
0.0
  3
CDWK_PTTYP31
  1

  4
Cadwork node
  0
CIRCLE
  5
5BC
100
AcDbEntity
  8
0
 62
     0
370
    -2
100
AcDbCircle
 10
0.0
 20
0.0
 30
0.0
 40
0.075
  0
LINE
  5
5BD
100
AcDbEntity
  8
0
 62
     0
370
    -2
100
AcDbLine
 10
0.075
 20
0.0
 30
0.0
 11
0.5
 21
0.0
 31
0.0
  0
LINE
  5
5BE
100
AcDbEntity
  8
0
 62
     0
370
    -2
100
AcDbLine
 10
-0.075
 20
0.0
 30
0.0
 11
-0.5
 21
0.0
 31
0.0
  0
LINE
  5
5BF
100
AcDbEntity
  8
0
 62
     0
370
    -2
100
AcDbLine
 10
0.0
 20
0.075
 30
0.0
 11
0.0
 21
0.5
 31
0.0
  0
LINE
  5
5C0
100
AcDbEntity
  8
0
 62
     0
370
    -2
100
AcDbLine
 10
0.0
 20
-0.075
 30
0.0
 11
0.0
 21
-0.5
 31
0.0
  0
ENDBLK
  5
5C1
100
AcDbEntity
100
AcDbBlockEnd
  0
BLOCK
  5
5C2
100
AcDbEntity
  8
0
100
AcDbBlockBegin
  2
CDWK_PTTYP32
 70
     0
 10
0.0
 20
0.0
 30
0.0
  3
CDWK_PTTYP32
  1

  4
Cadwork node
  0
CIRCLE
  5
5C3
100
AcDbEntity
  8
0
 62
     0
370
    -2
100
AcDbCircle
 10
0.0
 20
0.0
 30
0.0
 40
0.5
  0
CIRCLE
  5
5C4
100
AcDbEntity
  8
0
 62
     0
370
    -2
100
AcDbCircle
 10
0.0
 20
0.0
 30
0.0
 40
0.16666667
  0
LINE
  5
5C5
100
AcDbEntity
  8
0
 62
     0
370
    -2
100
AcDbLine
 10
0.11786893
 20
0.11786893
 30
0.0
 11
0.35360678
 21
0.35360678
 31
0.0
  0
LINE
  5
5C6
100
AcDbEntity
  8
0
 62
     0
370
    -2
100
AcDbLine
 10
-0.11786893
 20
0.11786893
 30
0.0
 11
-0.35360678
 21
0.35360678
 31
0.0
  0
LINE
  5
5C7
100
AcDbEntity
  8
0
 62
     0
370
    -2
100
AcDbLine
 10
0.11786893
 20
-0.11786893
 30
0.0
 11
0.35360678
 21
-0.35360678
 31
0.0
  0
LINE
  5
5C8
100
AcDbEntity
  8
0
 62
     0
370
    -2
100
AcDbLine
 10
-0.11786893
 20
-0.11786893
 30
0.0
 11
-0.35360678
 21
-0.35360678
 31
0.0
  0
ENDBLK
  5
5C9
100
AcDbEntity
100
AcDbBlockEnd
  0
BLOCK
  5
5CA
100
AcDbEntity
  8
0
100
AcDbBlockBegin
  2
CDWK_PTTYP33
 70
     0
 10
0.0
 20
0.0
 30
0.0
  3
CDWK_PTTYP33
  1

  4
Cadwork node
  0
CIRCLE
  5
5CB
100
AcDbEntity
  8
0
 62
     0
370
    -2
100
AcDbCircle
 10
0.0
 20
0.0
 30
0.0
 40
0.5
  0
LINE
  5
5CC
100
AcDbEntity
  8
0
 62
     0
370
    -2
100
AcDbLine
 10
0.0
 20
0.5
 30
0.0
 11
0.0
 21
-0.5
 31
0.0
  0
LINE
  5
5CD
100
AcDbEntity
  8
0
 62
     0
370
    -2
100
AcDbLine
 10
-0.5
 20
0.0
 30
0.0
 11
0.5
 21
0.0
 31
0.0
  0
ENDBLK
  5
5CE
100
AcDbEntity
100
AcDbBlockEnd
  0
BLOCK
  5
5CF
100
AcDbEntity
  8
0
100
AcDbBlockBegin
  2
CDWK_PTTYP34
 70
     0
 10
0.0
 20
0.0
 30
0.0
  3
CDWK_PTTYP34
  1

  4
Cadwork node
  0
CIRCLE
  5
5D0
100
AcDbEntity
  8
0
 62
     0
370
    -2
100
AcDbCircle
 10
0.0
 20
0.0
 30
0.0
 40
0.5
  0
LINE
  5
5D1
100
AcDbEntity
  8
0
 62
     0
370
    -2
100
AcDbLine
 10
-0.30360678
 20
-0.40360678
 30
0.0
 11
0.40360678
 21
0.30360678
 31
0.0
  0
LINE
  5
5D2
100
AcDbEntity
  8
0
 62
     0
370
    -2
100
AcDbLine
 10
-0.40360678
 20
-0.30360678
 30
0.0
 11
0.30360678
 21
0.40360678
 31
0.0
  0
ENDBLK
  5
5D3
100
AcDbEntity
100
AcDbBlockEnd
  0
BLOCK
  5
5D4
100
AcDbEntity
  8
0
100
AcDbBlockBegin
  2
CDWK_PTTYP35
 70
     0
 10
0.0
 20
0.0
 30
0.0
  3
CDWK_PTTYP35
  1

  4
Cadwork node
  0
CIRCLE
  5
5D5
100
AcDbEntity
  8
0
 62
     0
370
    -2
100
AcDbCircle
 10
0.0
 20
0.0
 30
0.0
 40
0.21431634
  0
LINE
  5
5D6
100
AcDbEntity
  8
0
 62
     0
370
    -2
100
AcDbLine
 10
0.0
 20
0.21431634
 30
0.0
 11
0.0
 21
0.5
 31
0.0
  0
LINE
  5
5D7
100
AcDbEntity
  8
0
 62
     0
370
    -2
100
AcDbLine
 10
0.0
 20
-0.21431634
 30
0.0
 11
0.0
 21
-0.5
 31
0.0
  0
ENDBLK
  5
5D8
100
AcDbEntity
100
AcDbBlockEnd
  0
BLOCK
  5
5D9
100
AcDbEntity
  8
0
100
AcDbBlockBegin
  2
CDWK_PTTYP36
 70
     0
 10
0.0
 20
0.0
 30
0.0
  3
CDWK_PTTYP36
  1

  4
Cadwork node
  0
LINE
  5
5DA
100
AcDbEntity
  8
0
 62
     0
370
    -2
100
AcDbLine
 10
-0.5
 20
-0.16666667
 30
0.0
 11
0.5
 21
-0.16666667
 31
0.0
  0
LINE
  5
5DB
100
AcDbEntity
  8
0
 62
     0
370
    -2
100
AcDbLine
 10
0.5
 20
-0.16666667
 30
0.0
 11
0.5
 21
0.16666667
 31
0.0
  0
LINE
  5
5DC
100
AcDbEntity
  8
0
 62
     0
370
    -2
100
AcDbLine
 10
0.5
 20
0.16666667
 30
0.0
 11
-0.5
 21
0.16666667
 31
0.0
  0
LINE
  5
5DD
100
AcDbEntity
  8
0
 62
     0
370
    -2
100
AcDbLine
 10
-0.5
 20
0.16666667
 30
0.0
 11
-0.5
 21
-0.16666667
 31
0.0
  0
SOLID
  5
5DE
100
AcDbEntity
  8
0
 62
     0
100
AcDbTrace
 10
-0.5
 20
-0.16666667
 11
0.5
 21
0.16666667
 12
0.5
 22
-0.16666667
 13
0.5
 23
-0.16666667
  0
ENDBLK
  5
5DF
100
AcDbEntity
100
AcDbBlockEnd
  0
BLOCK
  5
5E0
100
AcDbEntity
  8
0
100
AcDbBlockBegin
  2
CDWK_PTTYP37
 70
     0
 10
0.0
 20
0.0
 30
0.0
  3
CDWK_PTTYP37
  1

  4
Cadwork node
  0
CIRCLE
  5
5E1
100
AcDbEntity
  8
0
 62
     0
370
    -2
100
AcDbCircle
 10
0.0
 20
0.0
 30
0.0
 40
0.5
  0
SOLID
  5
5E2
100
AcDbEntity
  8
0
 62
     0
100
AcDbTrace
 10
0.0
 20
0.0
 11
0.35350001
 21
0.35350001
 12
0.5
 22
0.0
 13
0.46200001
 23
0.19149999
  0
SOLID
  5
5E3
100
AcDbEntity
  8
0
 62
     0
100
AcDbTrace
 10
0.0
 20
0.0
 11
0.35350001
 21
-0.35350001
 12
0.5
 22
0.0
 13
0.46200001
 23
-0.19149999
  0
SOLID
  5
5E4
100
AcDbEntity
  8
0
 62
     0
100
AcDbTrace
 10
0.0
 20
0.0
 11
0.0
 21
-0.5
 12
0.35350001
 22
-0.35350001
 13
0.19149999
 23
-0.46200001
  0
SOLID
  5
5E5
100
AcDbEntity
  8
0
 62
     0
100
AcDbTrace
 10
0.0
 20
0.0
 11
0.0
 21
-0.5
 12
-0.35350001
 22
-0.35350001
 13
-0.19149999
 23
-0.46200001
  0
ENDBLK
  5
5E6
100
AcDbEntity
100
AcDbBlockEnd
  0
BLOCK
  5
5E7
100
AcDbEntity
  8
0
100
AcDbBlockBegin
  2
CDWK_PTTYP38
 70
     0
 10
0.0
 20
0.0
 30
0.0
  3
CDWK_PTTYP38
  1

  4
Cadwork node
  0
CIRCLE
  5
5E8
100
AcDbEntity
  8
0
 62
     0
370
    -2
100
AcDbCircle
 10
0.0
 20
0.0
 30
0.0
 40
0.5
  0
SOLID
  5
5E9
100
AcDbEntity
  8
0
 62
     0
100
AcDbTrace
 10
0.0
 20
0.0
 11
0.35350001
 21
0.35350001
 12
0.0
 22
0.5
 13
0.19149999
 23
0.46200001
  0
SOLID
  5
5EA
100
AcDbEntity
  8
0
 62
     0
100
AcDbTrace
 10
0.0
 20
0.0
 11
0.5
 21
0.0
 12
0.35350001
 22
0.35350001
 13
0.46200001
 23
0.19149999
  0
SOLID
  5
5EB
100
AcDbEntity
  8
0
 62
     0
100
AcDbTrace
 10
0.0
 20
0.0
 11
0.0
 21
-0.5
 12
-0.35350001
 22
-0.35350001
 13
-0.19149999
 23
-0.46200001
  0
SOLID
  5
5EC
100
AcDbEntity
  8
0
 62
     0
100
AcDbTrace
 10
0.0
 20
0.0
 11
-0.5
 21
0.0
 12
-0.35350001
 22
-0.35350001
 13
-0.46200001
 23
-0.19149999
  0
ENDBLK
  5
5ED
100
AcDbEntity
100
AcDbBlockEnd
  0
BLOCK
  5
5EE
100
AcDbEntity
  8
Ech.1_5
100
AcDbBlockBegin
  2
*X1
 70
     1
 10
0.0
 20
0.0
 30
0.0
  3
*X1
  1

  4
Cadwork hatch
  0
LINE
  5
5EF
100
AcDbEntity
  8
Ech.1_5
 62
   190
  6
CONTINUOUS
370
    -2
100
AcDbLine
 10
46701.66745604
 20
-5931.87274567
 30
0.0
 11
46521.66500996
 21
-5886.87213415
 31
0.0
  0
LINE
  5
5F0
100
AcDbEntity
  8
Ech.1_5
 62
   190
  6
CONTINUOUS
370
    -2
100
AcDbLine
 10
46701.66745604
 20
-5886.87213415
 30
0.0
 11
46521.66500996
 21
-5931.87274567
 31
0.0
  0
ENDBLK
  5
5F1
100
AcDbEntity
100
AcDbBlockEnd
  0
BLOCK
  5
5F2
100
AcDbEntity
  8
Ech.1_5
100
AcDbBlockBegin
  2
*X2
 70
     1
 10
0.0
 20
0.0
 30
0.0
  3
*X2
  1

  4
Cadwork hatch
  0
LINE
  5
5F3
100
AcDbEntity
  8
Ech.1_5
 62
   190
  6
CONTINUOUS
370
    -2
100
AcDbLine
 10
46701.66745604
 20
-5718.74729683
 30
0.0
 11
46521.66500996
 21
-5673.74668532
 31
0.0
  0
LINE
  5
5F4
100
AcDbEntity
  8
Ech.1_5
 62
   190
  6
CONTINUOUS
370
    -2
100
AcDbLine
 10
46701.66745604
 20
-5673.74668532
 30
0.0
 11
46521.66500996
 21
-5718.74729683
 31
0.0
  0
ENDBLK
  5
5F5
100
AcDbEntity
100
AcDbBlockEnd
  0
ENDSEC
  0
SECTION
  2
ENTITIES
  0
INSERT
  5
5F6
100
AcDbEntity
  8
Ech.1_5
 62
     0
100
AcDbBlockReference
  2
*X1
 10
0.0
 20
0.0
 30
0.0
  0
INSERT
  5
5F7
100
AcDbEntity
  8
Ech.1_5
 62
     0
100
AcDbBlockReference
  2
*X2
 10
0.0
 20
0.0
 30
0.0
  0
LWPOLYLINE
  5
5F8
102
{ACAD_REACTORS
330
5F9
102
}
100
AcDbEntity
  8
Ech.1_5
 62
     7
  6
CONTINUOUS
370
    -3
100
AcDbPolyline
 90
        4
 70
     1
 43
0.0
 10
46710.66815079
 20
-5673.7473994
 10
46701.66815079
 20
-5673.7473994
 10
46701.66815079
 20
-5757.58669383
 10
46710.66815079
 20
-5757.58669383
  0
HATCH
  5
5F9
100
AcDbEntity
  8
Ech.1_5
 62
   190
  6
CONTINUOUS
100
AcDbHatch
 10
0.0
 20
0.0
 30
0.0
210
0.0
220
0.0
230
1.0
  2
CDWK10A
 70
     0
 71
     1
 91
        1
 92
        7
 72
     0
 73
     1
 93
        4
 10
46710.66815079
 20
-5673.7473994
 10
46701.66815079
 20
-5673.7473994
 10
46701.66815079
 20
-5757.58669383
 10
46710.66815079
 20
-5757.58669383
 97
        1
330
5F8
 75
     0
 76
     2
 52
0.0
 41
1.0
 77
     0
 78
     3
 53
45.0
 43
0.0
 44
0.0
 45
0.0
 46
42.00000167
 79
     0
 53
45.0
 43
0.0
 44
10.80000043
 45
0.0
 46
42.00000167
 79
     0
 53
45.0
 43
0.0
 44
21.60000086
 45
0.0
 46
42.00000167
 79
     0
 47
0.775229
 98
        1
 10
0.0
 20
0.0
  0
LWPOLYLINE
  5
5FA
100
AcDbEntity
  8
Ech.1_5
 62
   254
  6
CONTINUOUS
370
    -3
100
AcDbPolyline
 90
        5
 70
     1
 43
0.0
 10
46721.66815079
 20
-6486.87315074
 10
46721.66815079
 20
-6604.61797896
 10
46771.40084481
 20
-6604.61727992
 10
46771.66815079
 20
-6604.61729995
 10
46771.66815079
 20
-6486.87315074
  0
LWPOLYLINE
  5
5FB
100
AcDbEntity
  8
Ech.1_5
 62
     9
  6
CONTINUOUS
370
    -3
100
AcDbPolyline
 90
        6
 70
     0
 43
0.0
 10
47207.11924369
 20
-6114.49651423
 10
47207.12071951
 20
-6367.98064795
 10
47225.09806791
 20
-6384.46615115
 10
47189.1423679
 20
-6370.35621062
 10
47207.12071951
 20
-6386.84256545
 10
47207.11989722
 20
-6563.87306205
  0
LWPOLYLINE
  5
5FC
102
{ACAD_REACTORS
330
5FD
102
}
100
AcDbEntity
  8
Ech.1_5
 62
     7
  6
CONTINUOUS
370
    -3
100
AcDbPolyline
 90
        4
 70
     1
 43
0.0
 10
46512.66815079
 20
-6185.37314788
 10
46521.66815079
 20
-6185.37314788
 10
46521.66815079
 20
-5788.47073165
 10
46512.66815079
 20
-5788.47073165
  0
HATCH
  5
5FD
100
AcDbEntity
  8
Ech.1_5
 62
   190
  6
CONTINUOUS
100
AcDbHatch
 10
0.0
 20
0.0
 30
0.0
210
0.0
220
0.0
230
1.0
  2
CDWK10A
 70
     0
 71
     1
 91
        1
 92
        7
 72
     0
 73
     1
 93
        4
 10
46512.66815079
 20
-6185.37314788
 10
46521.66815079
 20
-6185.37314788
 10
46521.66815079
 20
-5788.47073165
 10
46512.66815079
 20
-5788.47073165
 97
        1
330
5FC
 75
     0
 76
     2
 52
0.0
 41
1.0
 77
     0
 78
     3
 53
45.0
 43
0.0
 44
0.0
 45
0.0
 46
42.00000167
 79
     0
 53
45.0
 43
0.0
 44
10.80000043
 45
0.0
 46
42.00000167
 79
     0
 53
45.0
 43
0.0
 44
21.60000086
 45
0.0
 46
42.00000167
 79
     0
 47
0.775229
 98
        1
 10
0.0
 20
0.0
  0
LWPOLYLINE
  5
5FE
100
AcDbEntity
  8
Ech.1_5
 62
   190
  6
CONTINUOUS
370
    -3
100
AcDbPolyline
 90
        6
 70
     0
 43
0.0
 10
46449.14172596
 20
-5788.47147837
 10
46584.10165429
 20
-5788.47000209
 10
46600.58715744
 20
-5770.49265376
 10
46586.47721742
 20
-5806.44835368
 10
46602.96357151
 20
-5788.47000209
 10
46774.66815079
 20
-5788.47082415
  0
LINE
  5
5FF
100
AcDbEntity
  8
Ech.1_5
 62
   190
  6
CONTINUOUS
370
    -3
100
AcDbLine
 10
46512.66815079
 20
-5788.47100726
 30
0.0
 11
46512.66815079
 21
-6404.61839762
 31
0.0
  0
LWPOLYLINE
  5
600
100
AcDbEntity
  8
Ech.1_5
 62
     9
100
AcDbPolyline
 90
       27
 70
     0
 43
0.0
 10
46476.01510883
 20
-6069.85845366
 10
46476.14172596
 20
-6069.52398005
 10
46476.14172596
 20
-6042.14051619
 10
46483.14172596
 20
-6042.14051619
 10
46483.14172596
 20
-6051.14051619
 10
46489.14172595
 20
-6051.14051619
 10
46489.14172595
 20
-6024.14051619
 10
46485.14172596
 20
-6020.14051619
 10
46489.14172596
 20
-6016.14051619
 10
46489.14172595
 20
-5952.14051619
 10
46485.14172596
 20
-5948.14051619
 10
46489.14172595
 20
-5944.14051619
 10
46489.14172596
 20
-5909.14051619
 10
46482.14172596
 20
-5909.14051619
 10
46482.14172596
 20
-5903.14051619
 10
46479.64172596
 20
-5898.14051619
 10
46477.14172596
 20
-5903.14051619
 10
46477.14172596
 20
-5934.06944838
 10
46476.76112362
 20
-5935.98286525
 10
46470.60619205
 20
-5942.6760501
 10
46469.14172596
 20
-5946.211584
 10
46469.14172596
 20
-6065.29832831
 10
46470.10204835
 20
-6066.92819682
 10
46474.83816921
 20
-6069.89954654
 10
46475.25017058
 20
-6070.14051619
 10
46475.56398807
 20
-6070.14051619
 10
46476.01510883
 20
-6069.85845366
  0
LINE
  5
601
100
AcDbEntity
  8
Ech.1_5
 62
   190
  6
CONTINUOUS
370
    -3
100
AcDbLine
 10
46701.66815079
 20
-6021.87230387
 30
0.0
 11
46701.66815079
 21
-5788.47040263
 31
0.0
  0
LWPOLYLINE
  5
602
102
{ACAD_REACTORS
330
603
102
}
100
AcDbEntity
  8
Ech.1_5
 62
     7
  6
CONTINUOUS
370
    -3
100
AcDbPolyline
 90
        4
 70
     1
 43
0.0
 10
46521.66815079
 20
-6185.37314788
 10
46512.66815079
 20
-6185.37314788
 10
46512.66815079
 20
-6604.61839095
 10
46521.66815079
 20
-6604.61861792
  0
HATCH
  5
603
100
AcDbEntity
  8
Ech.1_5
 62
   190
  6
CONTINUOUS
100
AcDbHatch
 10
0.0
 20
0.0
 30
0.0
210
0.0
220
0.0
230
1.0
  2
CDWK10A
 70
     0
 71
     1
 91
        1
 92
        7
 72
     0
 73
     1
 93
        4
 10
46521.66815079
 20
-6185.37314788
 10
46512.66815079
 20
-6185.37314788
 10
46512.66815079
 20
-6604.61839095
 10
46521.66815079
 20
-6604.61861792
 97
        1
330
602
 75
     0
 76
     2
 52
0.0
 41
1.0
 77
     0
 78
     3
 53
45.0
 43
0.0
 44
0.0
 45
0.0
 46
42.00000167
 79
     0
 53
45.0
 43
0.0
 44
10.80000043
 45
0.0
 46
42.00000167
 79
     0
 53
45.0
 43
0.0
 44
21.60000086
 45
0.0
 46
42.00000167
 79
     0
 47
0.775229
 98
        1
 10
0.0
 20
0.0
  0
LWPOLYLINE
  5
604
100
AcDbEntity
  8
Ech.1_5
 62
     9
100
AcDbPolyline
 90
       23
 70
     0
 43
0.0
 10
46477.14172596
 20
-5788.47165576
 10
46477.14172596
 20
-5789.06944838
 10
46476.76112362
 20
-5790.98286525
 10
46470.60619205
 20
-5797.6760501
 10
46469.14172596
 20
-5801.211584
 10
46469.14172596
 20
-5920.29832831
 10
46470.10204835
 20
-5921.92819682
 10
46474.83816921
 20
-5924.89954654
 10
46475.25017058
 20
-5925.14051619
 10
46475.56398807
 20
-5925.14051619
 10
46476.01510883
 20
-5924.85845366
 10
46476.14172596
 20
-5924.52398005
 10
46476.14172596
 20
-5897.14051619
 10
46483.14172596
 20
-5897.14051619
 10
46483.14172596
 20
-5906.14051619
 10
46489.14172595
 20
-5906.14051619
 10
46489.14172595
 20
-5879.14051619
 10
46485.14172596
 20
-5875.14051619
 10
46489.14172596
 20
-5871.14051619
 10
46489.14172595
 20
-5807.14051619
 10
46485.14172596
 20
-5803.14051619
 10
46489.14172595
 20
-5799.14051619
 10
46489.14172596
 20
-5788.47165576
  0
LINE
  5
605
100
AcDbEntity
  8
Ech.1_5
 62
   150
  6
CADWORK_22
370
    35
100
AcDbLine
 10
46512.66815079
 20
-5788.47073165
 30
0.0
 11
46512.66815079
 21
-6604.61812392
 31
0.0
  0
LWPOLYLINE
  5
606
100
AcDbEntity
  8
Ech.1_5
 62
     9
  6
CONTINUOUS
370
     5
100
AcDbPolyline
 90
        5
 70
     0
 43
0.0
 10
46489.14172596
 20
-6604.61829272
 10
46514.14172596
 20
-6604.61839095
 10
46514.14172596
 20
-5788.47138873
 10
46489.14172596
 20
-5788.47165576
 10
46489.14172596
 20
-6143.37314788
  0
LINE
  5
607
100
AcDbEntity
  8
Ech.1_5
 62
     9
  6
CONTINUOUS
370
     5
100
AcDbLine
 10
46489.14172596
 20
-6143.37314788
 30
0.0
 11
46489.14172596
 21
-6604.61829272
 31
0.0
  0
LWPOLYLINE
  5
608
102
{ACAD_REACTORS
330
609
102
}
100
AcDbEntity
  8
Ech.1_5
 62
   190
  6
CONTINUOUS
370
    -3
100
AcDbPolyline
 90
        8
 70
     1
 43
0.0
 10
46602.96357151
 20
-5788.47000209
 10
46586.47721742
 20
-5806.44835368
 10
46600.58715744
 20
-5770.49265376
 10
46584.10165429
 20
-5788.47000209
 10
46521.66815079
 20
-5788.4702529
 10
46521.66815079
 20
-5886.87315074
 10
46701.66815079
 20
-5886.87315074
 10
46701.66815079
 20
-5788.47040263
  0
HATCH
  5
609
100
AcDbEntity
  8
Ech.1_5
 62
    41
  6
CONTINUOUS
100
AcDbHatch
 10
0.0
 20
0.0
 30
0.0
210
0.0
220
0.0
230
1.0
  2
SOLID
 70
     1
 71
     1
 91
        1
 92
        7
 72
     0
 73
     1
 93
        8
 10
46602.96357151
 20
-5788.47000209
 10
46586.47721742
 20
-5806.44835368
 10
46600.58715744
 20
-5770.49265376
 10
46584.10165429
 20
-5788.47000209
 10
46521.66815079
 20
-5788.4702529
 10
46521.66815079
 20
-5886.87315074
 10
46701.66815079
 20
-5886.87315074
 10
46701.66815079
 20
-5788.47040263
 97
        1
330
608
 75
     0
 76
     2
 47
0.775229
 98
        1
 10
0.0
 20
0.0
  0
LWPOLYLINE
  5
60A
100
AcDbEntity
  8
Ech.1_5
 62
   190
  6
CONTINUOUS
370
    -3
100
AcDbPolyline
 90
        9
 70
     1
 43
0.0
 10
46701.66815079
 20
-6481.79693785
 10
46701.66815079
 20
-5931.87315074
 10
46521.66815079
 20
-5931.87315074
 10
46521.66815079
 20
-6604.61861792
 10
46635.74062477
 20
-6604.61890975
 10
46652.22697885
 20
-6586.64055816
 10
46638.11703883
 20
-6622.59625808
 10
46654.60254199
 20
-6604.61890975
 10
46701.66815079
 20
-6604.61727992
  0
LWPOLYLINE
  5
60B
100
AcDbEntity
  8
Ech.1_5
 62
   190
  6
CONTINUOUS
370
    -3
100
AcDbPolyline
 90
       36
 70
     0
 43
0.0
 10
46663.90356196
 20
-6257.44850245
 10
46559.43273963
 20
-6229.4929618
 42
0.06551677
 10
46551.67136569
 20
-6228.4707326
 42
0.99999999
 10
46551.66493624
 20
-6288.4707326
 42
0.06557045
 10
46559.43273963
 20
-6287.44850245
 10
46663.90356196
 20
-6259.4929618
 42
-0.06551677
 10
46671.66493593
 20
-6258.4707326
 42
1.0
 10
46671.67136531
 20
-6198.4707326
 42
-0.06557045
 10
46663.90356196
 20
-6197.44850245
 10
46559.43273963
 20
-6169.4929618
 42
0.06551677
 10
46551.67136569
 20
-6168.4707326
 42
1.0
 10
46551.66493624
 20
-6228.4707326
 42
0.06557045
 10
46559.43273963
 20
-6227.44850245
 10
46663.90356196
 20
-6199.4929618
 42
-0.06551677
 10
46671.66493593
 20
-6198.4707326
 42
0.99999999
 10
46671.67136531
 20
-6138.4707326
 42
-0.06557045
 10
46663.90356196
 20
-6137.44850245
 10
46559.43273963
 20
-6109.4929618
 42
0.06551677
 10
46551.67136569
 20
-6108.4707326
 42
1.0
 10
46551.66493624
 20
-6168.4707326
 42
0.06557045
 10
46559.43273963
 20
-6167.44850245
 10
46663.90356196
 20
-6139.4929618
 42
-0.06551677
 10
46671.66493593
 20
-6138.4707326
 42
1.0
 10
46671.67136531
 20
-6078.4707326
 42
-0.06557045
 10
46663.90356196
 20
-6077.44850245
 10
46559.43273963
 20
-6049.4929618
 42
0.06551831
 10
46551.67117285
 20
-6048.47073165
 42
0.99999677
 10
46551.66493624
 20
-6108.4707326
 42
0.06557045
 10
46559.43273963
 20
-6107.44850245
 10
46663.90356196
 20
-6079.4929618
 42
-0.06551677
 10
46671.66493593
 20
-6078.4707326
 42
-1.00010716
 10
46671.66493593
 20
-6138.4707326
 42
-1.00010716
 10
46671.66493593
 20
-6198.4707326
 42
-1.00010716
 10
46671.66493593
 20
-6258.4707326
 42
-1.00010716
 10
46671.66493593
 20
-6318.4707326
 42
1.0
 10
46671.67136531
 20
-6258.4707326
  0
LWPOLYLINE
  5
60C
100
AcDbEntity
  8
Ech.1_5
 62
   190
  6
CONTINUOUS
370
    -3
100
AcDbPolyline
 90
        4
 70
     1
 43
0.0
 10
46701.66815079
 20
-5931.87315074
 10
46701.66815079
 20
-5886.87315074
 10
46521.66815079
 20
-5886.87315074
 10
46521.66815079
 20
-5931.87315074
  0
LWPOLYLINE
  5
60D
100
AcDbEntity
  8
Ech.1_5
 62
     5
  6
CONTINUOUS
370
    -3
100
AcDbPolyline
 90
        5
 70
     0
 43
0.0
 10
46521.66815079
 20
-5931.87315074
 10
46521.66815079
 20
-5886.87315074
 10
46701.66815079
 20
-5886.87315074
 10
46701.66815079
 20
-5931.87315074
 10
46521.66815079
 20
-5931.87315074
  0
LWPOLYLINE
  5
60E
100
AcDbEntity
  8
Ech.1_5
 62
    41
  6
CONTINUOUS
370
    15
100
AcDbPolyline
 90
        4
 70
     1
 43
0.0
 10
46731.66815079
 20
-6266.87315074
 10
46701.66815079
 20
-6266.87315074
 10
46701.66815079
 20
-6486.87315074
 10
46731.66815079
 20
-6486.87315074
  0
LWPOLYLINE
  5
60F
100
AcDbEntity
  8
Ech.1_5
 62
   190
  6
CONTINUOUS
370
    -3
100
AcDbPolyline
 90
       81
 70
     0
 43
0.0
 10
46726.66815079
 20
-6486.87315074
 42
1.14028185
 10
46725.37405265
 20
-6477.04352275
 10
46707.96224893
 20
-6481.70277873
 42
-1.30322628
 10
46707.96224893
 20
-6472.04352275
 10
46725.37405265
 20
-6476.70277873
 42
1.30322628
 10
46725.37405265
 20
-6467.04352275
 10
46707.96224893
 20
-6471.70277873
 42
-1.30322628
 10
46707.96224893
 20
-6462.04352275
 10
46725.37405265
 20
-6466.70277873
 42
1.30322628
 10
46725.37405265
 20
-6457.04352275
 10
46707.96224893
 20
-6461.70277873
 42
-1.30322628
 10
46707.96224893
 20
-6452.04352275
 10
46725.37405265
 20
-6456.70277873
 42
1.30322628
 10
46725.37405265
 20
-6447.04352275
 10
46707.96224893
 20
-6451.70277873
 42
-1.30322628
 10
46707.96224893
 20
-6442.04352275
 10
46725.37405265
 20
-6446.70277873
 42
1.30322628
 10
46725.37405265
 20
-6437.04352275
 10
46707.96224893
 20
-6441.70277873
 42
-1.30322628
 10
46707.96224893
 20
-6432.04352275
 10
46725.37405265
 20
-6436.70277873
 42
1.30322628
 10
46725.37405265
 20
-6427.04352275
 10
46707.96224893
 20
-6431.70277873
 42
-1.30322628
 10
46707.96224893
 20
-6422.04352275
 10
46725.37405265
 20
-6426.70277873
 42
1.30322628
 10
46725.37405265
 20
-6417.04352275
 10
46707.96224893
 20
-6421.70277873
 42
-1.30322628
 10
46707.96224893
 20
-6412.04352275
 10
46725.37405265
 20
-6416.70277873
 42
1.30322628
 10
46725.37405265
 20
-6407.04352275
 10
46707.96224893
 20
-6411.70277873
 42
-1.30322628
 10
46707.96224893
 20
-6402.04352275
 10
46725.37405265
 20
-6406.70277873
 42
1.30322628
 10
46725.37405265
 20
-6397.04352275
 10
46707.96224893
 20
-6401.70277873
 42
-1.30322628
 10
46707.96224893
 20
-6392.04352275
 10
46725.37405265
 20
-6396.70277873
 42
1.30322628
 10
46725.37405265
 20
-6387.04352275
 10
46707.96224893
 20
-6391.70277873
 42
-1.30322628
 10
46707.96224893
 20
-6382.04352275
 10
46725.37405265
 20
-6386.70277873
 42
1.30322628
 10
46725.37405265
 20
-6377.04352275
 10
46707.96224893
 20
-6381.70277873
 42
-1.30322628
 10
46707.96224893
 20
-6372.04352275
 10
46725.37405265
 20
-6376.70277873
 42
1.30322628
 10
46725.37405265
 20
-6367.04352275
 10
46707.96224893
 20
-6371.70277873
 42
-1.30322628
 10
46707.96224893
 20
-6362.04352275
 10
46725.37405265
 20
-6366.70277873
 42
1.30322628
 10
46725.37405265
 20
-6357.04352275
 10
46707.96224893
 20
-6361.70277873
 42
-1.30322628
 10
46707.96224893
 20
-6352.04352275
 10
46725.37405265
 20
-6356.70277873
 42
1.30322628
 10
46725.37405265
 20
-6347.04352275
 10
46707.96224893
 20
-6351.70277873
 42
-1.30322628
 10
46707.96224893
 20
-6342.04352275
 10
46725.37405265
 20
-6346.70277873
 42
1.30322628
 10
46725.37405265
 20
-6337.04352275
 10
46707.96224893
 20
-6341.70277873
 42
-1.30322628
 10
46707.96224893
 20
-6332.04352275
 10
46725.37405265
 20
-6336.70277873
 42
1.30322628
 10
46725.37405265
 20
-6327.04352275
 10
46707.96224893
 20
-6331.70277873
 42
-1.30322628
 10
46707.96224893
 20
-6322.04352275
 10
46725.37405265
 20
-6326.70277873
 42
1.30322628
 10
46725.37405265
 20
-6317.04352275
 10
46707.96224893
 20
-6321.70277873
 42
-1.30322628
 10
46707.96224893
 20
-6312.04352275
 10
46725.37405265
 20
-6316.70277873
 42
1.30322628
 10
46725.37405265
 20
-6307.04352275
 10
46707.96224893
 20
-6311.70277873
 42
-1.30322628
 10
46707.96224893
 20
-6302.04352275
 10
46725.37405265
 20
-6306.70277873
 42
1.30322628
 10
46725.37405265
 20
-6297.04352275
 10
46707.96224893
 20
-6301.70277873
 42
-1.30322628
 10
46707.96224893
 20
-6292.04352275
 10
46725.37405265
 20
-6296.70277873
 42
1.14028182
 10
46726.66815107
 20
-6286.87315074
 42
0.06554355
 10
46725.37405265
 20
-6287.04352275
 10
46707.96224893
 20
-6291.70277873
 42
-0.4931456
 10
46701.66815079
 20
-6286.87315074
  0
LINE
  5
610
100
AcDbEntity
  8
Ech.1_5
 62
     1
  6
CADWORK_22
 48
-5.0
370
    35
100
AcDbLine
 10
46703.16815079
 20
-6604.61727992
 30
0.0
 11
46703.16815079
 21
-5940.70097438
 31
0.0
  0
LWPOLYLINE
  5
611
100
AcDbEntity
  8
Ech.1_5
 62
     9
  6
CONTINUOUS
370
    -3
100
AcDbPolyline
 90
        3
 70
     0
 43
0.0
 10
46854.16815079
 20
-6266.87315074
 10
46731.66815079
 20
-6266.87315074
 10
46731.66815079
 20
-6286.87315074
  0
LWPOLYLINE
  5
612
102
{ACAD_REACTORS
330
613
102
}
100
AcDbEntity
  8
Ech.1_5
 62
     9
  6
CONTINUOUS
370
    -3
100
AcDbPolyline
 90
        4
 70
     1
 43
0.0
 10
46771.66815079
 20
-6604.61727992
 10
46784.66815079
 20
-6604.61727992
 10
46784.66815079
 20
-6486.87315074
 10
46771.66815079
 20
-6486.87315074
  0
HATCH
  5
613
100
AcDbEntity
  8
Ech.1_5
 62
     9
  6
CONTINUOUS
100
AcDbHatch
 10
0.0
 20
0.0
 30
0.0
210
0.0
220
0.0
230
1.0
  2
DOTS2
 70
     0
 71
     1
 91
        1
 92
        7
 72
     0
 73
     1
 93
        4
 10
46771.66815079
 20
-6604.61727992
 10
46784.66815079
 20
-6604.61727992
 10
46784.66815079
 20
-6486.87315074
 10
46771.66815079
 20
-6486.87315074
 97
        1
330
612
 75
     0
 76
     2
 52
0.0
 41
4.72440952
 77
     0
 78
     1
 53
0.0
 43
0.0
 44
0.0
 45
3.75
 46
3.535
 79
     2
 49
0.0
 49
-3.535
 47
0.775229
 98
        1
 10
0.0
 20
0.0
  0
LWPOLYLINE
  5
614
102
{ACAD_REACTORS
330
615
102
}
100
AcDbEntity
  8
Ech.1_5
 62
     9
  6
CONTINUOUS
370
    -3
100
AcDbPolyline
 90
       12
 70
     1
 43
0.0
 10
46723.76905478
 20
-6516.87315074
 10
46721.77036048
 20
-6516.87315074
 10
46721.77036048
 20
-6486.87315074
 10
46771.66815079
 20
-6486.87315074
 10
46771.66815079
 20
-6516.87315074
 10
46769.66815079
 20
-6516.87315074
 10
46769.66815079
 20
-6514.87315074
 10
46769.66815079
 20
-6514.87315074
 10
46769.66815079
 20
-6488.87315074
 10
46723.76905478
 20
-6488.87315074
 10
46723.76905478
 20
-6514.87315074
 10
46723.76905478
 20
-6514.87315074
  0
HATCH
  5
615
100
AcDbEntity
  8
Ech.1_5
 62
     9
  6
CONTINUOUS
100
AcDbHatch
 10
0.0
 20
0.0
 30
0.0
210
0.0
220
0.0
230
1.0
  2
SOLID
 70
     1
 71
     1
 91
        1
 92
        7
 72
     0
 73
     1
 93
       10
 10
46723.76905478
 20
-6516.87315074
 10
46721.77036048
 20
-6516.87315074
 10
46721.77036048
 20
-6486.87315074
 10
46771.66815079
 20
-6486.87315074
 10
46771.66815079
 20
-6516.87315074
 10
46769.66815079
 20
-6516.87315074
 10
46769.66815079
 20
-6514.87315074
 10
46769.66815079
 20
-6488.87315074
 10
46723.76905478
 20
-6488.87315074
 10
46723.76905478
 20
-6514.87315074
 97
        1
330
614
 75
     0
 76
     2
 47
0.775229
 98
        1
 10
0.0
 20
0.0
  0
LWPOLYLINE
  5
616
102
{ACAD_REACTORS
330
617
102
}
100
AcDbEntity
  8
Ech.1_5
 62
     9
  6
CONTINUOUS
370
    -3
100
AcDbPolyline
 90
       11
 70
     1
 43
0.0
 10
46731.66815079
 20
-6286.87315074
 10
46731.66815079
 20
-6266.87315074
 10
46854.16815079
 20
-6266.87315074
 10
47207.11951476
 20
-6266.87315074
 10
47207.11975307
 20
-6286.87315074
 10
47207.12071951
 20
-6367.98064795
 10
47225.09806791
 20
-6384.46615115
 10
47189.1423679
 20
-6370.35621062
 10
47207.12071951
 20
-6386.84256545
 10
47207.12020305
 20
-6486.87315074
 10
46731.66815079
 20
-6486.87315074
  0
HATCH
  5
617
100
AcDbEntity
  8
Ech.1_5
 62
     9
  6
CONTINUOUS
100
AcDbHatch
 10
0.0
 20
0.0
 30
0.0
210
0.0
220
0.0
230
1.0
  2
AR-CONC
 70
     0
 71
     1
 91
        1
 92
        7
 72
     0
 73
     1
 93
       11
 10
46731.66815079
 20
-6286.87315074
 10
46731.66815079
 20
-6266.87315074
 10
46854.16815079
 20
-6266.87315074
 10
47207.11951476
 20
-6266.87315074
 10
47207.11975307
 20
-6286.87315074
 10
47207.12071951
 20
-6367.98064795
 10
47225.09806791
 20
-6384.46615115
 10
47189.1423679
 20
-6370.35621062
 10
47207.12071951
 20
-6386.84256545
 10
47207.12020305
 20
-6486.87315074
 10
46731.66815079
 20
-6486.87315074
 97
        1
330
616
 75
     0
 76
     2
 52
0.0
 41
0.11811097
 77
     0
 78
    13
 53
50.0
 43
0.0
 44
0.0
 45
-18.84283637
 46
1.64853443
 79
     2
 49
1.97029307
 49
-21.67322338
 53
355.0
 43
0.0
 44
0.0
 45
-3.64507756
 46
19.76051824
 79
     2
 49
1.57623377
 49
-17.3385787
 53
100.45140076
 43
1.57023568
 44
-0.13737749
 45
-15.19777228
 46
-18.11197244
 79
     2
 49
1.67449124
 49
-18.41940522
 53
46.18420029
 43
0.0
 44
5.25411576
 45
-28.03703353
 46
4.34827878
 79
     2
 49
2.95543872
 49
-32.50983238
 53
96.63559723
 43
2.33641885
 44
4.89175692
 45
-24.55412615
 46
-25.59063404
 79
     2
 49
2.51173697
 49
-27.62910426
 53
351.1842041
 43
0.0
 44
5.25411576
 45
24.55410288
 46
25.59065715
 79
     2
 49
2.36435249
 49
-26.00786805
 53
21.0
 43
2.62705699
 44
3.94058615
 45
-15.68109068
 46
10.57702905
 79
     2
 49
1.97029307
 49
-21.67322338
 53
326.0
 43
2.62705699
 44
3.94058615
 45
6.39203268
 46
19.05010734
 79
     2
 49
1.57623377
 49
-17.3385787
 53
71.45140076
 43
3.93381357
 44
3.05916555
 45
-22.07312962
 46
-8.47306182
 79
     2
 49
1.67449124
 49
-18.41940522
 53
37.5
 43
0.0
 44
0.0
 45
0.31944534
 46
8.74531245
 79
     6
 49
0.01875
 49
-17.12841332
 49
0.01875
 49
-17.60128498
 49
0.01875
 49
-17.40425348
 53
7.5
 43
0.0
 44
0.0
 45
6.91098818
 46
10.3614222
 79
     6
 49
0.01875
 49
-10.03535807
 49
0.01875
 49
-16.7343539
 49
0.01875
 49
-6.6333206
 53
-32.5
 43
-5.85833833
 44
0.0
 45
14.02382061
 46
-0.59253003
 79
     6
 49
0.01875
 49
-6.56764314
 49
0.01875
 49
-20.49104869
 49
0.01875
 49
-27.19004452
 53
-42.5
 43
-8.48539531
 44
0.0
 45
15.32063571
 46
2.62981542
 79
     6
 49
0.01875
 49
-8.53793621
 49
0.01875
 49
-13.60815793
 49
0.01875
 49
-19.30887222
 47
0.775229
 98
        1
 10
0.0
 20
0.0
  0
LWPOLYLINE
  5
618
100
AcDbEntity
  8
Ech.1_5
 62
     9
  6
CONTINUOUS
370
    -3
100
AcDbPolyline
 90
       45
 70
     0
 43
0.0
 10
46769.30015801
 20
-6604.61730948
 42
0.76240198
 10
46761.17798723
 20
-6590.74906627
 10
46732.15831436
 20
-6598.51449385
 42
-0.06557028
 10
46730.00060842
 20
-6598.79844657
 42
-0.99999997
 10
46730.00235977
 20
-6582.13178054
 42
-0.06551739
 10
46732.15831436
 20
-6582.41573325
 10
46761.17798723
 20
-6590.18116084
 42
1.1403422
 10
46763.3339418
 20
-6573.79844657
 42
0.06551739
 10
46761.17798723
 20
-6574.08239928
 10
46732.15831436
 20
-6581.84782782
 42
-0.06557028
 10
46730.00060842
 20
-6582.13178054
 42
-1.14022134
 10
46732.15831436
 20
-6565.74906627
 10
46761.17798723
 20
-6573.51449385
 42
0.06557028
 10
46763.33569318
 20
-6573.79844657
 42
0.99999997
 10
46763.33394182
 20
-6557.13178054
 42
0.06551739
 10
46761.17798723
 20
-6557.41573325
 10
46732.15831436
 20
-6565.18116084
 42
-1.1403422
 10
46730.00235975
 20
-6548.79844657
 42
-0.06551739
 10
46732.15831436
 20
-6549.08239928
 10
46761.17798723
 20
-6556.84782782
 42
0.06557028
 10
46763.33569317
 20
-6557.13178054
 42
1.14022134
 10
46761.17798723
 20
-6540.74906627
 10
46732.15831436
 20
-6548.51449385
 42
-0.06557028
 10
46730.00060843
 20
-6548.79844657
 42
-0.99999997
 10
46730.00235976
 20
-6532.13178054
 42
-0.06551739
 10
46732.15831436
 20
-6532.41573325
 10
46761.17798723
 20
-6540.18116084
 42
1.1403422
 10
46763.3339418
 20
-6523.79844657
 42
0.06551739
 10
46761.17798723
 20
-6524.08239928
 10
46732.15831436
 20
-6531.84782782
 42
-0.06557028
 10
46730.00060843
 20
-6532.13178054
 42
-1.14022134
 10
46732.15831436
 20
-6515.74906627
 10
46761.17798723
 20
-6523.51449385
 42
0.06557028
 10
46763.33569318
 20
-6523.79844657
 42
0.99999997
 10
46763.33394181
 20
-6507.13178054
 42
0.06551739
 10
46761.17798723
 20
-6507.41573325
 10
46732.15831436
 20
-6515.18116084
 42
-1.1403422
 10
46730.00235976
 20
-6498.79844657
 42
-0.06551739
 10
46732.15831436
 20
-6499.08239928
 10
46761.17798723
 20
-6506.84782782
 42
0.06557028
 10
46763.33569318
 20
-6507.13178054
 42
1.14022134
 10
46761.17798723
 20
-6490.74906627
 10
46732.15831436
 20
-6498.51449385
 42
-0.06557028
 10
46730.00060842
 20
-6498.79844657
 42
-0.54052796
 10
46722.36372385
 20
-6487.13208762
  0
LWPOLYLINE
  5
619
100
AcDbEntity
  8
Ech.1_5
 62
   190
  6
CONTINUOUS
370
    -3
100
AcDbPolyline
 90
        3
 70
     0
 43
0.0
 10
46750.8641488
 20
-6487.01987353
 10
46762.67798723
 20
-6490.18116084
 42
0.31441539
 10
46771.64568156
 20
-6486.93350592
  0
LWPOLYLINE
  5
61A
100
AcDbEntity
  8
Ech.1_5
 62
   190
  6
CONTINUOUS
370
    -3
100
AcDbPolyline
 90
       17
 70
     0
 43
0.0
 10
46700.61559262
 20
-6400.79866877
 42
-0.49776925
 10
46671.76040482
 20
-6438.99577895
 42
-0.06557045
 10
46663.99260146
 20
-6437.9735488
 10
46559.52177914
 20
-6410.01800814
 42
0.06551676
 10
46551.76040519
 20
-6408.99577895
 42
1.0
 10
46551.75397575
 20
-6468.99577895
 42
0.06557045
 10
46559.52177914
 20
-6467.9735488
 10
46663.99260146
 20
-6440.01800814
 42
-0.06551676
 10
46671.75397543
 20
-6438.99577895
 42
-0.99999794
 10
46671.76052949
 20
-6498.995778
 42
-0.06557173
 10
46663.99260146
 20
-6497.9735488
 10
46559.52177914
 20
-6470.01800814
 42
0.06551676
 10
46551.76040519
 20
-6468.99577895
 42
1.14034343
 10
46559.52177914
 20
-6527.9735488
 10
46663.99260146
 20
-6500.01800814
 42
-0.06551572
 10
46671.75385086
 20
-6498.995778
 42
-0.72558186
 10
46689.45445762
 20
-6553.21987239
  0
LWPOLYLINE
  5
61B
100
AcDbEntity
  8
Ech.1_5
 62
     9
100
AcDbPolyline
 90
       27
 70
     0
 43
0.0
 10
46476.01510883
 20
-6214.85845366
 10
46476.14172596
 20
-6214.52398005
 10
46476.14172596
 20
-6187.14051619
 10
46483.14172596
 20
-6187.14051619
 10
46483.14172596
 20
-6196.14051619
 10
46489.14172595
 20
-6196.14051619
 10
46489.14172595
 20
-6169.14051619
 10
46485.14172596
 20
-6165.14051619
 10
46489.14172596
 20
-6161.14051619
 10
46489.14172595
 20
-6097.14051619
 10
46485.14172596
 20
-6093.14051619
 10
46489.14172595
 20
-6089.14051619
 10
46489.14172596
 20
-6054.14051619
 10
46482.14172596
 20
-6054.14051619
 10
46482.14172596
 20
-6048.14051619
 10
46479.64172596
 20
-6043.14051619
 10
46477.14172596
 20
-6048.14051619
 10
46477.14172596
 20
-6079.06944838
 10
46476.76112362
 20
-6080.98286525
 10
46470.60619205
 20
-6087.6760501
 10
46469.14172596
 20
-6091.211584
 10
46469.14172596
 20
-6210.29832831
 10
46470.10204835
 20
-6211.92819682
 10
46474.83816921
 20
-6214.89954654
 10
46475.25017058
 20
-6215.14051619
 10
46475.56398807
 20
-6215.14051619
 10
46476.01510883
 20
-6214.85845366
  0
LWPOLYLINE
  5
61C
100
AcDbEntity
  8
Ech.1_5
 62
     9
100
AcDbPolyline
 90
       27
 70
     0
 43
0.0
 10
46476.01510883
 20
-6359.85845366
 10
46476.14172596
 20
-6359.52398005
 10
46476.14172596
 20
-6332.14051619
 10
46483.14172596
 20
-6332.14051619
 10
46483.14172596
 20
-6341.14051619
 10
46489.14172595
 20
-6341.14051619
 10
46489.14172595
 20
-6314.14051619
 10
46485.14172596
 20
-6310.14051619
 10
46489.14172596
 20
-6306.14051619
 10
46489.14172595
 20
-6242.14051619
 10
46485.14172596
 20
-6238.14051619
 10
46489.14172595
 20
-6234.14051619
 10
46489.14172596
 20
-6199.14051619
 10
46482.14172596
 20
-6199.14051619
 10
46482.14172596
 20
-6193.14051619
 10
46479.64172596
 20
-6188.14051619
 10
46477.14172596
 20
-6193.14051619
 10
46477.14172596
 20
-6224.06944838
 10
46476.76112362
 20
-6225.98286525
 10
46470.60619205
 20
-6232.6760501
 10
46469.14172596
 20
-6236.211584
 10
46469.14172596
 20
-6355.29832831
 10
46470.10204835
 20
-6356.92819682
 10
46474.83816921
 20
-6359.89954654
 10
46475.25017058
 20
-6360.14051619
 10
46475.56398807
 20
-6360.14051619
 10
46476.01510883
 20
-6359.85845366
  0
LWPOLYLINE
  5
61D
100
AcDbEntity
  8
Ech.1_5
 62
   190
  6
CONTINUOUS
370
    -3
100
AcDbPolyline
 90
       12
 70
     0
 43
0.0
 10
46726.62582502
 20
-6296.9882392
 42
1.14028185
 10
46725.33172689
 20
-6287.15861121
 10
46707.91992316
 20
-6291.81786719
 42
-1.30322628
 10
46707.91992316
 20
-6282.15861121
 10
46725.33172689
 20
-6286.81786719
 42
1.30322628
 10
46725.33172689
 20
-6277.15861121
 10
46707.91992316
 20
-6281.81786719
 42
-1.30322628
 10
46707.91992316
 20
-6272.15861121
 10
46725.33172689
 20
-6276.81786719
 42
1.30322628
 10
46725.33172689
 20
-6267.15861121
 10
46707.91992316
 20
-6271.81786719
 42
-0.50032058
 10
46701.62714973
 20
-6266.87315074
  0
ARC
  5
61E
100
AcDbEntity
  8
Ech.1_5
 62
   190
  6
CONTINUOUS
370
    -3
100
AcDbCircle
 10
46726.6258253
 20
-6261.98825245
 30
0.0
 40
4.99998675
100
AcDbArc
 50
257.68297916
 51
282.31702084
  0
LWPOLYLINE
  5
61F
100
AcDbEntity
  8
Ech.1_5
 62
   190
  6
CONTINUOUS
370
    -3
100
AcDbPolyline
 90
        6
 70
     0
 43
0.0
 10
46774.19457563
 20
-5757.58561809
 10
46639.2346473
 20
-5757.58709438
 10
46622.74914414
 20
-5775.5644427
 10
46636.85908416
 20
-5739.60874278
 10
46620.37273008
 20
-5757.58709438
 10
46448.66815079
 20
-5757.58627231
  0
LWPOLYLINE
  5
620
100
AcDbEntity
  8
Ech.1_5
 62
     9
  6
CONTINUOUS
370
     5
100
AcDbPolyline
 90
        5
 70
     0
 43
0.0
 10
46489.14172596
 20
-5673.7473994
 10
46512.66815079
 20
-5673.7473994
 10
46512.66815079
 20
-5757.58669383
 10
46489.14172596
 20
-5757.58646686
 10
46489.14172596
 20
-5673.7473994
  0
LINE
  5
621
100
AcDbEntity
  8
Ech.1_5
 62
     9
  6
CONTINUOUS
370
     5
100
AcDbLine
 10
46489.14172596
 20
-5673.7473994
 30
0.0
 11
46489.14172596
 21
-5673.7473994
 31
0.0
  0
LWPOLYLINE
  5
622
102
{ACAD_REACTORS
330
623
102
}
100
AcDbEntity
  8
Ech.1_5
 62
     7
  6
CONTINUOUS
370
    -3
100
AcDbPolyline
 90
        4
 70
     1
 43
0.0
 10
46521.66815079
 20
-5673.7473994
 10
46512.66815079
 20
-5673.7473994
 10
46512.66815079
 20
-5757.58669383
 10
46521.66815079
 20
-5757.58669383
  0
HATCH
  5
623
100
AcDbEntity
  8
Ech.1_5
 62
   190
  6
CONTINUOUS
100
AcDbHatch
 10
0.0
 20
0.0
 30
0.0
210
0.0
220
0.0
230
1.0
  2
CDWK10A
 70
     0
 71
     1
 91
        1
 92
        7
 72
     0
 73
     1
 93
        4
 10
46521.66815079
 20
-5673.7473994
 10
46512.66815079
 20
-5673.7473994
 10
46512.66815079
 20
-5757.58669383
 10
46521.66815079
 20
-5757.58669383
 97
        1
330
622
 75
     0
 76
     2
 52
0.0
 41
1.0
 77
     0
 78
     3
 53
45.0
 43
0.0
 44
0.0
 45
0.0
 46
42.00000167
 79
     0
 53
45.0
 43
0.0
 44
10.80000043
 45
0.0
 46
42.00000167
 79
     0
 53
45.0
 43
0.0
 44
21.60000086
 45
0.0
 46
42.00000167
 79
     0
 47
0.775229
 98
        1
 10
0.0
 20
0.0
  0
LINE
  5
624
100
AcDbEntity
  8
Ech.1_5
 62
   150
  6
CADWORK_22
370
    35
100
AcDbLine
 10
46512.64172596
 20
-5757.58576972
 30
0.0
 11
46512.66815079
 21
-5673.7473994
 31
0.0
  0
LWPOLYLINE
  5
625
102
{ACAD_REACTORS
330
626
102
}
100
AcDbEntity
  8
Ech.1_5
 62
   190
  6
CONTINUOUS
370
    -3
100
AcDbPolyline
 90
        8
 70
     1
 43
0.0
 10
46636.85908416
 20
-5739.60874278
 10
46622.74914414
 20
-5775.5644427
 10
46639.2346473
 20
-5757.58709438
 10
46701.66815079
 20
-5757.58684356
 10
46701.66815079
 20
-5673.7473994
 10
46521.66815079
 20
-5673.7473994
 10
46521.66815079
 20
-5757.58669383
 10
46620.37273008
 20
-5757.58709438
  0
HATCH
  5
626
100
AcDbEntity
  8
Ech.1_5
 62
    41
  6
CONTINUOUS
100
AcDbHatch
 10
0.0
 20
0.0
 30
0.0
210
0.0
220
0.0
230
1.0
  2
SOLID
 70
     1
 71
     1
 91
        1
 92
        7
 72
     0
 73
     1
 93
        8
 10
46636.85908416
 20
-5739.60874278
 10
46622.74914414
 20
-5775.5644427
 10
46639.2346473
 20
-5757.58709438
 10
46701.66815079
 20
-5757.58684356
 10
46701.66815079
 20
-5673.7473994
 10
46521.66815079
 20
-5673.7473994
 10
46521.66815079
 20
-5757.58669383
 10
46620.37273008
 20
-5757.58709438
 97
        1
330
625
 75
     0
 76
     2
 47
0.775229
 98
        1
 10
0.0
 20
0.0
  0
LWPOLYLINE
  5
627
100
AcDbEntity
  8
Ech.1_5
 62
     9
100
AcDbPolyline
 90
        6
 70
     0
 43
0.0
 10
46477.14172596
 20
-5684.39482028
 10
46477.14172596
 20
-5684.99261291
 10
46476.76112362
 20
-5686.90602977
 10
46470.60619205
 20
-5693.59921462
 10
46469.14172596
 20
-5697.13474853
 10
46469.14172596
 20
-5757.58611209
  0
LWPOLYLINE
  5
628
100
AcDbEntity
  8
Ech.1_5
 62
     9
100
AcDbPolyline
 90
        5
 70
     0
 43
0.0
 10
46489.14172596
 20
-5757.58595474
 10
46489.14172595
 20
-5703.06368072
 10
46485.14172596
 20
-5699.06368072
 10
46489.14172595
 20
-5695.06368072
 10
46489.14172596
 20
-5684.39482028
  0
LINE
  5
629
100
AcDbEntity
  8
Ech.1_5
 62
     9
  6
CONTINUOUS
370
    -3
100
AcDbLine
 10
46477.14172596
 20
-5684.99261291
 30
2500.0
 11
46489.14172596
 21
-5684.99261291
 31
2500.0
  0
LWPOLYLINE
  5
62A
100
AcDbEntity
  8
Ech.1_5
 62
   190
  6
CONTINUOUS
370
    -3
100
AcDbPolyline
 90
       17
 70
     0
 43
0.0
 10
46700.36017119
 20
-6280.70268145
 42
-0.49776925
 10
46671.50498339
 20
-6318.89979163
 42
-0.06557045
 10
46663.73718004
 20
-6317.87756148
 10
46559.26635771
 20
-6289.92202082
 42
0.06551676
 10
46551.50498377
 20
-6288.89979163
 42
1.0
 10
46551.49855432
 20
-6348.89979163
 42
0.06557045
 10
46559.26635771
 20
-6347.87756148
 10
46663.73718004
 20
-6319.92202082
 42
-0.06551676
 10
46671.49855401
 20
-6318.89979163
 42
-0.99999794
 10
46671.50510806
 20
-6378.89979068
 42
-0.06557173
 10
46663.73718004
 20
-6377.87756148
 10
46559.26635771
 20
-6349.92202082
 42
0.06551676
 10
46551.50498377
 20
-6348.89979163
 42
1.14034343
 10
46559.26635771
 20
-6407.87756148
 10
46663.73718004
 20
-6379.92202082
 42
-0.06551572
 10
46671.49842943
 20
-6378.89979068
 42
-0.72558186
 10
46689.19903619
 20
-6433.12388507
  0
LWPOLYLINE
  5
62B
100
AcDbEntity
  8
Ech.1_5
 62
   190
  6
CONTINUOUS
370
    -3
100
AcDbPolyline
 90
       10
 70
     0
 43
0.0
 10
46697.45937732
 20
-6604.61752978
 42
0.58601443
 10
46671.88059971
 20
-6558.94712249
 42
-0.06557045
 10
46664.11279635
 20
-6557.92489234
 10
46559.64197403
 20
-6529.96935168
 42
0.06551676
 10
46551.88060008
 20
-6528.94712249
 42
0.99999999
 10
46551.87417064
 20
-6588.94712249
 42
0.06557045
 10
46559.64197403
 20
-6587.92489234
 10
46664.11279635
 20
-6559.96935168
 42
-0.06551667
 10
46671.87417032
 20
-6558.94712249
 42
-0.58608641
 10
46697.45937732
 20
-6604.61752978
  0
LWPOLYLINE
  5
62C
100
AcDbEntity
  8
Ech.1_5
 62
   190
  6
CONTINUOUS
370
    -3
100
AcDbPolyline
 90
        4
 70
     0
 43
0.0
 10
46614.3834646
 20
-6604.61772815
 10
46559.64197403
 20
-6589.96935168
 42
0.06551667
 10
46551.88060008
 20
-6588.94712249
 42
0.27485822
 10
46525.52070549
 20
-6604.61794081
  0
LINE
  5
62D
100
AcDbEntity
  8
Ech.1_5
 62
   150
  6
CADWORK_22
370
    35
100
AcDbLine
 10
46719.14812944
 20
-5788.73602858
 30
0.0
 11
46719.14812944
 21
-5798.15737906
 31
0.0
  0
LWPOLYLINE
  5
62E
100
AcDbEntity
  8
Ech.1_5
 62
     9
  6
CONTINUOUS
370
     5
100
AcDbPolyline
 90
        5
 70
     0
 43
0.0
 10
46734.19457563
 20
-5673.7473994
 10
46710.66815079
 20
-5673.7473994
 10
46710.66815079
 20
-5757.58669383
 10
46734.19457563
 20
-5757.58646686
 10
46734.19457563
 20
-5673.7473994
  0
LINE
  5
62F
100
AcDbEntity
  8
Ech.1_5
 62
     9
  6
CONTINUOUS
370
     5
100
AcDbLine
 10
46734.19457563
 20
-5673.7473994
 30
0.0
 11
46734.19457563
 21
-5673.7473994
 31
0.0
  0
LWPOLYLINE
  5
630
100
AcDbEntity
  8
Ech.1_5
 62
     9
100
AcDbPolyline
 90
        6
 70
     0
 43
0.0
 10
46746.19457563
 20
-5684.39482028
 10
46746.19457563
 20
-5684.99261291
 10
46746.57517797
 20
-5686.90602977
 10
46752.73010954
 20
-5693.59921462
 10
46754.19457563
 20
-5697.13474853
 10
46754.19457563
 20
-5757.58611209
  0
LINE
  5
631
100
AcDbEntity
  8
Ech.1_5
 62
     9
  6
CONTINUOUS
370
    -3
100
AcDbLine
 10
46746.19457563
 20
-5684.99261291
 30
2500.0
 11
46734.19457563
 21
-5684.99261291
 31
2500.0
  0
LWPOLYLINE
  5
632
100
AcDbEntity
  8
Ech.1_5
 62
     9
100
AcDbPolyline
 90
        5
 70
     0
 43
0.0
 10
46734.19457563
 20
-5842.37474814
 10
46734.19457563
 20
-5807.14051619
 10
46738.19457563
 20
-5803.14051619
 10
46734.19457563
 20
-5799.14051619
 10
46734.19457563
 20
-5788.47165576
  0
LWPOLYLINE
  5
633
100
AcDbEntity
  8
Ech.1_5
 62
     9
100
AcDbPolyline
 90
        6
 70
     0
 43
0.0
 10
46754.19457563
 20
-5858.00206843
 10
46754.19457563
 20
-5801.211584
 10
46752.73010954
 20
-5797.6760501
 10
46746.57517797
 20
-5790.98286525
 10
46746.19457563
 20
-5789.06944838
 10
46746.19457563
 20
-5788.47165576
  0
LINE
  5
634
100
AcDbEntity
  8
Ech.1_5
 62
     9
  6
CONTINUOUS
370
    -3
100
AcDbLine
 10
46734.19457563
 20
-5842.37474814
 30
2500.0
 11
46754.19457563
 21
-5858.00206843
 31
2500.0
  0
LINE
  5
635
100
AcDbEntity
  8
Ech.1_5
 62
     9
  6
CONTINUOUS
370
    -3
100
AcDbLine
 10
46734.19457563
 20
-5842.37474814
 30
2500.0
 11
46710.66815079
 21
-5842.37474814
 31
2500.0
  0
LINE
  5
636
100
AcDbEntity
  8
Ech.1_5
 62
   150
  6
CADWORK_22
370
    35
100
AcDbLine
 10
46719.14812944
 20
-5798.15737906
 30
2500.0
 11
46728.32967504
 21
-5807.80412665
 31
2500.0
  0
LWPOLYLINE
  5
637
100
AcDbEntity
  8
Ech.1_5
 62
     1
  6
CADWORK_22
 48
-5.0
370
    35
100
AcDbPolyline
 90
        6
 70
     0
 43
0.0
 10
46707.4474411
 20
-6548.8887395
 10
46707.4474411
 20
-6486.93332663
 10
46743.52898588
 20
-6486.93332663
 10
46751.73674821
 20
-6495.03351966
 10
46758.31610563
 20
-6486.93350592
 10
46784.9752575
 20
-6486.93350592
  0
LWPOLYLINE
  5
638
100
AcDbEntity
  8
Ech.1_5
 62
     3
370
    90
100
AcDbPolyline
 90
        4
 70
     0
 43
0.0
 10
46706.23241616
 20
-6566.13712207
 10
46706.23241616
 20
-6553.14798823
 10
46711.91302913
 20
-6549.21325579
 10
46711.91302913
 20
-6535.734826
  0
LINE
  5
639
100
AcDbEntity
  8
Ech.1_5
 62
   150
  6
CADWORK_22
370
    35
100
AcDbLine
 10
46728.32967504
 20
-5807.80412665
 30
2500.0
 11
46728.32967504
 21
-5844.38712302
 31
2500.0
  0
LWPOLYLINE
  5
63A
100
AcDbEntity
  8
Ech.1_5
 62
   150
  6
CADWORK_22
370
    35
100
AcDbPolyline
 90
        7
 70
     0
 43
0.0
 38
2500.0
 10
46710.66815079
 20
-5757.58669383
 10
46710.72117408
 20
-5738.45230682
 42
-0.33642755
 10
46721.12024583
 20
-5736.04063899
 42
0.41421341
 10
46725.41169728
 20
-5731.74918659
 42
0.41421356
 10
46721.12024583
 20
-5727.45773513
 42
-0.29920957
 10
46710.66815079
 20
-5725.50040347
 10
46710.66815079
 20
-5673.7473994
  0
LWPOLYLINE
  5
63B
100
AcDbEntity
  8
Ech.1_5
 62
     9
  6
CONTINUOUS
370
     5
100
AcDbPolyline
 90
        5
 70
     0
 43
0.0
 10
46734.19457563
 20
-5673.7473994
 10
46710.66815079
 20
-5673.7473994
 10
46710.66815079
 20
-5757.58669383
 10
46734.19457563
 20
-5757.58646686
 10
46734.19457563
 20
-5673.7473994
  0
LINE
  5
63C
100
AcDbEntity
  8
Ech.1_5
 62
     9
  6
CONTINUOUS
370
     5
100
AcDbLine
 10
46734.19457563
 20
-5673.7473994
 30
0.0
 11
46734.19457563
 21
-5673.7473994
 31
0.0
  0
CIRCLE
  5
63D
100
AcDbEntity
  8
Ech.1_5
 62
     7
  6
CONTINUOUS
100
AcDbCircle
 10
46415.13201027
 20
-5580.19083511
 30
0.0
 40
6.16444111
  0
LWPOLYLINE
  5
63E
100
AcDbEntity
  8
Ech.1_5
 62
     3
370
    90
100
AcDbPolyline
 90
        4
 70
     0
 43
0.0
 10
46432.2815757
 20
-5606.60613834
 10
46419.29244228
 20
-5606.60613834
 10
46415.35771014
 20
-5600.92552578
 10
46401.87928014
 20
-5600.92552578
  0
LWPOLYLINE
  5
63F
102
{ACAD_REACTORS
330
640
102
}
100
AcDbEntity
  8
Ech.1_5
 62
     7
  6
CONTINUOUS
370
    -3
100
AcDbPolyline
 90
        4
 70
     1
 43
0.0
 10
46710.66815079
 20
-5788.47040263
 10
46701.66815079
 20
-5788.47040263
 10
46701.66815079
 20
-5931.87315074
 10
46710.66815079
 20
-5931.87315074
  0
HATCH
  5
640
100
AcDbEntity
  8
Ech.1_5
 62
   190
  6
CONTINUOUS
100
AcDbHatch
 10
0.0
 20
0.0
 30
0.0
210
0.0
220
0.0
230
1.0
  2
CDWK10A
 70
     0
 71
     1
 91
        1
 92
        7
 72
     0
 73
     1
 93
        4
 10
46710.66815079
 20
-5788.47040263
 10
46701.66815079
 20
-5788.47040263
 10
46701.66815079
 20
-5931.87315074
 10
46710.66815079
 20
-5931.87315074
 97
        1
330
63F
 75
     0
 76
     2
 52
0.0
 41
1.0
 77
     0
 78
     3
 53
45.0
 43
0.0
 44
0.0
 45
0.0
 46
42.00000167
 79
     0
 53
45.0
 43
0.0
 44
10.80000043
 45
0.0
 46
42.00000167
 79
     0
 53
45.0
 43
0.0
 44
21.60000086
 45
0.0
 46
42.00000167
 79
     0
 47
0.775229
 98
        1
 10
0.0
 20
0.0
  0
LWPOLYLINE
  5
641
100
AcDbEntity
  8
Ech.1_5
 62
     1
  6
CADWORK_22
 48
-5.0
370
    35
100
AcDbPolyline
 90
        3
 70
     0
 43
0.0
 10
46703.16815079
 20
-5940.70097438
 10
46712.20028013
 20
-5931.87315074
 10
46712.20028013
 20
-5870.34134951
  0
LWPOLYLINE
  5
642
100
AcDbEntity
  8
Ech.1_5
 62
     7
  6
CONTINUOUS
370
    80
100
AcDbPolyline
 90
        7
 70
     0
 43
0.0
 10
46460.14172596
 20
-5711.86835105
 10
46457.14172596
 20
-5717.86835105
 10
46457.14172596
 20
-5657.86835105
 10
46754.66385191
 20
-5669.76714046
 10
46766.19457563
 20
-5670.22828777
 10
46766.19457563
 20
-5718.22828777
 10
46763.19457563
 20
-5712.22828777
  0
LINE
  5
643
100
AcDbEntity
  8
Ech.1_5
 62
     7
  6
CADWORK_13
370
    -3
100
AcDbLine
 10
46705.93025091
 20
-6146.87315074
 30
0.0
 11
47207.11924369
 21
-6146.87315074
 31
0.0
  0
LINE
  5
644
100
AcDbEntity
  8
Ech.1_5
 62
     7
  6
CONTINUOUS
370
    -3
100
AcDbLine
 10
47024.88204957
 20
-6266.87315074
 30
0.0
 11
47024.88204957
 21
-6146.87315074
 31
0.0
  0
INSERT
  5
645
100
AcDbEntity
  8
Ech.1_5
 62
     7
  6
CONTINUOUS
370
    -3
100
AcDbBlockReference
  2
CDWK_EXTR_2
 10
47024.88204957
 20
-6266.87315074
 30
0.0
 41
10.0
 42
10.0
 43
10.0
 50
90.0
  0
INSERT
  5
646
100
AcDbEntity
  8
Ech.1_5
 62
     7
  6
CONTINUOUS
370
    -3
100
AcDbBlockReference
  2
CDWK_EXTR_2
 10
47024.88204957
 20
-6146.87315074
 30
0.0
 41
10.0
 42
10.0
 43
10.0
 50
270.0
  0
LWPOLYLINE
  5
647
100
AcDbEntity
  8
Ech.1_5
 62
   190
  6
CONTINUOUS
370
    -3
100
AcDbPolyline
 90
       36
 70
     0
 43
0.0
 10
46663.93652148
 20
-6197.41866008
 10
46559.46569915
 20
-6169.46311942
 42
0.06551677
 10
46551.70432521
 20
-6168.44089022
 42
1.0
 10
46551.69789577
 20
-6228.44089022
 42
0.06557045
 10
46559.46569915
 20
-6227.41866008
 10
46663.93652148
 20
-6199.46311942
 42
-0.06551677
 10
46671.69789545
 20
-6198.44089022
 42
1.0
 10
46671.70432484
 20
-6138.44089022
 42
-0.06557045
 10
46663.93652148
 20
-6137.41866008
 10
46559.46569915
 20
-6109.46311942
 42
0.06551677
 10
46551.70432521
 20
-6108.44089022
 42
1.0
 10
46551.69789577
 20
-6168.44089022
 42
0.06557045
 10
46559.46569915
 20
-6167.41866008
 10
46663.93652148
 20
-6139.46311942
 42
-0.06551677
 10
46671.69789545
 20
-6138.44089022
 42
0.99999999
 10
46671.70432484
 20
-6078.44089022
 42
-0.06557045
 10
46663.93652148
 20
-6077.41866008
 10
46559.46569915
 20
-6049.46311942
 42
0.06551677
 10
46551.70432521
 20
-6048.44089022
 42
1.0
 10
46551.69789577
 20
-6108.44089022
 42
0.06557045
 10
46559.46569915
 20
-6107.41866008
 10
46663.93652148
 20
-6079.46311942
 42
-0.06551677
 10
46671.69789545
 20
-6078.44089022
 42
1.0
 10
46671.70432484
 20
-6018.44089022
 42
-0.06557045
 10
46663.93652148
 20
-6017.41866008
 10
46559.46569915
 20
-5989.46311942
 42
0.06551831
 10
46551.70413237
 20
-5988.44088927
 42
0.99999677
 10
46551.69789577
 20
-6048.44089022
 42
0.06557045
 10
46559.46569915
 20
-6047.41866008
 10
46663.93652148
 20
-6019.46311942
 42
-0.06551677
 10
46671.69789545
 20
-6018.44089022
 42
-1.00010716
 10
46671.69789545
 20
-6078.44089022
 42
-1.00010716
 10
46671.69789545
 20
-6138.44089022
 42
-1.00010716
 10
46671.69789545
 20
-6198.44089022
 42
-1.00010716
 10
46671.69789545
 20
-6258.44089022
 42
1.0
 10
46671.70432484
 20
-6198.44089022
  0
LWPOLYLINE
  5
648
100
AcDbEntity
  8
Ech.1_5
 62
   190
  6
CONTINUOUS
370
    -3
100
AcDbPolyline
 90
       17
 70
     0
 43
0.0
 10
46700.47500702
 20
-5920.08505717
 42
-0.49776925
 10
46671.61981922
 20
-5958.28216735
 42
-0.06557045
 10
46663.85201586
 20
-5957.2599372
 10
46559.38119354
 20
-5929.30439654
 42
0.06551676
 10
46551.61981959
 20
-5928.28216735
 42
0.99999999
 10
46551.61339015
 20
-5988.28216735
 42
0.06557045
 10
46559.38119354
 20
-5987.2599372
 10
46663.85201586
 20
-5959.30439654
 42
-0.06551676
 10
46671.61338983
 20
-5958.28216735
 42
-0.99999794
 10
46671.61994389
 20
-6018.28216639
 42
-0.06557173
 10
46663.85201586
 20
-6017.2599372
 10
46559.38119354
 20
-5989.30439654
 42
0.06551676
 10
46551.61981959
 20
-5988.28216735
 42
1.14034343
 10
46559.38119354
 20
-6047.2599372
 10
46663.85201586
 20
-6019.30439654
 42
-0.06551572
 10
46671.61326525
 20
-6018.28216639
 42
-0.72558186
 10
46689.31387201
 20
-6072.50626078
  0
LWPOLYLINE
  5
649
100
AcDbEntity
  8
Ech.1_5
 62
     3
370
    90
100
AcDbPolyline
 90
        4
 70
     0
 43
0.0
 10
46714.6965414
 20
-5881.48217479
 10
46714.6965414
 20
-5868.49304095
 10
46710.54933576
 20
-5864.17212573
 10
46710.54933576
 20
-5850.46834746
  0
LWPOLYLINE
  5
64A
100
AcDbEntity
  8
Ech.1_5
 62
     3
370
    90
100
AcDbPolyline
 90
        4
 70
     0
 43
0.0
 10
46726.71205543
 20
-5862.15921775
 10
46726.71205543
 20
-5849.17008391
 10
46732.39266839
 20
-5845.23535147
 10
46732.39266839
 20
-5831.75692168
  0
LWPOLYLINE
  5
64B
100
AcDbEntity
  8
Ech.1_5
 62
   190
  6
CONTINUOUS
370
    -3
100
AcDbPolyline
 90
        4
 70
     1
 43
0.0
 10
46701.66815079
 20
-5718.7473994
 10
46701.66815079
 20
-5673.7473994
 10
46521.66815079
 20
-5673.7473994
 10
46521.66815079
 20
-5718.7473994
  0
LWPOLYLINE
  5
64C
100
AcDbEntity
  8
Ech.1_5
 62
     5
  6
CONTINUOUS
370
    -3
100
AcDbPolyline
 90
        5
 70
     0
 43
0.0
 10
46521.66815079
 20
-5718.7473994
 10
46521.66815079
 20
-5673.7473994
 10
46701.66815079
 20
-5673.7473994
 10
46701.66815079
 20
-5718.7473994
 10
46521.66815079
 20
-5718.7473994
  0
LINE
  5
64D
100
AcDbEntity
  8
Ech.1_5
 62
   150
  6
CADWORK_22
370
    35
100
AcDbLine
 10
46710.66815079
 20
-5673.7473994
 30
0.0
 11
46512.66815079
 21
-5673.7473994
 31
0.0
  0
LWPOLYLINE
  5
64E
100
AcDbEntity
  8
Ech.1_5
 62
     9
100
AcDbPolyline
 90
       27
 70
     0
 43
0.0
 10
46476.01510883
 20
-6504.85845366
 10
46476.14172596
 20
-6504.52398005
 10
46476.14172596
 20
-6477.14051619
 10
46483.14172596
 20
-6477.14051619
 10
46483.14172596
 20
-6486.14051619
 10
46489.14172595
 20
-6486.14051619
 10
46489.14172595
 20
-6459.14051619
 10
46485.14172596
 20
-6455.14051619
 10
46489.14172596
 20
-6451.14051619
 10
46489.14172595
 20
-6387.14051619
 10
46485.14172596
 20
-6383.14051619
 10
46489.14172595
 20
-6379.14051619
 10
46489.14172596
 20
-6344.14051619
 10
46482.14172596
 20
-6344.14051619
 10
46482.14172596
 20
-6338.14051619
 10
46479.64172596
 20
-6333.14051619
 10
46477.14172596
 20
-6338.14051619
 10
46477.14172596
 20
-6369.06944838
 10
46476.76112362
 20
-6370.98286525
 10
46470.60619205
 20
-6377.6760501
 10
46469.14172596
 20
-6381.211584
 10
46469.14172596
 20
-6500.29832831
 10
46470.10204835
 20
-6501.92819682
 10
46474.83816921
 20
-6504.89954654
 10
46475.25017058
 20
-6505.14051619
 10
46475.56398807
 20
-6505.14051619
 10
46476.01510883
 20
-6504.85845366
  0
LWPOLYLINE
  5
64F
100
AcDbEntity
  8
Ech.1_5
 62
     9
100
AcDbPolyline
 90
       17
 70
     0
 43
0.0
 10
46489.14172595
 20
-6604.61829272
 10
46489.14172595
 20
-6604.14051619
 10
46485.14172596
 20
-6600.14051619
 10
46489.14172596
 20
-6596.14051619
 10
46489.14172595
 20
-6532.14051619
 10
46485.14172596
 20
-6528.14051619
 10
46489.14172595
 20
-6524.14051619
 10
46489.14172596
 20
-6489.14051619
 10
46482.14172596
 20
-6489.14051619
 10
46482.14172596
 20
-6483.14051619
 10
46479.64172596
 20
-6478.14051619
 10
46477.14172596
 20
-6483.14051619
 10
46477.14172596
 20
-6514.06944838
 10
46476.76112362
 20
-6515.98286525
 10
46470.60619205
 20
-6522.6760501
 10
46469.14172596
 20
-6526.211584
 10
46469.14172596
 20
-6604.61820784
  0
LWPOLYLINE
  5
650
100
AcDbEntity
  8
Ech.1_5
 62
     7
  6
CONTINUOUS
370
    80
100
AcDbPolyline
 90
        4
 70
     0
 43
0.0
 10
46741.98418574
 20
-5917.06444008
 10
46741.98418574
 20
-5917.06444008
 10
46722.89526137
 20
-5905.93469088
 10
46722.8050743
 20
-5811.91003314
  0
LWPOLYLINE
  5
651
100
AcDbEntity
  8
Ech.1_5
 62
     7
  6
CONTINUOUS
370
    80
100
AcDbPolyline
 90
        3
 70
     0
 43
0.0
 10
46741.98418574
 20
-5917.06444008
 10
46741.98418574
 20
-5980.28119522
 10
46738.98418574
 20
-5974.28119522
  0
LWPOLYLINE
  5
652
100
AcDbEntity
  8
Ech.1_5
 62
   190
  6
CONTINUOUS
370
    -3
100
AcDbPolyline
 90
        5
 70
     0
 43
0.0
 10
46378.71842126
 20
-6880.17682778
 10
47363.71842126
 20
-6880.17682778
 10
47363.71842126
 20
-5525.17682778
 10
46378.71842126
 20
-5525.17682778
 10
46378.71842126
 20
-6880.17682778
  0
LWPOLYLINE
  5
653
100
AcDbEntity
  8
Ech.1_5
 62
     7
  6
CONTINUOUS
370
   120
100
AcDbPolyline
 90
        3
 70
     0
 43
5.0
 10
47042.08015132
 20
-6264.64784829
 10
46716.70255232
 20
-6264.64784829
 10
46716.70255232
 20
-5941.39956512
  0
LWPOLYLINE
  5
654
100
AcDbEntity
  8
Ech.1_5
 62
   190
  6
CONTINUOUS
370
    -3
100
AcDbPolyline
 90
        6
 70
     0
 43
0.0
 10
46801.91234899
 20
-6604.61727992
 10
46654.60254199
 20
-6604.61890975
 10
46638.11703883
 20
-6622.59625808
 10
46652.22697885
 20
-6586.64055816
 10
46635.74062477
 20
-6604.61890975
 10
46449.14172596
 20
-6604.61812392
  0
LWPOLYLINE
  5
655
100
AcDbEntity
  8
Ech.1_5
 62
   190
100
AcDbPolyline
 90
        5
 70
     0
 43
0.0
 10
47211.99470227
 20
-5548.25485079
 10
47346.42348126
 20
-5548.25485079
 10
47346.42348126
 20
-5604.9778096
 10
47211.99470227
 20
-5604.9778096
 10
47211.99470227
 20
-5548.25485079
  0
HATCH
  5
656
100
AcDbEntity
  8
Ech.1_5
 62
   190
100
AcDbHatch
 10
0.0
 20
0.0
 30
0.0
210
0.0
220
0.0
230
1.0
  2
SOLID
 70
     1
 71
     0
 91
        1
 92
        7
 72
     0
 73
     1
 93
        4
 10
47230.27474806
 20
-5581.91166191
 10
47280.27474806
 20
-5581.91166191
 10
47280.27474806
 20
-5574.49652438
 10
47230.27474806
 20
-5574.49652438
 97
        0
 75
     0
 76
     2
 47
0.775229
 98
        1
 10
0.0
 20
0.0
  0
LWPOLYLINE
  5
657
100
AcDbEntity
  8
Ech.1_5
 62
   190
100
AcDbPolyline
 90
        5
 70
     0
 43
0.0
 10
47230.27474806
 20
-5581.91166191
 10
47280.27474806
 20
-5581.91166191
 10
47280.27474806
 20
-5574.49652438
 10
47230.27474806
 20
-5574.49652438
 10
47230.27474806
 20
-5581.91166191
  0
LWPOLYLINE
  5
658
100
AcDbEntity
  8
Ech.1_5
 62
   190
100
AcDbPolyline
 90
        5
 70
     0
 43
0.0
 10
47280.27474806
 20
-5581.91166191
 10
47330.27474806
 20
-5581.91166191
 10
47330.27474806
 20
-5574.49652438
 10
47280.27474806
 20
-5574.49652438
 10
47280.27474806
 20
-5581.91166191
  0
TEXT
  5
659
100
AcDbEntity
  8
Ech.1_5
 62
     7
370
    18
100
AcDbText
 10
47042.06153473
 20
-6216.80988303
 30
0.0
 40
17.5
  1
Hauteur X d'isolant
  7
TAHOMA
 50
0.0
 41
0.7
 51
10.0
100
AcDbText
  0
TEXT
  5
65A
100
AcDbEntity
  8
Ech.1_5
 62
   190
100
AcDbText
 10
47241.56904069
 20
-5564.9105213
 30
0.0
 40
8.00000012
  1
Echelle en mm
  7
ARIAL
 50
0.0
 41
1.0
 51
0.0
100
AcDbText
  0
TEXT
  5
65B
100
AcDbEntity
  8
Ech.1_5
 62
   190
100
AcDbText
 10
47227.58845594
 20
-5593.12035683
 30
0.0
 40
8.00000012
  1
0
  7
ARIAL
 50
0.0
 41
1.0
 51
0.0
100
AcDbText
  0
TEXT
  5
65C
100
AcDbEntity
  8
Ech.1_5
 62
   190
100
AcDbText
 10
47314.18551383
 20
-5593.12035683
 30
0.0
 40
8.00000012
  1
100
  7
ARIAL
 50
0.0
 41
1.0
 51
0.0
100
AcDbText
  0
TEXT
  5
65D
100
AcDbEntity
  8
Ech.1_5
 62
   190
100
AcDbText
 10
47275.44508226
 20
-5593.12035683
 30
0.0
 40
8.00000012
  1
50
  7
ARIAL
 50
0.0
 41
1.0
 51
0.0
100
AcDbText
  0
ENDSEC
  0
SECTION
  2
OBJECTS
  0
DICTIONARY
  5
1
100
AcDbDictionary
  3
ACAD_GROUP
350
2
  3
ACAD_MLINESTYLE
350
3
  0
DICTIONARY
  5
2
102
{CDWK_REACTORS
330
1
102
}
100
AcDbDictionary
  0
DICTIONARY
  5
3
102
{CDWK_REACTORS
330
1
102
}
100
AcDbDictionary
  3
STANDARD
350
4
  0
MLINESTYLE
  5
4
102
{CDWK_REACTORS
330
3
102
}
100
AcDbMlineStyle
  2
STANDARD
 70
     0
  3

 62
     0
 51
90.0
 52
90.0
 71
     2
 49
0.5
 62
   256
  6
BYLAYER
 49
-0.5
 62
   256
  6
BYLAYER
  0
ENDSEC
  0
EOF
