  0
SECTION
  2
HEADER
  9
$ACADVER
  1
AC1014
  9
$DWGCODEPAGE
  3
ANSI_1252
  9
$INSBASE
 10
0.0
 20
0.0
 30
0.0
  9
$EXTMIN
 10
1033.98771282
 20
-21718.34332712
  9
$EXTMAX
 10
122326.07664696
 20
2240.3362527
  9
$LIMMIN
 10
1033.98771282
 20
-21718.34332712
  9
$LIMMAX
 10
122326.07664696
 20
2240.3362527
  9
$ORTHOMODE
 70
     0
  9
$REGENMODE
 70
     1
  9
$FILLMODE
 70
     1
  9
$QTEXTMODE
 70
     0
  9
$MIRRTEXT
 70
     1
  9
$DRAGMODE
 70
     2
  9
$LTSCALE
 40
5.0
  9
$OSMODE
 70
     0
  9
$ATTMODE
 70
     1
  9
$TEXTSIZE
 40
3.5
  9
$TRACEWID
 40
1.0
  9
$TEXTSTYLE
  7
STANDARD
  9
$CLAYER
  8
0
  9
$CELTYPE
  6
BYLAYER
  9
$CECOLOR
 62
   256
  9
$DIMSCALE
 40
1.0
  9
$DIMASZ
 40
2.0
  9
$DIMEXO
 40
5.0
  9
$DIMDLI
 40
10.0
  9
$DIMRND
 40
0.0
  9
$DIMDLE
 40
2.0
  9
$DIMEXE
 40
2.0
  9
$DIMTP
 40
0.0
  9
$DIMTM
 40
0.0
  9
$DIMTXT
 40
2.5
  9
$DIMCEN
 40
1.5
  9
$DIMTSZ
 40
0.0
  9
$DIMTOL
 70
     0
  9
$DIMLIM
 70
     0
  9
$DIMTIH
 70
     1
  9
$DIMTOH
 70
     0
  9
$DIMSE1
 70
     0
  9
$DIMSE2
 70
     0
  9
$DIMTAD
 70
     1
  9
$DIMZIN
 70
     8
  9
$DIMBLK
  1

  9
$DIMASO
 70
     1
  9
$DIMSHO
 70
     1
  9
$DIMPOST
  1

  9
$DIMAPOST
  1

  9
$DIMALT
 70
     0
  9
$DIMALTD
 70
     2
  9
$DIMALTF
 40
25.4
  9
$DIMLFAC
 40
1.0
  9
$DIMTOFL
 70
     0
  9
$DIMTVP
 40
0.0
  9
$DIMTIX
 70
     0
  9
$DIMSOXD
 70
     0
  9
$DIMSAH
 70
     0
  9
$DIMBLK1
  1

  9
$DIMBLK2
  1

  9
$DIMSTYLE
  2
*UNNAMED
  9
$DIMCLRD
 70
   190
  9
$DIMCLRE
 70
   190
  9
$DIMCLRT
 70
   190
  9
$DIMTFAC
 40
1.0
  9
$DIMGAP
 40
0.09
  9
$DIMUNIT
 70
     2
  9
$LUNITS
 70
     2
  9
$LUPREC
 70
     6
  9
$AXISMODE
 70
     0
  9
$AXISUNIT
 10
0.0
 20
0.0
  9
$SKETCHINC
 40
0.1
  9
$FILLETRAD
 40
0.0
  9
$AUNITS
 70
     0
  9
$AUPREC
 70
     0
  9
$MENU
  1
ACAD
  9
$ELEVATION
 40
0.0
  9
$PELEVATION
 40
0.0
  9
$THICKNESS
 40
0.0
  9
$LIMCHECK
 70
     0
  9
$BLIPMODE
 70
     1
  9
$CHAMFERA
 40
0.0
  9
$CHAMFERB
 40
0.0
  9
$SKPOLY
 70
     1
  9
$TDCREATE
 40
2457808.0000000000
  9
$TDUPDATE
 40
2457808.0000000000
  9
$TDINDWG
 40
0.0
  9
$TDUSRTIMER
 40
0.0
  9
$USRTIMER
 70
     1
  9
$ANGBASE
 50
0.0
  9
$ANGDIR
 70
     0
  9
$PDMODE
 70
     0
  9
$PDSIZE
 40
0.0
  9
$PLINEWID
 40
0.0
  9
$COORDS
 70
     2
  9
$SPLFRAME
 70
     0
  9
$SPLINETYPE
 70
     6
  9
$SPLINESEGS
 70
     8
  9
$ATTDIA
 70
     1
  9
$ATTREQ
 70
     1
  9
$HANDLING
 70
     1
  9
$HANDSEED
  5
     62F
  9
$SURFTAB1
 70
     6
  9
$SURFTAB2
 70
     6
  9
$SURFTYPE
 70
     6
  9
$SURFU
 70
     6
  9
$SURFV
 70
     6
  9
$UCSNAME
  2

  9
$UCSORG
 10
0.0
 20
0.0
 30
0.0
  9
$UCSXDIR
 10
1.0
 20
0.0
 30
0.0
  9
$UCSYDIR
 10
0.0
 20
1.0
 30
0.0
  9
$PUCSNAME
  2

  9
$PUCSORG
 10
0.0
 20
0.0
 30
0.0
  9
$PUCSXDIR
 10
1.0
 20
0.0
 30
0.0
  9
$PUCSYDIR
 10
0.0
 20
1.0
 30
0.0
  9
$USERI1
 70
     0
  9
$USERI2
 70
     0
  9
$USERI3
 70
     0
  9
$USERI4
 70
     0
  9
$USERI5
 70
     0
  9
$USERR1
 40
0.0
  9
$USERR2
 40
0.0
  9
$USERR3
 40
0.0
  9
$USERR4
 40
0.0
  9
$USERR5
 40
0.0
  9
$WORLDVIEW
 70
     1
  9
$SHADEDGE
 70
     3
  9
$SHADEDIF
 70
    70
  9
$TILEMODE
 70
     1
  9
$MAXACTVP
 70
    16
  9
$PINSBASE
 10
0.0
 20
0.0
 30
0.0
  9
$PLIMCHECK
 70
     0
  9
$PEXTMIN
 10
1.0000000000000E+20
 20
1.0000000000000E+20
 30
1.0000000000000E+20
  9
$PEXTMAX
 10
-1.0000000000000E+20
 20
-1.0000000000000E+20
 30
-1.0000000000000E+20
  9
$PLIMMIN
 10
0.0
 20
0.0
  9
$UNITMODE
 70
     0
  9
$VISRETAIN
 70
     0
  9
$MEASUREMENT
 70
     1
  0
ENDSEC
  0
SECTION
  2
TABLES
  0
TABLE
  2
VPORT
  5
4A2
100
AcDbSymbolTable
 70
     1
  0
ENDTAB
  0
TABLE
  2
STYLE
  5
4A3
100
AcDbSymbolTable
 70
     3
  0
STYLE
  5
4A4
100
AcDbSymbolTableRecord
100
AcDbTextStyleTableRecord
  2
STANDARD
 70
     0
 40
0.0
 41
1.0
 50
0.0
 71
     0
 42
3.5
  3
MONOTXT
  4

  0
STYLE
  5
4A5
100
AcDbSymbolTableRecord
100
AcDbTextStyleTableRecord
  2
SYMAP
 70
     0
 40
0.0
 41
1.0
 50
0.0
 71
     0
 42
3.5
  3
SYMAP
  4

  0
STYLE
  5
4A6
100
AcDbSymbolTableRecord
100
AcDbTextStyleTableRecord
  2
CADWORK1
 70
     0
 40
0.0
 41
1.0
 50
0.0
 71
     0
 42
3.5
  3
MONOTXT
  4

  0
STYLE
  5
4A7
100
AcDbSymbolTableRecord
100
AcDbTextStyleTableRecord
  2
MONOTXT
 70
     0
 40
0.0
 41
1.0
 50
0.0
 71
     0
 42
3.5
  3
MONOTXT
  4

  0
STYLE
  5
4A8
100
AcDbSymbolTableRecord
100
AcDbTextStyleTableRecord
  2
ARIAL
 70
     0
 40
0.0
 41
1.0
 50
0.0
 71
     0
 42
3.5
  3

  4

1001
ACAD
1000
Arial
1071
        0
  0
ENDTAB
  0
TABLE
  2
LTYPE
  5
4A9
100
AcDbSymbolTable
 70
    15
  0
LTYPE
  5
4AA
100
AcDbSymbolTableRecord
100
AcDbLinetypeTableRecord
  2
BYBLOCK
 70
    64
  3

 72
    65
 73
     0
 40
0.0
  0
LTYPE
  5
4AB
100
AcDbSymbolTableRecord
100
AcDbLinetypeTableRecord
  2
BYLAYER
 70
    64
  3

 72
    65
 73
     0
 40
0.0
  0
LTYPE
  5
4AC
100
AcDbSymbolTableRecord
100
AcDbLinetypeTableRecord
  2
CONTINUOUS
 70
    64
  3
Solid line
 72
    65
 73
     0
 40
0.0
  0
LTYPE
  5
4AD
100
AcDbSymbolTableRecord
100
AcDbLinetypeTableRecord
  2
DOT2
 70
    64
  3
...............................................
 72
    65
 73
     2
 40
1.25
 49
0.0
 74
     0
 49
-1.25
 74
     0
  0
LTYPE
  5
4AE
100
AcDbSymbolTableRecord
100
AcDbLinetypeTableRecord
  2
CADWORK_13
 70
    64
  3
13 =======================================
 72
    65
 73
     2
 40
4.0
 49
2.0
 74
     0
 49
-2.0
 74
     0
  0
LTYPE
  5
4AF
100
AcDbSymbolTableRecord
100
AcDbLinetypeTableRecord
  2
DASHDOT
 70
    64
  3
 __ . __ . __ . __ . __ . __ . __ . __ . __ . __
 72
    65
 73
     4
 40
10.0
 49
5.0
 74
     0
 49
-2.5
 74
     0
 49
0.0
 74
     0
 49
-2.5
 74
     0
  0
LTYPE
  5
4B0
100
AcDbSymbolTableRecord
100
AcDbLinetypeTableRecord
  2
CENTER
 70
    64
  3
 ____ _ ____ _ ____ _ ____ _ ____ _ ____ _ ____
 72
    65
 73
     4
 40
20.0
 49
12.5
 74
     0
 49
-2.5
 74
     0
 49
2.5
 74
     0
 49
-2.5
 74
     0
  0
LTYPE
  5
4B1
100
AcDbSymbolTableRecord
100
AcDbLinetypeTableRecord
  2
DASHEDX2
 70
    64
  3
____  ____  ____  ____  ____  ____  ____  ____
 72
    65
 73
     2
 40
3.75
 49
2.5
 74
     0
 49
-1.25
 74
     0
  0
LTYPE
  5
4B2
100
AcDbSymbolTableRecord
100
AcDbLinetypeTableRecord
  2
CADWORK_22
 70
    64
  3
22 =======================================
 72
    65
 73
     0
 40
0.0
  0
LTYPE
  5
4B3
100
AcDbSymbolTableRecord
100
AcDbLinetypeTableRecord
  2
DAL
 70
    64
  3
Solid line (for MAPS)
 72
    65
 73
     0
 40
0.0
  0
LTYPE
  5
4B4
100
AcDbSymbolTableRecord
100
AcDbLinetypeTableRecord
  2
MUR
 70
    64
  3
Solid line (for MAPS)
 72
    65
 73
     0
 40
0.0
  0
LTYPE
  5
4B5
100
AcDbSymbolTableRecord
100
AcDbLinetypeTableRecord
  2
SOM
 70
    64
  3
Solid line (for MAPS)
 72
    65
 73
     0
 40
0.0
  0
LTYPE
  5
4B6
100
AcDbSymbolTableRecord
100
AcDbLinetypeTableRecord
  2
COL
 70
    64
  3
Solid line (for MAPS)
 72
    65
 73
     0
 40
0.0
  0
LTYPE
  5
4B7
100
AcDbSymbolTableRecord
100
AcDbLinetypeTableRecord
  2
LGN
 70
    64
  3
Solid line (for MAPS)
 72
    65
 73
     0
 40
0.0
  0
LTYPE
  5
4B8
100
AcDbSymbolTableRecord
100
AcDbLinetypeTableRecord
  2
PNT
 70
    64
  3
Solid line (for MAPS)
 72
    65
 73
     0
 40
0.0
  0
ENDTAB
  0
TABLE
  2
LAYER
  5
4B9
100
AcDbSymbolTable
 70
    32
  0
LAYER
  5
4BA
100
AcDbSymbolTableRecord
100
AcDbLayerTableRecord
  2
Standard
 70
     0
 62
     7
  6
CONTINUOUS
370
    -3
  0
LAYER
  5
4BB
100
AcDbSymbolTableRecord
100
AcDbLayerTableRecord
  2
Ech.1_1
 70
     0
 62
     7
  6
CONTINUOUS
370
    -3
  0
LAYER
  5
4BC
100
AcDbSymbolTableRecord
100
AcDbLayerTableRecord
  2
Ech.1_2
 70
     0
 62
     7
  6
CONTINUOUS
370
    -3
  0
LAYER
  5
4BD
100
AcDbSymbolTableRecord
100
AcDbLayerTableRecord
  2
Ech.1_5
 70
     0
 62
     7
  6
CONTINUOUS
370
    -3
  0
LAYER
  5
4BE
100
AcDbSymbolTableRecord
100
AcDbLayerTableRecord
  2
Ech.1_10
 70
     0
 62
     7
  6
CONTINUOUS
370
    -3
  0
LAYER
  5
4BF
100
AcDbSymbolTableRecord
100
AcDbLayerTableRecord
  2
Ech.1_20
 70
     0
 62
     7
  6
CONTINUOUS
370
    -3
  0
LAYER
  5
4C0
100
AcDbSymbolTableRecord
100
AcDbLayerTableRecord
  2
Ech.1_25
 70
     0
 62
     7
  6
CONTINUOUS
370
    -3
  0
LAYER
  5
4C1
100
AcDbSymbolTableRecord
100
AcDbLayerTableRecord
  2
Ech.1_33
 70
     0
 62
     7
  6
CONTINUOUS
370
    -3
  0
LAYER
  5
4C2
100
AcDbSymbolTableRecord
100
AcDbLayerTableRecord
  2
Ech.1_50
 70
     0
 62
     7
  6
CONTINUOUS
370
    -3
  0
LAYER
  5
4C3
100
AcDbSymbolTableRecord
100
AcDbLayerTableRecord
  2
Ech.1_75
 70
     0
 62
     7
  6
CONTINUOUS
370
    -3
  0
LAYER
  5
4C4
100
AcDbSymbolTableRecord
100
AcDbLayerTableRecord
  2
Ech.1_100
 70
     0
 62
     7
  6
CONTINUOUS
370
    -3
  0
LAYER
  5
4C5
100
AcDbSymbolTableRecord
100
AcDbLayerTableRecord
  2
Ech.1_200
 70
     0
 62
     7
  6
CONTINUOUS
370
    -3
  0
LAYER
  5
4C6
100
AcDbSymbolTableRecord
100
AcDbLayerTableRecord
  2
Ech.1_500
 70
     0
 62
     7
  6
CONTINUOUS
370
    -3
  0
LAYER
  5
4C7
100
AcDbSymbolTableRecord
100
AcDbLayerTableRecord
  2
Ech.1_1000
 70
     0
 62
     7
  6
CONTINUOUS
370
    -3
  0
LAYER
  5
4C8
100
AcDbSymbolTableRecord
100
AcDbLayerTableRecord
  2
Cadres traceur
 70
     0
 62
     7
  6
CONTINUOUS
370
    18
  0
LAYER
  5
4C9
100
AcDbSymbolTableRecord
100
AcDbLayerTableRecord
  2
Cadres laser
 70
     0
 62
     7
  6
CONTINUOUS
370
    18
  0
LAYER
  5
4CA
100
AcDbSymbolTableRecord
100
AcDbLayerTableRecord
  2
Légende d_aide
 70
     0
 62
     7
  6
CONTINUOUS
370
    18
  0
LAYER
  5
4CB
100
AcDbSymbolTableRecord
100
AcDbLayerTableRecord
  2
hachures ok
 70
     0
 62
     7
  6
CONTINUOUS
370
    18
  0
LAYER
  5
4CC
100
AcDbSymbolTableRecord
100
AcDbLayerTableRecord
  2
ossature bois
 70
     0
 62
     7
  6
CONTINUOUS
370
    18
  0
LAYER
  5
4CD
100
AcDbSymbolTableRecord
100
AcDbLayerTableRecord
  2
VR
 70
     0
 62
     7
  6
CONTINUOUS
370
    25
  0
LAYER
  5
4CE
100
AcDbSymbolTableRecord
100
AcDbLayerTableRecord
  2
Calque1
 70
     0
 62
     7
  6
CONTINUOUS
370
     9
  0
LAYER
  5
4CF
100
AcDbSymbolTableRecord
100
AcDbLayerTableRecord
  2
0
 70
     0
 62
     7
  6
CONTINUOUS
370
    -3
  0
LAYER
  5
4D0
100
AcDbSymbolTableRecord
100
AcDbLayerTableRecord
  2
menuiserie
 70
     0
 62
     7
  6
CONTINUOUS
370
    -3
  0
LAYER
  5
4D1
100
AcDbSymbolTableRecord
100
AcDbLayerTableRecord
  2
cotation
 70
     0
 62
   250
  6
CONTINUOUS
370
     9
  0
LAYER
  5
4D2
100
AcDbSymbolTableRecord
100
AcDbLayerTableRecord
  2
Defpoints
 70
     0
 62
    10
  6
CONTINUOUS
370
    -3
  0
LAYER
  5
4D3
100
AcDbSymbolTableRecord
100
AcDbLayerTableRecord
  2
HACHURE
 70
     0
 62
   254
  6
CONTINUOUS
370
    25
  0
LAYER
  5
4D4
100
AcDbSymbolTableRecord
100
AcDbLayerTableRecord
  2
mat1
 70
     0
 62
     7
  6
CONTINUOUS
370
    30
  0
LAYER
  5
4D5
100
AcDbSymbolTableRecord
100
AcDbLayerTableRecord
  2
mat2
 70
     0
 62
     7
  6
CONTINUOUS
370
     5
  0
LAYER
  5
4D6
100
AcDbSymbolTableRecord
100
AcDbLayerTableRecord
  2
hach
 70
     0
 62
     8
  6
CONTINUOUS
370
     5
  0
LAYER
  5
4D7
100
AcDbSymbolTableRecord
100
AcDbLayerTableRecord
  2
menuiseries
 70
     0
 62
     7
  6
CONTINUOUS
370
     9
  0
LAYER
  5
4D8
100
AcDbSymbolTableRecord
100
AcDbLayerTableRecord
  2
BétonMétal
 70
     0
 62
     7
  6
CONTINUOUS
370
    80
  0
LAYER
  5
4D9
100
AcDbSymbolTableRecord
100
AcDbLayerTableRecord
  2
bois
 70
     0
 62
     7
  6
CONTINUOUS
370
    60
  0
ENDTAB
  0
TABLE
  2
VIEW
  5
4DA
100
AcDbSymbolTable
 70
     0
  0
ENDTAB
  0
TABLE
  2
UCS
  5
4DB
100
AcDbSymbolTable
 70
     0
  0
ENDTAB
  0
TABLE
  2
APPID
  5
4DC
100
AcDbSymbolTable
 70
     1
  0
APPID
  5
4DD
100
AcDbSymbolTableRecord
100
AcDbRegAppTableRecord
  2
ACAD
 70
     0
  0
ENDTAB
  0
TABLE
  2
DIMSTYLE
  5
4DE
100
AcDbSymbolTable
 70
     0
  0
ENDTAB
  0
TABLE
  2
BLOCK_RECORD
  5
4DF
100
AcDbSymbolTable
 70
     0
  0
BLOCK_RECORD
  5
4E0
100
AcDbSymbolTableRecord
100
AcDbBlockTableRecord
  2
*MODEL_SPACE
  0
BLOCK_RECORD
  5
4E1
100
AcDbSymbolTableRecord
100
AcDbBlockTableRecord
  2
*PAPER_SPACE
  0
BLOCK_RECORD
  5
4E2
100
AcDbSymbolTableRecord
100
AcDbBlockTableRecord
  2
CDWK_EXTR_0
  0
BLOCK_RECORD
  5
4E3
100
AcDbSymbolTableRecord
100
AcDbBlockTableRecord
  2
CDWK_EXTR_1D
  0
BLOCK_RECORD
  5
4E4
100
AcDbSymbolTableRecord
100
AcDbBlockTableRecord
  2
CDWK_EXTR_1G
  0
BLOCK_RECORD
  5
4E5
100
AcDbSymbolTableRecord
100
AcDbBlockTableRecord
  2
CDWK_EXTR_2
  0
BLOCK_RECORD
  5
4E6
100
AcDbSymbolTableRecord
100
AcDbBlockTableRecord
  2
CDWK_EXTR_3
  0
BLOCK_RECORD
  5
4E7
100
AcDbSymbolTableRecord
100
AcDbBlockTableRecord
  2
CDWK_EXTR_4
  0
BLOCK_RECORD
  5
4E8
100
AcDbSymbolTableRecord
100
AcDbBlockTableRecord
  2
CDWK_PTTYP0
  0
BLOCK_RECORD
  5
4E9
100
AcDbSymbolTableRecord
100
AcDbBlockTableRecord
  2
CDWK_PTTYP1
  0
BLOCK_RECORD
  5
4EA
100
AcDbSymbolTableRecord
100
AcDbBlockTableRecord
  2
CDWK_PTTYP2
  0
BLOCK_RECORD
  5
4EB
100
AcDbSymbolTableRecord
100
AcDbBlockTableRecord
  2
CDWK_PTTYP3
  0
BLOCK_RECORD
  5
4EC
100
AcDbSymbolTableRecord
100
AcDbBlockTableRecord
  2
CDWK_PTTYP4
  0
BLOCK_RECORD
  5
4ED
100
AcDbSymbolTableRecord
100
AcDbBlockTableRecord
  2
CDWK_PTTYP5
  0
BLOCK_RECORD
  5
4EE
100
AcDbSymbolTableRecord
100
AcDbBlockTableRecord
  2
CDWK_PTTYP6
  0
BLOCK_RECORD
  5
4EF
100
AcDbSymbolTableRecord
100
AcDbBlockTableRecord
  2
CDWK_PTTYP7
  0
BLOCK_RECORD
  5
4F0
100
AcDbSymbolTableRecord
100
AcDbBlockTableRecord
  2
CDWK_PTTYP8
  0
BLOCK_RECORD
  5
4F1
100
AcDbSymbolTableRecord
100
AcDbBlockTableRecord
  2
CDWK_PTTYP9
  0
BLOCK_RECORD
  5
4F2
100
AcDbSymbolTableRecord
100
AcDbBlockTableRecord
  2
CDWK_PTTYP10
  0
BLOCK_RECORD
  5
4F3
100
AcDbSymbolTableRecord
100
AcDbBlockTableRecord
  2
CDWK_PTTYP11
  0
BLOCK_RECORD
  5
4F4
100
AcDbSymbolTableRecord
100
AcDbBlockTableRecord
  2
CDWK_PTTYP12
  0
BLOCK_RECORD
  5
4F5
100
AcDbSymbolTableRecord
100
AcDbBlockTableRecord
  2
CDWK_PTTYP13
  0
BLOCK_RECORD
  5
4F6
100
AcDbSymbolTableRecord
100
AcDbBlockTableRecord
  2
CDWK_PTTYP14
  0
BLOCK_RECORD
  5
4F7
100
AcDbSymbolTableRecord
100
AcDbBlockTableRecord
  2
CDWK_PTTYP15
  0
BLOCK_RECORD
  5
4F8
100
AcDbSymbolTableRecord
100
AcDbBlockTableRecord
  2
CDWK_PTTYP16
  0
BLOCK_RECORD
  5
4F9
100
AcDbSymbolTableRecord
100
AcDbBlockTableRecord
  2
CDWK_PTTYP17
  0
BLOCK_RECORD
  5
4FA
100
AcDbSymbolTableRecord
100
AcDbBlockTableRecord
  2
CDWK_PTTYP18
  0
BLOCK_RECORD
  5
4FB
100
AcDbSymbolTableRecord
100
AcDbBlockTableRecord
  2
CDWK_PTTYP19
  0
BLOCK_RECORD
  5
4FC
100
AcDbSymbolTableRecord
100
AcDbBlockTableRecord
  2
CDWK_PTTYP20
  0
BLOCK_RECORD
  5
4FD
100
AcDbSymbolTableRecord
100
AcDbBlockTableRecord
  2
CDWK_PTTYP21
  0
BLOCK_RECORD
  5
4FE
100
AcDbSymbolTableRecord
100
AcDbBlockTableRecord
  2
CDWK_PTTYP22
  0
BLOCK_RECORD
  5
4FF
100
AcDbSymbolTableRecord
100
AcDbBlockTableRecord
  2
CDWK_PTTYP23
  0
BLOCK_RECORD
  5
500
100
AcDbSymbolTableRecord
100
AcDbBlockTableRecord
  2
CDWK_PTTYP24
  0
BLOCK_RECORD
  5
501
100
AcDbSymbolTableRecord
100
AcDbBlockTableRecord
  2
CDWK_PTTYP25
  0
BLOCK_RECORD
  5
502
100
AcDbSymbolTableRecord
100
AcDbBlockTableRecord
  2
CDWK_PTTYP26
  0
BLOCK_RECORD
  5
503
100
AcDbSymbolTableRecord
100
AcDbBlockTableRecord
  2
CDWK_PTTYP27
  0
BLOCK_RECORD
  5
504
100
AcDbSymbolTableRecord
100
AcDbBlockTableRecord
  2
CDWK_PTTYP28
  0
BLOCK_RECORD
  5
505
100
AcDbSymbolTableRecord
100
AcDbBlockTableRecord
  2
CDWK_PTTYP29
  0
BLOCK_RECORD
  5
506
100
AcDbSymbolTableRecord
100
AcDbBlockTableRecord
  2
CDWK_PTTYP30
  0
BLOCK_RECORD
  5
507
100
AcDbSymbolTableRecord
100
AcDbBlockTableRecord
  2
CDWK_PTTYP31
  0
BLOCK_RECORD
  5
508
100
AcDbSymbolTableRecord
100
AcDbBlockTableRecord
  2
CDWK_PTTYP32
  0
BLOCK_RECORD
  5
509
100
AcDbSymbolTableRecord
100
AcDbBlockTableRecord
  2
CDWK_PTTYP33
  0
BLOCK_RECORD
  5
50A
100
AcDbSymbolTableRecord
100
AcDbBlockTableRecord
  2
CDWK_PTTYP34
  0
BLOCK_RECORD
  5
50B
100
AcDbSymbolTableRecord
100
AcDbBlockTableRecord
  2
CDWK_PTTYP35
  0
BLOCK_RECORD
  5
50C
100
AcDbSymbolTableRecord
100
AcDbBlockTableRecord
  2
CDWK_PTTYP36
  0
BLOCK_RECORD
  5
50D
100
AcDbSymbolTableRecord
100
AcDbBlockTableRecord
  2
CDWK_PTTYP37
  0
BLOCK_RECORD
  5
50E
100
AcDbSymbolTableRecord
100
AcDbBlockTableRecord
  2
CDWK_PTTYP38
  0
ENDTAB
  0
ENDSEC
  0
SECTION
  2
BLOCKS
  0
BLOCK
  5
50F
100
AcDbEntity
  8
0
100
AcDbBlockBegin
  2
*MODEL_SPACE
 70
     0
 10
0.0
 20
0.0
 30
0.0
  3
*MODEL_SPACE
  1

  0
ENDBLK
  5
510
100
AcDbEntity
100
AcDbBlockEnd
  0
BLOCK
  5
511
100
AcDbEntity
  8
0
100
AcDbBlockBegin
  2
*PAPER_SPACE
 70
     0
 10
0.0
 20
0.0
 30
0.0
  3
*PAPER_SPACE
  1

  0
ENDBLK
  5
512
100
AcDbEntity
100
AcDbBlockEnd
  0
BLOCK
  5
513
100
AcDbEntity
  8
0
100
AcDbBlockBegin
  2
CDWK_EXTR_0
 70
     0
 10
0.0
 20
0.0
 30
0.0
  3
CDWK_EXTR_0
  1

  4
Cadwork line-extremity
  0
LINE
  5
514
100
AcDbEntity
  8
0
 62
     0
370
    -2
100
AcDbLine
 10
0.0
 20
0.0
 30
0.0
 11
2.0
 21
0.5
 31
0.0
  0
LINE
  5
515
100
AcDbEntity
  8
0
 62
     0
370
    -2
100
AcDbLine
 10
0.0
 20
0.0
 30
0.0
 11
2.0
 21
-0.5
 31
0.0
  0
LINE
  5
516
100
AcDbEntity
  8
0
 62
     0
370
    -2
100
AcDbLine
 10
2.0
 20
0.5
 30
0.0
 11
2.0
 21
-0.5
 31
0.0
  0
ENDBLK
  5
517
100
AcDbEntity
100
AcDbBlockEnd
  0
BLOCK
  5
518
100
AcDbEntity
  8
0
100
AcDbBlockBegin
  2
CDWK_EXTR_1D
 70
     0
 10
0.0
 20
0.0
 30
0.0
  3
CDWK_EXTR_1D
  1

  4
Cadwork line-extremity
  0
LINE
  5
519
100
AcDbEntity
  8
0
 62
     0
370
    -2
100
AcDbLine
 10
0.0
 20
0.0
 30
0.0
 11
0.0
 21
1.0
 31
0.0
  0
LINE
  5
51A
100
AcDbEntity
  8
0
 62
     0
370
    -2
100
AcDbLine
 10
0.0
 20
1.0
 30
0.0
 11
0.5
 21
1.5
 31
0.0
  0
LINE
  5
51B
100
AcDbEntity
  8
0
 62
     0
370
    -2
100
AcDbLine
 10
0.5
 20
1.5
 30
0.0
 11
1.5
 21
1.5
 31
0.0
  0
ENDBLK
  5
51C
100
AcDbEntity
100
AcDbBlockEnd
  0
BLOCK
  5
51D
100
AcDbEntity
  8
0
100
AcDbBlockBegin
  2
CDWK_EXTR_1G
 70
     0
 10
0.0
 20
0.0
 30
0.0
  3
CDWK_EXTR_1G
  1

  4
Cadwork line-extremity
  0
LINE
  5
51E
100
AcDbEntity
  8
0
 62
     0
370
    -2
100
AcDbLine
 10
0.0
 20
0.0
 30
0.0
 11
0.0
 21
-1.0
 31
0.0
  0
LINE
  5
51F
100
AcDbEntity
  8
0
 62
     0
370
    -2
100
AcDbLine
 10
0.0
 20
-1.0
 30
0.0
 11
0.5
 21
-1.5
 31
0.0
  0
LINE
  5
520
100
AcDbEntity
  8
0
 62
     0
370
    -2
100
AcDbLine
 10
0.5
 20
-1.5
 30
0.0
 11
1.5
 21
-1.5
 31
0.0
  0
ENDBLK
  5
521
100
AcDbEntity
100
AcDbBlockEnd
  0
BLOCK
  5
522
100
AcDbEntity
  8
0
100
AcDbBlockBegin
  2
CDWK_EXTR_2
 70
     0
 10
0.0
 20
0.0
 30
0.0
  3
CDWK_EXTR_2
  1

  4
Cadwork line-extremity
  0
SOLID
  5
523
100
AcDbEntity
  8
0
 62
     0
100
AcDbTrace
 10
0.0
 20
0.0
 11
2.0
 21
0.5
 12
2.0
 22
-0.5
 13
2.0
 23
-0.5
  0
ENDBLK
  5
524
100
AcDbEntity
100
AcDbBlockEnd
  0
BLOCK
  5
525
100
AcDbEntity
  8
0
100
AcDbBlockBegin
  2
CDWK_EXTR_3
 70
     0
 10
0.0
 20
0.0
 30
0.0
  3
CDWK_EXTR_3
  1

  4
Cadwork line-extremity
  0
SOLID
  5
526
100
AcDbEntity
  8
0
 62
     0
100
AcDbTrace
 10
0.0
 20
0.0
 11
2.0
 21
0.5
 12
2.0
 22
-0.5
 13
2.0
 23
-0.5
  0
LINE
  5
527
100
AcDbEntity
  8
0
 62
     0
370
    -2
100
AcDbLine
 10
0.0
 20
1.0
 30
0.0
 11
0.0
 21
-1.0
 31
0.0
  0
ENDBLK
  5
528
100
AcDbEntity
100
AcDbBlockEnd
  0
BLOCK
  5
529
100
AcDbEntity
  8
0
100
AcDbBlockBegin
  2
CDWK_EXTR_4
 70
     0
 10
0.0
 20
0.0
 30
0.0
  3
CDWK_EXTR_4
  1

  4
Cadwork line-extremity
  0
HATCH
  5
52A
100
AcDbEntity
  8
0
 62
     0
370
    -2
100
AcDbHatch
 10
0.0
 20
0.0
 30
0.0
210
0.0
220
0.0
230
1.0
  2
SOLID
 70
     1
 71
     0
 91
        1
 92
        1
 93
        1
 72
     2
 10
0.0
 20
0.0
 40
0.5
 50
0.0
 51
360.0
 73
     1
 97
        0
 75
     0
 76
     1
 98
        1
 10
0.0
 20
0.0
  0
ENDBLK
  5
52B
100
AcDbEntity
100
AcDbBlockEnd
  0
BLOCK
  5
52C
100
AcDbEntity
  8
0
100
AcDbBlockBegin
  2
CDWK_PTTYP0
 70
     0
 10
0.0
 20
0.0
 30
0.0
  3
CDWK_PTTYP0
  1

  4
Cadwork point
  0
POINT
  5
52D
100
AcDbEntity
  8
0
 62
     0
100
AcDbPoint
 10
0.0
 20
0.0
 30
0.0
  0
ENDBLK
  5
52E
100
AcDbEntity
100
AcDbBlockEnd
  0
BLOCK
  5
52F
100
AcDbEntity
  8
0
100
AcDbBlockBegin
  2
CDWK_PTTYP1
 70
     0
 10
0.0
 20
0.0
 30
0.0
  3
CDWK_PTTYP1
  1

  4
Cadwork node
  0
LINE
  5
530
100
AcDbEntity
  8
0
 62
     0
370
    -2
100
AcDbLine
 10
-0.5
 20
0.5
 30
0.0
 11
0.5
 21
0.5
 31
0.0
  0
LINE
  5
531
100
AcDbEntity
  8
0
 62
     0
370
    -2
100
AcDbLine
 10
0.5
 20
0.5
 30
0.0
 11
0.5
 21
-0.5
 31
0.0
  0
LINE
  5
532
100
AcDbEntity
  8
0
 62
     0
370
    -2
100
AcDbLine
 10
0.5
 20
-0.5
 30
0.0
 11
-0.5
 21
-0.5
 31
0.0
  0
LINE
  5
533
100
AcDbEntity
  8
0
 62
     0
370
    -2
100
AcDbLine
 10
-0.5
 20
-0.5
 30
0.0
 11
-0.5
 21
0.5
 31
0.0
  0
ENDBLK
  5
534
100
AcDbEntity
100
AcDbBlockEnd
  0
BLOCK
  5
535
100
AcDbEntity
  8
0
100
AcDbBlockBegin
  2
CDWK_PTTYP2
 70
     0
 10
0.0
 20
0.0
 30
0.0
  3
CDWK_PTTYP2
  1

  4
Cadwork node
  0
LINE
  5
536
100
AcDbEntity
  8
0
 62
     0
370
    -2
100
AcDbLine
 10
0.0
 20
0.5
 30
0.0
 11
0.0
 21
-0.5
 31
0.0
  0
LINE
  5
537
100
AcDbEntity
  8
0
 62
     0
370
    -2
100
AcDbLine
 10
-0.5
 20
0.0
 30
0.0
 11
0.5
 21
0.0
 31
0.0
  0
ENDBLK
  5
538
100
AcDbEntity
100
AcDbBlockEnd
  0
BLOCK
  5
539
100
AcDbEntity
  8
0
100
AcDbBlockBegin
  2
CDWK_PTTYP3
 70
     0
 10
0.0
 20
0.0
 30
0.0
  3
CDWK_PTTYP3
  1

  4
Cadwork node
  0
CIRCLE
  5
53A
100
AcDbEntity
  8
0
 62
     0
370
    -2
100
AcDbCircle
 10
0.0
 20
0.0
 30
0.0
 40
0.5
  0
ENDBLK
  5
53B
100
AcDbEntity
100
AcDbBlockEnd
  0
BLOCK
  5
53C
100
AcDbEntity
  8
0
100
AcDbBlockBegin
  2
CDWK_PTTYP4
 70
     0
 10
0.0
 20
0.0
 30
0.0
  3
CDWK_PTTYP4
  1

  4
Cadwork node
  0
HATCH
  5
53D
100
AcDbEntity
  8
0
 62
     0
370
    -2
100
AcDbHatch
 10
0.0
 20
0.0
 30
0.0
210
0.0
220
0.0
230
1.0
  2
SOLID
 70
     1
 71
     0
 91
        1
 92
        1
 93
        1
 72
     2
 10
0.0
 20
0.0
 40
0.5
 50
0.0
 51
360.0
 73
     1
 97
        0
 75
     0
 76
     1
 98
        1
 10
0.0
 20
0.0
  0
ENDBLK
  5
53E
100
AcDbEntity
100
AcDbBlockEnd
  0
BLOCK
  5
53F
100
AcDbEntity
  8
0
100
AcDbBlockBegin
  2
CDWK_PTTYP5
 70
     0
 10
0.0
 20
0.0
 30
0.0
  3
CDWK_PTTYP5
  1

  4
Cadwork node
  0
LINE
  5
540
100
AcDbEntity
  8
0
 62
     0
370
    -2
100
AcDbLine
 10
-0.5
 20
0.5
 30
0.0
 11
0.5
 21
0.5
 31
0.0
  0
LINE
  5
541
100
AcDbEntity
  8
0
 62
     0
370
    -2
100
AcDbLine
 10
0.5
 20
0.5
 30
0.0
 11
0.5
 21
-0.5
 31
0.0
  0
LINE
  5
542
100
AcDbEntity
  8
0
 62
     0
370
    -2
100
AcDbLine
 10
0.5
 20
-0.5
 30
0.0
 11
-0.5
 21
-0.5
 31
0.0
  0
LINE
  5
543
100
AcDbEntity
  8
0
 62
     0
370
    -2
100
AcDbLine
 10
-0.5
 20
-0.5
 30
0.0
 11
-0.5
 21
0.5
 31
0.0
  0
SOLID
  5
544
100
AcDbEntity
  8
0
 62
     0
100
AcDbTrace
 10
-0.5
 20
-0.5
 11
-0.5
 21
0.0
 12
0.0
 22
-0.5
 13
0.0
 23
0.0
  0
SOLID
  5
545
100
AcDbEntity
  8
0
 62
     0
100
AcDbTrace
 10
0.0
 20
0.0
 11
0.0
 21
0.5
 12
0.5
 22
0.0
 13
0.5
 23
0.5
  0
ENDBLK
  5
546
100
AcDbEntity
100
AcDbBlockEnd
  0
BLOCK
  5
547
100
AcDbEntity
  8
0
100
AcDbBlockBegin
  2
CDWK_PTTYP6
 70
     0
 10
0.0
 20
0.0
 30
0.0
  3
CDWK_PTTYP6
  1

  4
Cadwork node
  0
LINE
  5
548
100
AcDbEntity
  8
0
 62
     0
370
    -2
100
AcDbLine
 10
-0.5
 20
0.5
 30
0.0
 11
0.5
 21
0.5
 31
0.0
  0
LINE
  5
549
100
AcDbEntity
  8
0
 62
     0
370
    -2
100
AcDbLine
 10
0.5
 20
0.5
 30
0.0
 11
0.5
 21
-0.5
 31
0.0
  0
LINE
  5
54A
100
AcDbEntity
  8
0
 62
     0
370
    -2
100
AcDbLine
 10
0.5
 20
-0.5
 30
0.0
 11
-0.5
 21
-0.5
 31
0.0
  0
LINE
  5
54B
100
AcDbEntity
  8
0
 62
     0
370
    -2
100
AcDbLine
 10
-0.5
 20
-0.5
 30
0.0
 11
-0.5
 21
0.5
 31
0.0
  0
SOLID
  5
54C
100
AcDbEntity
  8
0
 62
     0
100
AcDbTrace
 10
-0.5
 20
-0.5
 11
-0.5
 21
0.5
 12
0.5
 22
0.5
 13
0.5
 23
0.5
  0
ENDBLK
  5
54D
100
AcDbEntity
100
AcDbBlockEnd
  0
BLOCK
  5
54E
100
AcDbEntity
  8
0
100
AcDbBlockBegin
  2
CDWK_PTTYP7
 70
     0
 10
0.0
 20
0.0
 30
0.0
  3
CDWK_PTTYP7
  1

  4
Cadwork node
  0
LINE
  5
54F
100
AcDbEntity
  8
0
 62
     0
370
    -2
100
AcDbLine
 10
-0.5
 20
0.5
 30
0.0
 11
0.5
 21
0.5
 31
0.0
  0
LINE
  5
550
100
AcDbEntity
  8
0
 62
     0
370
    -2
100
AcDbLine
 10
0.5
 20
0.5
 30
0.0
 11
0.5
 21
-0.5
 31
0.0
  0
LINE
  5
551
100
AcDbEntity
  8
0
 62
     0
370
    -2
100
AcDbLine
 10
0.5
 20
-0.5
 30
0.0
 11
-0.5
 21
-0.5
 31
0.0
  0
LINE
  5
552
100
AcDbEntity
  8
0
 62
     0
370
    -2
100
AcDbLine
 10
-0.5
 20
-0.5
 30
0.0
 11
-0.5
 21
0.5
 31
0.0
  0
LINE
  5
553
100
AcDbEntity
  8
0
 62
     0
370
    -2
100
AcDbLine
 10
0.0
 20
0.5
 30
0.0
 11
0.0
 21
-0.5
 31
0.0
  0
LINE
  5
554
100
AcDbEntity
  8
0
 62
     0
370
    -2
100
AcDbLine
 10
-0.5
 20
0.0
 30
0.0
 11
0.5
 21
0.0
 31
0.0
  0
ENDBLK
  5
555
100
AcDbEntity
100
AcDbBlockEnd
  0
BLOCK
  5
556
100
AcDbEntity
  8
0
100
AcDbBlockBegin
  2
CDWK_PTTYP8
 70
     0
 10
0.0
 20
0.0
 30
0.0
  3
CDWK_PTTYP8
  1

  4
Cadwork node
  0
SOLID
  5
557
100
AcDbEntity
  8
0
 62
     0
100
AcDbTrace
 10
-0.5
 20
0.5
 11
0.5
 21
0.5
 12
-0.5
 22
-0.5
 13
0.5
 23
-0.5
  0
ENDBLK
  5
558
100
AcDbEntity
100
AcDbBlockEnd
  0
BLOCK
  5
559
100
AcDbEntity
  8
0
100
AcDbBlockBegin
  2
CDWK_PTTYP9
 70
     0
 10
0.0
 20
0.0
 30
0.0
  3
CDWK_PTTYP9
  1

  4
Cadwork node
  0
CIRCLE
  5
55A
100
AcDbEntity
  8
0
 62
     0
370
    -2
100
AcDbCircle
 10
0.0
 20
0.0
 30
0.0
 40
0.5
  0
CIRCLE
  5
55B
100
AcDbEntity
  8
0
 62
     0
370
    -2
100
AcDbCircle
 10
0.0
 20
0.0
 30
0.0
 40
0.16666667
  0
ENDBLK
  5
55C
100
AcDbEntity
100
AcDbBlockEnd
  0
BLOCK
  5
55D
100
AcDbEntity
  8
0
100
AcDbBlockBegin
  2
CDWK_PTTYP10
 70
     0
 10
0.0
 20
0.0
 30
0.0
  3
CDWK_PTTYP10
  1

  4
Cadwork node
  0
CIRCLE
  5
55E
100
AcDbEntity
  8
0
 62
     0
370
    -2
100
AcDbCircle
 10
0.0
 20
0.0
 30
0.0
 40
0.5
  0
ENDBLK
  5
55F
100
AcDbEntity
100
AcDbBlockEnd
  0
BLOCK
  5
560
100
AcDbEntity
  8
0
100
AcDbBlockBegin
  2
CDWK_PTTYP11
 70
     0
 10
0.0
 20
0.0
 30
0.0
  3
CDWK_PTTYP11
  1

  4
Cadwork node
  0
CIRCLE
  5
561
100
AcDbEntity
  8
0
 62
     0
370
    -2
100
AcDbCircle
 10
0.0
 20
0.0
 30
0.0
 40
0.5
  0
CIRCLE
  5
562
100
AcDbEntity
  8
0
 62
     0
370
    -2
100
AcDbCircle
 10
0.0
 20
0.0
 30
0.0
 40
0.25
  0
ENDBLK
  5
563
100
AcDbEntity
100
AcDbBlockEnd
  0
BLOCK
  5
564
100
AcDbEntity
  8
0
100
AcDbBlockBegin
  2
CDWK_PTTYP12
 70
     0
 10
0.0
 20
0.0
 30
0.0
  3
CDWK_PTTYP12
  1

  4
Cadwork node
  0
CIRCLE
  5
565
100
AcDbEntity
  8
0
 62
     0
370
    -2
100
AcDbCircle
 10
0.0
 20
0.0
 30
0.0
 40
0.5
  0
CIRCLE
  5
566
100
AcDbEntity
  8
0
 62
     0
370
    -2
100
AcDbCircle
 10
0.25
 20
0.0
 30
0.0
 40
0.25
  0
ENDBLK
  5
567
100
AcDbEntity
100
AcDbBlockEnd
  0
BLOCK
  5
568
100
AcDbEntity
  8
0
100
AcDbBlockBegin
  2
CDWK_PTTYP13
 70
     0
 10
0.0
 20
0.0
 30
0.0
  3
CDWK_PTTYP13
  1

  4
Cadwork node
  0
CIRCLE
  5
569
100
AcDbEntity
  8
0
 62
     0
370
    -2
100
AcDbCircle
 10
0.0
 20
0.0
 30
0.0
 40
0.5
  0
CIRCLE
  5
56A
100
AcDbEntity
  8
0
 62
     0
370
    -2
100
AcDbCircle
 10
0.25
 20
0.0
 30
0.0
 40
0.25
  0
CIRCLE
  5
56B
100
AcDbEntity
  8
0
 62
     0
370
    -2
100
AcDbCircle
 10
-0.25
 20
0.0
 30
0.0
 40
0.25
  0
ENDBLK
  5
56C
100
AcDbEntity
100
AcDbBlockEnd
  0
BLOCK
  5
56D
100
AcDbEntity
  8
0
100
AcDbBlockBegin
  2
CDWK_PTTYP14
 70
     0
 10
0.0
 20
0.0
 30
0.0
  3
CDWK_PTTYP14
  1

  4
Cadwork node
  0
POINT
  5
56E
100
AcDbEntity
  8
0
 62
     0
100
AcDbPoint
 10
0.0
 20
0.0
 30
0.0
  0
ENDBLK
  5
56F
100
AcDbEntity
100
AcDbBlockEnd
  0
BLOCK
  5
570
100
AcDbEntity
  8
0
100
AcDbBlockBegin
  2
CDWK_PTTYP15
 70
     0
 10
0.0
 20
0.0
 30
0.0
  3
CDWK_PTTYP15
  1

  4
Cadwork node
  0
POINT
  5
571
100
AcDbEntity
  8
0
 62
     0
100
AcDbPoint
 10
0.0
 20
0.0
 30
0.0
  0
ENDBLK
  5
572
100
AcDbEntity
100
AcDbBlockEnd
  0
BLOCK
  5
573
100
AcDbEntity
  8
0
100
AcDbBlockBegin
  2
CDWK_PTTYP16
 70
     0
 10
0.0
 20
0.0
 30
0.0
  3
CDWK_PTTYP16
  1

  4
Cadwork node
  0
LINE
  5
574
100
AcDbEntity
  8
0
 62
     0
370
    -2
100
AcDbLine
 10
-0.5
 20
-0.28867513
 30
0.0
 11
0.5
 21
-0.28867513
 31
0.0
  0
LINE
  5
575
100
AcDbEntity
  8
0
 62
     0
370
    -2
100
AcDbLine
 10
0.5
 20
-0.28867513
 30
0.0
 11
0.0
 21
0.57735027
 31
0.0
  0
LINE
  5
576
100
AcDbEntity
  8
0
 62
     0
370
    -2
100
AcDbLine
 10
0.0
 20
0.57735027
 30
0.0
 11
-0.5
 21
-0.28867513
 31
0.0
  0
CIRCLE
  5
577
100
AcDbEntity
  8
0
 62
     0
370
    -2
100
AcDbCircle
 10
0.0
 20
0.0
 30
0.0
 40
0.28867513
  0
ENDBLK
  5
578
100
AcDbEntity
100
AcDbBlockEnd
  0
BLOCK
  5
579
100
AcDbEntity
  8
0
100
AcDbBlockBegin
  2
CDWK_PTTYP17
 70
     0
 10
0.0
 20
0.0
 30
0.0
  3
CDWK_PTTYP17
  1

  4
Cadwork node
  0
CIRCLE
  5
57A
100
AcDbEntity
  8
0
 62
     0
370
    -2
100
AcDbCircle
 10
0.0
 20
0.0
 30
0.0
 40
0.5
  0
HATCH
  5
57B
100
AcDbEntity
  8
0
 62
     0
370
    -2
100
AcDbHatch
 10
0.0
 20
0.0
 30
0.0
210
0.0
220
0.0
230
1.0
  2
SOLID
 70
     1
 71
     0
 91
        1
 92
        1
 93
        1
 72
     2
 10
0.0
 20
0.0
 40
0.25
 50
0.0
 51
360.0
 73
     1
 97
        0
 75
     0
 76
     1
 98
        1
 10
0.0
 20
0.0
  0
ENDBLK
  5
57C
100
AcDbEntity
100
AcDbBlockEnd
  0
BLOCK
  5
57D
100
AcDbEntity
  8
0
100
AcDbBlockBegin
  2
CDWK_PTTYP18
 70
     0
 10
0.0
 20
0.0
 30
0.0
  3
CDWK_PTTYP18
  1

  4
Cadwork node
  0
CIRCLE
  5
57E
100
AcDbEntity
  8
0
 62
     0
370
    -2
100
AcDbCircle
 10
0.0
 20
0.0
 30
0.0
 40
0.5
  0
CIRCLE
  5
57F
100
AcDbEntity
  8
0
 62
     0
370
    -2
100
AcDbCircle
 10
0.0
 20
0.0
 30
0.0
 40
0.2
  0
ENDBLK
  5
580
100
AcDbEntity
100
AcDbBlockEnd
  0
BLOCK
  5
581
100
AcDbEntity
  8
0
100
AcDbBlockBegin
  2
CDWK_PTTYP19
 70
     0
 10
0.0
 20
0.0
 30
0.0
  3
CDWK_PTTYP19
  1

  4
Cadwork node
  0
CIRCLE
  5
582
100
AcDbEntity
  8
0
 62
     0
370
    -2
100
AcDbCircle
 10
0.0
 20
0.0
 30
0.0
 40
0.4
  0
CIRCLE
  5
583
100
AcDbEntity
  8
0
 62
     0
370
    -2
100
AcDbCircle
 10
0.0
 20
0.0
 30
0.0
 40
0.25
  0
LINE
  5
584
100
AcDbEntity
  8
0
 62
     0
370
    -2
100
AcDbLine
 10
-0.25
 20
0.0
 30
0.0
 11
0.25
 21
0.0
 31
0.0
  0
ENDBLK
  5
585
100
AcDbEntity
100
AcDbBlockEnd
  0
BLOCK
  5
586
100
AcDbEntity
  8
0
100
AcDbBlockBegin
  2
CDWK_PTTYP20
 70
     0
 10
0.0
 20
0.0
 30
0.0
  3
CDWK_PTTYP20
  1

  4
Cadwork node
  0
CIRCLE
  5
587
100
AcDbEntity
  8
0
 62
     0
370
    -2
100
AcDbCircle
 10
0.0
 20
0.0
 30
0.0
 40
0.5
  0
CIRCLE
  5
588
100
AcDbEntity
  8
0
 62
     0
370
    -2
100
AcDbCircle
 10
0.0
 20
0.0
 30
0.0
 40
0.3
  0
ENDBLK
  5
589
100
AcDbEntity
100
AcDbBlockEnd
  0
BLOCK
  5
58A
100
AcDbEntity
  8
0
100
AcDbBlockBegin
  2
CDWK_PTTYP21
 70
     0
 10
0.0
 20
0.0
 30
0.0
  3
CDWK_PTTYP21
  1

  4
Cadwork node
  0
CIRCLE
  5
58B
100
AcDbEntity
  8
0
 62
     0
370
    -2
100
AcDbCircle
 10
0.0
 20
0.0
 30
0.0
 40
0.5
  0
LINE
  5
58C
100
AcDbEntity
  8
0
 62
     0
370
    -2
100
AcDbLine
 10
-0.5
 20
0.0
 30
0.0
 11
0.5
 21
0.0
 31
0.0
  0
ENDBLK
  5
58D
100
AcDbEntity
100
AcDbBlockEnd
  0
BLOCK
  5
58E
100
AcDbEntity
  8
0
100
AcDbBlockBegin
  2
CDWK_PTTYP22
 70
     0
 10
0.0
 20
0.0
 30
0.0
  3
CDWK_PTTYP22
  1

  4
Cadwork node
  0
POINT
  5
58F
100
AcDbEntity
  8
0
 62
     0
100
AcDbPoint
 10
0.0
 20
0.0
 30
0.0
  0
ENDBLK
  5
590
100
AcDbEntity
100
AcDbBlockEnd
  0
BLOCK
  5
591
100
AcDbEntity
  8
0
100
AcDbBlockBegin
  2
CDWK_PTTYP23
 70
     0
 10
0.0
 20
0.0
 30
0.0
  3
CDWK_PTTYP23
  1

  4
Cadwork node
  0
POINT
  5
592
100
AcDbEntity
  8
0
 62
     0
100
AcDbPoint
 10
0.0
 20
0.0
 30
0.0
  0
ENDBLK
  5
593
100
AcDbEntity
100
AcDbBlockEnd
  0
BLOCK
  5
594
100
AcDbEntity
  8
0
100
AcDbBlockBegin
  2
CDWK_PTTYP24
 70
     0
 10
0.0
 20
0.0
 30
0.0
  3
CDWK_PTTYP24
  1

  4
Cadwork node
  0
POINT
  5
595
100
AcDbEntity
  8
0
 62
     0
100
AcDbPoint
 10
0.0
 20
0.0
 30
0.0
  0
ENDBLK
  5
596
100
AcDbEntity
100
AcDbBlockEnd
  0
BLOCK
  5
597
100
AcDbEntity
  8
0
100
AcDbBlockBegin
  2
CDWK_PTTYP25
 70
     0
 10
0.0
 20
0.0
 30
0.0
  3
CDWK_PTTYP25
  1

  4
Cadwork node
  0
LINE
  5
598
100
AcDbEntity
  8
0
 62
     0
370
    -2
100
AcDbLine
 10
-0.43290044
 20
-0.25
 30
0.0
 11
0.43290044
 21
-0.25
 31
0.0
  0
LINE
  5
599
100
AcDbEntity
  8
0
 62
     0
370
    -2
100
AcDbLine
 10
-0.43290044
 20
-0.25
 30
0.0
 11
0.0
 21
0.5
 31
0.0
  0
LINE
  5
59A
100
AcDbEntity
  8
0
 62
     0
370
    -2
100
AcDbLine
 10
0.43290044
 20
-0.25
 30
0.0
 11
0.0
 21
0.5
 31
0.0
  0
CIRCLE
  5
59B
100
AcDbEntity
  8
0
 62
     0
370
    -2
100
AcDbCircle
 10
0.0
 20
0.0
 30
0.0
 40
0.5
  0
ENDBLK
  5
59C
100
AcDbEntity
100
AcDbBlockEnd
  0
BLOCK
  5
59D
100
AcDbEntity
  8
0
100
AcDbBlockBegin
  2
CDWK_PTTYP26
 70
     0
 10
0.0
 20
0.0
 30
0.0
  3
CDWK_PTTYP26
  1

  4
Cadwork node
  0
LINE
  5
59E
100
AcDbEntity
  8
0
 62
     0
370
    -2
100
AcDbLine
 10
-0.5
 20
-0.28850001
 30
0.0
 11
0.5
 21
-0.28850001
 31
0.0
  0
LINE
  5
59F
100
AcDbEntity
  8
0
 62
     0
370
    -2
100
AcDbLine
 10
-0.5
 20
-0.28850001
 30
0.0
 11
0.0
 21
0.57736721
 31
0.0
  0
LINE
  5
5A0
100
AcDbEntity
  8
0
 62
     0
370
    -2
100
AcDbLine
 10
0.5
 20
-0.28850001
 30
0.0
 11
0.0
 21
0.57736721
 31
0.0
  0
CIRCLE
  5
5A1
100
AcDbEntity
  8
0
 62
     0
370
    -2
100
AcDbCircle
 10
0.0
 20
0.0
 30
0.0
 40
0.1312336
  0
ENDBLK
  5
5A2
100
AcDbEntity
100
AcDbBlockEnd
  0
BLOCK
  5
5A3
100
AcDbEntity
  8
0
100
AcDbBlockBegin
  2
CDWK_PTTYP27
 70
     0
 10
0.0
 20
0.0
 30
0.0
  3
CDWK_PTTYP27
  1

  4
Cadwork node
  0
LINE
  5
5A4
100
AcDbEntity
  8
0
 62
     0
370
    -2
100
AcDbLine
 10
-0.43290044
 20
-0.25
 30
0.0
 11
0.43290044
 21
-0.25
 31
0.0
  0
LINE
  5
5A5
100
AcDbEntity
  8
0
 62
     0
370
    -2
100
AcDbLine
 10
-0.43290044
 20
-0.25
 30
0.0
 11
0.0
 21
0.5
 31
0.0
  0
LINE
  5
5A6
100
AcDbEntity
  8
0
 62
     0
370
    -2
100
AcDbLine
 10
0.43290044
 20
-0.25
 30
0.0
 11
0.0
 21
0.5
 31
0.0
  0
CIRCLE
  5
5A7
100
AcDbEntity
  8
0
 62
     0
370
    -2
100
AcDbCircle
 10
0.0
 20
0.0
 30
0.0
 40
0.5
  0
CIRCLE
  5
5A8
100
AcDbEntity
  8
0
 62
     0
370
    -2
100
AcDbCircle
 10
0.0
 20
0.0
 30
0.0
 40
0.1312336
  0
ENDBLK
  5
5A9
100
AcDbEntity
100
AcDbBlockEnd
  0
BLOCK
  5
5AA
100
AcDbEntity
  8
0
100
AcDbBlockBegin
  2
CDWK_PTTYP28
 70
     0
 10
0.0
 20
0.0
 30
0.0
  3
CDWK_PTTYP28
  1

  4
Cadwork node
  0
POINT
  5
5AB
100
AcDbEntity
  8
0
 62
     0
100
AcDbPoint
 10
0.0
 20
0.0
 30
0.0
  0
ENDBLK
  5
5AC
100
AcDbEntity
100
AcDbBlockEnd
  0
BLOCK
  5
5AD
100
AcDbEntity
  8
0
100
AcDbBlockBegin
  2
CDWK_PTTYP29
 70
     0
 10
0.0
 20
0.0
 30
0.0
  3
CDWK_PTTYP29
  1

  4
Cadwork node
  0
CIRCLE
  5
5AE
100
AcDbEntity
  8
0
 62
     0
370
    -2
100
AcDbCircle
 10
0.0
 20
0.0
 30
0.0
 40
0.5
  0
CIRCLE
  5
5AF
100
AcDbEntity
  8
0
 62
     0
370
    -2
100
AcDbCircle
 10
0.0
 20
0.0
 30
0.0
 40
0.375
  0
CIRCLE
  5
5B0
100
AcDbEntity
  8
0
 62
     0
370
    -2
100
AcDbCircle
 10
0.0
 20
0.0
 30
0.0
 40
0.21875
  0
ENDBLK
  5
5B1
100
AcDbEntity
100
AcDbBlockEnd
  0
BLOCK
  5
5B2
100
AcDbEntity
  8
0
100
AcDbBlockBegin
  2
CDWK_PTTYP30
 70
     0
 10
0.0
 20
0.0
 30
0.0
  3
CDWK_PTTYP30
  1

  4
Cadwork node
  0
LINE
  5
5B3
100
AcDbEntity
  8
0
 62
     0
370
    -2
100
AcDbLine
 10
0.17680339
 20
0.17680339
 30
0.0
 11
0.5
 21
0.5
 31
0.0
  0
LINE
  5
5B4
100
AcDbEntity
  8
0
 62
     0
370
    -2
100
AcDbLine
 10
-0.17680339
 20
0.17680339
 30
0.0
 11
-0.5
 21
0.5
 31
0.0
  0
LINE
  5
5B5
100
AcDbEntity
  8
0
 62
     0
370
    -2
100
AcDbLine
 10
0.17680339
 20
-0.17680339
 30
0.0
 11
0.5
 21
-0.5
 31
0.0
  0
LINE
  5
5B6
100
AcDbEntity
  8
0
 62
     0
370
    -2
100
AcDbLine
 10
-0.17680339
 20
-0.17680339
 30
0.0
 11
-0.5
 21
-0.5
 31
0.0
  0
ENDBLK
  5
5B7
100
AcDbEntity
100
AcDbBlockEnd
  0
BLOCK
  5
5B8
100
AcDbEntity
  8
0
100
AcDbBlockBegin
  2
CDWK_PTTYP31
 70
     0
 10
0.0
 20
0.0
 30
0.0
  3
CDWK_PTTYP31
  1

  4
Cadwork node
  0
CIRCLE
  5
5B9
100
AcDbEntity
  8
0
 62
     0
370
    -2
100
AcDbCircle
 10
0.0
 20
0.0
 30
0.0
 40
0.075
  0
LINE
  5
5BA
100
AcDbEntity
  8
0
 62
     0
370
    -2
100
AcDbLine
 10
0.075
 20
0.0
 30
0.0
 11
0.5
 21
0.0
 31
0.0
  0
LINE
  5
5BB
100
AcDbEntity
  8
0
 62
     0
370
    -2
100
AcDbLine
 10
-0.075
 20
0.0
 30
0.0
 11
-0.5
 21
0.0
 31
0.0
  0
LINE
  5
5BC
100
AcDbEntity
  8
0
 62
     0
370
    -2
100
AcDbLine
 10
0.0
 20
0.075
 30
0.0
 11
0.0
 21
0.5
 31
0.0
  0
LINE
  5
5BD
100
AcDbEntity
  8
0
 62
     0
370
    -2
100
AcDbLine
 10
0.0
 20
-0.075
 30
0.0
 11
0.0
 21
-0.5
 31
0.0
  0
ENDBLK
  5
5BE
100
AcDbEntity
100
AcDbBlockEnd
  0
BLOCK
  5
5BF
100
AcDbEntity
  8
0
100
AcDbBlockBegin
  2
CDWK_PTTYP32
 70
     0
 10
0.0
 20
0.0
 30
0.0
  3
CDWK_PTTYP32
  1

  4
Cadwork node
  0
CIRCLE
  5
5C0
100
AcDbEntity
  8
0
 62
     0
370
    -2
100
AcDbCircle
 10
0.0
 20
0.0
 30
0.0
 40
0.5
  0
CIRCLE
  5
5C1
100
AcDbEntity
  8
0
 62
     0
370
    -2
100
AcDbCircle
 10
0.0
 20
0.0
 30
0.0
 40
0.16666667
  0
LINE
  5
5C2
100
AcDbEntity
  8
0
 62
     0
370
    -2
100
AcDbLine
 10
0.11786893
 20
0.11786893
 30
0.0
 11
0.35360678
 21
0.35360678
 31
0.0
  0
LINE
  5
5C3
100
AcDbEntity
  8
0
 62
     0
370
    -2
100
AcDbLine
 10
-0.11786893
 20
0.11786893
 30
0.0
 11
-0.35360678
 21
0.35360678
 31
0.0
  0
LINE
  5
5C4
100
AcDbEntity
  8
0
 62
     0
370
    -2
100
AcDbLine
 10
0.11786893
 20
-0.11786893
 30
0.0
 11
0.35360678
 21
-0.35360678
 31
0.0
  0
LINE
  5
5C5
100
AcDbEntity
  8
0
 62
     0
370
    -2
100
AcDbLine
 10
-0.11786893
 20
-0.11786893
 30
0.0
 11
-0.35360678
 21
-0.35360678
 31
0.0
  0
ENDBLK
  5
5C6
100
AcDbEntity
100
AcDbBlockEnd
  0
BLOCK
  5
5C7
100
AcDbEntity
  8
0
100
AcDbBlockBegin
  2
CDWK_PTTYP33
 70
     0
 10
0.0
 20
0.0
 30
0.0
  3
CDWK_PTTYP33
  1

  4
Cadwork node
  0
CIRCLE
  5
5C8
100
AcDbEntity
  8
0
 62
     0
370
    -2
100
AcDbCircle
 10
0.0
 20
0.0
 30
0.0
 40
0.5
  0
LINE
  5
5C9
100
AcDbEntity
  8
0
 62
     0
370
    -2
100
AcDbLine
 10
0.0
 20
0.5
 30
0.0
 11
0.0
 21
-0.5
 31
0.0
  0
LINE
  5
5CA
100
AcDbEntity
  8
0
 62
     0
370
    -2
100
AcDbLine
 10
-0.5
 20
0.0
 30
0.0
 11
0.5
 21
0.0
 31
0.0
  0
ENDBLK
  5
5CB
100
AcDbEntity
100
AcDbBlockEnd
  0
BLOCK
  5
5CC
100
AcDbEntity
  8
0
100
AcDbBlockBegin
  2
CDWK_PTTYP34
 70
     0
 10
0.0
 20
0.0
 30
0.0
  3
CDWK_PTTYP34
  1

  4
Cadwork node
  0
CIRCLE
  5
5CD
100
AcDbEntity
  8
0
 62
     0
370
    -2
100
AcDbCircle
 10
0.0
 20
0.0
 30
0.0
 40
0.5
  0
LINE
  5
5CE
100
AcDbEntity
  8
0
 62
     0
370
    -2
100
AcDbLine
 10
-0.30360678
 20
-0.40360678
 30
0.0
 11
0.40360678
 21
0.30360678
 31
0.0
  0
LINE
  5
5CF
100
AcDbEntity
  8
0
 62
     0
370
    -2
100
AcDbLine
 10
-0.40360678
 20
-0.30360678
 30
0.0
 11
0.30360678
 21
0.40360678
 31
0.0
  0
ENDBLK
  5
5D0
100
AcDbEntity
100
AcDbBlockEnd
  0
BLOCK
  5
5D1
100
AcDbEntity
  8
0
100
AcDbBlockBegin
  2
CDWK_PTTYP35
 70
     0
 10
0.0
 20
0.0
 30
0.0
  3
CDWK_PTTYP35
  1

  4
Cadwork node
  0
CIRCLE
  5
5D2
100
AcDbEntity
  8
0
 62
     0
370
    -2
100
AcDbCircle
 10
0.0
 20
0.0
 30
0.0
 40
0.21431634
  0
LINE
  5
5D3
100
AcDbEntity
  8
0
 62
     0
370
    -2
100
AcDbLine
 10
0.0
 20
0.21431634
 30
0.0
 11
0.0
 21
0.5
 31
0.0
  0
LINE
  5
5D4
100
AcDbEntity
  8
0
 62
     0
370
    -2
100
AcDbLine
 10
0.0
 20
-0.21431634
 30
0.0
 11
0.0
 21
-0.5
 31
0.0
  0
ENDBLK
  5
5D5
100
AcDbEntity
100
AcDbBlockEnd
  0
BLOCK
  5
5D6
100
AcDbEntity
  8
0
100
AcDbBlockBegin
  2
CDWK_PTTYP36
 70
     0
 10
0.0
 20
0.0
 30
0.0
  3
CDWK_PTTYP36
  1

  4
Cadwork node
  0
LINE
  5
5D7
100
AcDbEntity
  8
0
 62
     0
370
    -2
100
AcDbLine
 10
-0.5
 20
-0.16666667
 30
0.0
 11
0.5
 21
-0.16666667
 31
0.0
  0
LINE
  5
5D8
100
AcDbEntity
  8
0
 62
     0
370
    -2
100
AcDbLine
 10
0.5
 20
-0.16666667
 30
0.0
 11
0.5
 21
0.16666667
 31
0.0
  0
LINE
  5
5D9
100
AcDbEntity
  8
0
 62
     0
370
    -2
100
AcDbLine
 10
0.5
 20
0.16666667
 30
0.0
 11
-0.5
 21
0.16666667
 31
0.0
  0
LINE
  5
5DA
100
AcDbEntity
  8
0
 62
     0
370
    -2
100
AcDbLine
 10
-0.5
 20
0.16666667
 30
0.0
 11
-0.5
 21
-0.16666667
 31
0.0
  0
SOLID
  5
5DB
100
AcDbEntity
  8
0
 62
     0
100
AcDbTrace
 10
-0.5
 20
-0.16666667
 11
0.5
 21
0.16666667
 12
0.5
 22
-0.16666667
 13
0.5
 23
-0.16666667
  0
ENDBLK
  5
5DC
100
AcDbEntity
100
AcDbBlockEnd
  0
BLOCK
  5
5DD
100
AcDbEntity
  8
0
100
AcDbBlockBegin
  2
CDWK_PTTYP37
 70
     0
 10
0.0
 20
0.0
 30
0.0
  3
CDWK_PTTYP37
  1

  4
Cadwork node
  0
CIRCLE
  5
5DE
100
AcDbEntity
  8
0
 62
     0
370
    -2
100
AcDbCircle
 10
0.0
 20
0.0
 30
0.0
 40
0.5
  0
SOLID
  5
5DF
100
AcDbEntity
  8
0
 62
     0
100
AcDbTrace
 10
0.0
 20
0.0
 11
0.35350001
 21
0.35350001
 12
0.5
 22
0.0
 13
0.46200001
 23
0.19149999
  0
SOLID
  5
5E0
100
AcDbEntity
  8
0
 62
     0
100
AcDbTrace
 10
0.0
 20
0.0
 11
0.35350001
 21
-0.35350001
 12
0.5
 22
0.0
 13
0.46200001
 23
-0.19149999
  0
SOLID
  5
5E1
100
AcDbEntity
  8
0
 62
     0
100
AcDbTrace
 10
0.0
 20
0.0
 11
0.0
 21
-0.5
 12
0.35350001
 22
-0.35350001
 13
0.19149999
 23
-0.46200001
  0
SOLID
  5
5E2
100
AcDbEntity
  8
0
 62
     0
100
AcDbTrace
 10
0.0
 20
0.0
 11
0.0
 21
-0.5
 12
-0.35350001
 22
-0.35350001
 13
-0.19149999
 23
-0.46200001
  0
ENDBLK
  5
5E3
100
AcDbEntity
100
AcDbBlockEnd
  0
BLOCK
  5
5E4
100
AcDbEntity
  8
0
100
AcDbBlockBegin
  2
CDWK_PTTYP38
 70
     0
 10
0.0
 20
0.0
 30
0.0
  3
CDWK_PTTYP38
  1

  4
Cadwork node
  0
CIRCLE
  5
5E5
100
AcDbEntity
  8
0
 62
     0
370
    -2
100
AcDbCircle
 10
0.0
 20
0.0
 30
0.0
 40
0.5
  0
SOLID
  5
5E6
100
AcDbEntity
  8
0
 62
     0
100
AcDbTrace
 10
0.0
 20
0.0
 11
0.35350001
 21
0.35350001
 12
0.0
 22
0.5
 13
0.19149999
 23
0.46200001
  0
SOLID
  5
5E7
100
AcDbEntity
  8
0
 62
     0
100
AcDbTrace
 10
0.0
 20
0.0
 11
0.5
 21
0.0
 12
0.35350001
 22
0.35350001
 13
0.46200001
 23
0.19149999
  0
SOLID
  5
5E8
100
AcDbEntity
  8
0
 62
     0
100
AcDbTrace
 10
0.0
 20
0.0
 11
0.0
 21
-0.5
 12
-0.35350001
 22
-0.35350001
 13
-0.19149999
 23
-0.46200001
  0
SOLID
  5
5E9
100
AcDbEntity
  8
0
 62
     0
100
AcDbTrace
 10
0.0
 20
0.0
 11
-0.5
 21
0.0
 12
-0.35350001
 22
-0.35350001
 13
-0.46200001
 23
-0.19149999
  0
ENDBLK
  5
5EA
100
AcDbEntity
100
AcDbBlockEnd
  0
ENDSEC
  0
SECTION
  2
ENTITIES
  0
LWPOLYLINE
  5
5EB
100
AcDbEntity
  8
Ech.1_5
 62
    41
  6
CONTINUOUS
370
    15
100
AcDbPolyline
 90
        4
 70
     1
 43
0.0
 10
45368.35776539
 20
-6328.77710492
 10
45368.35776539
 20
-6427.12663738
 10
45393.37068778
 20
-6427.12663738
 10
45393.37068778
 20
-6328.77266395
  0
LWPOLYLINE
  5
5EC
100
AcDbEntity
  8
Ech.1_5
 62
   190
  6
CONTINUOUS
370
    -3
100
AcDbPolyline
 90
        3
 70
     0
 43
0.0
 10
45915.85425784
 20
-6330.0020889
 10
45909.37466887
 20
-6305.78763997
 42
-0.25125178
 10
45915.85425784
 20
-6278.17785393
  0
LWPOLYLINE
  5
5ED
102
{ACAD_REACTORS
330
5EE
102
}
100
AcDbEntity
  8
Ech.1_5
 62
     9
  6
CONTINUOUS
370
    -3
100
AcDbPolyline
 90
        4
 70
     1
 43
0.0
 10
45393.35243898
 20
-6038.02213701
 10
45593.35243898
 20
-6038.02213701
 10
45593.35243898
 20
-6238.02525746
 10
45393.35243898
 20
-6238.02213704
  0
HATCH
  5
5EE
100
AcDbEntity
  8
Ech.1_5
 62
     9
  6
CONTINUOUS
100
AcDbHatch
 10
0.0
 20
0.0
 30
0.0
210
0.0
220
0.0
230
1.0
  2
AR-CONC
 70
     0
 71
     1
 91
        1
 92
        7
 72
     0
 73
     1
 93
        4
 10
45393.35243898
 20
-6038.02213701
 10
45593.35243898
 20
-6038.02213701
 10
45593.35243898
 20
-6238.02525746
 10
45393.35243898
 20
-6238.02213704
 97
        1
330
5ED
 75
     0
 76
     2
 52
0.0
 41
0.11811097
 77
     0
 78
    13
 53
50.0
 43
0.0
 44
0.0
 45
-18.84283637
 46
1.64853443
 79
     2
 49
1.97029307
 49
-21.67322338
 53
355.0
 43
0.0
 44
0.0
 45
-3.64507756
 46
19.76051824
 79
     2
 49
1.57623377
 49
-17.3385787
 53
100.45140076
 43
1.57023568
 44
-0.13737749
 45
-15.19777228
 46
-18.11197244
 79
     2
 49
1.67449124
 49
-18.41940522
 53
46.18420029
 43
0.0
 44
5.25411576
 45
-28.03703353
 46
4.34827878
 79
     2
 49
2.95543872
 49
-32.50983238
 53
96.63559723
 43
2.33641885
 44
4.89175692
 45
-24.55412615
 46
-25.59063404
 79
     2
 49
2.51173697
 49
-27.62910426
 53
351.1842041
 43
0.0
 44
5.25411576
 45
24.55410288
 46
25.59065715
 79
     2
 49
2.36435249
 49
-26.00786805
 53
21.0
 43
2.62705699
 44
3.94058615
 45
-15.68109068
 46
10.57702905
 79
     2
 49
1.97029307
 49
-21.67322338
 53
326.0
 43
2.62705699
 44
3.94058615
 45
6.39203268
 46
19.05010734
 79
     2
 49
1.57623377
 49
-17.3385787
 53
71.45140076
 43
3.93381357
 44
3.05916555
 45
-22.07312962
 46
-8.47306182
 79
     2
 49
1.67449124
 49
-18.41940522
 53
37.5
 43
0.0
 44
0.0
 45
0.31944534
 46
8.74531245
 79
     6
 49
0.01875
 49
-17.12841332
 49
0.01875
 49
-17.60128498
 49
0.01875
 49
-17.40425348
 53
7.5
 43
0.0
 44
0.0
 45
6.91098818
 46
10.3614222
 79
     6
 49
0.01875
 49
-10.03535807
 49
0.01875
 49
-16.7343539
 49
0.01875
 49
-6.6333206
 53
-32.5
 43
-5.85833833
 44
0.0
 45
14.02382061
 46
-0.59253003
 79
     6
 49
0.01875
 49
-6.56764314
 49
0.01875
 49
-20.49104869
 49
0.01875
 49
-27.19004452
 53
-42.5
 43
-8.48539531
 44
0.0
 45
15.32063571
 46
2.62981542
 79
     6
 49
0.01875
 49
-8.53793621
 49
0.01875
 49
-13.60815793
 49
0.01875
 49
-19.30887222
 47
0.775229
 98
        1
 10
0.0
 20
0.0
  0
LWPOLYLINE
  5
5EF
100
AcDbEntity
  8
Ech.1_5
 62
     9
  6
CONTINUOUS
370
    -3
100
AcDbPolyline
 90
        4
 70
     0
 43
0.0
 10
45408.35464511
 20
-6502.05047928
 10
45915.85358625
 20
-6502.02305161
 10
45915.85325771
 20
-6482.02425706
 10
45408.35464511
 20
-6482.0801376
  0
LWPOLYLINE
  5
5F0
100
AcDbEntity
  8
Ech.1_5
 62
     9
  6
CONTINUOUS
370
    -3
100
AcDbPolyline
 90
        4
 70
     0
 43
0.0
 10
45353.35589014
 20
-6482.05270993
 10
44845.85727146
 20
-6482.0798639
 10
44845.85746418
 20
-6502.02305161
 10
45353.35589014
 20
-6502.02305161
  0
LWPOLYLINE
  5
5F1
100
AcDbEntity
  8
Ech.1_5
 62
    41
  6
CONTINUOUS
370
    15
100
AcDbPolyline
 90
        4
 70
     1
 43
0.0
 10
45393.35464511
 20
-6268.02525746
 10
45393.35243898
 20
-6238.02525746
 10
45593.35243898
 20
-6238.02525746
 10
45593.35776539
 20
-6268.02525746
  0
LWPOLYLINE
  5
5F2
100
AcDbEntity
  8
Ech.1_5
 62
   190
  6
CONTINUOUS
370
    -3
100
AcDbPolyline
 90
       80
 70
     0
 43
0.0
 10
45393.35249412
 20
-6263.02341878
 42
1.14028188
 10
45403.1814139
 20
-6261.72952496
 10
45398.52269187
 20
-6244.31895005
 42
-1.3032262
 10
45408.18123825
 20
-6244.31905686
 10
45403.52213214
 20
-6261.72952878
 42
1.30322611
 10
45413.18067852
 20
-6261.72963463
 10
45408.52195649
 20
-6244.31905972
 42
-1.3032262
 10
45418.18050287
 20
-6244.31916653
 10
45413.52139676
 20
-6261.72963845
 42
1.3032262
 10
45423.17994314
 20
-6261.72974526
 10
45418.52122111
 20
-6244.31917035
 42
-1.3032262
 10
45428.17976749
 20
-6244.31927716
 10
45423.52066138
 20
-6261.72974908
 42
1.3032262
 10
45433.17920776
 20
-6261.72985589
 10
45428.52048574
 20
-6244.31928097
 42
-1.30322611
 10
45438.17903211
 20
-6244.31938683
 10
45433.519926
 20
-6261.72985875
 42
1.3032262
 10
45443.17847238
 20
-6261.72996556
 10
45438.51975036
 20
-6244.31939065
 42
-1.3032262
 10
45448.17829674
 20
-6244.31949746
 10
45443.51919062
 20
-6261.72996937
 42
1.3032262
 10
45453.177737
 20
-6261.73007619
 10
45448.51901498
 20
-6244.31950127
 42
-1.3032262
 10
45458.17756136
 20
-6244.31960808
 10
45453.51845524
 20
-6261.73008
 42
1.3032263
 10
45463.17700162
 20
-6261.73018586
 10
45458.5182796
 20
-6244.3196119
 42
-1.30322611
 10
45468.17682598
 20
-6244.31971776
 10
45463.51771986
 20
-6261.73018967
 42
1.3032262
 10
45473.17626624
 20
-6261.73029648
 10
45468.51754422
 20
-6244.31972157
 42
-1.3032262
 10
45478.1760906
 20
-6244.31982838
 10
45473.51698448
 20
-6261.7303003
 42
1.3032262
 10
45483.17553086
 20
-6261.73040711
 10
45478.51680884
 20
-6244.3198322
 42
-1.3032262
 10
45488.17535522
 20
-6244.31993901
 10
45483.51624911
 20
-6261.73041093
 42
1.3032263
 10
45493.17479549
 20
-6261.73051678
 10
45488.51607346
 20
-6244.31994282
 42
-1.30322611
 10
45498.17461984
 20
-6244.32004868
 10
45493.51551373
 20
-6261.7305206
 42
1.3032262
 10
45503.17406011
 20
-6261.73062741
 10
45498.51533808
 20
-6244.3200525
 42
-1.3032262
 10
45508.17388446
 20
-6244.32015931
 10
45503.51477835
 20
-6261.73063122
 42
1.3032262
 10
45513.17332473
 20
-6261.73073804
 10
45508.5146027
 20
-6244.32016312
 42
-1.3032262
 10
45518.17314908
 20
-6244.32026993
 10
45513.51404297
 20
-6261.73074185
 42
1.30322611
 10
45523.17258935
 20
-6261.73084771
 10
45518.51386732
 20
-6244.32027375
 42
-1.30322611
 10
45528.1724137
 20
-6244.32037961
 10
45523.51330759
 20
-6261.73085152
 42
1.3032262
 10
45533.17185397
 20
-6261.73095833
 10
45528.51313194
 20
-6244.32038342
 42
-1.3032262
 10
45538.17167832
 20
-6244.32049023
 10
45533.51257221
 20
-6261.73096215
 42
1.3032262
 10
45543.17111859
 20
-6261.73106896
 10
45538.51239657
 20
-6244.32049405
 42
-1.3032262
 10
45548.17094295
 20
-6244.32060086
 10
45543.51183683
 20
-6261.73107278
 42
1.30322611
 10
45553.17038321
 20
-6261.73117863
 10
45548.51166119
 20
-6244.32060467
 42
-1.30322611
 10
45558.17020757
 20
-6244.32071053
 10
45553.51110145
 20
-6261.73118245
 42
1.3032262
 10
45563.16964783
 20
-6261.73128926
 10
45558.51092581
 20
-6244.32071435
 42
-1.3032262
 10
45568.16947219
 20
-6244.32082116
 10
45563.51036607
 20
-6261.73129307
 42
1.3032262
 10
45573.16891245
 20
-6261.73139989
 10
45568.51019043
 20
-6244.32082497
 42
-1.3032262
 10
45578.16873681
 20
-6244.32093178
 10
45573.50963069
 20
-6261.7314037
 42
1.30322611
 10
45583.16817707
 20
-6261.73150956
 10
45578.50945505
 20
-6244.3209356
 42
-1.30322611
 10
45588.16800143
 20
-6244.32104146
 10
45583.50889532
 20
-6261.73151337
 42
1.3032262
 10
45593.1674417
 20
-6261.73162018
 10
45588.50871967
 20
-6244.32104527
 42
-0.49438213
 10
45593.35809628
 20
-6238.02750336
  0
LWPOLYLINE
  5
5F3
102
{ACAD_REACTORS
330
5F4
102
}
100
AcDbEntity
  8
Ech.1_5
 62
     9
  6
CONTINUOUS
370
    -3
100
AcDbPolyline
 90
        4
 70
     1
 43
0.0
 10
45168.35243898
 20
-6038.02213701
 10
45368.35243898
 20
-6038.02213701
 10
45368.35243898
 20
-6238.02525746
 10
45168.35243898
 20
-6238.02213704
  0
HATCH
  5
5F4
100
AcDbEntity
  8
Ech.1_5
 62
     9
  6
CONTINUOUS
100
AcDbHatch
 10
0.0
 20
0.0
 30
0.0
210
0.0
220
0.0
230
1.0
  2
AR-CONC
 70
     0
 71
     1
 91
        1
 92
        7
 72
     0
 73
     1
 93
        4
 10
45168.35243898
 20
-6038.02213701
 10
45368.35243898
 20
-6038.02213701
 10
45368.35243898
 20
-6238.02525746
 10
45168.35243898
 20
-6238.02213704
 97
        1
330
5F3
 75
     0
 76
     2
 52
0.0
 41
0.11811097
 77
     0
 78
    13
 53
50.0
 43
0.0
 44
0.0
 45
-18.84283637
 46
1.64853443
 79
     2
 49
1.97029307
 49
-21.67322338
 53
355.0
 43
0.0
 44
0.0
 45
-3.64507756
 46
19.76051824
 79
     2
 49
1.57623377
 49
-17.3385787
 53
100.45140076
 43
1.57023568
 44
-0.13737749
 45
-15.19777228
 46
-18.11197244
 79
     2
 49
1.67449124
 49
-18.41940522
 53
46.18420029
 43
0.0
 44
5.25411576
 45
-28.03703353
 46
4.34827878
 79
     2
 49
2.95543872
 49
-32.50983238
 53
96.63559723
 43
2.33641885
 44
4.89175692
 45
-24.55412615
 46
-25.59063404
 79
     2
 49
2.51173697
 49
-27.62910426
 53
351.1842041
 43
0.0
 44
5.25411576
 45
24.55410288
 46
25.59065715
 79
     2
 49
2.36435249
 49
-26.00786805
 53
21.0
 43
2.62705699
 44
3.94058615
 45
-15.68109068
 46
10.57702905
 79
     2
 49
1.97029307
 49
-21.67322338
 53
326.0
 43
2.62705699
 44
3.94058615
 45
6.39203268
 46
19.05010734
 79
     2
 49
1.57623377
 49
-17.3385787
 53
71.45140076
 43
3.93381357
 44
3.05916555
 45
-22.07312962
 46
-8.47306182
 79
     2
 49
1.67449124
 49
-18.41940522
 53
37.5
 43
0.0
 44
0.0
 45
0.31944534
 46
8.74531245
 79
     6
 49
0.01875
 49
-17.12841332
 49
0.01875
 49
-17.60128498
 49
0.01875
 49
-17.40425348
 53
7.5
 43
0.0
 44
0.0
 45
6.91098818
 46
10.3614222
 79
     6
 49
0.01875
 49
-10.03535807
 49
0.01875
 49
-16.7343539
 49
0.01875
 49
-6.6333206
 53
-32.5
 43
-5.85833833
 44
0.0
 45
14.02382061
 46
-0.59253003
 79
     6
 49
0.01875
 49
-6.56764314
 49
0.01875
 49
-20.49104869
 49
0.01875
 49
-27.19004452
 53
-42.5
 43
-8.48539531
 44
0.0
 45
15.32063571
 46
2.62981542
 79
     6
 49
0.01875
 49
-8.53793621
 49
0.01875
 49
-13.60815793
 49
0.01875
 49
-19.30887222
 47
0.775229
 98
        1
 10
0.0
 20
0.0
  0
LWPOLYLINE
  5
5F5
100
AcDbEntity
  8
Ech.1_5
 62
    41
  6
CONTINUOUS
370
    15
100
AcDbPolyline
 90
        4
 70
     1
 43
0.0
 10
45168.35464511
 20
-6268.02525746
 10
45168.35243898
 20
-6238.02525746
 10
45368.35243898
 20
-6238.02525746
 10
45368.35776539
 20
-6268.02525746
  0
LWPOLYLINE
  5
5F6
100
AcDbEntity
  8
Ech.1_5
 62
   190
  6
CONTINUOUS
370
    -3
100
AcDbPolyline
 90
       80
 70
     0
 43
0.0
 10
45168.35249412
 20
-6263.02341878
 42
1.14028188
 10
45178.1814139
 20
-6261.72952496
 10
45173.52269187
 20
-6244.31895005
 42
-1.3032262
 10
45183.18123825
 20
-6244.31905686
 10
45178.52213214
 20
-6261.72952878
 42
1.30322611
 10
45188.18067852
 20
-6261.72963463
 10
45183.52195649
 20
-6244.31905972
 42
-1.3032262
 10
45193.18050287
 20
-6244.31916653
 10
45188.52139676
 20
-6261.72963845
 42
1.3032262
 10
45198.17994314
 20
-6261.72974526
 10
45193.52122111
 20
-6244.31917035
 42
-1.3032262
 10
45203.17976749
 20
-6244.31927716
 10
45198.52066138
 20
-6261.72974908
 42
1.3032262
 10
45208.17920776
 20
-6261.72985589
 10
45203.52048574
 20
-6244.31928097
 42
-1.30322611
 10
45213.17903211
 20
-6244.31938683
 10
45208.519926
 20
-6261.72985875
 42
1.3032262
 10
45218.17847238
 20
-6261.72996556
 10
45213.51975036
 20
-6244.31939065
 42
-1.3032262
 10
45223.17829674
 20
-6244.31949746
 10
45218.51919062
 20
-6261.72996937
 42
1.3032262
 10
45228.177737
 20
-6261.73007619
 10
45223.51901498
 20
-6244.31950127
 42
-1.3032262
 10
45233.17756136
 20
-6244.31960808
 10
45228.51845524
 20
-6261.73008
 42
1.3032263
 10
45238.17700162
 20
-6261.73018586
 10
45233.5182796
 20
-6244.3196119
 42
-1.30322611
 10
45243.17682598
 20
-6244.31971776
 10
45238.51771986
 20
-6261.73018967
 42
1.3032262
 10
45248.17626624
 20
-6261.73029648
 10
45243.51754422
 20
-6244.31972157
 42
-1.3032262
 10
45253.1760906
 20
-6244.31982838
 10
45248.51698448
 20
-6261.7303003
 42
1.3032262
 10
45258.17553086
 20
-6261.73040711
 10
45253.51680884
 20
-6244.3198322
 42
-1.3032262
 10
45263.17535522
 20
-6244.31993901
 10
45258.51624911
 20
-6261.73041093
 42
1.3032263
 10
45268.17479549
 20
-6261.73051678
 10
45263.51607346
 20
-6244.31994282
 42
-1.30322611
 10
45273.17461984
 20
-6244.32004868
 10
45268.51551373
 20
-6261.7305206
 42
1.3032262
 10
45278.17406011
 20
-6261.73062741
 10
45273.51533808
 20
-6244.3200525
 42
-1.3032262
 10
45283.17388446
 20
-6244.32015931
 10
45278.51477835
 20
-6261.73063122
 42
1.3032262
 10
45288.17332473
 20
-6261.73073804
 10
45283.5146027
 20
-6244.32016312
 42
-1.3032262
 10
45293.17314908
 20
-6244.32026993
 10
45288.51404297
 20
-6261.73074185
 42
1.30322611
 10
45298.17258935
 20
-6261.73084771
 10
45293.51386732
 20
-6244.32027375
 42
-1.30322611
 10
45303.1724137
 20
-6244.32037961
 10
45298.51330759
 20
-6261.73085152
 42
1.3032262
 10
45308.17185397
 20
-6261.73095833
 10
45303.51313194
 20
-6244.32038342
 42
-1.3032262
 10
45313.17167832
 20
-6244.32049023
 10
45308.51257221
 20
-6261.73096215
 42
1.3032262
 10
45318.17111859
 20
-6261.73106896
 10
45313.51239657
 20
-6244.32049405
 42
-1.3032262
 10
45323.17094295
 20
-6244.32060086
 10
45318.51183683
 20
-6261.73107278
 42
1.30322611
 10
45328.17038321
 20
-6261.73117863
 10
45323.51166119
 20
-6244.32060467
 42
-1.30322611
 10
45333.17020757
 20
-6244.32071053
 10
45328.51110145
 20
-6261.73118245
 42
1.3032262
 10
45338.16964783
 20
-6261.73128926
 10
45333.51092581
 20
-6244.32071435
 42
-1.3032262
 10
45343.16947219
 20
-6244.32082116
 10
45338.51036607
 20
-6261.73129307
 42
1.3032262
 10
45348.16891245
 20
-6261.73139989
 10
45343.51019043
 20
-6244.32082497
 42
-1.3032262
 10
45353.16873681
 20
-6244.32093178
 10
45348.50963069
 20
-6261.7314037
 42
1.30322611
 10
45358.16817707
 20
-6261.73150956
 10
45353.50945505
 20
-6244.3209356
 42
-1.30322611
 10
45363.16800143
 20
-6244.32104146
 10
45358.50889532
 20
-6261.73151337
 42
1.3032262
 10
45368.1674417
 20
-6261.73162018
 10
45363.50871967
 20
-6244.32104527
 42
-0.49438213
 10
45368.35809628
 20
-6238.02750336
  0
LWPOLYLINE
  5
5F7
100
AcDbEntity
  8
Ech.1_5
 62
   190
  6
CONTINUOUS
370
    -3
100
AcDbPolyline
 90
        4
 70
     0
 43
0.0
 10
45438.35464511
 20
-6448.02617966
 10
45393.35464511
 20
-6268.02525746
 10
45438.35464511
 20
-6268.02525746
 10
45393.35464511
 20
-6448.02617966
  0
LWPOLYLINE
  5
5F8
100
AcDbEntity
  8
Ech.1_5
 62
   190
  6
CONTINUOUS
370
    -3
100
AcDbPolyline
 90
       10
 70
     0
 43
0.0
 10
45438.35464511
 20
-6418.02602612
 42
1.1402818
 10
45497.33271742
 20
-6410.26139771
 10
45469.37703397
 20
-6305.79004037
 42
-1.30322621
 10
45527.33287115
 20
-6305.79004037
 10
45499.37718769
 20
-6410.26139771
 42
1.30322617
 10
45557.33302487
 20
-6410.26139771
 10
45529.37734142
 20
-6305.79004037
 42
-1.30322621
 10
45587.3331786
 20
-6305.79004037
 10
45559.37749514
 20
-6410.26139771
 42
0.54628394
 10
45593.35243898
 20
-6447.60708367
  0
LINE
  5
5F9
100
AcDbEntity
  8
Ech.1_5
 62
   150
  6
CADWORK_22
370
    35
100
AcDbLine
 10
45393.35464511
 20
-6458.02305161
 30
2500.0
 11
45915.85243898
 21
-6457.02084576
 31
2500.0
  0
LWPOLYLINE
  5
5FA
100
AcDbEntity
  8
Ech.1_5
 62
     9
  6
CONTINUOUS
370
    -3
100
AcDbPolyline
 90
        4
 70
     0
 43
0.0
 10
45393.35464511
 20
-6457.0801376
 10
45443.35464511
 20
-6482.0801376
 10
45443.35464511
 20
-6457.0801376
 10
45393.35475842
 20
-6482.0801376
  0
LWPOLYLINE
  5
5FB
100
AcDbEntity
  8
Ech.1_5
 62
     9
  6
CONTINUOUS
370
    40
100
AcDbPolyline
 90
        5
 70
     0
 43
0.0
 10
45393.35464511
 20
-6482.0801376
 10
45443.35464511
 20
-6482.0801376
 10
45443.35464511
 20
-6457.0801376
 10
45393.35464511
 20
-6457.0801376
 10
45393.35464511
 20
-6482.0801376
  0
LWPOLYLINE
  5
5FC
100
AcDbEntity
  8
Ech.1_5
 62
   190
  6
CONTINUOUS
370
    -3
100
AcDbPolyline
 90
        4
 70
     0
 43
0.0
 10
45323.35589014
 20
-6448.02617966
 10
45368.35589014
 20
-6268.02525746
 10
45323.35589014
 20
-6268.02525746
 10
45368.35589014
 20
-6448.02617966
  0
LWPOLYLINE
  5
5FD
100
AcDbEntity
  8
Ech.1_5
 62
     9
  6
CONTINUOUS
370
    -3
100
AcDbPolyline
 90
        4
 70
     0
 43
0.0
 10
45368.35589014
 20
-6457.0801376
 10
45318.35589014
 20
-6482.0801376
 10
45318.35589014
 20
-6457.0801376
 10
45368.35577683
 20
-6482.0801376
  0
LWPOLYLINE
  5
5FE
100
AcDbEntity
  8
Ech.1_5
 62
     9
  6
CONTINUOUS
370
    40
100
AcDbPolyline
 90
        5
 70
     0
 43
0.0
 10
45318.35589014
 20
-6482.0801376
 10
45368.35589014
 20
-6482.0801376
 10
45368.35589014
 20
-6457.0801376
 10
45318.35589014
 20
-6457.0801376
 10
45318.35589014
 20
-6482.0801376
  0
LWPOLYLINE
  5
5FF
100
AcDbEntity
  8
Ech.1_5
 62
     3
370
    90
100
AcDbPolyline
 90
        4
 70
     0
 43
0.0
 10
45805.17511213
 20
-6264.13954865
 10
45792.18597871
 20
-6264.13954865
 10
45788.25124657
 20
-6258.45893609
 10
45774.77281657
 20
-6258.45893609
  0
LWPOLYLINE
  5
600
100
AcDbEntity
  8
Ech.1_5
 62
   150
  6
CADWORK_22
370
    35
100
AcDbPolyline
 90
        7
 70
     0
 43
0.0
 38
2500.0
 10
44845.85797167
 20
-6457.01863896
 10
45368.35589014
 20
-6457.01863896
 42
0.44667535
 10
45372.27202307
 20
-6441.11628853
 42
-0.4142136
 10
45380.85492657
 20
-6432.53338467
 42
-0.4142136
 10
45389.43783006
 20
-6441.11628853
 42
0.29920964
 10
45393.35249412
 20
-6462.02047764
 10
45651.35786326
 20
-6462.02047764
  0
LINE
  5
601
100
AcDbEntity
  8
Ech.1_5
 62
     9
  6
CONTINUOUS
370
    -3
100
AcDbLine
 10
45353.35589014
 20
-6482.0801376
 30
0.0
 11
45353.35589014
 21
-6502.05047928
 31
0.0
  0
LINE
  5
602
100
AcDbEntity
  8
Ech.1_5
 62
     9
  6
CONTINUOUS
370
    -3
100
AcDbLine
 10
45408.35464511
 20
-6482.0801376
 30
0.0
 11
45408.35464511
 21
-6502.05047928
 31
0.0
  0
LWPOLYLINE
  5
603
100
AcDbEntity
  8
Ech.1_5
 62
     3
  6
CADWORK_22
370
    35
100
AcDbPolyline
 90
        9
 70
     0
 43
0.0
 38
2500.0
 10
45308.35589014
 20
-6472.04829251
 10
45318.35589014
 20
-6482.0801376
 10
45368.35589014
 20
-6482.0801376
 42
0.44667534
 10
45372.27202307
 20
-6466.17778622
 42
-0.41421356
 10
45380.85492657
 20
-6457.59488331
 42
-0.41421356
 10
45389.43783006
 20
-6466.17778622
 42
0.44667534
 10
45393.35396299
 20
-6482.0801376
 10
45443.35464511
 20
-6482.0801376
 10
45453.35464511
 20
-6472.04829251
  0
LWPOLYLINE
  5
604
100
AcDbEntity
  8
Ech.1_5
 62
    81
  6
CONTINUOUS
370
     5
100
AcDbPolyline
 90
        4
 70
     1
 43
0.0
 10
45393.35464511
 20
-6238.02213704
 10
45368.35589014
 20
-6238.02434384
 10
45368.35589014
 20
-6038.02746328
 10
45393.35464511
 20
-6038.02213701
  0
LWPOLYLINE
  5
605
102
{ACAD_REACTORS
330
606
102
}
100
AcDbEntity
  8
Ech.1_5
 62
     7
  6
CONTINUOUS
370
     5
100
AcDbPolyline
 90
        4
 70
     1
 43
0.0
 10
45392.39333366
 20
-6328.77710492
 10
45392.39333366
 20
-6297.78766687
 10
45369.75494942
 20
-6297.78766687
 10
45369.75494942
 20
-6328.77710492
  0
HATCH
  5
606
100
AcDbEntity
  8
Ech.1_5
 62
     2
  6
CONTINUOUS
100
AcDbHatch
 10
0.0
 20
0.0
 30
0.0
210
0.0
220
0.0
230
1.0
  2
SOLID
 70
     1
 71
     1
 91
        1
 92
        7
 72
     0
 73
     1
 93
        4
 10
45392.39333366
 20
-6328.77710492
 10
45392.39333366
 20
-6297.78766687
 10
45369.75494942
 20
-6297.78766687
 10
45369.75494942
 20
-6328.77710492
 97
        1
330
605
 75
     0
 76
     2
 47
0.775229
 98
        1
 10
0.0
 20
0.0
  0
HATCH
  5
607
100
AcDbEntity
  8
Ech.1_5
 62
     7
100
AcDbHatch
 10
0.0
 20
0.0
 30
0.0
210
0.0
220
0.0
230
1.0
  2
ANSI37
 70
     0
 71
     0
 91
        1
 92
        7
 72
     0
 73
     1
 93
        4
 10
45392.39333366
 20
-6328.77710492
 10
45392.39333366
 20
-6297.78766687
 10
45369.75494942
 20
-6297.78766687
 10
45369.75494942
 20
-6328.77710492
 97
        0
 75
     0
 76
     2
 52
0.0
 41
1.87498831
 77
     0
 78
     2
 53
45.0
 43
0.0
 44
0.0
 45
4.20946876
 46
-4.20946876
 79
     0
 53
-45.0
 43
0.0
 44
0.0
 45
4.20946876
 46
4.20946876
 79
     0
 47
0.775229
 98
        1
 10
0.0
 20
0.0
  0
LWPOLYLINE
  5
608
100
AcDbEntity
  8
Ech.1_5
 62
   190
  6
CONTINUOUS
370
    -3
100
AcDbPolyline
 90
        8
 70
     1
 43
0.0
 10
45915.85038419
 20
-6348.90473115
 10
45897.87203258
 20
-6332.41837727
 10
45933.8277326
 20
-6346.52831685
 10
45915.85038419
 20
-6330.04281365
 10
45915.85243898
 20
-6268.02305161
 10
45438.35464511
 20
-6268.02525746
 10
45438.35464511
 20
-6448.02084481
 10
45915.8527206
 20
-6448.02305161
  0
LWPOLYLINE
  5
609
100
AcDbEntity
  8
Ech.1_5
 62
   190
  6
CONTINUOUS
370
    -3
100
AcDbPolyline
 90
       46
 70
     0
 43
0.0
 10
45438.35464511
 20
-6432.68471276
 42
0.78766762
 10
45495.06342699
 20
-6419.02546822
 42
0.06556383
 10
45494.04119709
 20
-6411.2584623
 10
45466.08565688
 20
-6306.78763997
 42
-1.30322617
 10
45524.04119709
 20
-6306.78763997
 10
45496.08565688
 20
-6411.2584623
 42
0.0655234
 10
45495.06342699
 20
-6419.020635
 42
1.0
 10
45555.06342699
 20
-6419.02546822
 42
0.06556383
 10
45554.04119709
 20
-6411.2584623
 10
45526.08565688
 20
-6306.78763997
 42
-1.30322617
 10
45584.04119709
 20
-6306.78763997
 10
45556.08565688
 20
-6411.2584623
 42
0.0655234
 10
45555.06342699
 20
-6419.020635
 42
1.0
 10
45615.06342699
 20
-6419.02546822
 42
0.06556383
 10
45614.04119709
 20
-6411.2584623
 10
45586.08565688
 20
-6306.78763997
 42
-1.30322617
 10
45644.04119709
 20
-6306.78763997
 10
45616.08565688
 20
-6411.2584623
 42
0.0655234
 10
45615.06342699
 20
-6419.020635
 42
1.0
 10
45675.06342699
 20
-6419.02546822
 42
0.06556383
 10
45674.04119709
 20
-6411.2584623
 10
45646.08565688
 20
-6306.78763997
 42
-1.30322617
 10
45704.04119709
 20
-6306.78763997
 10
45676.08565688
 20
-6411.2584623
 42
0.0655234
 10
45675.06342699
 20
-6419.020635
 42
1.0
 10
45735.06342699
 20
-6419.02546822
 42
0.06556383
 10
45734.04119709
 20
-6411.2584623
 10
45706.08565688
 20
-6306.78763997
 42
-1.30322617
 10
45764.04119709
 20
-6306.78763997
 10
45736.08565688
 20
-6411.2584623
 42
0.0655234
 10
45735.06342699
 20
-6419.020635
 42
1.0
 10
45795.06342699
 20
-6419.02546822
 42
0.06556383
 10
45794.04119709
 20
-6411.2584623
 10
45766.08565688
 20
-6306.78763997
 42
-1.30322617
 10
45824.04119709
 20
-6306.78763997
 10
45796.08565688
 20
-6411.2584623
 42
0.0655234
 10
45795.06342699
 20
-6419.020635
 42
1.0
 10
45855.06342699
 20
-6419.02546822
 42
0.06556383
 10
45854.04119709
 20
-6411.2584623
 10
45826.08565688
 20
-6306.78763997
 42
-1.30322617
 10
45884.04119709
 20
-6306.78763997
 10
45856.08565688
 20
-6411.2584623
 42
0.0655234
 10
45855.06342699
 20
-6419.020635
 42
1.14032814
 10
45914.04119709
 20
-6411.2584623
 10
45886.08565688
 20
-6306.78763997
 42
-0.50134696
 10
45915.85243898
 20
-6269.03342854
  0
LWPOLYLINE
  5
60A
100
AcDbEntity
  8
Ech.1_5
 62
   190
  6
CONTINUOUS
370
    -3
100
AcDbPolyline
 90
        3
 70
     0
 43
0.0
 10
45438.35464511
 20
-6269.20413338
 42
-0.45942848
 10
45464.04119709
 20
-6306.78763997
 10
45438.35464511
 20
-6402.77917515
  0
LWPOLYLINE
  5
60B
100
AcDbEntity
  8
Ech.1_5
 62
     5
  6
CONTINUOUS
370
    -3
100
AcDbPolyline
 90
        5
 70
     0
 43
0.0
 10
45393.35464511
 20
-6448.02305161
 10
45393.35464511
 20
-6268.02525746
 10
45438.35464511
 20
-6268.02525746
 10
45438.35464511
 20
-6448.02305161
 10
45393.35464511
 20
-6448.02305161
  0
LWPOLYLINE
  5
60C
100
AcDbEntity
  8
Ech.1_5
 62
   190
  6
CONTINUOUS
370
    -3
100
AcDbPolyline
 90
        8
 70
     1
 43
0.0
 10
44845.85449376
 20
-6348.90473115
 10
44863.83284537
 20
-6332.41837727
 10
44827.87714535
 20
-6346.52831685
 10
44845.85449376
 20
-6330.04281365
 10
44845.85243898
 20
-6268.02305161
 10
45323.35023284
 20
-6268.02525746
 10
45323.35023284
 20
-6448.02084481
 10
44845.85215735
 20
-6448.02305161
  0
LWPOLYLINE
  5
60D
100
AcDbEntity
  8
Ech.1_5
 62
   190
  6
CONTINUOUS
370
    -3
100
AcDbPolyline
 90
       46
 70
     0
 43
0.0
 10
45323.35023284
 20
-6432.68471276
 42
-0.78766762
 10
45266.64145096
 20
-6419.02546822
 42
-0.06556383
 10
45267.66368086
 20
-6411.2584623
 10
45295.61922107
 20
-6306.78763997
 42
1.30322617
 10
45237.66368086
 20
-6306.78763997
 10
45265.61922107
 20
-6411.2584623
 42
-0.0655234
 10
45266.64145096
 20
-6419.020635
 42
-1.0
 10
45206.64145096
 20
-6419.02546822
 42
-0.06556383
 10
45207.66368086
 20
-6411.2584623
 10
45235.61922107
 20
-6306.78763997
 42
1.30322617
 10
45177.66368086
 20
-6306.78763997
 10
45205.61922107
 20
-6411.2584623
 42
-0.0655234
 10
45206.64145096
 20
-6419.020635
 42
-1.0
 10
45146.64145096
 20
-6419.02546822
 42
-0.06556383
 10
45147.66368086
 20
-6411.2584623
 10
45175.61922107
 20
-6306.78763997
 42
1.30322617
 10
45117.66368086
 20
-6306.78763997
 10
45145.61922107
 20
-6411.2584623
 42
-0.0655234
 10
45146.64145096
 20
-6419.020635
 42
-1.0
 10
45086.64145096
 20
-6419.02546822
 42
-0.06556383
 10
45087.66368086
 20
-6411.2584623
 10
45115.61922107
 20
-6306.78763997
 42
1.30322617
 10
45057.66368086
 20
-6306.78763997
 10
45085.61922107
 20
-6411.2584623
 42
-0.0655234
 10
45086.64145096
 20
-6419.020635
 42
-1.0
 10
45026.64145096
 20
-6419.02546822
 42
-0.06556383
 10
45027.66368086
 20
-6411.2584623
 10
45055.61922107
 20
-6306.78763997
 42
1.30322617
 10
44997.66368086
 20
-6306.78763997
 10
45025.61922107
 20
-6411.2584623
 42
-0.0655234
 10
45026.64145096
 20
-6419.020635
 42
-1.0
 10
44966.64145096
 20
-6419.02546822
 42
-0.06556383
 10
44967.66368086
 20
-6411.2584623
 10
44995.61922107
 20
-6306.78763997
 42
1.30322617
 10
44937.66368086
 20
-6306.78763997
 10
44965.61922107
 20
-6411.2584623
 42
-0.0655234
 10
44966.64145096
 20
-6419.020635
 42
-1.0
 10
44906.64145096
 20
-6419.02546822
 42
-0.06556383
 10
44907.66368086
 20
-6411.2584623
 10
44935.61922107
 20
-6306.78763997
 42
1.30322617
 10
44877.66368086
 20
-6306.78763997
 10
44905.61922107
 20
-6411.2584623
 42
-0.0655234
 10
44906.64145096
 20
-6419.020635
 42
-1.14032814
 10
44847.66368086
 20
-6411.2584623
 10
44875.61922107
 20
-6306.78763997
 42
0.50134696
 10
44845.85243898
 20
-6269.03342854
  0
LWPOLYLINE
  5
60E
100
AcDbEntity
  8
Ech.1_5
 62
     5
  6
CONTINUOUS
370
    -3
100
AcDbPolyline
 90
        5
 70
     0
 43
0.0
 10
45368.35589014
 20
-6448.02305161
 10
45368.35589014
 20
-6268.02525746
 10
45323.35589014
 20
-6268.02525746
 10
45323.35589014
 20
-6448.02305161
 10
45368.35589014
 20
-6448.02305161
  0
LINE
  5
60F
100
AcDbEntity
  8
Ech.1_5
 62
     1
  6
CADWORK_22
 48
-5.0
370
    35
100
AcDbLine
 10
45393.35464511
 20
-6268.02525746
 30
0.0
 11
45915.85243898
 21
-6268.02305161
 31
0.0
  0
LWPOLYLINE
  5
610
100
AcDbEntity
  8
Ech.1_5
 62
     1
  6
CADWORK_22
 48
-5.0
370
    35
100
AcDbPolyline
 90
        7
 70
     0
 43
0.0
 10
44845.85797167
 20
-6268.02525746
 10
45368.35589014
 20
-6268.02525746
 42
-0.44667534
 10
45372.27202307
 20
-6283.92760884
 42
0.41421356
 10
45380.85492657
 20
-6292.51051175
 42
0.41421356
 10
45389.43783006
 20
-6283.92760884
 42
-0.29920963
 10
45393.35249412
 20
-6263.02341878
 10
45782.3252919
 20
-6263.02341878
  0
LWPOLYLINE
  5
611
100
AcDbEntity
  8
Ech.1_5
 62
   254
  6
CONTINUOUS
370
    -3
100
AcDbPolyline
 90
        4
 70
     1
 43
0.0
 10
45168.35531074
 20
-6198.02305164
 10
44845.85627741
 20
-6198.02305164
 10
44845.85627741
 20
-6248.02305164
 10
45168.35531074
 20
-6248.02305164
  0
LWPOLYLINE
  5
612
102
{ACAD_REACTORS
330
613
102
}
100
AcDbEntity
  8
Ech.1_5
 62
     9
  6
CONTINUOUS
370
    -3
100
AcDbPolyline
 90
       12
 70
     1
 43
0.0
 10
45138.35531049
 20
-6240.02305164
 10
45138.35531049
 20
-6246.01894035
 10
45168.35531074
 20
-6246.02305164
 10
45168.35531074
 20
-6198.02305164
 10
45138.35531049
 20
-6198.02305164
 10
45138.35531049
 20
-6204.02305164
 10
45140.35531049
 20
-6204.02305164
 10
45140.35531049
 20
-6200.02305164
 10
45166.35531049
 20
-6200.02305164
 10
45166.35531049
 20
-6244.02305164
 10
45140.35531049
 20
-6244.02305164
 10
45140.35531049
 20
-6240.02305164
  0
HATCH
  5
613
100
AcDbEntity
  8
Ech.1_5
 62
     9
  6
CONTINUOUS
100
AcDbHatch
 10
0.0
 20
0.0
 30
0.0
210
0.0
220
0.0
230
1.0
  2
SOLID
 70
     1
 71
     1
 91
        1
 92
        7
 72
     0
 73
     1
 93
       12
 10
45138.35531049
 20
-6240.02305164
 10
45138.35531049
 20
-6246.01894035
 10
45168.35531074
 20
-6246.02305164
 10
45168.35531074
 20
-6198.02305164
 10
45138.35531049
 20
-6198.02305164
 10
45138.35531049
 20
-6204.02305164
 10
45140.35531049
 20
-6204.02305164
 10
45140.35531049
 20
-6200.02305164
 10
45166.35531049
 20
-6200.02305164
 10
45166.35531049
 20
-6244.02305164
 10
45140.35531049
 20
-6244.02305164
 10
45140.35531049
 20
-6240.02305164
 97
        1
330
612
 75
     0
 76
     2
 47
0.775229
 98
        1
 10
0.0
 20
0.0
  0
LWPOLYLINE
  5
614
102
{ACAD_REACTORS
330
615
102
}
100
AcDbEntity
  8
Ech.1_5
 62
     9
  6
CONTINUOUS
370
    -3
100
AcDbPolyline
 90
        4
 70
     1
 43
0.0
 10
45168.35531074
 20
-6198.02305164
 10
45168.35531074
 20
-6185.02305164
 10
44845.85627741
 20
-6185.02305164
 10
44845.85627741
 20
-6198.02305164
  0
HATCH
  5
615
100
AcDbEntity
  8
Ech.1_5
 62
     9
  6
CONTINUOUS
100
AcDbHatch
 10
0.0
 20
0.0
 30
0.0
210
0.0
220
0.0
230
1.0
  2
DOTS2
 70
     0
 71
     1
 91
        1
 92
        7
 72
     0
 73
     1
 93
        4
 10
45168.35531074
 20
-6198.02305164
 10
45168.35531074
 20
-6185.02305164
 10
44845.85627741
 20
-6185.02305164
 10
44845.85627741
 20
-6198.02305164
 97
        1
330
614
 75
     0
 76
     2
 52
0.0
 41
4.72440952
 77
     0
 78
     1
 53
0.0
 43
0.0
 44
0.0
 45
3.75
 46
3.535
 79
     2
 49
0.0
 49
-3.535
 47
0.775229
 98
        1
 10
0.0
 20
0.0
  0
LWPOLYLINE
  5
616
100
AcDbEntity
  8
Ech.1_5
 62
   254
  6
CONTINUOUS
370
    -3
100
AcDbPolyline
 90
        4
 70
     1
 43
0.0
 10
45593.34956721
 20
-6198.02305164
 10
45915.84860054
 20
-6198.02305164
 10
45915.84860054
 20
-6248.02305164
 10
45593.34956721
 20
-6248.02305164
  0
LWPOLYLINE
  5
617
102
{ACAD_REACTORS
330
618
102
}
100
AcDbEntity
  8
Ech.1_5
 62
     9
  6
CONTINUOUS
370
    -3
100
AcDbPolyline
 90
       12
 70
     1
 43
0.0
 10
45623.34956746
 20
-6240.02305164
 10
45623.34956746
 20
-6246.01894035
 10
45593.34956721
 20
-6246.02305164
 10
45593.34956721
 20
-6198.02305164
 10
45623.34956746
 20
-6198.02305164
 10
45623.34956746
 20
-6204.02305164
 10
45621.34956746
 20
-6204.02305164
 10
45621.34956746
 20
-6200.02305164
 10
45595.34956746
 20
-6200.02305164
 10
45595.34956746
 20
-6244.02305164
 10
45621.34956746
 20
-6244.02305164
 10
45621.34956746
 20
-6240.02305164
  0
HATCH
  5
618
100
AcDbEntity
  8
Ech.1_5
 62
     9
  6
CONTINUOUS
100
AcDbHatch
 10
0.0
 20
0.0
 30
0.0
210
0.0
220
0.0
230
1.0
  2
SOLID
 70
     1
 71
     1
 91
        1
 92
        7
 72
     0
 73
     1
 93
       12
 10
45623.34956746
 20
-6240.02305164
 10
45623.34956746
 20
-6246.01894035
 10
45593.34956721
 20
-6246.02305164
 10
45593.34956721
 20
-6198.02305164
 10
45623.34956746
 20
-6198.02305164
 10
45623.34956746
 20
-6204.02305164
 10
45621.34956746
 20
-6204.02305164
 10
45621.34956746
 20
-6200.02305164
 10
45595.34956746
 20
-6200.02305164
 10
45595.34956746
 20
-6244.02305164
 10
45621.34956746
 20
-6244.02305164
 10
45621.34956746
 20
-6240.02305164
 97
        1
330
617
 75
     0
 76
     2
 47
0.775229
 98
        1
 10
0.0
 20
0.0
  0
LWPOLYLINE
  5
619
102
{ACAD_REACTORS
330
61A
102
}
100
AcDbEntity
  8
Ech.1_5
 62
     9
  6
CONTINUOUS
370
    -3
100
AcDbPolyline
 90
        4
 70
     1
 43
0.0
 10
45593.34956721
 20
-6198.02305164
 10
45593.34956721
 20
-6185.02305164
 10
45915.84860054
 20
-6185.02305164
 10
45915.84860054
 20
-6198.02305164
  0
HATCH
  5
61A
100
AcDbEntity
  8
Ech.1_5
 62
     9
  6
CONTINUOUS
100
AcDbHatch
 10
0.0
 20
0.0
 30
0.0
210
0.0
220
0.0
230
1.0
  2
DOTS2
 70
     0
 71
     1
 91
        1
 92
        7
 72
     0
 73
     1
 93
        4
 10
45593.34956721
 20
-6198.02305164
 10
45593.34956721
 20
-6185.02305164
 10
45915.84860054
 20
-6185.02305164
 10
45915.84860054
 20
-6198.02305164
 97
        1
330
619
 75
     0
 76
     2
 52
0.0
 41
4.72440952
 77
     0
 78
     1
 53
0.0
 43
0.0
 44
0.0
 45
3.75
 46
3.535
 79
     2
 49
0.0
 49
-3.535
 47
0.775229
 98
        1
 10
0.0
 20
0.0
  0
LWPOLYLINE
  5
61B
102
{ACAD_REACTORS
330
61C
102
}
100
AcDbEntity
  8
Ech.1_5
 62
     7
  6
CONTINUOUS
370
     5
100
AcDbPolyline
 90
        4
 70
     1
 43
0.0
 10
44711.34840866
 20
-6737.84950511
 10
44737.17293974
 20
-6737.84950511
 10
44737.17293974
 20
-6728.416845
 10
44711.34840866
 20
-6728.416845
  0
HATCH
  5
61C
100
AcDbEntity
  8
Ech.1_5
 62
     2
  6
CONTINUOUS
100
AcDbHatch
 10
0.0
 20
0.0
 30
0.0
210
0.0
220
0.0
230
1.0
  2
SOLID
 70
     1
 71
     1
 91
        1
 92
        7
 72
     0
 73
     1
 93
        4
 10
44711.34840866
 20
-6737.84950511
 10
44737.17293974
 20
-6737.84950511
 10
44737.17293974
 20
-6728.416845
 10
44711.34840866
 20
-6728.416845
 97
        1
330
61B
 75
     0
 76
     2
 47
0.775229
 98
        1
 10
0.0
 20
0.0
  0
HATCH
  5
61D
100
AcDbEntity
  8
Ech.1_5
 62
     7
100
AcDbHatch
 10
0.0
 20
0.0
 30
0.0
210
0.0
220
0.0
230
1.0
  2
ANSI37
 70
     0
 71
     0
 91
        1
 92
        7
 72
     0
 73
     1
 93
        4
 10
44711.34840866
 20
-6737.84950511
 10
44737.17293974
 20
-6737.84950511
 10
44737.17293974
 20
-6728.416845
 10
44711.34840866
 20
-6728.416845
 97
        0
 75
     0
 76
     2
 52
0.0
 41
1.87498831
 77
     0
 78
     2
 53
45.0
 43
0.0
 44
0.0
 45
4.20946876
 46
-4.20946876
 79
     0
 53
-45.0
 43
0.0
 44
0.0
 45
4.20946876
 46
4.20946876
 79
     0
 47
0.775229
 98
        1
 10
0.0
 20
0.0
  0
LWPOLYLINE
  5
61E
100
AcDbEntity
  8
Ech.1_5
 62
     3
370
    90
100
AcDbPolyline
 90
        4
 70
     0
 43
0.0
 10
44741.72248982
 20
-6760.6673487
 10
44728.7333564
 20
-6760.6673487
 10
44724.79862426
 20
-6754.98673613
 10
44711.32019426
 20
-6754.98673613
  0
LWPOLYLINE
  5
61F
100
AcDbEntity
  8
Ech.1_5
 62
   190
  6
CONTINUOUS
370
    -3
100
AcDbPolyline
 90
        5
 70
     0
 43
0.0
 10
46040.25732379
 20
-6880.17682778
 10
46040.25732379
 20
-5895.17682778
 10
44685.25732379
 20
-5895.17682778
 10
44685.25732379
 20
-6880.17682778
 10
46040.25732379
 20
-6880.17682778
  0
LWPOLYLINE
  5
620
100
AcDbEntity
  8
Ech.1_5
 62
     9
  6
CONTINUOUS
370
    -3
100
AcDbPolyline
 90
       76
 70
     0
 43
0.0
 10
44845.85627741
 20
-6239.6897183
 42
1.14028181
 10
44862.23899133
 20
-6237.53288807
 10
44854.47356349
 20
-6208.5132152
 42
-1.30322619
 10
44870.57232466
 20
-6208.5132152
 10
44862.80689682
 20
-6237.53288807
 42
1.30322619
 10
44878.90565799
 20
-6237.53288807
 10
44871.14023016
 20
-6208.5132152
 42
-1.30322619
 10
44887.23899133
 20
-6208.5132152
 10
44879.47356349
 20
-6237.53288807
 42
1.30322619
 10
44895.57232466
 20
-6237.53288807
 10
44887.80689682
 20
-6208.5132152
 42
-1.30322619
 10
44903.90565799
 20
-6208.5132152
 10
44896.14023016
 20
-6237.53288807
 42
1.30322619
 10
44912.23899133
 20
-6237.53288807
 10
44904.47356349
 20
-6208.5132152
 42
-1.30322619
 10
44920.57232466
 20
-6208.5132152
 10
44912.80689682
 20
-6237.53288807
 42
1.30322619
 10
44928.90565799
 20
-6237.53288807
 10
44921.14023016
 20
-6208.5132152
 42
-1.30322619
 10
44937.23899133
 20
-6208.5132152
 10
44929.47356349
 20
-6237.53288807
 42
1.30322619
 10
44945.57232466
 20
-6237.53288807
 10
44937.80689682
 20
-6208.5132152
 42
-1.30322619
 10
44953.90565799
 20
-6208.5132152
 10
44946.14023016
 20
-6237.53288807
 42
1.30322619
 10
44962.23899133
 20
-6237.53288807
 10
44954.47356349
 20
-6208.5132152
 42
-1.30322619
 10
44970.57232466
 20
-6208.5132152
 10
44962.80689682
 20
-6237.53288807
 42
1.30322619
 10
44978.90565799
 20
-6237.53288807
 10
44971.14023016
 20
-6208.5132152
 42
-1.30322619
 10
44987.23899133
 20
-6208.5132152
 10
44979.47356349
 20
-6237.53288807
 42
1.30322619
 10
44995.57232466
 20
-6237.53288807
 10
44987.80689682
 20
-6208.5132152
 42
-1.30322619
 10
45003.90565799
 20
-6208.5132152
 10
44996.14023016
 20
-6237.53288807
 42
1.30322619
 10
45012.23899133
 20
-6237.53288807
 10
45004.47356349
 20
-6208.5132152
 42
-1.30322619
 10
45020.57232466
 20
-6208.5132152
 10
45012.80689682
 20
-6237.53288807
 42
1.30322619
 10
45028.90565799
 20
-6237.53288807
 10
45021.14023016
 20
-6208.5132152
 42
-1.30322619
 10
45037.23899133
 20
-6208.5132152
 10
45029.47356349
 20
-6237.53288807
 42
1.30322619
 10
45045.57232466
 20
-6237.53288807
 10
45037.80689682
 20
-6208.5132152
 42
-1.30322619
 10
45053.90565799
 20
-6208.5132152
 10
45046.14023016
 20
-6237.53288807
 42
1.30322619
 10
45062.23899133
 20
-6237.53288807
 10
45054.47356349
 20
-6208.5132152
 42
-1.30322619
 10
45070.57232466
 20
-6208.5132152
 10
45062.80689682
 20
-6237.53288807
 42
1.30322619
 10
45078.90565799
 20
-6237.53288807
 10
45071.14023016
 20
-6208.5132152
 42
-1.30322619
 10
45087.23899133
 20
-6208.5132152
 10
45079.47356349
 20
-6237.53288807
 42
1.30322619
 10
45095.57232466
 20
-6237.53288807
 10
45087.80689682
 20
-6208.5132152
 42
-1.30322619
 10
45103.90565799
 20
-6208.5132152
 10
45096.14023016
 20
-6237.53288807
 42
1.30322619
 10
45112.23899133
 20
-6237.53288807
 10
45104.47356349
 20
-6208.5132152
 42
-1.30322619
 10
45120.57232466
 20
-6208.5132152
 10
45112.80689682
 20
-6237.53288807
 42
1.30322619
 10
45128.90565799
 20
-6237.53288807
 10
45121.14023016
 20
-6208.5132152
 42
-1.30322619
 10
45137.23899133
 20
-6208.5132152
 10
45129.47356349
 20
-6237.53288807
 42
1.30322619
 10
45145.57232466
 20
-6237.53288807
 10
45137.80689682
 20
-6208.5132152
 42
-1.30322619
 10
45153.90565799
 20
-6208.5132152
 10
45146.14023016
 20
-6237.53288807
 42
1.30322619
 10
45162.23899133
 20
-6237.53288807
 10
45154.47356349
 20
-6208.5132152
 42
-0.76329832
 10
45168.35531074
 20
-6200.40424725
  0
LWPOLYLINE
  5
621
100
AcDbEntity
  8
Ech.1_5
 62
     9
  6
CONTINUOUS
370
    -3
100
AcDbPolyline
 90
       76
 70
     0
 43
0.0
 10
45593.34956721
 20
-6239.6897183
 42
1.14028181
 10
45609.73228113
 20
-6237.53288807
 10
45601.96685329
 20
-6208.5132152
 42
-1.30322619
 10
45618.06561446
 20
-6208.5132152
 10
45610.30018662
 20
-6237.53288807
 42
1.30322619
 10
45626.39894779
 20
-6237.53288807
 10
45618.63351996
 20
-6208.5132152
 42
-1.30322619
 10
45634.73228113
 20
-6208.5132152
 10
45626.96685329
 20
-6237.53288807
 42
1.30322619
 10
45643.06561446
 20
-6237.53288807
 10
45635.30018662
 20
-6208.5132152
 42
-1.30322619
 10
45651.39894779
 20
-6208.5132152
 10
45643.63351996
 20
-6237.53288807
 42
1.30322619
 10
45659.73228113
 20
-6237.53288807
 10
45651.96685329
 20
-6208.5132152
 42
-1.30322619
 10
45668.06561446
 20
-6208.5132152
 10
45660.30018662
 20
-6237.53288807
 42
1.30322619
 10
45676.39894779
 20
-6237.53288807
 10
45668.63351996
 20
-6208.5132152
 42
-1.30322619
 10
45684.73228113
 20
-6208.5132152
 10
45676.96685329
 20
-6237.53288807
 42
1.30322619
 10
45693.06561446
 20
-6237.53288807
 10
45685.30018662
 20
-6208.5132152
 42
-1.30322619
 10
45701.39894779
 20
-6208.5132152
 10
45693.63351996
 20
-6237.53288807
 42
1.30322619
 10
45709.73228113
 20
-6237.53288807
 10
45701.96685329
 20
-6208.5132152
 42
-1.30322619
 10
45718.06561446
 20
-6208.5132152
 10
45710.30018662
 20
-6237.53288807
 42
1.30322619
 10
45726.39894779
 20
-6237.53288807
 10
45718.63351996
 20
-6208.5132152
 42
-1.30322619
 10
45734.73228113
 20
-6208.5132152
 10
45726.96685329
 20
-6237.53288807
 42
1.30322619
 10
45743.06561446
 20
-6237.53288807
 10
45735.30018662
 20
-6208.5132152
 42
-1.30322619
 10
45751.39894779
 20
-6208.5132152
 10
45743.63351996
 20
-6237.53288807
 42
1.30322619
 10
45759.73228113
 20
-6237.53288807
 10
45751.96685329
 20
-6208.5132152
 42
-1.30322619
 10
45768.06561446
 20
-6208.5132152
 10
45760.30018662
 20
-6237.53288807
 42
1.30322619
 10
45776.39894779
 20
-6237.53288807
 10
45768.63351996
 20
-6208.5132152
 42
-1.30322619
 10
45784.73228113
 20
-6208.5132152
 10
45776.96685329
 20
-6237.53288807
 42
1.30322619
 10
45793.06561446
 20
-6237.53288807
 10
45785.30018662
 20
-6208.5132152
 42
-1.30322619
 10
45801.39894779
 20
-6208.5132152
 10
45793.63351996
 20
-6237.53288807
 42
1.30322619
 10
45809.73228113
 20
-6237.53288807
 10
45801.96685329
 20
-6208.5132152
 42
-1.30322619
 10
45818.06561446
 20
-6208.5132152
 10
45810.30018662
 20
-6237.53288807
 42
1.30322619
 10
45826.39894779
 20
-6237.53288807
 10
45818.63351996
 20
-6208.5132152
 42
-1.30322619
 10
45834.73228113
 20
-6208.5132152
 10
45826.96685329
 20
-6237.53288807
 42
1.30322619
 10
45843.06561446
 20
-6237.53288807
 10
45835.30018662
 20
-6208.5132152
 42
-1.30322619
 10
45851.39894779
 20
-6208.5132152
 10
45843.63351996
 20
-6237.53288807
 42
1.30322619
 10
45859.73228113
 20
-6237.53288807
 10
45851.96685329
 20
-6208.5132152
 42
-1.30322619
 10
45868.06561446
 20
-6208.5132152
 10
45860.30018662
 20
-6237.53288807
 42
1.30322619
 10
45876.39894779
 20
-6237.53288807
 10
45868.63351996
 20
-6208.5132152
 42
-1.30322619
 10
45884.73228113
 20
-6208.5132152
 10
45876.96685329
 20
-6237.53288807
 42
1.30322619
 10
45893.06561446
 20
-6237.53288807
 10
45885.30018662
 20
-6208.5132152
 42
-1.30322619
 10
45901.39894779
 20
-6208.5132152
 10
45893.63351996
 20
-6237.53288807
 42
1.30322619
 10
45909.73228113
 20
-6237.53288807
 10
45901.96685329
 20
-6208.5132152
 42
-0.76329832
 10
45915.84860054
 20
-6200.40424725
  0
LWPOLYLINE
  5
622
100
AcDbEntity
  8
Ech.1_5
 62
   190
  6
CONTINUOUS
370
    -3
100
AcDbPolyline
 90
       96
 70
     0
 43
0.0
 10
45372.51910562
 20
-6038.02243652
 42
1.14028181
 10
45373.59693192
 20
-6046.21387095
 10
45388.10704738
 20
-6042.33220005
 42
-1.30322619
 10
45388.10646878
 20
-6050.38158059
 10
45373.59691151
 20
-6046.4978237
 42
1.30322619
 10
45373.59633291
 20
-6054.54720425
 10
45388.10644837
 20
-6050.66553334
 42
-1.30322619
 10
45388.10586976
 20
-6058.71491388
 10
45373.5963125
 20
-6054.83115699
 42
1.30322619
 10
45373.5957339
 20
-6062.88053754
 10
45388.10584935
 20
-6058.99886663
 42
-1.30322619
 10
45388.10527075
 20
-6067.04824717
 10
45373.59571349
 20
-6063.16449028
 42
1.30322619
 10
45373.59513488
 20
-6071.21387083
 10
45388.10525034
 20
-6067.33219992
 42
-1.30322619
 10
45388.10467174
 20
-6075.38158046
 10
45373.59511447
 20
-6071.49782357
 42
1.30322619
 10
45373.59453587
 20
-6079.54720412
 10
45388.10465133
 20
-6075.66553321
 42
-1.30322619
 10
45388.10407272
 20
-6083.71491375
 10
45373.59451546
 20
-6079.83115686
 42
1.30322619
 10
45373.59393686
 20
-6087.88053741
 10
45388.10405231
 20
-6083.9988665
 42
-1.30322619
 10
45388.10347371
 20
-6092.04824704
 10
45373.59391645
 20
-6088.16449015
 42
1.30322619
 10
45373.59333785
 20
-6096.2138707
 10
45388.1034533
 20
-6092.33219979
 42
-1.30322619
 10
45388.1028747
 20
-6100.38158033
 10
45373.59331743
 20
-6096.49782344
 42
1.30322619
 10
45373.59273883
 20
-6104.54720399
 10
45388.10285429
 20
-6100.66553308
 42
-1.30322619
 10
45388.10227569
 20
-6108.71491362
 10
45373.59271842
 20
-6104.83115673
 42
1.30322619
 10
45373.59213982
 20
-6112.88053728
 10
45388.10225527
 20
-6108.99886637
 42
-1.30322619
 10
45388.10167667
 20
-6117.04824691
 10
45373.59211941
 20
-6113.16449002
 42
1.30322619
 10
45373.59154081
 20
-6121.21387057
 10
45388.10165626
 20
-6117.33219966
 42
-1.30322619
 10
45388.10107766
 20
-6125.3815802
 10
45373.5915204
 20
-6121.49782331
 42
1.30322619
 10
45373.59094179
 20
-6129.54720386
 10
45388.10105725
 20
-6125.66553295
 42
-1.30322619
 10
45388.10047865
 20
-6133.71491349
 10
45373.59092138
 20
-6129.8311566
 42
1.30322619
 10
45373.59034278
 20
-6137.88053715
 10
45388.10045824
 20
-6133.99886624
 42
-1.30322619
 10
45388.09987963
 20
-6142.04824678
 10
45373.59032237
 20
-6138.1644899
 42
1.30322619
 10
45373.58974377
 20
-6146.21387044
 10
45388.09985922
 20
-6142.33219953
 42
-1.30322619
 10
45388.09928062
 20
-6150.38158007
 10
45373.58972336
 20
-6146.49782319
 42
1.30322619
 10
45373.58914476
 20
-6154.54720373
 10
45388.09926021
 20
-6150.66553282
 42
-1.30322619
 10
45388.09868161
 20
-6158.71491336
 10
45373.58912434
 20
-6154.83115648
 42
1.30322619
 10
45373.58854574
 20
-6162.88053702
 10
45388.0986612
 20
-6158.99886611
 42
-1.30322619
 10
45388.0980826
 20
-6167.04824665
 10
45373.58852533
 20
-6163.16448977
 42
1.30322619
 10
45373.58794673
 20
-6171.21387031
 10
45388.09806218
 20
-6167.3321994
 42
-1.30322619
 10
45388.09748358
 20
-6175.38157994
 10
45373.58792632
 20
-6171.49782306
 42
1.30322619
 10
45373.58734772
 20
-6179.5472036
 10
45388.09746317
 20
-6175.66553269
 42
-1.30322619
 10
45388.09688457
 20
-6183.71491323
 10
45373.58732731
 20
-6179.83115635
 42
1.30322619
 10
45373.5867487
 20
-6187.88053689
 10
45388.09686416
 20
-6183.99886598
 42
-1.30322619
 10
45388.09628556
 20
-6192.04824652
 10
45373.58672829
 20
-6188.16448964
 42
1.30322619
 10
45373.58614969
 20
-6196.21387018
 10
45388.09626515
 20
-6192.33219927
 42
-1.30322619
 10
45388.09568654
 20
-6200.38157981
 10
45373.58612928
 20
-6196.49782293
 42
1.30322619
 10
45373.58555068
 20
-6204.54720347
 10
45388.09566613
 20
-6200.66553256
 42
-1.30322619
 10
45388.09508753
 20
-6208.7149131
 10
45373.58553027
 20
-6204.83115622
 42
1.30322619
 10
45373.58495166
 20
-6212.88053676
 10
45388.09506712
 20
-6208.99886585
 42
-1.30322619
 10
45388.09448852
 20
-6217.0482464
 10
45373.58493125
 20
-6213.16448951
 42
1.30322619
 10
45373.58435265
 20
-6221.21387005
 10
45388.09446811
 20
-6217.33219914
 42
-1.30322619
 10
45388.0938895
 20
-6225.38157969
 10
45373.58433224
 20
-6221.4978228
 42
1.30322619
 10
45373.58375364
 20
-6229.54720334
 10
45388.09386909
 20
-6225.66553243
 42
-1.30322619
 10
45388.09329049
 20
-6233.71491298
 10
45373.58373323
 20
-6229.83115609
 42
1.30322619
 10
45373.58315463
 20
-6237.88053663
 10
45388.09327008
 20
-6233.99886572
 42
-0.49354305
 10
45393.33805875
 20
-6238.02926035
  0
LWPOLYLINE
  5
623
100
AcDbEntity
  8
Ech.1_5
 62
     7
  6
CONTINUOUS
370
    50
100
AcDbPolyline
 90
        5
 70
     0
 43
0.0
 10
45448.14109269
 20
-6506.58837605
 10
45371.69005321
 20
-6506.58837605
 10
45368.35589014
 20
-6506.58837605
 10
45368.35577683
 20
-6484.61803437
 10
45318.35589014
 20
-6484.61803437
  0
LWPOLYLINE
  5
624
100
AcDbEntity
  8
Ech.1_5
 62
   190
  6
CONTINUOUS
370
    -3
100
AcDbPolyline
 90
       46
 70
     0
 43
0.0
 10
45372.52658579
 20
-6328.77710492
 42
1.14028181
 10
45373.60555833
 20
-6336.97269596
 10
45388.12289484
 20
-6333.08797508
 42
-1.30322619
 10
45388.12289484
 20
-6341.14151636
 10
45373.60555833
 20
-6337.25679548
 42
1.30322619
 10
45373.60555833
 20
-6345.31033676
 10
45388.12289484
 20
-6341.42561588
 42
-1.30322619
 10
45388.12289484
 20
-6349.47915715
 10
45373.60555833
 20
-6345.59443628
 42
1.30322619
 10
45373.60555833
 20
-6353.64797755
 10
45388.12289484
 20
-6349.76325668
 42
-1.30322619
 10
45388.12289484
 20
-6357.81679795
 10
45373.60555833
 20
-6353.93207708
 42
1.30322619
 10
45373.60555833
 20
-6361.98561835
 10
45388.12289484
 20
-6358.10089747
 42
-1.30322619
 10
45388.12289484
 20
-6366.15443875
 10
45373.60555833
 20
-6362.26971787
 42
1.30322619
 10
45373.60555833
 20
-6370.32325915
 10
45388.12289484
 20
-6366.43853827
 42
-1.30322619
 10
45388.12289484
 20
-6374.49207955
 10
45373.60555833
 20
-6370.60735867
 42
1.30322619
 10
45373.60555833
 20
-6378.66089994
 10
45388.12289484
 20
-6374.77617907
 42
-1.30322619
 10
45388.12289484
 20
-6382.82972034
 10
45373.60555833
 20
-6378.94499947
 42
1.30322619
 10
45373.60555833
 20
-6386.99854074
 10
45388.12289484
 20
-6383.11381987
 42
-1.30322619
 10
45388.12289484
 20
-6391.16736114
 10
45373.60555833
 20
-6387.28264026
 42
1.30322619
 10
45373.60555833
 20
-6395.33618154
 10
45388.12289484
 20
-6391.45146066
 42
-1.30322619
 10
45388.12289484
 20
-6399.50500194
 10
45373.60555833
 20
-6395.62028106
 42
1.30322619
 10
45373.60555833
 20
-6403.67382234
 10
45388.12289484
 20
-6399.78910146
 42
-1.30322619
 10
45388.12289484
 20
-6407.84264273
 10
45373.60555833
 20
-6403.95792186
 42
1.30322619
 10
45373.60555833
 20
-6412.01146313
 10
45388.12289484
 20
-6408.12674226
 42
-1.30322619
 10
45388.12289484
 20
-6416.18028353
 10
45373.60555833
 20
-6412.29556266
 42
1.30322619
 10
45373.60555833
 20
-6420.34910393
 10
45388.12289484
 20
-6416.46438306
 42
-1.30322619
 10
45388.12289484
 20
-6424.51792433
 10
45373.60555833
 20
-6420.63320345
 42
0.70854596
 10
45369.16583651
 20
-6427.12663738
  0
LWPOLYLINE
  5
625
100
AcDbEntity
  8
Ech.1_5
 62
   190
  6
CONTINUOUS
370
    -3
100
AcDbPolyline
 90
        6
 70
     0
 43
0.0
 10
44845.85657529
 20
-6521.90388047
 10
44845.85961702
 20
-6347.90388047
 10
44863.83696543
 20
-6331.41837727
 10
44827.88126541
 20
-6345.52831685
 10
44845.85961702
 20
-6329.04196297
 10
44845.85627741
 20
-6171.14736973
  0
LWPOLYLINE
  5
626
100
AcDbEntity
  8
Ech.1_5
 62
   190
  6
CONTINUOUS
370
    -3
100
AcDbPolyline
 90
        6
 70
     0
 43
0.0
 10
45915.85395997
 20
-6521.90388047
 10
45915.85091823
 20
-6347.90388047
 10
45897.87356983
 20
-6331.41837727
 10
45933.82926984
 20
-6345.52831685
 10
45915.85091823
 20
-6329.04196297
 10
45915.85425784
 20
-6163.98189961
  0
LWPOLYLINE
  5
627
100
AcDbEntity
  8
Ech.1_5
 62
   190
100
AcDbPolyline
 90
        5
 70
     0
 43
0.0
 10
44735.10649061
 20
-6788.45306382
 10
44869.5352696
 20
-6788.45306382
 10
44869.5352696
 20
-6845.17602264
 10
44735.10649061
 20
-6845.17602264
 10
44735.10649061
 20
-6788.45306382
  0
HATCH
  5
628
100
AcDbEntity
  8
Ech.1_5
 62
   190
100
AcDbHatch
 10
0.0
 20
0.0
 30
0.0
210
0.0
220
0.0
230
1.0
  2
SOLID
 70
     1
 71
     0
 91
        1
 92
        7
 72
     0
 73
     1
 93
        4
 10
44753.3865364
 20
-6822.10987495
 10
44803.3865364
 20
-6822.10987495
 10
44803.3865364
 20
-6814.69473742
 10
44753.3865364
 20
-6814.69473742
 97
        0
 75
     0
 76
     2
 47
0.775229
 98
        1
 10
0.0
 20
0.0
  0
LWPOLYLINE
  5
629
100
AcDbEntity
  8
Ech.1_5
 62
   190
100
AcDbPolyline
 90
        5
 70
     0
 43
0.0
 10
44753.3865364
 20
-6822.10987495
 10
44803.3865364
 20
-6822.10987495
 10
44803.3865364
 20
-6814.69473742
 10
44753.3865364
 20
-6814.69473742
 10
44753.3865364
 20
-6822.10987495
  0
LWPOLYLINE
  5
62A
100
AcDbEntity
  8
Ech.1_5
 62
   190
100
AcDbPolyline
 90
        5
 70
     0
 43
0.0
 10
44803.3865364
 20
-6822.10987495
 10
44853.3865364
 20
-6822.10987495
 10
44853.3865364
 20
-6814.69473742
 10
44803.3865364
 20
-6814.69473742
 10
44803.3865364
 20
-6822.10987495
  0
TEXT
  5
62B
100
AcDbEntity
  8
Ech.1_5
 62
   190
100
AcDbText
 10
44764.68082902
 20
-6805.10873434
 30
0.0
 40
8.00000012
  1
Echelle en mm
  7
ARIAL
 50
0.0
 41
1.0
 51
0.0
100
AcDbText
  0
TEXT
  5
62C
100
AcDbEntity
  8
Ech.1_5
 62
   190
100
AcDbText
 10
44750.70024427
 20
-6833.31856987
 30
0.0
 40
8.00000012
  1
0
  7
ARIAL
 50
0.0
 41
1.0
 51
0.0
100
AcDbText
  0
TEXT
  5
62D
100
AcDbEntity
  8
Ech.1_5
 62
   190
100
AcDbText
 10
44837.29730216
 20
-6833.31856987
 30
0.0
 40
8.00000012
  1
100
  7
ARIAL
 50
0.0
 41
1.0
 51
0.0
100
AcDbText
  0
TEXT
  5
62E
100
AcDbEntity
  8
Ech.1_5
 62
   190
100
AcDbText
 10
44798.5568706
 20
-6833.31856987
 30
0.0
 40
8.00000012
  1
50
  7
ARIAL
 50
0.0
 41
1.0
 51
0.0
100
AcDbText
  0
ENDSEC
  0
SECTION
  2
OBJECTS
  0
DICTIONARY
  5
1
100
AcDbDictionary
  3
ACAD_GROUP
350
2
  3
ACAD_MLINESTYLE
350
3
  0
DICTIONARY
  5
2
102
{CDWK_REACTORS
330
1
102
}
100
AcDbDictionary
  0
DICTIONARY
  5
3
102
{CDWK_REACTORS
330
1
102
}
100
AcDbDictionary
  3
STANDARD
350
4
  0
MLINESTYLE
  5
4
102
{CDWK_REACTORS
330
3
102
}
100
AcDbMlineStyle
  2
STANDARD
 70
     0
  3

 62
     0
 51
90.0
 52
90.0
 71
     2
 49
0.5
 62
   256
  6
BYLAYER
 49
-0.5
 62
   256
  6
BYLAYER
  0
ENDSEC
  0
EOF
