  0
SECTION
  2
HEADER
  9
$ACADVER
  1
AC1014
  9
$DWGCODEPAGE
  3
ANSI_1252
  9
$INSBASE
 10
0.0
 20
0.0
 30
0.0
  9
$EXTMIN
 10
1033.98771282
 20
-21718.34332712
  9
$EXTMAX
 10
122326.07664696
 20
2240.3362527
  9
$LIMMIN
 10
1033.98771282
 20
-21718.34332712
  9
$LIMMAX
 10
122326.07664696
 20
2240.3362527
  9
$ORTHOMODE
 70
     0
  9
$REGENMODE
 70
     1
  9
$FILLMODE
 70
     1
  9
$QTEXTMODE
 70
     0
  9
$MIRRTEXT
 70
     1
  9
$DRAGMODE
 70
     2
  9
$LTSCALE
 40
5.0
  9
$OSMODE
 70
     0
  9
$ATTMODE
 70
     1
  9
$TEXTSIZE
 40
3.5
  9
$TRACEWID
 40
1.0
  9
$TEXTSTYLE
  7
STANDARD
  9
$CLAYER
  8
0
  9
$CELTYPE
  6
BYLAYER
  9
$CECOLOR
 62
   256
  9
$DIMSCALE
 40
1.0
  9
$DIMASZ
 40
2.0
  9
$DIMEXO
 40
5.0
  9
$DIMDLI
 40
10.0
  9
$DIMRND
 40
0.0
  9
$DIMDLE
 40
2.0
  9
$DIMEXE
 40
2.0
  9
$DIMTP
 40
0.0
  9
$DIMTM
 40
0.0
  9
$DIMTXT
 40
2.5
  9
$DIMCEN
 40
1.5
  9
$DIMTSZ
 40
0.0
  9
$DIMTOL
 70
     0
  9
$DIMLIM
 70
     0
  9
$DIMTIH
 70
     1
  9
$DIMTOH
 70
     0
  9
$DIMSE1
 70
     0
  9
$DIMSE2
 70
     0
  9
$DIMTAD
 70
     1
  9
$DIMZIN
 70
     8
  9
$DIMBLK
  1

  9
$DIMASO
 70
     1
  9
$DIMSHO
 70
     1
  9
$DIMPOST
  1

  9
$DIMAPOST
  1

  9
$DIMALT
 70
     0
  9
$DIMALTD
 70
     2
  9
$DIMALTF
 40
25.4
  9
$DIMLFAC
 40
1.0
  9
$DIMTOFL
 70
     0
  9
$DIMTVP
 40
0.0
  9
$DIMTIX
 70
     0
  9
$DIMSOXD
 70
     0
  9
$DIMSAH
 70
     0
  9
$DIMBLK1
  1

  9
$DIMBLK2
  1

  9
$DIMSTYLE
  2
*UNNAMED
  9
$DIMCLRD
 70
   190
  9
$DIMCLRE
 70
   190
  9
$DIMCLRT
 70
   190
  9
$DIMTFAC
 40
1.0
  9
$DIMGAP
 40
0.09
  9
$DIMUNIT
 70
     2
  9
$LUNITS
 70
     2
  9
$LUPREC
 70
     6
  9
$AXISMODE
 70
     0
  9
$AXISUNIT
 10
0.0
 20
0.0
  9
$SKETCHINC
 40
0.1
  9
$FILLETRAD
 40
0.0
  9
$AUNITS
 70
     0
  9
$AUPREC
 70
     0
  9
$MENU
  1
ACAD
  9
$ELEVATION
 40
0.0
  9
$PELEVATION
 40
0.0
  9
$THICKNESS
 40
0.0
  9
$LIMCHECK
 70
     0
  9
$BLIPMODE
 70
     1
  9
$CHAMFERA
 40
0.0
  9
$CHAMFERB
 40
0.0
  9
$SKPOLY
 70
     1
  9
$TDCREATE
 40
2457808.0000000000
  9
$TDUPDATE
 40
2457808.0000000000
  9
$TDINDWG
 40
0.0
  9
$TDUSRTIMER
 40
0.0
  9
$USRTIMER
 70
     1
  9
$ANGBASE
 50
0.0
  9
$ANGDIR
 70
     0
  9
$PDMODE
 70
     0
  9
$PDSIZE
 40
0.0
  9
$PLINEWID
 40
0.0
  9
$COORDS
 70
     2
  9
$SPLFRAME
 70
     0
  9
$SPLINETYPE
 70
     6
  9
$SPLINESEGS
 70
     8
  9
$ATTDIA
 70
     1
  9
$ATTREQ
 70
     1
  9
$HANDLING
 70
     1
  9
$HANDSEED
  5
     641
  9
$SURFTAB1
 70
     6
  9
$SURFTAB2
 70
     6
  9
$SURFTYPE
 70
     6
  9
$SURFU
 70
     6
  9
$SURFV
 70
     6
  9
$UCSNAME
  2

  9
$UCSORG
 10
0.0
 20
0.0
 30
0.0
  9
$UCSXDIR
 10
1.0
 20
0.0
 30
0.0
  9
$UCSYDIR
 10
0.0
 20
1.0
 30
0.0
  9
$PUCSNAME
  2

  9
$PUCSORG
 10
0.0
 20
0.0
 30
0.0
  9
$PUCSXDIR
 10
1.0
 20
0.0
 30
0.0
  9
$PUCSYDIR
 10
0.0
 20
1.0
 30
0.0
  9
$USERI1
 70
     0
  9
$USERI2
 70
     0
  9
$USERI3
 70
     0
  9
$USERI4
 70
     0
  9
$USERI5
 70
     0
  9
$USERR1
 40
0.0
  9
$USERR2
 40
0.0
  9
$USERR3
 40
0.0
  9
$USERR4
 40
0.0
  9
$USERR5
 40
0.0
  9
$WORLDVIEW
 70
     1
  9
$SHADEDGE
 70
     3
  9
$SHADEDIF
 70
    70
  9
$TILEMODE
 70
     1
  9
$MAXACTVP
 70
    16
  9
$PINSBASE
 10
0.0
 20
0.0
 30
0.0
  9
$PLIMCHECK
 70
     0
  9
$PEXTMIN
 10
1.0000000000000E+20
 20
1.0000000000000E+20
 30
1.0000000000000E+20
  9
$PEXTMAX
 10
-1.0000000000000E+20
 20
-1.0000000000000E+20
 30
-1.0000000000000E+20
  9
$PLIMMIN
 10
0.0
 20
0.0
  9
$UNITMODE
 70
     0
  9
$VISRETAIN
 70
     0
  9
$MEASUREMENT
 70
     1
  0
ENDSEC
  0
SECTION
  2
TABLES
  0
TABLE
  2
VPORT
  5
4A2
100
AcDbSymbolTable
 70
     1
  0
ENDTAB
  0
TABLE
  2
STYLE
  5
4A3
100
AcDbSymbolTable
 70
     3
  0
STYLE
  5
4A4
100
AcDbSymbolTableRecord
100
AcDbTextStyleTableRecord
  2
STANDARD
 70
     0
 40
0.0
 41
1.0
 50
0.0
 71
     0
 42
3.5
  3
MONOTXT
  4

  0
STYLE
  5
4A5
100
AcDbSymbolTableRecord
100
AcDbTextStyleTableRecord
  2
SYMAP
 70
     0
 40
0.0
 41
1.0
 50
0.0
 71
     0
 42
3.5
  3
SYMAP
  4

  0
STYLE
  5
4A6
100
AcDbSymbolTableRecord
100
AcDbTextStyleTableRecord
  2
CADWORK1
 70
     0
 40
0.0
 41
1.0
 50
0.0
 71
     0
 42
3.5
  3
MONOTXT
  4

  0
STYLE
  5
4A7
100
AcDbSymbolTableRecord
100
AcDbTextStyleTableRecord
  2
MONOTXT
 70
     0
 40
0.0
 41
1.0
 50
0.0
 71
     0
 42
3.5
  3
MONOTXT
  4

  0
STYLE
  5
4A8
100
AcDbSymbolTableRecord
100
AcDbTextStyleTableRecord
  2
ARIAL
 70
     0
 40
0.0
 41
1.0
 50
0.0
 71
     0
 42
3.5
  3

  4

1001
ACAD
1000
Arial
1071
        0
  0
ENDTAB
  0
TABLE
  2
LTYPE
  5
4A9
100
AcDbSymbolTable
 70
    15
  0
LTYPE
  5
4AA
100
AcDbSymbolTableRecord
100
AcDbLinetypeTableRecord
  2
BYBLOCK
 70
    64
  3

 72
    65
 73
     0
 40
0.0
  0
LTYPE
  5
4AB
100
AcDbSymbolTableRecord
100
AcDbLinetypeTableRecord
  2
BYLAYER
 70
    64
  3

 72
    65
 73
     0
 40
0.0
  0
LTYPE
  5
4AC
100
AcDbSymbolTableRecord
100
AcDbLinetypeTableRecord
  2
CONTINUOUS
 70
    64
  3
Solid line
 72
    65
 73
     0
 40
0.0
  0
LTYPE
  5
4AD
100
AcDbSymbolTableRecord
100
AcDbLinetypeTableRecord
  2
DOT2
 70
    64
  3
...............................................
 72
    65
 73
     2
 40
1.25
 49
0.0
 74
     0
 49
-1.25
 74
     0
  0
LTYPE
  5
4AE
100
AcDbSymbolTableRecord
100
AcDbLinetypeTableRecord
  2
CADWORK_13
 70
    64
  3
13 =======================================
 72
    65
 73
     2
 40
4.0
 49
2.0
 74
     0
 49
-2.0
 74
     0
  0
LTYPE
  5
4AF
100
AcDbSymbolTableRecord
100
AcDbLinetypeTableRecord
  2
DASHDOT
 70
    64
  3
 __ . __ . __ . __ . __ . __ . __ . __ . __ . __
 72
    65
 73
     4
 40
10.0
 49
5.0
 74
     0
 49
-2.5
 74
     0
 49
0.0
 74
     0
 49
-2.5
 74
     0
  0
LTYPE
  5
4B0
100
AcDbSymbolTableRecord
100
AcDbLinetypeTableRecord
  2
CENTER
 70
    64
  3
 ____ _ ____ _ ____ _ ____ _ ____ _ ____ _ ____
 72
    65
 73
     4
 40
20.0
 49
12.5
 74
     0
 49
-2.5
 74
     0
 49
2.5
 74
     0
 49
-2.5
 74
     0
  0
LTYPE
  5
4B1
100
AcDbSymbolTableRecord
100
AcDbLinetypeTableRecord
  2
DASHEDX2
 70
    64
  3
____  ____  ____  ____  ____  ____  ____  ____
 72
    65
 73
     2
 40
3.75
 49
2.5
 74
     0
 49
-1.25
 74
     0
  0
LTYPE
  5
4B2
100
AcDbSymbolTableRecord
100
AcDbLinetypeTableRecord
  2
CADWORK_22
 70
    64
  3
22 =======================================
 72
    65
 73
     0
 40
0.0
  0
LTYPE
  5
4B3
100
AcDbSymbolTableRecord
100
AcDbLinetypeTableRecord
  2
DAL
 70
    64
  3
Solid line (for MAPS)
 72
    65
 73
     0
 40
0.0
  0
LTYPE
  5
4B4
100
AcDbSymbolTableRecord
100
AcDbLinetypeTableRecord
  2
MUR
 70
    64
  3
Solid line (for MAPS)
 72
    65
 73
     0
 40
0.0
  0
LTYPE
  5
4B5
100
AcDbSymbolTableRecord
100
AcDbLinetypeTableRecord
  2
SOM
 70
    64
  3
Solid line (for MAPS)
 72
    65
 73
     0
 40
0.0
  0
LTYPE
  5
4B6
100
AcDbSymbolTableRecord
100
AcDbLinetypeTableRecord
  2
COL
 70
    64
  3
Solid line (for MAPS)
 72
    65
 73
     0
 40
0.0
  0
LTYPE
  5
4B7
100
AcDbSymbolTableRecord
100
AcDbLinetypeTableRecord
  2
LGN
 70
    64
  3
Solid line (for MAPS)
 72
    65
 73
     0
 40
0.0
  0
LTYPE
  5
4B8
100
AcDbSymbolTableRecord
100
AcDbLinetypeTableRecord
  2
PNT
 70
    64
  3
Solid line (for MAPS)
 72
    65
 73
     0
 40
0.0
  0
ENDTAB
  0
TABLE
  2
LAYER
  5
4B9
100
AcDbSymbolTable
 70
    32
  0
LAYER
  5
4BA
100
AcDbSymbolTableRecord
100
AcDbLayerTableRecord
  2
Standard
 70
     0
 62
     7
  6
CONTINUOUS
370
    -3
  0
LAYER
  5
4BB
100
AcDbSymbolTableRecord
100
AcDbLayerTableRecord
  2
Ech.1_1
 70
     0
 62
     7
  6
CONTINUOUS
370
    -3
  0
LAYER
  5
4BC
100
AcDbSymbolTableRecord
100
AcDbLayerTableRecord
  2
Ech.1_2
 70
     0
 62
     7
  6
CONTINUOUS
370
    -3
  0
LAYER
  5
4BD
100
AcDbSymbolTableRecord
100
AcDbLayerTableRecord
  2
Ech.1_5
 70
     0
 62
     7
  6
CONTINUOUS
370
    -3
  0
LAYER
  5
4BE
100
AcDbSymbolTableRecord
100
AcDbLayerTableRecord
  2
Ech.1_10
 70
     0
 62
     7
  6
CONTINUOUS
370
    -3
  0
LAYER
  5
4BF
100
AcDbSymbolTableRecord
100
AcDbLayerTableRecord
  2
Ech.1_20
 70
     0
 62
     7
  6
CONTINUOUS
370
    -3
  0
LAYER
  5
4C0
100
AcDbSymbolTableRecord
100
AcDbLayerTableRecord
  2
Ech.1_25
 70
     0
 62
     7
  6
CONTINUOUS
370
    -3
  0
LAYER
  5
4C1
100
AcDbSymbolTableRecord
100
AcDbLayerTableRecord
  2
Ech.1_33
 70
     0
 62
     7
  6
CONTINUOUS
370
    -3
  0
LAYER
  5
4C2
100
AcDbSymbolTableRecord
100
AcDbLayerTableRecord
  2
Ech.1_50
 70
     0
 62
     7
  6
CONTINUOUS
370
    -3
  0
LAYER
  5
4C3
100
AcDbSymbolTableRecord
100
AcDbLayerTableRecord
  2
Ech.1_75
 70
     0
 62
     7
  6
CONTINUOUS
370
    -3
  0
LAYER
  5
4C4
100
AcDbSymbolTableRecord
100
AcDbLayerTableRecord
  2
Ech.1_100
 70
     0
 62
     7
  6
CONTINUOUS
370
    -3
  0
LAYER
  5
4C5
100
AcDbSymbolTableRecord
100
AcDbLayerTableRecord
  2
Ech.1_200
 70
     0
 62
     7
  6
CONTINUOUS
370
    -3
  0
LAYER
  5
4C6
100
AcDbSymbolTableRecord
100
AcDbLayerTableRecord
  2
Ech.1_500
 70
     0
 62
     7
  6
CONTINUOUS
370
    -3
  0
LAYER
  5
4C7
100
AcDbSymbolTableRecord
100
AcDbLayerTableRecord
  2
Ech.1_1000
 70
     0
 62
     7
  6
CONTINUOUS
370
    -3
  0
LAYER
  5
4C8
100
AcDbSymbolTableRecord
100
AcDbLayerTableRecord
  2
Cadres traceur
 70
     0
 62
     7
  6
CONTINUOUS
370
    18
  0
LAYER
  5
4C9
100
AcDbSymbolTableRecord
100
AcDbLayerTableRecord
  2
Cadres laser
 70
     0
 62
     7
  6
CONTINUOUS
370
    18
  0
LAYER
  5
4CA
100
AcDbSymbolTableRecord
100
AcDbLayerTableRecord
  2
Légende d_aide
 70
     0
 62
     7
  6
CONTINUOUS
370
    18
  0
LAYER
  5
4CB
100
AcDbSymbolTableRecord
100
AcDbLayerTableRecord
  2
hachures ok
 70
     0
 62
     7
  6
CONTINUOUS
370
    18
  0
LAYER
  5
4CC
100
AcDbSymbolTableRecord
100
AcDbLayerTableRecord
  2
ossature bois
 70
     0
 62
     7
  6
CONTINUOUS
370
    18
  0
LAYER
  5
4CD
100
AcDbSymbolTableRecord
100
AcDbLayerTableRecord
  2
VR
 70
     0
 62
     7
  6
CONTINUOUS
370
    25
  0
LAYER
  5
4CE
100
AcDbSymbolTableRecord
100
AcDbLayerTableRecord
  2
Calque1
 70
     0
 62
     7
  6
CONTINUOUS
370
     9
  0
LAYER
  5
4CF
100
AcDbSymbolTableRecord
100
AcDbLayerTableRecord
  2
0
 70
     0
 62
     7
  6
CONTINUOUS
370
    -3
  0
LAYER
  5
4D0
100
AcDbSymbolTableRecord
100
AcDbLayerTableRecord
  2
menuiserie
 70
     0
 62
     7
  6
CONTINUOUS
370
    -3
  0
LAYER
  5
4D1
100
AcDbSymbolTableRecord
100
AcDbLayerTableRecord
  2
cotation
 70
     0
 62
   250
  6
CONTINUOUS
370
     9
  0
LAYER
  5
4D2
100
AcDbSymbolTableRecord
100
AcDbLayerTableRecord
  2
Defpoints
 70
     0
 62
    10
  6
CONTINUOUS
370
    -3
  0
LAYER
  5
4D3
100
AcDbSymbolTableRecord
100
AcDbLayerTableRecord
  2
HACHURE
 70
     0
 62
   254
  6
CONTINUOUS
370
    25
  0
LAYER
  5
4D4
100
AcDbSymbolTableRecord
100
AcDbLayerTableRecord
  2
mat1
 70
     0
 62
     7
  6
CONTINUOUS
370
    30
  0
LAYER
  5
4D5
100
AcDbSymbolTableRecord
100
AcDbLayerTableRecord
  2
mat2
 70
     0
 62
     7
  6
CONTINUOUS
370
     5
  0
LAYER
  5
4D6
100
AcDbSymbolTableRecord
100
AcDbLayerTableRecord
  2
hach
 70
     0
 62
     8
  6
CONTINUOUS
370
     5
  0
LAYER
  5
4D7
100
AcDbSymbolTableRecord
100
AcDbLayerTableRecord
  2
menuiseries
 70
     0
 62
     7
  6
CONTINUOUS
370
     9
  0
LAYER
  5
4D8
100
AcDbSymbolTableRecord
100
AcDbLayerTableRecord
  2
BétonMétal
 70
     0
 62
     7
  6
CONTINUOUS
370
    80
  0
LAYER
  5
4D9
100
AcDbSymbolTableRecord
100
AcDbLayerTableRecord
  2
bois
 70
     0
 62
     7
  6
CONTINUOUS
370
    60
  0
ENDTAB
  0
TABLE
  2
VIEW
  5
4DA
100
AcDbSymbolTable
 70
     0
  0
ENDTAB
  0
TABLE
  2
UCS
  5
4DB
100
AcDbSymbolTable
 70
     0
  0
ENDTAB
  0
TABLE
  2
APPID
  5
4DC
100
AcDbSymbolTable
 70
     1
  0
APPID
  5
4DD
100
AcDbSymbolTableRecord
100
AcDbRegAppTableRecord
  2
ACAD
 70
     0
  0
ENDTAB
  0
TABLE
  2
DIMSTYLE
  5
4DE
100
AcDbSymbolTable
 70
     0
  0
ENDTAB
  0
TABLE
  2
BLOCK_RECORD
  5
4DF
100
AcDbSymbolTable
 70
     0
  0
BLOCK_RECORD
  5
4E0
100
AcDbSymbolTableRecord
100
AcDbBlockTableRecord
  2
*MODEL_SPACE
  0
BLOCK_RECORD
  5
4E1
100
AcDbSymbolTableRecord
100
AcDbBlockTableRecord
  2
*PAPER_SPACE
  0
BLOCK_RECORD
  5
4E2
100
AcDbSymbolTableRecord
100
AcDbBlockTableRecord
  2
CDWK_EXTR_0
  0
BLOCK_RECORD
  5
4E3
100
AcDbSymbolTableRecord
100
AcDbBlockTableRecord
  2
CDWK_EXTR_1D
  0
BLOCK_RECORD
  5
4E4
100
AcDbSymbolTableRecord
100
AcDbBlockTableRecord
  2
CDWK_EXTR_1G
  0
BLOCK_RECORD
  5
4E5
100
AcDbSymbolTableRecord
100
AcDbBlockTableRecord
  2
CDWK_EXTR_2
  0
BLOCK_RECORD
  5
4E6
100
AcDbSymbolTableRecord
100
AcDbBlockTableRecord
  2
CDWK_EXTR_3
  0
BLOCK_RECORD
  5
4E7
100
AcDbSymbolTableRecord
100
AcDbBlockTableRecord
  2
CDWK_EXTR_4
  0
BLOCK_RECORD
  5
4E8
100
AcDbSymbolTableRecord
100
AcDbBlockTableRecord
  2
CDWK_PTTYP0
  0
BLOCK_RECORD
  5
4E9
100
AcDbSymbolTableRecord
100
AcDbBlockTableRecord
  2
CDWK_PTTYP1
  0
BLOCK_RECORD
  5
4EA
100
AcDbSymbolTableRecord
100
AcDbBlockTableRecord
  2
CDWK_PTTYP2
  0
BLOCK_RECORD
  5
4EB
100
AcDbSymbolTableRecord
100
AcDbBlockTableRecord
  2
CDWK_PTTYP3
  0
BLOCK_RECORD
  5
4EC
100
AcDbSymbolTableRecord
100
AcDbBlockTableRecord
  2
CDWK_PTTYP4
  0
BLOCK_RECORD
  5
4ED
100
AcDbSymbolTableRecord
100
AcDbBlockTableRecord
  2
CDWK_PTTYP5
  0
BLOCK_RECORD
  5
4EE
100
AcDbSymbolTableRecord
100
AcDbBlockTableRecord
  2
CDWK_PTTYP6
  0
BLOCK_RECORD
  5
4EF
100
AcDbSymbolTableRecord
100
AcDbBlockTableRecord
  2
CDWK_PTTYP7
  0
BLOCK_RECORD
  5
4F0
100
AcDbSymbolTableRecord
100
AcDbBlockTableRecord
  2
CDWK_PTTYP8
  0
BLOCK_RECORD
  5
4F1
100
AcDbSymbolTableRecord
100
AcDbBlockTableRecord
  2
CDWK_PTTYP9
  0
BLOCK_RECORD
  5
4F2
100
AcDbSymbolTableRecord
100
AcDbBlockTableRecord
  2
CDWK_PTTYP10
  0
BLOCK_RECORD
  5
4F3
100
AcDbSymbolTableRecord
100
AcDbBlockTableRecord
  2
CDWK_PTTYP11
  0
BLOCK_RECORD
  5
4F4
100
AcDbSymbolTableRecord
100
AcDbBlockTableRecord
  2
CDWK_PTTYP12
  0
BLOCK_RECORD
  5
4F5
100
AcDbSymbolTableRecord
100
AcDbBlockTableRecord
  2
CDWK_PTTYP13
  0
BLOCK_RECORD
  5
4F6
100
AcDbSymbolTableRecord
100
AcDbBlockTableRecord
  2
CDWK_PTTYP14
  0
BLOCK_RECORD
  5
4F7
100
AcDbSymbolTableRecord
100
AcDbBlockTableRecord
  2
CDWK_PTTYP15
  0
BLOCK_RECORD
  5
4F8
100
AcDbSymbolTableRecord
100
AcDbBlockTableRecord
  2
CDWK_PTTYP16
  0
BLOCK_RECORD
  5
4F9
100
AcDbSymbolTableRecord
100
AcDbBlockTableRecord
  2
CDWK_PTTYP17
  0
BLOCK_RECORD
  5
4FA
100
AcDbSymbolTableRecord
100
AcDbBlockTableRecord
  2
CDWK_PTTYP18
  0
BLOCK_RECORD
  5
4FB
100
AcDbSymbolTableRecord
100
AcDbBlockTableRecord
  2
CDWK_PTTYP19
  0
BLOCK_RECORD
  5
4FC
100
AcDbSymbolTableRecord
100
AcDbBlockTableRecord
  2
CDWK_PTTYP20
  0
BLOCK_RECORD
  5
4FD
100
AcDbSymbolTableRecord
100
AcDbBlockTableRecord
  2
CDWK_PTTYP21
  0
BLOCK_RECORD
  5
4FE
100
AcDbSymbolTableRecord
100
AcDbBlockTableRecord
  2
CDWK_PTTYP22
  0
BLOCK_RECORD
  5
4FF
100
AcDbSymbolTableRecord
100
AcDbBlockTableRecord
  2
CDWK_PTTYP23
  0
BLOCK_RECORD
  5
500
100
AcDbSymbolTableRecord
100
AcDbBlockTableRecord
  2
CDWK_PTTYP24
  0
BLOCK_RECORD
  5
501
100
AcDbSymbolTableRecord
100
AcDbBlockTableRecord
  2
CDWK_PTTYP25
  0
BLOCK_RECORD
  5
502
100
AcDbSymbolTableRecord
100
AcDbBlockTableRecord
  2
CDWK_PTTYP26
  0
BLOCK_RECORD
  5
503
100
AcDbSymbolTableRecord
100
AcDbBlockTableRecord
  2
CDWK_PTTYP27
  0
BLOCK_RECORD
  5
504
100
AcDbSymbolTableRecord
100
AcDbBlockTableRecord
  2
CDWK_PTTYP28
  0
BLOCK_RECORD
  5
505
100
AcDbSymbolTableRecord
100
AcDbBlockTableRecord
  2
CDWK_PTTYP29
  0
BLOCK_RECORD
  5
506
100
AcDbSymbolTableRecord
100
AcDbBlockTableRecord
  2
CDWK_PTTYP30
  0
BLOCK_RECORD
  5
507
100
AcDbSymbolTableRecord
100
AcDbBlockTableRecord
  2
CDWK_PTTYP31
  0
BLOCK_RECORD
  5
508
100
AcDbSymbolTableRecord
100
AcDbBlockTableRecord
  2
CDWK_PTTYP32
  0
BLOCK_RECORD
  5
509
100
AcDbSymbolTableRecord
100
AcDbBlockTableRecord
  2
CDWK_PTTYP33
  0
BLOCK_RECORD
  5
50A
100
AcDbSymbolTableRecord
100
AcDbBlockTableRecord
  2
CDWK_PTTYP34
  0
BLOCK_RECORD
  5
50B
100
AcDbSymbolTableRecord
100
AcDbBlockTableRecord
  2
CDWK_PTTYP35
  0
BLOCK_RECORD
  5
50C
100
AcDbSymbolTableRecord
100
AcDbBlockTableRecord
  2
CDWK_PTTYP36
  0
BLOCK_RECORD
  5
50D
100
AcDbSymbolTableRecord
100
AcDbBlockTableRecord
  2
CDWK_PTTYP37
  0
BLOCK_RECORD
  5
50E
100
AcDbSymbolTableRecord
100
AcDbBlockTableRecord
  2
CDWK_PTTYP38
  0
BLOCK_RECORD
  5
50F
100
AcDbSymbolTableRecord
100
AcDbBlockTableRecord
  2
*X1
  0
BLOCK_RECORD
  5
510
100
AcDbSymbolTableRecord
100
AcDbBlockTableRecord
  2
*X2
  0
ENDTAB
  0
ENDSEC
  0
SECTION
  2
BLOCKS
  0
BLOCK
  5
511
100
AcDbEntity
  8
0
100
AcDbBlockBegin
  2
*MODEL_SPACE
 70
     0
 10
0.0
 20
0.0
 30
0.0
  3
*MODEL_SPACE
  1

  0
ENDBLK
  5
512
100
AcDbEntity
100
AcDbBlockEnd
  0
BLOCK
  5
513
100
AcDbEntity
  8
0
100
AcDbBlockBegin
  2
*PAPER_SPACE
 70
     0
 10
0.0
 20
0.0
 30
0.0
  3
*PAPER_SPACE
  1

  0
ENDBLK
  5
514
100
AcDbEntity
100
AcDbBlockEnd
  0
BLOCK
  5
515
100
AcDbEntity
  8
0
100
AcDbBlockBegin
  2
CDWK_EXTR_0
 70
     0
 10
0.0
 20
0.0
 30
0.0
  3
CDWK_EXTR_0
  1

  4
Cadwork line-extremity
  0
LINE
  5
516
100
AcDbEntity
  8
0
 62
     0
370
    -2
100
AcDbLine
 10
0.0
 20
0.0
 30
0.0
 11
2.0
 21
0.5
 31
0.0
  0
LINE
  5
517
100
AcDbEntity
  8
0
 62
     0
370
    -2
100
AcDbLine
 10
0.0
 20
0.0
 30
0.0
 11
2.0
 21
-0.5
 31
0.0
  0
LINE
  5
518
100
AcDbEntity
  8
0
 62
     0
370
    -2
100
AcDbLine
 10
2.0
 20
0.5
 30
0.0
 11
2.0
 21
-0.5
 31
0.0
  0
ENDBLK
  5
519
100
AcDbEntity
100
AcDbBlockEnd
  0
BLOCK
  5
51A
100
AcDbEntity
  8
0
100
AcDbBlockBegin
  2
CDWK_EXTR_1D
 70
     0
 10
0.0
 20
0.0
 30
0.0
  3
CDWK_EXTR_1D
  1

  4
Cadwork line-extremity
  0
LINE
  5
51B
100
AcDbEntity
  8
0
 62
     0
370
    -2
100
AcDbLine
 10
0.0
 20
0.0
 30
0.0
 11
0.0
 21
1.0
 31
0.0
  0
LINE
  5
51C
100
AcDbEntity
  8
0
 62
     0
370
    -2
100
AcDbLine
 10
0.0
 20
1.0
 30
0.0
 11
0.5
 21
1.5
 31
0.0
  0
LINE
  5
51D
100
AcDbEntity
  8
0
 62
     0
370
    -2
100
AcDbLine
 10
0.5
 20
1.5
 30
0.0
 11
1.5
 21
1.5
 31
0.0
  0
ENDBLK
  5
51E
100
AcDbEntity
100
AcDbBlockEnd
  0
BLOCK
  5
51F
100
AcDbEntity
  8
0
100
AcDbBlockBegin
  2
CDWK_EXTR_1G
 70
     0
 10
0.0
 20
0.0
 30
0.0
  3
CDWK_EXTR_1G
  1

  4
Cadwork line-extremity
  0
LINE
  5
520
100
AcDbEntity
  8
0
 62
     0
370
    -2
100
AcDbLine
 10
0.0
 20
0.0
 30
0.0
 11
0.0
 21
-1.0
 31
0.0
  0
LINE
  5
521
100
AcDbEntity
  8
0
 62
     0
370
    -2
100
AcDbLine
 10
0.0
 20
-1.0
 30
0.0
 11
0.5
 21
-1.5
 31
0.0
  0
LINE
  5
522
100
AcDbEntity
  8
0
 62
     0
370
    -2
100
AcDbLine
 10
0.5
 20
-1.5
 30
0.0
 11
1.5
 21
-1.5
 31
0.0
  0
ENDBLK
  5
523
100
AcDbEntity
100
AcDbBlockEnd
  0
BLOCK
  5
524
100
AcDbEntity
  8
0
100
AcDbBlockBegin
  2
CDWK_EXTR_2
 70
     0
 10
0.0
 20
0.0
 30
0.0
  3
CDWK_EXTR_2
  1

  4
Cadwork line-extremity
  0
SOLID
  5
525
100
AcDbEntity
  8
0
 62
     0
100
AcDbTrace
 10
0.0
 20
0.0
 11
2.0
 21
0.5
 12
2.0
 22
-0.5
 13
2.0
 23
-0.5
  0
ENDBLK
  5
526
100
AcDbEntity
100
AcDbBlockEnd
  0
BLOCK
  5
527
100
AcDbEntity
  8
0
100
AcDbBlockBegin
  2
CDWK_EXTR_3
 70
     0
 10
0.0
 20
0.0
 30
0.0
  3
CDWK_EXTR_3
  1

  4
Cadwork line-extremity
  0
SOLID
  5
528
100
AcDbEntity
  8
0
 62
     0
100
AcDbTrace
 10
0.0
 20
0.0
 11
2.0
 21
0.5
 12
2.0
 22
-0.5
 13
2.0
 23
-0.5
  0
LINE
  5
529
100
AcDbEntity
  8
0
 62
     0
370
    -2
100
AcDbLine
 10
0.0
 20
1.0
 30
0.0
 11
0.0
 21
-1.0
 31
0.0
  0
ENDBLK
  5
52A
100
AcDbEntity
100
AcDbBlockEnd
  0
BLOCK
  5
52B
100
AcDbEntity
  8
0
100
AcDbBlockBegin
  2
CDWK_EXTR_4
 70
     0
 10
0.0
 20
0.0
 30
0.0
  3
CDWK_EXTR_4
  1

  4
Cadwork line-extremity
  0
HATCH
  5
52C
100
AcDbEntity
  8
0
 62
     0
370
    -2
100
AcDbHatch
 10
0.0
 20
0.0
 30
0.0
210
0.0
220
0.0
230
1.0
  2
SOLID
 70
     1
 71
     0
 91
        1
 92
        1
 93
        1
 72
     2
 10
0.0
 20
0.0
 40
0.5
 50
0.0
 51
360.0
 73
     1
 97
        0
 75
     0
 76
     1
 98
        1
 10
0.0
 20
0.0
  0
ENDBLK
  5
52D
100
AcDbEntity
100
AcDbBlockEnd
  0
BLOCK
  5
52E
100
AcDbEntity
  8
0
100
AcDbBlockBegin
  2
CDWK_PTTYP0
 70
     0
 10
0.0
 20
0.0
 30
0.0
  3
CDWK_PTTYP0
  1

  4
Cadwork point
  0
POINT
  5
52F
100
AcDbEntity
  8
0
 62
     0
100
AcDbPoint
 10
0.0
 20
0.0
 30
0.0
  0
ENDBLK
  5
530
100
AcDbEntity
100
AcDbBlockEnd
  0
BLOCK
  5
531
100
AcDbEntity
  8
0
100
AcDbBlockBegin
  2
CDWK_PTTYP1
 70
     0
 10
0.0
 20
0.0
 30
0.0
  3
CDWK_PTTYP1
  1

  4
Cadwork node
  0
LINE
  5
532
100
AcDbEntity
  8
0
 62
     0
370
    -2
100
AcDbLine
 10
-0.5
 20
0.5
 30
0.0
 11
0.5
 21
0.5
 31
0.0
  0
LINE
  5
533
100
AcDbEntity
  8
0
 62
     0
370
    -2
100
AcDbLine
 10
0.5
 20
0.5
 30
0.0
 11
0.5
 21
-0.5
 31
0.0
  0
LINE
  5
534
100
AcDbEntity
  8
0
 62
     0
370
    -2
100
AcDbLine
 10
0.5
 20
-0.5
 30
0.0
 11
-0.5
 21
-0.5
 31
0.0
  0
LINE
  5
535
100
AcDbEntity
  8
0
 62
     0
370
    -2
100
AcDbLine
 10
-0.5
 20
-0.5
 30
0.0
 11
-0.5
 21
0.5
 31
0.0
  0
ENDBLK
  5
536
100
AcDbEntity
100
AcDbBlockEnd
  0
BLOCK
  5
537
100
AcDbEntity
  8
0
100
AcDbBlockBegin
  2
CDWK_PTTYP2
 70
     0
 10
0.0
 20
0.0
 30
0.0
  3
CDWK_PTTYP2
  1

  4
Cadwork node
  0
LINE
  5
538
100
AcDbEntity
  8
0
 62
     0
370
    -2
100
AcDbLine
 10
0.0
 20
0.5
 30
0.0
 11
0.0
 21
-0.5
 31
0.0
  0
LINE
  5
539
100
AcDbEntity
  8
0
 62
     0
370
    -2
100
AcDbLine
 10
-0.5
 20
0.0
 30
0.0
 11
0.5
 21
0.0
 31
0.0
  0
ENDBLK
  5
53A
100
AcDbEntity
100
AcDbBlockEnd
  0
BLOCK
  5
53B
100
AcDbEntity
  8
0
100
AcDbBlockBegin
  2
CDWK_PTTYP3
 70
     0
 10
0.0
 20
0.0
 30
0.0
  3
CDWK_PTTYP3
  1

  4
Cadwork node
  0
CIRCLE
  5
53C
100
AcDbEntity
  8
0
 62
     0
370
    -2
100
AcDbCircle
 10
0.0
 20
0.0
 30
0.0
 40
0.5
  0
ENDBLK
  5
53D
100
AcDbEntity
100
AcDbBlockEnd
  0
BLOCK
  5
53E
100
AcDbEntity
  8
0
100
AcDbBlockBegin
  2
CDWK_PTTYP4
 70
     0
 10
0.0
 20
0.0
 30
0.0
  3
CDWK_PTTYP4
  1

  4
Cadwork node
  0
HATCH
  5
53F
100
AcDbEntity
  8
0
 62
     0
370
    -2
100
AcDbHatch
 10
0.0
 20
0.0
 30
0.0
210
0.0
220
0.0
230
1.0
  2
SOLID
 70
     1
 71
     0
 91
        1
 92
        1
 93
        1
 72
     2
 10
0.0
 20
0.0
 40
0.5
 50
0.0
 51
360.0
 73
     1
 97
        0
 75
     0
 76
     1
 98
        1
 10
0.0
 20
0.0
  0
ENDBLK
  5
540
100
AcDbEntity
100
AcDbBlockEnd
  0
BLOCK
  5
541
100
AcDbEntity
  8
0
100
AcDbBlockBegin
  2
CDWK_PTTYP5
 70
     0
 10
0.0
 20
0.0
 30
0.0
  3
CDWK_PTTYP5
  1

  4
Cadwork node
  0
LINE
  5
542
100
AcDbEntity
  8
0
 62
     0
370
    -2
100
AcDbLine
 10
-0.5
 20
0.5
 30
0.0
 11
0.5
 21
0.5
 31
0.0
  0
LINE
  5
543
100
AcDbEntity
  8
0
 62
     0
370
    -2
100
AcDbLine
 10
0.5
 20
0.5
 30
0.0
 11
0.5
 21
-0.5
 31
0.0
  0
LINE
  5
544
100
AcDbEntity
  8
0
 62
     0
370
    -2
100
AcDbLine
 10
0.5
 20
-0.5
 30
0.0
 11
-0.5
 21
-0.5
 31
0.0
  0
LINE
  5
545
100
AcDbEntity
  8
0
 62
     0
370
    -2
100
AcDbLine
 10
-0.5
 20
-0.5
 30
0.0
 11
-0.5
 21
0.5
 31
0.0
  0
SOLID
  5
546
100
AcDbEntity
  8
0
 62
     0
100
AcDbTrace
 10
-0.5
 20
-0.5
 11
-0.5
 21
0.0
 12
0.0
 22
-0.5
 13
0.0
 23
0.0
  0
SOLID
  5
547
100
AcDbEntity
  8
0
 62
     0
100
AcDbTrace
 10
0.0
 20
0.0
 11
0.0
 21
0.5
 12
0.5
 22
0.0
 13
0.5
 23
0.5
  0
ENDBLK
  5
548
100
AcDbEntity
100
AcDbBlockEnd
  0
BLOCK
  5
549
100
AcDbEntity
  8
0
100
AcDbBlockBegin
  2
CDWK_PTTYP6
 70
     0
 10
0.0
 20
0.0
 30
0.0
  3
CDWK_PTTYP6
  1

  4
Cadwork node
  0
LINE
  5
54A
100
AcDbEntity
  8
0
 62
     0
370
    -2
100
AcDbLine
 10
-0.5
 20
0.5
 30
0.0
 11
0.5
 21
0.5
 31
0.0
  0
LINE
  5
54B
100
AcDbEntity
  8
0
 62
     0
370
    -2
100
AcDbLine
 10
0.5
 20
0.5
 30
0.0
 11
0.5
 21
-0.5
 31
0.0
  0
LINE
  5
54C
100
AcDbEntity
  8
0
 62
     0
370
    -2
100
AcDbLine
 10
0.5
 20
-0.5
 30
0.0
 11
-0.5
 21
-0.5
 31
0.0
  0
LINE
  5
54D
100
AcDbEntity
  8
0
 62
     0
370
    -2
100
AcDbLine
 10
-0.5
 20
-0.5
 30
0.0
 11
-0.5
 21
0.5
 31
0.0
  0
SOLID
  5
54E
100
AcDbEntity
  8
0
 62
     0
100
AcDbTrace
 10
-0.5
 20
-0.5
 11
-0.5
 21
0.5
 12
0.5
 22
0.5
 13
0.5
 23
0.5
  0
ENDBLK
  5
54F
100
AcDbEntity
100
AcDbBlockEnd
  0
BLOCK
  5
550
100
AcDbEntity
  8
0
100
AcDbBlockBegin
  2
CDWK_PTTYP7
 70
     0
 10
0.0
 20
0.0
 30
0.0
  3
CDWK_PTTYP7
  1

  4
Cadwork node
  0
LINE
  5
551
100
AcDbEntity
  8
0
 62
     0
370
    -2
100
AcDbLine
 10
-0.5
 20
0.5
 30
0.0
 11
0.5
 21
0.5
 31
0.0
  0
LINE
  5
552
100
AcDbEntity
  8
0
 62
     0
370
    -2
100
AcDbLine
 10
0.5
 20
0.5
 30
0.0
 11
0.5
 21
-0.5
 31
0.0
  0
LINE
  5
553
100
AcDbEntity
  8
0
 62
     0
370
    -2
100
AcDbLine
 10
0.5
 20
-0.5
 30
0.0
 11
-0.5
 21
-0.5
 31
0.0
  0
LINE
  5
554
100
AcDbEntity
  8
0
 62
     0
370
    -2
100
AcDbLine
 10
-0.5
 20
-0.5
 30
0.0
 11
-0.5
 21
0.5
 31
0.0
  0
LINE
  5
555
100
AcDbEntity
  8
0
 62
     0
370
    -2
100
AcDbLine
 10
0.0
 20
0.5
 30
0.0
 11
0.0
 21
-0.5
 31
0.0
  0
LINE
  5
556
100
AcDbEntity
  8
0
 62
     0
370
    -2
100
AcDbLine
 10
-0.5
 20
0.0
 30
0.0
 11
0.5
 21
0.0
 31
0.0
  0
ENDBLK
  5
557
100
AcDbEntity
100
AcDbBlockEnd
  0
BLOCK
  5
558
100
AcDbEntity
  8
0
100
AcDbBlockBegin
  2
CDWK_PTTYP8
 70
     0
 10
0.0
 20
0.0
 30
0.0
  3
CDWK_PTTYP8
  1

  4
Cadwork node
  0
SOLID
  5
559
100
AcDbEntity
  8
0
 62
     0
100
AcDbTrace
 10
-0.5
 20
0.5
 11
0.5
 21
0.5
 12
-0.5
 22
-0.5
 13
0.5
 23
-0.5
  0
ENDBLK
  5
55A
100
AcDbEntity
100
AcDbBlockEnd
  0
BLOCK
  5
55B
100
AcDbEntity
  8
0
100
AcDbBlockBegin
  2
CDWK_PTTYP9
 70
     0
 10
0.0
 20
0.0
 30
0.0
  3
CDWK_PTTYP9
  1

  4
Cadwork node
  0
CIRCLE
  5
55C
100
AcDbEntity
  8
0
 62
     0
370
    -2
100
AcDbCircle
 10
0.0
 20
0.0
 30
0.0
 40
0.5
  0
CIRCLE
  5
55D
100
AcDbEntity
  8
0
 62
     0
370
    -2
100
AcDbCircle
 10
0.0
 20
0.0
 30
0.0
 40
0.16666667
  0
ENDBLK
  5
55E
100
AcDbEntity
100
AcDbBlockEnd
  0
BLOCK
  5
55F
100
AcDbEntity
  8
0
100
AcDbBlockBegin
  2
CDWK_PTTYP10
 70
     0
 10
0.0
 20
0.0
 30
0.0
  3
CDWK_PTTYP10
  1

  4
Cadwork node
  0
CIRCLE
  5
560
100
AcDbEntity
  8
0
 62
     0
370
    -2
100
AcDbCircle
 10
0.0
 20
0.0
 30
0.0
 40
0.5
  0
ENDBLK
  5
561
100
AcDbEntity
100
AcDbBlockEnd
  0
BLOCK
  5
562
100
AcDbEntity
  8
0
100
AcDbBlockBegin
  2
CDWK_PTTYP11
 70
     0
 10
0.0
 20
0.0
 30
0.0
  3
CDWK_PTTYP11
  1

  4
Cadwork node
  0
CIRCLE
  5
563
100
AcDbEntity
  8
0
 62
     0
370
    -2
100
AcDbCircle
 10
0.0
 20
0.0
 30
0.0
 40
0.5
  0
CIRCLE
  5
564
100
AcDbEntity
  8
0
 62
     0
370
    -2
100
AcDbCircle
 10
0.0
 20
0.0
 30
0.0
 40
0.25
  0
ENDBLK
  5
565
100
AcDbEntity
100
AcDbBlockEnd
  0
BLOCK
  5
566
100
AcDbEntity
  8
0
100
AcDbBlockBegin
  2
CDWK_PTTYP12
 70
     0
 10
0.0
 20
0.0
 30
0.0
  3
CDWK_PTTYP12
  1

  4
Cadwork node
  0
CIRCLE
  5
567
100
AcDbEntity
  8
0
 62
     0
370
    -2
100
AcDbCircle
 10
0.0
 20
0.0
 30
0.0
 40
0.5
  0
CIRCLE
  5
568
100
AcDbEntity
  8
0
 62
     0
370
    -2
100
AcDbCircle
 10
0.25
 20
0.0
 30
0.0
 40
0.25
  0
ENDBLK
  5
569
100
AcDbEntity
100
AcDbBlockEnd
  0
BLOCK
  5
56A
100
AcDbEntity
  8
0
100
AcDbBlockBegin
  2
CDWK_PTTYP13
 70
     0
 10
0.0
 20
0.0
 30
0.0
  3
CDWK_PTTYP13
  1

  4
Cadwork node
  0
CIRCLE
  5
56B
100
AcDbEntity
  8
0
 62
     0
370
    -2
100
AcDbCircle
 10
0.0
 20
0.0
 30
0.0
 40
0.5
  0
CIRCLE
  5
56C
100
AcDbEntity
  8
0
 62
     0
370
    -2
100
AcDbCircle
 10
0.25
 20
0.0
 30
0.0
 40
0.25
  0
CIRCLE
  5
56D
100
AcDbEntity
  8
0
 62
     0
370
    -2
100
AcDbCircle
 10
-0.25
 20
0.0
 30
0.0
 40
0.25
  0
ENDBLK
  5
56E
100
AcDbEntity
100
AcDbBlockEnd
  0
BLOCK
  5
56F
100
AcDbEntity
  8
0
100
AcDbBlockBegin
  2
CDWK_PTTYP14
 70
     0
 10
0.0
 20
0.0
 30
0.0
  3
CDWK_PTTYP14
  1

  4
Cadwork node
  0
POINT
  5
570
100
AcDbEntity
  8
0
 62
     0
100
AcDbPoint
 10
0.0
 20
0.0
 30
0.0
  0
ENDBLK
  5
571
100
AcDbEntity
100
AcDbBlockEnd
  0
BLOCK
  5
572
100
AcDbEntity
  8
0
100
AcDbBlockBegin
  2
CDWK_PTTYP15
 70
     0
 10
0.0
 20
0.0
 30
0.0
  3
CDWK_PTTYP15
  1

  4
Cadwork node
  0
POINT
  5
573
100
AcDbEntity
  8
0
 62
     0
100
AcDbPoint
 10
0.0
 20
0.0
 30
0.0
  0
ENDBLK
  5
574
100
AcDbEntity
100
AcDbBlockEnd
  0
BLOCK
  5
575
100
AcDbEntity
  8
0
100
AcDbBlockBegin
  2
CDWK_PTTYP16
 70
     0
 10
0.0
 20
0.0
 30
0.0
  3
CDWK_PTTYP16
  1

  4
Cadwork node
  0
LINE
  5
576
100
AcDbEntity
  8
0
 62
     0
370
    -2
100
AcDbLine
 10
-0.5
 20
-0.28867513
 30
0.0
 11
0.5
 21
-0.28867513
 31
0.0
  0
LINE
  5
577
100
AcDbEntity
  8
0
 62
     0
370
    -2
100
AcDbLine
 10
0.5
 20
-0.28867513
 30
0.0
 11
0.0
 21
0.57735027
 31
0.0
  0
LINE
  5
578
100
AcDbEntity
  8
0
 62
     0
370
    -2
100
AcDbLine
 10
0.0
 20
0.57735027
 30
0.0
 11
-0.5
 21
-0.28867513
 31
0.0
  0
CIRCLE
  5
579
100
AcDbEntity
  8
0
 62
     0
370
    -2
100
AcDbCircle
 10
0.0
 20
0.0
 30
0.0
 40
0.28867513
  0
ENDBLK
  5
57A
100
AcDbEntity
100
AcDbBlockEnd
  0
BLOCK
  5
57B
100
AcDbEntity
  8
0
100
AcDbBlockBegin
  2
CDWK_PTTYP17
 70
     0
 10
0.0
 20
0.0
 30
0.0
  3
CDWK_PTTYP17
  1

  4
Cadwork node
  0
CIRCLE
  5
57C
100
AcDbEntity
  8
0
 62
     0
370
    -2
100
AcDbCircle
 10
0.0
 20
0.0
 30
0.0
 40
0.5
  0
HATCH
  5
57D
100
AcDbEntity
  8
0
 62
     0
370
    -2
100
AcDbHatch
 10
0.0
 20
0.0
 30
0.0
210
0.0
220
0.0
230
1.0
  2
SOLID
 70
     1
 71
     0
 91
        1
 92
        1
 93
        1
 72
     2
 10
0.0
 20
0.0
 40
0.25
 50
0.0
 51
360.0
 73
     1
 97
        0
 75
     0
 76
     1
 98
        1
 10
0.0
 20
0.0
  0
ENDBLK
  5
57E
100
AcDbEntity
100
AcDbBlockEnd
  0
BLOCK
  5
57F
100
AcDbEntity
  8
0
100
AcDbBlockBegin
  2
CDWK_PTTYP18
 70
     0
 10
0.0
 20
0.0
 30
0.0
  3
CDWK_PTTYP18
  1

  4
Cadwork node
  0
CIRCLE
  5
580
100
AcDbEntity
  8
0
 62
     0
370
    -2
100
AcDbCircle
 10
0.0
 20
0.0
 30
0.0
 40
0.5
  0
CIRCLE
  5
581
100
AcDbEntity
  8
0
 62
     0
370
    -2
100
AcDbCircle
 10
0.0
 20
0.0
 30
0.0
 40
0.2
  0
ENDBLK
  5
582
100
AcDbEntity
100
AcDbBlockEnd
  0
BLOCK
  5
583
100
AcDbEntity
  8
0
100
AcDbBlockBegin
  2
CDWK_PTTYP19
 70
     0
 10
0.0
 20
0.0
 30
0.0
  3
CDWK_PTTYP19
  1

  4
Cadwork node
  0
CIRCLE
  5
584
100
AcDbEntity
  8
0
 62
     0
370
    -2
100
AcDbCircle
 10
0.0
 20
0.0
 30
0.0
 40
0.4
  0
CIRCLE
  5
585
100
AcDbEntity
  8
0
 62
     0
370
    -2
100
AcDbCircle
 10
0.0
 20
0.0
 30
0.0
 40
0.25
  0
LINE
  5
586
100
AcDbEntity
  8
0
 62
     0
370
    -2
100
AcDbLine
 10
-0.25
 20
0.0
 30
0.0
 11
0.25
 21
0.0
 31
0.0
  0
ENDBLK
  5
587
100
AcDbEntity
100
AcDbBlockEnd
  0
BLOCK
  5
588
100
AcDbEntity
  8
0
100
AcDbBlockBegin
  2
CDWK_PTTYP20
 70
     0
 10
0.0
 20
0.0
 30
0.0
  3
CDWK_PTTYP20
  1

  4
Cadwork node
  0
CIRCLE
  5
589
100
AcDbEntity
  8
0
 62
     0
370
    -2
100
AcDbCircle
 10
0.0
 20
0.0
 30
0.0
 40
0.5
  0
CIRCLE
  5
58A
100
AcDbEntity
  8
0
 62
     0
370
    -2
100
AcDbCircle
 10
0.0
 20
0.0
 30
0.0
 40
0.3
  0
ENDBLK
  5
58B
100
AcDbEntity
100
AcDbBlockEnd
  0
BLOCK
  5
58C
100
AcDbEntity
  8
0
100
AcDbBlockBegin
  2
CDWK_PTTYP21
 70
     0
 10
0.0
 20
0.0
 30
0.0
  3
CDWK_PTTYP21
  1

  4
Cadwork node
  0
CIRCLE
  5
58D
100
AcDbEntity
  8
0
 62
     0
370
    -2
100
AcDbCircle
 10
0.0
 20
0.0
 30
0.0
 40
0.5
  0
LINE
  5
58E
100
AcDbEntity
  8
0
 62
     0
370
    -2
100
AcDbLine
 10
-0.5
 20
0.0
 30
0.0
 11
0.5
 21
0.0
 31
0.0
  0
ENDBLK
  5
58F
100
AcDbEntity
100
AcDbBlockEnd
  0
BLOCK
  5
590
100
AcDbEntity
  8
0
100
AcDbBlockBegin
  2
CDWK_PTTYP22
 70
     0
 10
0.0
 20
0.0
 30
0.0
  3
CDWK_PTTYP22
  1

  4
Cadwork node
  0
POINT
  5
591
100
AcDbEntity
  8
0
 62
     0
100
AcDbPoint
 10
0.0
 20
0.0
 30
0.0
  0
ENDBLK
  5
592
100
AcDbEntity
100
AcDbBlockEnd
  0
BLOCK
  5
593
100
AcDbEntity
  8
0
100
AcDbBlockBegin
  2
CDWK_PTTYP23
 70
     0
 10
0.0
 20
0.0
 30
0.0
  3
CDWK_PTTYP23
  1

  4
Cadwork node
  0
POINT
  5
594
100
AcDbEntity
  8
0
 62
     0
100
AcDbPoint
 10
0.0
 20
0.0
 30
0.0
  0
ENDBLK
  5
595
100
AcDbEntity
100
AcDbBlockEnd
  0
BLOCK
  5
596
100
AcDbEntity
  8
0
100
AcDbBlockBegin
  2
CDWK_PTTYP24
 70
     0
 10
0.0
 20
0.0
 30
0.0
  3
CDWK_PTTYP24
  1

  4
Cadwork node
  0
POINT
  5
597
100
AcDbEntity
  8
0
 62
     0
100
AcDbPoint
 10
0.0
 20
0.0
 30
0.0
  0
ENDBLK
  5
598
100
AcDbEntity
100
AcDbBlockEnd
  0
BLOCK
  5
599
100
AcDbEntity
  8
0
100
AcDbBlockBegin
  2
CDWK_PTTYP25
 70
     0
 10
0.0
 20
0.0
 30
0.0
  3
CDWK_PTTYP25
  1

  4
Cadwork node
  0
LINE
  5
59A
100
AcDbEntity
  8
0
 62
     0
370
    -2
100
AcDbLine
 10
-0.43290044
 20
-0.25
 30
0.0
 11
0.43290044
 21
-0.25
 31
0.0
  0
LINE
  5
59B
100
AcDbEntity
  8
0
 62
     0
370
    -2
100
AcDbLine
 10
-0.43290044
 20
-0.25
 30
0.0
 11
0.0
 21
0.5
 31
0.0
  0
LINE
  5
59C
100
AcDbEntity
  8
0
 62
     0
370
    -2
100
AcDbLine
 10
0.43290044
 20
-0.25
 30
0.0
 11
0.0
 21
0.5
 31
0.0
  0
CIRCLE
  5
59D
100
AcDbEntity
  8
0
 62
     0
370
    -2
100
AcDbCircle
 10
0.0
 20
0.0
 30
0.0
 40
0.5
  0
ENDBLK
  5
59E
100
AcDbEntity
100
AcDbBlockEnd
  0
BLOCK
  5
59F
100
AcDbEntity
  8
0
100
AcDbBlockBegin
  2
CDWK_PTTYP26
 70
     0
 10
0.0
 20
0.0
 30
0.0
  3
CDWK_PTTYP26
  1

  4
Cadwork node
  0
LINE
  5
5A0
100
AcDbEntity
  8
0
 62
     0
370
    -2
100
AcDbLine
 10
-0.5
 20
-0.28850001
 30
0.0
 11
0.5
 21
-0.28850001
 31
0.0
  0
LINE
  5
5A1
100
AcDbEntity
  8
0
 62
     0
370
    -2
100
AcDbLine
 10
-0.5
 20
-0.28850001
 30
0.0
 11
0.0
 21
0.57736721
 31
0.0
  0
LINE
  5
5A2
100
AcDbEntity
  8
0
 62
     0
370
    -2
100
AcDbLine
 10
0.5
 20
-0.28850001
 30
0.0
 11
0.0
 21
0.57736721
 31
0.0
  0
CIRCLE
  5
5A3
100
AcDbEntity
  8
0
 62
     0
370
    -2
100
AcDbCircle
 10
0.0
 20
0.0
 30
0.0
 40
0.1312336
  0
ENDBLK
  5
5A4
100
AcDbEntity
100
AcDbBlockEnd
  0
BLOCK
  5
5A5
100
AcDbEntity
  8
0
100
AcDbBlockBegin
  2
CDWK_PTTYP27
 70
     0
 10
0.0
 20
0.0
 30
0.0
  3
CDWK_PTTYP27
  1

  4
Cadwork node
  0
LINE
  5
5A6
100
AcDbEntity
  8
0
 62
     0
370
    -2
100
AcDbLine
 10
-0.43290044
 20
-0.25
 30
0.0
 11
0.43290044
 21
-0.25
 31
0.0
  0
LINE
  5
5A7
100
AcDbEntity
  8
0
 62
     0
370
    -2
100
AcDbLine
 10
-0.43290044
 20
-0.25
 30
0.0
 11
0.0
 21
0.5
 31
0.0
  0
LINE
  5
5A8
100
AcDbEntity
  8
0
 62
     0
370
    -2
100
AcDbLine
 10
0.43290044
 20
-0.25
 30
0.0
 11
0.0
 21
0.5
 31
0.0
  0
CIRCLE
  5
5A9
100
AcDbEntity
  8
0
 62
     0
370
    -2
100
AcDbCircle
 10
0.0
 20
0.0
 30
0.0
 40
0.5
  0
CIRCLE
  5
5AA
100
AcDbEntity
  8
0
 62
     0
370
    -2
100
AcDbCircle
 10
0.0
 20
0.0
 30
0.0
 40
0.1312336
  0
ENDBLK
  5
5AB
100
AcDbEntity
100
AcDbBlockEnd
  0
BLOCK
  5
5AC
100
AcDbEntity
  8
0
100
AcDbBlockBegin
  2
CDWK_PTTYP28
 70
     0
 10
0.0
 20
0.0
 30
0.0
  3
CDWK_PTTYP28
  1

  4
Cadwork node
  0
POINT
  5
5AD
100
AcDbEntity
  8
0
 62
     0
100
AcDbPoint
 10
0.0
 20
0.0
 30
0.0
  0
ENDBLK
  5
5AE
100
AcDbEntity
100
AcDbBlockEnd
  0
BLOCK
  5
5AF
100
AcDbEntity
  8
0
100
AcDbBlockBegin
  2
CDWK_PTTYP29
 70
     0
 10
0.0
 20
0.0
 30
0.0
  3
CDWK_PTTYP29
  1

  4
Cadwork node
  0
CIRCLE
  5
5B0
100
AcDbEntity
  8
0
 62
     0
370
    -2
100
AcDbCircle
 10
0.0
 20
0.0
 30
0.0
 40
0.5
  0
CIRCLE
  5
5B1
100
AcDbEntity
  8
0
 62
     0
370
    -2
100
AcDbCircle
 10
0.0
 20
0.0
 30
0.0
 40
0.375
  0
CIRCLE
  5
5B2
100
AcDbEntity
  8
0
 62
     0
370
    -2
100
AcDbCircle
 10
0.0
 20
0.0
 30
0.0
 40
0.21875
  0
ENDBLK
  5
5B3
100
AcDbEntity
100
AcDbBlockEnd
  0
BLOCK
  5
5B4
100
AcDbEntity
  8
0
100
AcDbBlockBegin
  2
CDWK_PTTYP30
 70
     0
 10
0.0
 20
0.0
 30
0.0
  3
CDWK_PTTYP30
  1

  4
Cadwork node
  0
LINE
  5
5B5
100
AcDbEntity
  8
0
 62
     0
370
    -2
100
AcDbLine
 10
0.17680339
 20
0.17680339
 30
0.0
 11
0.5
 21
0.5
 31
0.0
  0
LINE
  5
5B6
100
AcDbEntity
  8
0
 62
     0
370
    -2
100
AcDbLine
 10
-0.17680339
 20
0.17680339
 30
0.0
 11
-0.5
 21
0.5
 31
0.0
  0
LINE
  5
5B7
100
AcDbEntity
  8
0
 62
     0
370
    -2
100
AcDbLine
 10
0.17680339
 20
-0.17680339
 30
0.0
 11
0.5
 21
-0.5
 31
0.0
  0
LINE
  5
5B8
100
AcDbEntity
  8
0
 62
     0
370
    -2
100
AcDbLine
 10
-0.17680339
 20
-0.17680339
 30
0.0
 11
-0.5
 21
-0.5
 31
0.0
  0
ENDBLK
  5
5B9
100
AcDbEntity
100
AcDbBlockEnd
  0
BLOCK
  5
5BA
100
AcDbEntity
  8
0
100
AcDbBlockBegin
  2
CDWK_PTTYP31
 70
     0
 10
0.0
 20
0.0
 30
0.0
  3
CDWK_PTTYP31
  1

  4
Cadwork node
  0
CIRCLE
  5
5BB
100
AcDbEntity
  8
0
 62
     0
370
    -2
100
AcDbCircle
 10
0.0
 20
0.0
 30
0.0
 40
0.075
  0
LINE
  5
5BC
100
AcDbEntity
  8
0
 62
     0
370
    -2
100
AcDbLine
 10
0.075
 20
0.0
 30
0.0
 11
0.5
 21
0.0
 31
0.0
  0
LINE
  5
5BD
100
AcDbEntity
  8
0
 62
     0
370
    -2
100
AcDbLine
 10
-0.075
 20
0.0
 30
0.0
 11
-0.5
 21
0.0
 31
0.0
  0
LINE
  5
5BE
100
AcDbEntity
  8
0
 62
     0
370
    -2
100
AcDbLine
 10
0.0
 20
0.075
 30
0.0
 11
0.0
 21
0.5
 31
0.0
  0
LINE
  5
5BF
100
AcDbEntity
  8
0
 62
     0
370
    -2
100
AcDbLine
 10
0.0
 20
-0.075
 30
0.0
 11
0.0
 21
-0.5
 31
0.0
  0
ENDBLK
  5
5C0
100
AcDbEntity
100
AcDbBlockEnd
  0
BLOCK
  5
5C1
100
AcDbEntity
  8
0
100
AcDbBlockBegin
  2
CDWK_PTTYP32
 70
     0
 10
0.0
 20
0.0
 30
0.0
  3
CDWK_PTTYP32
  1

  4
Cadwork node
  0
CIRCLE
  5
5C2
100
AcDbEntity
  8
0
 62
     0
370
    -2
100
AcDbCircle
 10
0.0
 20
0.0
 30
0.0
 40
0.5
  0
CIRCLE
  5
5C3
100
AcDbEntity
  8
0
 62
     0
370
    -2
100
AcDbCircle
 10
0.0
 20
0.0
 30
0.0
 40
0.16666667
  0
LINE
  5
5C4
100
AcDbEntity
  8
0
 62
     0
370
    -2
100
AcDbLine
 10
0.11786893
 20
0.11786893
 30
0.0
 11
0.35360678
 21
0.35360678
 31
0.0
  0
LINE
  5
5C5
100
AcDbEntity
  8
0
 62
     0
370
    -2
100
AcDbLine
 10
-0.11786893
 20
0.11786893
 30
0.0
 11
-0.35360678
 21
0.35360678
 31
0.0
  0
LINE
  5
5C6
100
AcDbEntity
  8
0
 62
     0
370
    -2
100
AcDbLine
 10
0.11786893
 20
-0.11786893
 30
0.0
 11
0.35360678
 21
-0.35360678
 31
0.0
  0
LINE
  5
5C7
100
AcDbEntity
  8
0
 62
     0
370
    -2
100
AcDbLine
 10
-0.11786893
 20
-0.11786893
 30
0.0
 11
-0.35360678
 21
-0.35360678
 31
0.0
  0
ENDBLK
  5
5C8
100
AcDbEntity
100
AcDbBlockEnd
  0
BLOCK
  5
5C9
100
AcDbEntity
  8
0
100
AcDbBlockBegin
  2
CDWK_PTTYP33
 70
     0
 10
0.0
 20
0.0
 30
0.0
  3
CDWK_PTTYP33
  1

  4
Cadwork node
  0
CIRCLE
  5
5CA
100
AcDbEntity
  8
0
 62
     0
370
    -2
100
AcDbCircle
 10
0.0
 20
0.0
 30
0.0
 40
0.5
  0
LINE
  5
5CB
100
AcDbEntity
  8
0
 62
     0
370
    -2
100
AcDbLine
 10
0.0
 20
0.5
 30
0.0
 11
0.0
 21
-0.5
 31
0.0
  0
LINE
  5
5CC
100
AcDbEntity
  8
0
 62
     0
370
    -2
100
AcDbLine
 10
-0.5
 20
0.0
 30
0.0
 11
0.5
 21
0.0
 31
0.0
  0
ENDBLK
  5
5CD
100
AcDbEntity
100
AcDbBlockEnd
  0
BLOCK
  5
5CE
100
AcDbEntity
  8
0
100
AcDbBlockBegin
  2
CDWK_PTTYP34
 70
     0
 10
0.0
 20
0.0
 30
0.0
  3
CDWK_PTTYP34
  1

  4
Cadwork node
  0
CIRCLE
  5
5CF
100
AcDbEntity
  8
0
 62
     0
370
    -2
100
AcDbCircle
 10
0.0
 20
0.0
 30
0.0
 40
0.5
  0
LINE
  5
5D0
100
AcDbEntity
  8
0
 62
     0
370
    -2
100
AcDbLine
 10
-0.30360678
 20
-0.40360678
 30
0.0
 11
0.40360678
 21
0.30360678
 31
0.0
  0
LINE
  5
5D1
100
AcDbEntity
  8
0
 62
     0
370
    -2
100
AcDbLine
 10
-0.40360678
 20
-0.30360678
 30
0.0
 11
0.30360678
 21
0.40360678
 31
0.0
  0
ENDBLK
  5
5D2
100
AcDbEntity
100
AcDbBlockEnd
  0
BLOCK
  5
5D3
100
AcDbEntity
  8
0
100
AcDbBlockBegin
  2
CDWK_PTTYP35
 70
     0
 10
0.0
 20
0.0
 30
0.0
  3
CDWK_PTTYP35
  1

  4
Cadwork node
  0
CIRCLE
  5
5D4
100
AcDbEntity
  8
0
 62
     0
370
    -2
100
AcDbCircle
 10
0.0
 20
0.0
 30
0.0
 40
0.21431634
  0
LINE
  5
5D5
100
AcDbEntity
  8
0
 62
     0
370
    -2
100
AcDbLine
 10
0.0
 20
0.21431634
 30
0.0
 11
0.0
 21
0.5
 31
0.0
  0
LINE
  5
5D6
100
AcDbEntity
  8
0
 62
     0
370
    -2
100
AcDbLine
 10
0.0
 20
-0.21431634
 30
0.0
 11
0.0
 21
-0.5
 31
0.0
  0
ENDBLK
  5
5D7
100
AcDbEntity
100
AcDbBlockEnd
  0
BLOCK
  5
5D8
100
AcDbEntity
  8
0
100
AcDbBlockBegin
  2
CDWK_PTTYP36
 70
     0
 10
0.0
 20
0.0
 30
0.0
  3
CDWK_PTTYP36
  1

  4
Cadwork node
  0
LINE
  5
5D9
100
AcDbEntity
  8
0
 62
     0
370
    -2
100
AcDbLine
 10
-0.5
 20
-0.16666667
 30
0.0
 11
0.5
 21
-0.16666667
 31
0.0
  0
LINE
  5
5DA
100
AcDbEntity
  8
0
 62
     0
370
    -2
100
AcDbLine
 10
0.5
 20
-0.16666667
 30
0.0
 11
0.5
 21
0.16666667
 31
0.0
  0
LINE
  5
5DB
100
AcDbEntity
  8
0
 62
     0
370
    -2
100
AcDbLine
 10
0.5
 20
0.16666667
 30
0.0
 11
-0.5
 21
0.16666667
 31
0.0
  0
LINE
  5
5DC
100
AcDbEntity
  8
0
 62
     0
370
    -2
100
AcDbLine
 10
-0.5
 20
0.16666667
 30
0.0
 11
-0.5
 21
-0.16666667
 31
0.0
  0
SOLID
  5
5DD
100
AcDbEntity
  8
0
 62
     0
100
AcDbTrace
 10
-0.5
 20
-0.16666667
 11
0.5
 21
0.16666667
 12
0.5
 22
-0.16666667
 13
0.5
 23
-0.16666667
  0
ENDBLK
  5
5DE
100
AcDbEntity
100
AcDbBlockEnd
  0
BLOCK
  5
5DF
100
AcDbEntity
  8
0
100
AcDbBlockBegin
  2
CDWK_PTTYP37
 70
     0
 10
0.0
 20
0.0
 30
0.0
  3
CDWK_PTTYP37
  1

  4
Cadwork node
  0
CIRCLE
  5
5E0
100
AcDbEntity
  8
0
 62
     0
370
    -2
100
AcDbCircle
 10
0.0
 20
0.0
 30
0.0
 40
0.5
  0
SOLID
  5
5E1
100
AcDbEntity
  8
0
 62
     0
100
AcDbTrace
 10
0.0
 20
0.0
 11
0.35350001
 21
0.35350001
 12
0.5
 22
0.0
 13
0.46200001
 23
0.19149999
  0
SOLID
  5
5E2
100
AcDbEntity
  8
0
 62
     0
100
AcDbTrace
 10
0.0
 20
0.0
 11
0.35350001
 21
-0.35350001
 12
0.5
 22
0.0
 13
0.46200001
 23
-0.19149999
  0
SOLID
  5
5E3
100
AcDbEntity
  8
0
 62
     0
100
AcDbTrace
 10
0.0
 20
0.0
 11
0.0
 21
-0.5
 12
0.35350001
 22
-0.35350001
 13
0.19149999
 23
-0.46200001
  0
SOLID
  5
5E4
100
AcDbEntity
  8
0
 62
     0
100
AcDbTrace
 10
0.0
 20
0.0
 11
0.0
 21
-0.5
 12
-0.35350001
 22
-0.35350001
 13
-0.19149999
 23
-0.46200001
  0
ENDBLK
  5
5E5
100
AcDbEntity
100
AcDbBlockEnd
  0
BLOCK
  5
5E6
100
AcDbEntity
  8
0
100
AcDbBlockBegin
  2
CDWK_PTTYP38
 70
     0
 10
0.0
 20
0.0
 30
0.0
  3
CDWK_PTTYP38
  1

  4
Cadwork node
  0
CIRCLE
  5
5E7
100
AcDbEntity
  8
0
 62
     0
370
    -2
100
AcDbCircle
 10
0.0
 20
0.0
 30
0.0
 40
0.5
  0
SOLID
  5
5E8
100
AcDbEntity
  8
0
 62
     0
100
AcDbTrace
 10
0.0
 20
0.0
 11
0.35350001
 21
0.35350001
 12
0.0
 22
0.5
 13
0.19149999
 23
0.46200001
  0
SOLID
  5
5E9
100
AcDbEntity
  8
0
 62
     0
100
AcDbTrace
 10
0.0
 20
0.0
 11
0.5
 21
0.0
 12
0.35350001
 22
0.35350001
 13
0.46200001
 23
0.19149999
  0
SOLID
  5
5EA
100
AcDbEntity
  8
0
 62
     0
100
AcDbTrace
 10
0.0
 20
0.0
 11
0.0
 21
-0.5
 12
-0.35350001
 22
-0.35350001
 13
-0.19149999
 23
-0.46200001
  0
SOLID
  5
5EB
100
AcDbEntity
  8
0
 62
     0
100
AcDbTrace
 10
0.0
 20
0.0
 11
-0.5
 21
0.0
 12
-0.35350001
 22
-0.35350001
 13
-0.46200001
 23
-0.19149999
  0
ENDBLK
  5
5EC
100
AcDbEntity
100
AcDbBlockEnd
  0
BLOCK
  5
5ED
100
AcDbEntity
  8
Ech.1_5
100
AcDbBlockBegin
  2
*X1
 70
     1
 10
0.0
 20
0.0
 30
0.0
  3
*X1
  1

  4
Cadwork hatch
  0
LINE
  5
5EE
100
AcDbEntity
  8
Ech.1_5
 62
   190
  6
CONTINUOUS
370
    -2
100
AcDbLine
 10
43597.76825487
 20
-6223.62663098
 30
0.0
 11
43417.7658088
 21
-6178.62601946
 31
0.0
  0
LINE
  5
5EF
100
AcDbEntity
  8
Ech.1_5
 62
   190
  6
CONTINUOUS
370
    -2
100
AcDbLine
 10
43597.76825487
 20
-6178.62601946
 30
0.0
 11
43417.7658088
 21
-6223.62663098
 31
0.0
  0
ENDBLK
  5
5F0
100
AcDbEntity
100
AcDbBlockEnd
  0
BLOCK
  5
5F1
100
AcDbEntity
  8
Ech.1_5
100
AcDbBlockBegin
  2
*X2
 70
     1
 10
0.0
 20
0.0
 30
0.0
  3
*X2
  1

  4
Cadwork hatch
  0
LINE
  5
5F2
100
AcDbEntity
  8
Ech.1_5
 62
   190
  6
CONTINUOUS
370
    -2
100
AcDbLine
 10
43597.76825487
 20
-6178.62601946
 30
0.0
 11
43417.7658088
 21
-6133.62540794
 31
0.0
  0
LINE
  5
5F3
100
AcDbEntity
  8
Ech.1_5
 62
   190
  6
CONTINUOUS
370
    -2
100
AcDbLine
 10
43597.76825487
 20
-6133.62540794
 30
0.0
 11
43417.7658088
 21
-6178.62601946
 31
0.0
  0
ENDBLK
  5
5F4
100
AcDbEntity
100
AcDbBlockEnd
  0
ENDSEC
  0
SECTION
  2
ENTITIES
  0
INSERT
  5
5F5
100
AcDbEntity
  8
Ech.1_5
 62
     0
100
AcDbBlockReference
  2
*X1
 10
0.0
 20
0.0
 30
0.0
  0
INSERT
  5
5F6
100
AcDbEntity
  8
Ech.1_5
 62
     0
100
AcDbBlockReference
  2
*X2
 10
0.0
 20
0.0
 30
0.0
  0
LWPOLYLINE
  5
5F7
100
AcDbEntity
  8
Ech.1_5
 62
   254
  6
CONTINUOUS
370
    -3
100
AcDbPolyline
 90
        5
 70
     1
 43
0.0
 10
43617.76454382
 20
-6311.62840741
 10
43617.76454382
 20
-6617.4479398
 10
43667.49723785
 20
-6617.44724076
 10
43667.76454382
 20
-6617.44726079
 10
43667.76454382
 20
-6311.62840741
  0
LWPOLYLINE
  5
5F8
100
AcDbEntity
  8
Ech.1_5
 62
     9
  6
CONTINUOUS
370
    -3
100
AcDbPolyline
 90
      117
 70
     0
 43
0.0
 10
43626.09787716
 20
-6311.62840741
 42
1.14028178
 10
43628.25470739
 20
-6328.01112168
 10
43657.27438026
 20
-6320.24569409
 42
-1.14022141
 10
43659.43208621
 20
-6336.62840741
 42
-0.06557028
 10
43657.27438026
 20
-6336.34445469
 10
43628.25470739
 20
-6328.57902711
 42
1.14022134
 10
43626.09700145
 20
-6344.96174138
 42
0.06557028
 10
43628.25470739
 20
-6344.67778866
 10
43657.27438026
 20
-6336.91236012
 42
-0.06551739
 10
43659.43033484
 20
-6336.62840741
 42
-1.1403422
 10
43657.27438026
 20
-6353.01112168
 10
43628.25470739
 20
-6345.24569409
 42
0.06551739
 10
43626.0987528
 20
-6344.96174138
 42
0.99999997
 10
43626.09700146
 20
-6361.62840741
 42
0.06557028
 10
43628.25470739
 20
-6361.34445469
 10
43657.27438026
 20
-6353.57902711
 42
-1.14022134
 10
43659.4320862
 20
-6369.96174138
 42
-0.06557028
 10
43657.27438026
 20
-6369.67778866
 10
43628.25470739
 20
-6361.91236012
 42
0.06551739
 10
43626.09875279
 20
-6361.62840741
 42
1.1403422
 10
43628.25470739
 20
-6378.01112168
 10
43657.27438026
 20
-6370.24569409
 42
-0.06551739
 10
43659.43033485
 20
-6369.96174138
 42
-0.99999997
 10
43659.43208621
 20
-6386.62840741
 42
-0.06557028
 10
43657.27438026
 20
-6386.34445469
 10
43628.25470739
 20
-6378.57902711
 42
1.14022134
 10
43626.09700145
 20
-6394.96174138
 42
0.06557028
 10
43628.25470739
 20
-6394.67778866
 10
43657.27438026
 20
-6386.91236012
 42
-0.06551739
 10
43659.43033484
 20
-6386.62840741
 42
-1.1403422
 10
43657.27438026
 20
-6403.01112168
 10
43628.25470739
 20
-6395.24569409
 42
0.06551739
 10
43626.0987528
 20
-6394.96174138
 42
0.99999997
 10
43626.09700146
 20
-6411.62840741
 42
0.06557028
 10
43628.25470739
 20
-6411.34445469
 10
43657.27438026
 20
-6403.57902711
 42
-1.14022134
 10
43659.43208621
 20
-6419.96174138
 42
-0.06557028
 10
43657.27438026
 20
-6419.67778866
 10
43628.25470739
 20
-6411.91236012
 42
0.06551739
 10
43626.09875279
 20
-6411.62840741
 42
1.1403422
 10
43628.25470739
 20
-6428.01112168
 10
43657.27438026
 20
-6420.24569409
 42
-0.06551739
 10
43659.43033484
 20
-6419.96174138
 42
-0.99999997
 10
43659.4320862
 20
-6436.62840741
 42
-0.06557028
 10
43657.27438026
 20
-6436.34445469
 10
43628.25470739
 20
-6428.57902711
 42
1.14022134
 10
43626.09700146
 20
-6444.96174138
 42
0.06557028
 10
43628.25470739
 20
-6444.67778866
 10
43657.27438026
 20
-6436.91236012
 42
-0.06551739
 10
43659.43033485
 20
-6436.62840741
 42
-1.1403422
 10
43657.27438026
 20
-6453.01112168
 10
43628.25470739
 20
-6445.24569409
 42
0.06551739
 10
43626.09875279
 20
-6444.96174138
 42
0.99999997
 10
43626.09700145
 20
-6461.62840741
 42
0.06557028
 10
43628.25470739
 20
-6461.34445469
 10
43657.27438026
 20
-6453.57902711
 42
-1.14022134
 10
43659.43208622
 20
-6469.96174138
 42
-0.06557028
 10
43657.27438026
 20
-6469.67778866
 10
43628.25470739
 20
-6461.91236012
 42
0.06551739
 10
43626.0987528
 20
-6461.62840741
 42
1.1403422
 10
43628.25470739
 20
-6478.01112168
 10
43657.27438026
 20
-6470.24569409
 42
-0.06551739
 10
43659.43033483
 20
-6469.96174138
 42
-0.99999997
 10
43659.43208621
 20
-6486.62840741
 42
-0.06557028
 10
43657.27438026
 20
-6486.34445469
 10
43628.25470739
 20
-6478.57902711
 42
1.14022134
 10
43626.09700147
 20
-6494.96174138
 42
0.06557028
 10
43628.25470739
 20
-6494.67778866
 10
43657.27438026
 20
-6486.91236012
 42
-0.06551739
 10
43659.43033484
 20
-6486.62840741
 42
-1.1403422
 10
43657.27438026
 20
-6503.01112168
 10
43628.25470739
 20
-6495.24569409
 42
0.06551739
 10
43626.09875278
 20
-6494.96174138
 42
0.99999997
 10
43626.09700146
 20
-6511.62840741
 42
0.06557028
 10
43628.25470739
 20
-6511.34445469
 10
43657.27438026
 20
-6503.57902711
 42
-1.14022134
 10
43659.43208621
 20
-6519.96174138
 42
-0.06557028
 10
43657.27438026
 20
-6519.67778866
 10
43628.25470739
 20
-6511.91236012
 42
0.06551739
 10
43626.09875279
 20
-6511.62840741
 42
1.1403422
 10
43628.25470739
 20
-6528.01112168
 10
43657.27438026
 20
-6520.24569409
 42
-0.06551739
 10
43659.43033484
 20
-6519.96174138
 42
-0.99999997
 10
43659.43208621
 20
-6536.62840741
 42
-0.06557028
 10
43657.27438026
 20
-6536.34445469
 10
43628.25470739
 20
-6528.57902711
 42
1.14022134
 10
43626.09700146
 20
-6544.96174138
 42
0.06557028
 10
43628.25470739
 20
-6544.67778866
 10
43657.27438026
 20
-6536.91236012
 42
-0.06551739
 10
43659.43033484
 20
-6536.62840741
 42
-1.1403422
 10
43657.27438026
 20
-6553.01112168
 10
43628.25470739
 20
-6545.24569409
 42
0.06551739
 10
43626.09875279
 20
-6544.96174138
 42
0.99999997
 10
43626.09700146
 20
-6561.62840741
 42
0.06557028
 10
43628.25470739
 20
-6561.34445469
 10
43657.27438026
 20
-6553.57902711
 42
-1.14022134
 10
43659.4320862
 20
-6569.96174138
 42
-0.06557028
 10
43657.27438026
 20
-6569.67778866
 10
43628.25470739
 20
-6561.91236012
 42
0.06551739
 10
43626.09875279
 20
-6561.62840741
 42
1.1403422
 10
43628.25470739
 20
-6578.01112168
 10
43657.27438026
 20
-6570.24569409
 42
-0.06551739
 10
43659.43033485
 20
-6569.96174138
 42
-0.99999997
 10
43659.43208621
 20
-6586.62840741
 42
-0.06557028
 10
43657.27438026
 20
-6586.34445469
 10
43628.25470739
 20
-6578.57902711
 42
1.14022134
 10
43626.09700145
 20
-6594.96174138
 42
0.06557028
 10
43628.25470739
 20
-6594.67778866
 10
43657.27438026
 20
-6586.91236012
 42
-0.06551739
 10
43659.43033483
 20
-6586.62840741
 42
-1.1403422
 10
43657.27438026
 20
-6603.01112168
 10
43628.25470739
 20
-6595.24569409
 42
0.06551739
 10
43626.0987528
 20
-6594.96174138
 42
0.99999997
 10
43626.09700146
 20
-6611.62840741
 42
0.06557028
 10
43628.25470739
 20
-6611.34445469
 10
43657.27438026
 20
-6603.57902711
 42
-0.76240198
 10
43665.39655104
 20
-6617.44727032
  0
LWPOLYLINE
  5
5F9
100
AcDbEntity
  8
Ech.1_5
 62
   190
  6
CONTINUOUS
370
    -3
100
AcDbPolyline
 90
        4
 70
     0
 43
0.0
 10
43650.4397203
 20
-6617.44750207
 10
43629.75470739
 20
-6611.91236012
 42
0.06551739
 10
43627.59875279
 20
-6611.62840741
 42
0.32708644
 10
43619.652739
 20
-6617.44793408
  0
LWPOLYLINE
  5
5FA
100
AcDbEntity
  8
Ech.1_5
 62
     7
  6
DASHDOT
370
     5
100
AcDbPolyline
 90
        4
 70
     1
 43
0.0
 10
43883.02460748
 20
-5836.2472397
 10
44129.034071
 20
-5836.2472397
 10
44129.034071
 20
-5595.90249216
 10
43883.02460748
 20
-5595.90249216
  0
LWPOLYLINE
  5
5FB
100
AcDbEntity
  8
Ech.1_5
 62
     9
  6
CONTINUOUS
370
    -3
100
AcDbPolyline
 90
        6
 70
     0
 43
0.0
 10
44103.21563672
 20
-6057.6269006
 10
44103.21711254
 20
-6192.73440068
 10
44121.19446095
 20
-6209.21990388
 10
44085.23876093
 20
-6195.10996335
 10
44103.21711254
 20
-6211.59631817
 10
44103.21629025
 20
-6345.28831761
  0
LWPOLYLINE
  5
5FC
102
{ACAD_REACTORS
330
5FD
102
}
100
AcDbEntity
  8
Ech.1_5
 62
     7
  6
CONTINUOUS
370
    -3
100
AcDbPolyline
 90
        4
 70
     1
 43
0.0
 10
43408.76454382
 20
-6177.67341476
 10
43417.76454382
 20
-6177.67341476
 10
43417.76454382
 20
-5813.22448437
 10
43408.76454382
 20
-5813.22448437
  0
HATCH
  5
5FD
100
AcDbEntity
  8
Ech.1_5
 62
   190
  6
CONTINUOUS
100
AcDbHatch
 10
0.0
 20
0.0
 30
0.0
210
0.0
220
0.0
230
1.0
  2
CDWK10A
 70
     0
 71
     1
 91
        1
 92
        7
 72
     0
 73
     1
 93
        4
 10
43408.76454382
 20
-6177.67341476
 10
43417.76454382
 20
-6177.67341476
 10
43417.76454382
 20
-5813.22448437
 10
43408.76454382
 20
-5813.22448437
 97
        1
330
5FC
 75
     0
 76
     2
 52
0.0
 41
1.0
 77
     0
 78
     3
 53
45.0
 43
0.0
 44
0.0
 45
0.0
 46
42.00000167
 79
     0
 53
45.0
 43
0.0
 44
10.80000043
 45
0.0
 46
42.00000167
 79
     0
 53
45.0
 43
0.0
 44
21.60000086
 45
0.0
 46
42.00000167
 79
     0
 47
0.775229
 98
        1
 10
0.0
 20
0.0
  0
LINE
  5
5FE
100
AcDbEntity
  8
Ech.1_5
 62
   190
  6
CONTINUOUS
370
    -3
100
AcDbLine
 10
43408.76454382
 20
-5813.22475998
 30
0.0
 11
43408.76454382
 21
-6617.44854825
 31
0.0
  0
LWPOLYLINE
  5
5FF
100
AcDbEntity
  8
Ech.1_5
 62
     9
100
AcDbPolyline
 90
       27
 70
     0
 43
0.0
 10
43370.6379267
 20
-6404.61220639
 10
43370.76454382
 20
-6404.27773278
 10
43370.76454382
 20
-6376.89426892
 10
43377.76454382
 20
-6376.89426892
 10
43377.76454382
 20
-6385.89426892
 10
43383.76454382
 20
-6385.89426892
 10
43383.76454382
 20
-6358.89426892
 10
43379.76454382
 20
-6354.89426892
 10
43383.76454382
 20
-6350.89426892
 10
43383.76454382
 20
-6286.89426892
 10
43379.76454382
 20
-6282.89426892
 10
43383.76454382
 20
-6278.89426892
 10
43383.76454382
 20
-6243.89426892
 10
43376.76454382
 20
-6243.89426892
 10
43376.76454382
 20
-6237.89426892
 10
43374.26454382
 20
-6232.89426892
 10
43371.76454382
 20
-6237.89426892
 10
43371.76454382
 20
-6268.82320111
 10
43371.38394149
 20
-6270.73661797
 10
43365.22900992
 20
-6277.42980282
 10
43363.76454382
 20
-6280.96533673
 10
43363.76454382
 20
-6400.05208104
 10
43364.72486622
 20
-6401.68194954
 10
43369.46098708
 20
-6404.65329926
 10
43369.87298845
 20
-6404.89426892
 10
43370.18680593
 20
-6404.89426892
 10
43370.6379267
 20
-6404.61220639
  0
LINE
  5
600
100
AcDbEntity
  8
Ech.1_5
 62
   190
  6
CONTINUOUS
370
    -3
100
AcDbLine
 10
43597.76454382
 20
-6046.6269006
 30
0.0
 11
43597.76454382
 21
-5813.22499936
 31
0.0
  0
LINE
  5
601
100
AcDbEntity
  8
Ech.1_5
 62
   190
  6
CONTINUOUS
370
    -3
100
AcDbLine
 10
43597.76454382
 20
-6420.6269006
 30
0.0
 11
43597.76454382
 21
-6617.44724076
 31
0.0
  0
LWPOLYLINE
  5
602
100
AcDbEntity
  8
Ech.1_5
 62
     9
100
AcDbPolyline
 90
       27
 70
     0
 43
0.0
 10
43370.6379267
 20
-6549.61220639
 10
43370.76454382
 20
-6549.27773278
 10
43370.76454382
 20
-6521.89426892
 10
43377.76454382
 20
-6521.89426892
 10
43377.76454382
 20
-6530.89426892
 10
43383.76454382
 20
-6530.89426892
 10
43383.76454382
 20
-6503.89426892
 10
43379.76454382
 20
-6499.89426892
 10
43383.76454382
 20
-6495.89426892
 10
43383.76454382
 20
-6431.89426892
 10
43379.76454382
 20
-6427.89426892
 10
43383.76454382
 20
-6423.89426892
 10
43383.76454382
 20
-6388.89426892
 10
43376.76454382
 20
-6388.89426892
 10
43376.76454382
 20
-6382.89426892
 10
43374.26454382
 20
-6377.89426892
 10
43371.76454382
 20
-6382.89426892
 10
43371.76454382
 20
-6413.82320111
 10
43371.38394149
 20
-6415.73661797
 10
43365.22900992
 20
-6422.42980282
 10
43363.76454382
 20
-6425.96533673
 10
43363.76454382
 20
-6545.05208104
 10
43364.72486622
 20
-6546.68194954
 10
43369.46098708
 20
-6549.65329926
 10
43369.87298845
 20
-6549.89426892
 10
43370.18680593
 20
-6549.89426892
 10
43370.6379267
 20
-6549.61220639
  0
LWPOLYLINE
  5
603
102
{ACAD_REACTORS
330
604
102
}
100
AcDbEntity
  8
Ech.1_5
 62
     7
  6
CONTINUOUS
370
    -3
100
AcDbPolyline
 90
        4
 70
     1
 43
0.0
 10
43417.76454382
 20
-6179.67341476
 10
43408.76454382
 20
-6179.67341476
 10
43408.76454382
 20
-6617.44857876
 10
43417.76454382
 20
-6617.44857876
  0
HATCH
  5
604
100
AcDbEntity
  8
Ech.1_5
 62
   190
  6
CONTINUOUS
100
AcDbHatch
 10
0.0
 20
0.0
 30
0.0
210
0.0
220
0.0
230
1.0
  2
CDWK10A
 70
     0
 71
     1
 91
        1
 92
        7
 72
     0
 73
     1
 93
        4
 10
43417.76454382
 20
-6179.67341476
 10
43408.76454382
 20
-6179.67341476
 10
43408.76454382
 20
-6617.44857876
 10
43417.76454382
 20
-6617.44857876
 97
        1
330
603
 75
     0
 76
     2
 52
0.0
 41
1.0
 77
     0
 78
     3
 53
45.0
 43
0.0
 44
0.0
 45
0.0
 46
42.00000167
 79
     0
 53
45.0
 43
0.0
 44
10.80000043
 45
0.0
 46
42.00000167
 79
     0
 53
45.0
 43
0.0
 44
21.60000086
 45
0.0
 46
42.00000167
 79
     0
 47
0.775229
 98
        1
 10
0.0
 20
0.0
  0
LWPOLYLINE
  5
605
100
AcDbEntity
  8
Ech.1_5
 62
     9
100
AcDbPolyline
 90
       14
 70
     0
 43
0.0
 10
43383.76454382
 20
-6617.51894467
 10
43383.76454382
 20
-6576.89426892
 10
43379.76454382
 20
-6572.89426892
 10
43383.76454382
 20
-6568.89426892
 10
43383.76454382
 20
-6533.89426892
 10
43376.76454382
 20
-6533.89426892
 10
43376.76454382
 20
-6527.89426892
 10
43374.26454382
 20
-6522.89426892
 10
43371.76454382
 20
-6527.89426892
 10
43371.76454382
 20
-6558.82320111
 10
43371.38394149
 20
-6560.73661797
 10
43365.22900992
 20
-6567.42980282
 10
43363.76454382
 20
-6570.96533673
 10
43363.76454382
 20
-6617.51894467
  0
LWPOLYLINE
  5
606
100
AcDbEntity
  8
Ech.1_5
 62
     3
370
    90
100
AcDbPolyline
 90
        4
 70
     0
 43
0.0
 10
43602.59772105
 20
-5947.69811528
 10
43602.59772105
 20
-5934.70898144
 10
43608.27833401
 20
-5930.77424901
 10
43608.27833401
 20
-5917.29581921
  0
LINE
  5
607
100
AcDbEntity
  8
Ech.1_5
 62
   150
  6
CADWORK_22
370
    35
100
AcDbLine
 10
43408.76454382
 20
-6154.61317914
 30
0.0
 11
43408.76454382
 21
-6617.51813023
 31
0.0
  0
LWPOLYLINE
  5
608
100
AcDbEntity
  8
Ech.1_5
 62
   150
  6
CADWORK_22
370
    35
100
AcDbPolyline
 90
        4
 70
     0
 43
0.0
 10
43408.73811899
 20
-5813.22540848
 10
43408.74769711
 20
-6146.22384255
 10
43403.74798922
 20
-6155.11479085
 10
43403.7497792
 20
-6200.55821316
  0
LWPOLYLINE
  5
609
100
AcDbEntity
  8
Ech.1_5
 62
     9
  6
CONTINUOUS
370
     5
100
AcDbPolyline
 90
        5
 70
     0
 43
0.0
 10
43383.76454382
 20
-6617.51894467
 10
43408.76454382
 20
-6617.51886265
 10
43408.76454382
 20
-5813.22514145
 10
43383.76454382
 20
-5813.22540848
 10
43383.76454382
 20
-6168.1269006
  0
LINE
  5
60A
100
AcDbEntity
  8
Ech.1_5
 62
     9
  6
CONTINUOUS
370
     5
100
AcDbLine
 10
43383.76454382
 20
-6238.12689965
 30
0.0
 11
43383.76454382
 21
-6617.51894467
 31
0.0
  0
LWPOLYLINE
  5
60B
100
AcDbEntity
  8
Ech.1_5
 62
   190
  6
CONTINUOUS
370
    -3
100
AcDbPolyline
 90
        8
 70
     1
 43
0.0
 10
43499.05996454
 20
-5813.22375481
 10
43482.57361046
 20
-5831.20210641
 10
43496.68355047
 20
-5795.24640648
 10
43480.19804732
 20
-5813.22375481
 10
43417.76454382
 20
-5813.22400563
 10
43417.76454382
 20
-6178.6269006
 10
43597.76454382
 20
-6178.6269006
 10
43597.76454382
 20
-5813.22415536
  0
LWPOLYLINE
  5
60C
100
AcDbEntity
  8
Ech.1_5
 62
   190
  6
CONTINUOUS
370
    -3
100
AcDbPolyline
 90
        9
 70
     1
 43
0.0
 10
43597.76454382
 20
-6494.62689869
 10
43597.76454382
 20
-6186.6269006
 10
43417.76454382
 20
-6186.6269006
 10
43417.76454382
 20
-6617.44857876
 10
43531.8370178
 20
-6617.44887059
 10
43548.32337188
 20
-6599.470519
 10
43534.21343186
 20
-6635.42621892
 10
43550.69893502
 20
-6617.44887059
 10
43597.76454382
 20
-6617.44724076
  0
ARC
  5
60D
100
AcDbEntity
  8
Ech.1_5
 62
   190
  6
CONTINUOUS
370
    -3
100
AcDbCircle
 10
43567.76454395
 20
-6173.224485
 30
0.0
 40
29.99999984
100
AcDbArc
 50
333.46482228
 51
89.99386095
  0
LWPOLYLINE
  5
60E
100
AcDbEntity
  8
Ech.1_5
 62
   190
  6
CONTINUOUS
370
    -3
100
AcDbPolyline
 90
       10
 70
     0
 43
0.0
 10
43447.76454382
 20
-5813.22448437
 42
0.99994964
 10
43447.76152224
 20
-5873.22448437
 42
0.06556901
 10
43455.52913266
 20
-5872.20225518
 10
43559.99995499
 20
-5844.24671452
 42
-1.14022017
 10
43567.76775835
 20
-5903.22448533
 42
-0.99989285
 10
43567.76775835
 20
-5963.22448533
 42
-0.99989285
 10
43567.76775835
 20
-6023.22448533
 42
-0.99989285
 10
43567.76775835
 20
-6083.22448533
 42
-0.99989285
 10
43567.76775834
 20
-6143.22448533
 42
-0.55733055
 10
43594.60435107
 20
-6186.6269006
  0
LWPOLYLINE
  5
60F
100
AcDbEntity
  8
Ech.1_5
 62
   190
  6
CONTINUOUS
370
    -3
100
AcDbPolyline
 90
       36
 70
     0
 43
0.0
 10
43559.99995499
 20
-6082.20225518
 10
43455.52913266
 20
-6054.24671452
 42
0.06551677
 10
43447.76775872
 20
-6053.22448533
 42
1.0
 10
43447.76132928
 20
-6113.22448533
 42
0.06557045
 10
43455.52913266
 20
-6112.20225518
 10
43559.99995499
 20
-6084.24671452
 42
-0.06551677
 10
43567.76132896
 20
-6083.22448533
 42
1.0
 10
43567.76775835
 20
-6023.22448533
 42
-0.06557045
 10
43559.99995499
 20
-6022.20225518
 10
43455.52913266
 20
-5994.24671452
 42
0.06551677
 10
43447.76775872
 20
-5993.22448533
 42
0.99999999
 10
43447.76132928
 20
-6053.22448533
 42
0.06557045
 10
43455.52913266
 20
-6052.20225518
 10
43559.99995499
 20
-6024.24671452
 42
-0.06551677
 10
43567.76132896
 20
-6023.22448533
 42
0.99999999
 10
43567.76775835
 20
-5963.22448533
 42
-0.06557045
 10
43559.99995499
 20
-5962.20225518
 10
43455.52913266
 20
-5934.24671452
 42
0.06551677
 10
43447.76775872
 20
-5933.22448533
 42
1.0
 10
43447.76132928
 20
-5993.22448533
 42
0.06557045
 10
43455.52913266
 20
-5992.20225518
 10
43559.99995499
 20
-5964.24671452
 42
-0.06551677
 10
43567.76132896
 20
-5963.22448533
 42
1.0
 10
43567.76775835
 20
-5903.22448533
 42
-0.06557045
 10
43559.99995499
 20
-5902.20225518
 10
43455.52913266
 20
-5874.24671452
 42
0.06551831
 10
43447.76756588
 20
-5873.22448437
 42
0.99999677
 10
43447.76132928
 20
-5933.22448533
 42
0.06557045
 10
43455.52913266
 20
-5932.20225518
 10
43559.99995499
 20
-5904.24671452
 42
-0.06551677
 10
43567.76132896
 20
-5903.22448533
 42
-1.00010716
 10
43567.76132896
 20
-5963.22448533
 42
-1.00010716
 10
43567.76132896
 20
-6023.22448533
 42
-1.00010716
 10
43567.76132896
 20
-6083.22448533
 42
-1.00010716
 10
43567.76132896
 20
-6143.22448533
 42
1.0
 10
43567.76775835
 20
-6083.22448533
  0
ARC
  5
610
100
AcDbEntity
  8
Ech.1_5
 62
   190
  6
CONTINUOUS
370
    -3
100
AcDbCircle
 10
43567.76454927
 20
-6053.22445612
 30
0.0
 40
30.00002938
100
AcDbArc
 50
254.99996969
 51
270.00612887
  0
ARC
  5
611
100
AcDbEntity
  8
Ech.1_5
 62
   190
  6
CONTINUOUS
370
    -3
100
AcDbCircle
 10
43567.76454928
 20
-6113.22445612
 30
0.0
 40
30.00002938
100
AcDbArc
 50
254.99996969
 51
270.00612887
  0
LWPOLYLINE
  5
612
100
AcDbEntity
  8
Ech.1_5
 62
   190
  6
CONTINUOUS
370
    -3
100
AcDbPolyline
 90
        4
 70
     0
 43
0.0
 10
43471.89803954
 20
-6178.6269006
 10
43455.52913266
 20
-6174.24671452
 42
0.06551676
 10
43447.76775872
 20
-6173.22448533
 42
0.15359944
 10
43430.59017765
 20
-6178.6269006
  0
LWPOLYLINE
  5
613
100
AcDbEntity
  8
Ech.1_5
 62
   190
  6
CONTINUOUS
370
    -3
100
AcDbPolyline
 90
        4
 70
     1
 43
0.0
 10
43597.76454382
 20
-6223.6269006
 10
43597.76454382
 20
-6178.6269006
 10
43417.76454382
 20
-6178.6269006
 10
43417.76454382
 20
-6223.6269006
  0
LWPOLYLINE
  5
614
100
AcDbEntity
  8
Ech.1_5
 62
   190
  6
CONTINUOUS
370
    -3
100
AcDbPolyline
 90
        4
 70
     1
 43
0.0
 10
43597.76454382
 20
-6178.6269006
 10
43597.76454382
 20
-6133.6269006
 10
43417.76454382
 20
-6133.6269006
 10
43417.76454382
 20
-6178.6269006
  0
LWPOLYLINE
  5
615
100
AcDbEntity
  8
Ech.1_5
 62
     5
  6
CONTINUOUS
370
    -3
100
AcDbPolyline
 90
        5
 70
     0
 43
0.0
 10
43417.76454382
 20
-6178.6269006
 10
43417.76454382
 20
-6133.6269006
 10
43597.76454382
 20
-6133.6269006
 10
43597.76454382
 20
-6178.6269006
 10
43417.76454382
 20
-6178.6269006
  0
LWPOLYLINE
  5
616
100
AcDbEntity
  8
Ech.1_5
 62
     5
  6
CONTINUOUS
370
    -3
100
AcDbPolyline
 90
        5
 70
     0
 43
0.0
 10
43417.76454382
 20
-6223.6269006
 10
43417.76454382
 20
-6178.6269006
 10
43597.76454382
 20
-6178.6269006
 10
43597.76454382
 20
-6223.6269006
 10
43417.76454382
 20
-6223.6269006
  0
LINE
  5
617
100
AcDbEntity
  8
Ech.1_5
 62
     9
  6
CONTINUOUS
370
    -3
100
AcDbLine
 10
43383.76454382
 20
-6168.1269006
 30
0.0
 11
43407.29096866
 21
-6168.1269006
 31
0.0
  0
LINE
  5
618
100
AcDbEntity
  8
Ech.1_5
 62
     9
  6
CONTINUOUS
370
    -3
100
AcDbLine
 10
43383.76454382
 20
-6238.1269006
 30
0.0
 11
43407.29096866
 21
-6238.1269006
 31
0.0
  0
LWPOLYLINE
  5
619
100
AcDbEntity
  8
Ech.1_5
 62
     7
  6
CONTINUOUS
370
    50
100
AcDbPolyline
 90
        5
 70
     0
 43
0.0
 10
43406.76454382
 20
-6175.31437132
 10
43406.76454382
 20
-6210.31437132
 10
43355.23811899
 20
-6230.31437132
 10
43355.23811899
 20
-6260.31437132
 10
43357.44113233
 20
-6255.05534098
  0
LWPOLYLINE
  5
61A
100
AcDbEntity
  8
Ech.1_5
 62
   190
  6
CONTINUOUS
370
    -3
100
AcDbPolyline
 90
        4
 70
     1
 43
0.0
 10
43627.76454382
 20
-6111.62690346
 10
43597.76454382
 20
-6111.62690346
 10
43597.76454382
 20
-6311.62690346
 10
43627.76454382
 20
-6311.62690346
  0
LWPOLYLINE
  5
61B
100
AcDbEntity
  8
Ech.1_5
 62
   190
  6
CONTINUOUS
370
    -3
100
AcDbPolyline
 90
       81
 70
     0
 43
0.0
 10
43622.76454382
 20
-6311.62690346
 42
1.14028185
 10
43621.47044569
 20
-6301.79727547
 10
43604.05864196
 20
-6306.45653145
 42
-1.30322628
 10
43604.05864196
 20
-6296.79727547
 10
43621.47044569
 20
-6301.45653145
 42
1.30322628
 10
43621.47044569
 20
-6291.79727547
 10
43604.05864196
 20
-6296.45653145
 42
-1.30322628
 10
43604.05864196
 20
-6286.79727547
 10
43621.47044569
 20
-6291.45653145
 42
1.30322628
 10
43621.47044569
 20
-6281.79727547
 10
43604.05864196
 20
-6286.45653145
 42
-1.30322628
 10
43604.05864196
 20
-6276.79727547
 10
43621.47044569
 20
-6281.45653145
 42
1.30322628
 10
43621.47044569
 20
-6271.79727547
 10
43604.05864196
 20
-6276.45653145
 42
-1.30322628
 10
43604.05864196
 20
-6266.79727547
 10
43621.47044569
 20
-6271.45653145
 42
1.30322628
 10
43621.47044569
 20
-6261.79727547
 10
43604.05864196
 20
-6266.45653145
 42
-1.30322628
 10
43604.05864196
 20
-6256.79727547
 10
43621.47044569
 20
-6261.45653145
 42
1.30322628
 10
43621.47044569
 20
-6251.79727547
 10
43604.05864196
 20
-6256.45653145
 42
-1.30322628
 10
43604.05864196
 20
-6246.79727547
 10
43621.47044569
 20
-6251.45653145
 42
1.30322628
 10
43621.47044569
 20
-6241.79727547
 10
43604.05864196
 20
-6246.45653145
 42
-1.30322628
 10
43604.05864196
 20
-6236.79727547
 10
43621.47044569
 20
-6241.45653145
 42
1.30322628
 10
43621.47044569
 20
-6231.79727547
 10
43604.05864196
 20
-6236.45653145
 42
-1.30322628
 10
43604.05864196
 20
-6226.79727547
 10
43621.47044569
 20
-6231.45653145
 42
1.30322628
 10
43621.47044569
 20
-6221.79727547
 10
43604.05864196
 20
-6226.45653145
 42
-1.30322628
 10
43604.05864196
 20
-6216.79727547
 10
43621.47044569
 20
-6221.45653145
 42
1.30322628
 10
43621.47044569
 20
-6211.79727547
 10
43604.05864196
 20
-6216.45653145
 42
-1.30322628
 10
43604.05864196
 20
-6206.79727547
 10
43621.47044569
 20
-6211.45653145
 42
1.30322628
 10
43621.47044569
 20
-6201.79727547
 10
43604.05864196
 20
-6206.45653145
 42
-1.30322628
 10
43604.05864196
 20
-6196.79727547
 10
43621.47044569
 20
-6201.45653145
 42
1.30322628
 10
43621.47044569
 20
-6191.79727547
 10
43604.05864196
 20
-6196.45653145
 42
-1.30322628
 10
43604.05864196
 20
-6186.79727547
 10
43621.47044569
 20
-6191.45653145
 42
1.30322628
 10
43621.47044569
 20
-6181.79727547
 10
43604.05864196
 20
-6186.45653145
 42
-1.30322628
 10
43604.05864196
 20
-6176.79727547
 10
43621.47044569
 20
-6181.45653145
 42
1.30322628
 10
43621.47044569
 20
-6171.79727547
 10
43604.05864196
 20
-6176.45653145
 42
-1.30322628
 10
43604.05864196
 20
-6166.79727547
 10
43621.47044569
 20
-6171.45653145
 42
1.30322628
 10
43621.47044569
 20
-6161.79727547
 10
43604.05864196
 20
-6166.45653145
 42
-1.30322628
 10
43604.05864196
 20
-6156.79727547
 10
43621.47044569
 20
-6161.45653145
 42
1.30322628
 10
43621.47044569
 20
-6151.79727547
 10
43604.05864196
 20
-6156.45653145
 42
-1.30322628
 10
43604.05864196
 20
-6146.79727547
 10
43621.47044569
 20
-6151.45653145
 42
1.30322628
 10
43621.47044569
 20
-6141.79727547
 10
43604.05864196
 20
-6146.45653145
 42
-1.30322628
 10
43604.05864196
 20
-6136.79727547
 10
43621.47044569
 20
-6141.45653145
 42
1.30322628
 10
43621.47044569
 20
-6131.79727547
 10
43604.05864196
 20
-6136.45653145
 42
-1.30322628
 10
43604.05864196
 20
-6126.79727547
 10
43621.47044569
 20
-6131.45653145
 42
1.30322628
 10
43621.47044569
 20
-6121.79727547
 10
43604.05864196
 20
-6126.45653145
 42
-1.30322628
 10
43604.05864196
 20
-6116.79727547
 10
43621.47044569
 20
-6121.45653145
 42
1.14028182
 10
43622.7645441
 20
-6111.62690346
 42
0.06554355
 10
43621.47044569
 20
-6111.79727547
 10
43604.05864196
 20
-6116.45653145
 42
-0.4931456
 10
43597.76454382
 20
-6111.62690346
  0
LWPOLYLINE
  5
61C
100
AcDbEntity
  8
Ech.1_5
 62
     3
370
    90
100
AcDbPolyline
 90
        4
 70
     0
 43
0.0
 10
43225.09718538
 20
-5634.12744248
 10
43212.10805196
 20
-5634.12744248
 10
43208.17331982
 20
-5628.44682992
 10
43194.69488982
 20
-5628.44682992
  0
LWPOLYLINE
  5
61D
100
AcDbEntity
  8
Ech.1_5
 62
     9
  6
CONTINUOUS
370
    -3
100
AcDbPolyline
 90
        3
 70
     0
 43
0.0
 10
43750.26454382
 20
-6091.62690346
 10
43627.76454382
 20
-6091.62690346
 10
43627.76454382
 20
-6111.62690346
  0
LWPOLYLINE
  5
61E
102
{ACAD_REACTORS
330
61F
102
}
100
AcDbEntity
  8
Ech.1_5
 62
     9
  6
CONTINUOUS
370
    -3
100
AcDbPolyline
 90
        4
 70
     1
 43
0.0
 10
43687.18287843
 20
-6077.62690346
 10
43687.18287843
 20
-6091.62690346
 10
44103.21617887
 20
-6091.62690346
 10
44103.21590779
 20
-6077.62690251
  0
HATCH
  5
61F
100
AcDbEntity
  8
Ech.1_5
 62
     9
  6
CONTINUOUS
100
AcDbHatch
 10
0.0
 20
0.0
 30
0.0
210
0.0
220
0.0
230
1.0
  2
ANSI31
 70
     0
 71
     1
 91
        1
 92
        7
 72
     0
 73
     1
 93
        4
 10
43687.18287843
 20
-6077.62690346
 10
43687.18287843
 20
-6091.62690346
 10
44103.21617887
 20
-6091.62690346
 10
44103.21590779
 20
-6077.62690251
 97
        1
330
61E
 75
     0
 76
     2
 52
90.0
 41
3.14962605
 77
     0
 78
     1
 53
-45.0
 43
0.0
 44
0.0
 45
7.07106781
 46
7.07106781
 79
     0
 47
0.775229
 98
        1
 10
0.0
 20
0.0
  0
LWPOLYLINE
  5
620
100
AcDbEntity
  8
Ech.1_5
 62
   254
  6
CONTINUOUS
370
    -3
100
AcDbPolyline
 90
        5
 70
     1
 43
0.0
 10
43618.0318498
 20
-5813.22432988
 10
43617.76454382
 20
-5813.22433846
 10
43617.76454382
 20
-6091.62539952
 10
43667.76454382
 20
-6091.62539952
 10
43667.76454382
 20
-5813.22432988
  0
LWPOLYLINE
  5
621
100
AcDbEntity
  8
Ech.1_5
 62
     9
  6
CONTINUOUS
100
AcDbPolyline
 90
        6
 70
     0
 43
0.0
 10
43680.76595901
 20
-6011.96013062
 10
43683.76454381
 20
-6011.96019929
 42
-0.41421356
 10
43693.76454381
 20
-6021.96019929
 10
43693.76454381
 20
-6077.62497323
 10
43680.76454382
 20
-6077.62497513
 10
43680.76454382
 20
-6011.96020215
  0
LWPOLYLINE
  5
622
102
{ACAD_REACTORS
330
623
102
}
100
AcDbEntity
  8
Ech.1_5
 62
     9
  6
CONTINUOUS
370
    -3
100
AcDbPolyline
 90
        4
 70
     1
 43
0.0
 10
43667.76454382
 20
-5813.22433846
 10
43680.76454382
 20
-5813.22433846
 10
43680.76454382
 20
-6081.62497513
 10
43667.76454382
 20
-6081.62497513
  0
HATCH
  5
623
100
AcDbEntity
  8
Ech.1_5
 62
     9
  6
CONTINUOUS
100
AcDbHatch
 10
0.0
 20
0.0
 30
0.0
210
0.0
220
0.0
230
1.0
  2
DOTS2
 70
     0
 71
     1
 91
        1
 92
        7
 72
     0
 73
     1
 93
        4
 10
43667.76454382
 20
-5813.22433846
 10
43680.76454382
 20
-5813.22433846
 10
43680.76454382
 20
-6081.62497513
 10
43667.76454382
 20
-6081.62497513
 97
        1
330
622
 75
     0
 76
     2
 52
0.0
 41
4.72440952
 77
     0
 78
     1
 53
0.0
 43
0.0
 44
0.0
 45
3.75
 46
3.535
 79
     2
 49
0.0
 49
-3.535
 47
0.775229
 98
        1
 10
0.0
 20
0.0
  0
LWPOLYLINE
  5
624
100
AcDbEntity
  8
Ech.1_5
 62
     9
  6
CONTINUOUS
370
    -3
100
AcDbPolyline
 90
      107
 70
     0
 43
0.0
 10
43659.43121049
 20
-6091.62539952
 42
1.14028178
 10
43657.27438026
 20
-6075.24268525
 10
43628.25470739
 20
-6083.00811284
 42
-1.14022141
 10
43626.09700146
 20
-6066.62539952
 42
-0.06557028
 10
43628.25470739
 20
-6066.90935223
 10
43657.27438026
 20
-6074.67477982
 42
1.14022134
 10
43659.4320862
 20
-6058.29206555
 42
0.06557028
 10
43657.27438026
 20
-6058.57601826
 10
43628.25470739
 20
-6066.34144681
 42
-0.06551739
 10
43626.09875279
 20
-6066.62539952
 42
-1.1403422
 10
43628.25470739
 20
-6050.24268525
 10
43657.27438026
 20
-6058.00811284
 42
0.06551739
 10
43659.43033485
 20
-6058.29206555
 42
0.99999997
 10
43659.43208621
 20
-6041.62539952
 42
0.06557028
 10
43657.27438026
 20
-6041.90935223
 10
43628.25470739
 20
-6049.67477982
 42
-1.14022134
 10
43626.09700145
 20
-6033.29206555
 42
-0.06557028
 10
43628.25470739
 20
-6033.57601826
 10
43657.27438026
 20
-6041.34144681
 42
0.06551739
 10
43659.43033484
 20
-6041.62539952
 42
1.1403422
 10
43657.27438026
 20
-6025.24268525
 10
43628.25470739
 20
-6033.00811284
 42
-0.06551739
 10
43626.0987528
 20
-6033.29206555
 42
-0.99999997
 10
43626.09700145
 20
-6016.62539952
 42
-0.06557028
 10
43628.25470739
 20
-6016.90935223
 10
43657.27438026
 20
-6024.67477982
 42
1.14022134
 10
43659.4320862
 20
-6008.29206555
 42
0.06557028
 10
43657.27438026
 20
-6008.57601826
 10
43628.25470739
 20
-6016.34144681
 42
-0.06551739
 10
43626.0987528
 20
-6016.62539952
 42
-1.1403422
 10
43628.25470739
 20
-6000.24268525
 10
43657.27438026
 20
-6008.00811284
 42
0.06551739
 10
43659.43033485
 20
-6008.29206555
 42
0.99999997
 10
43659.4320862
 20
-5991.62539952
 42
0.06557028
 10
43657.27438026
 20
-5991.90935223
 10
43628.25470739
 20
-5999.67477982
 42
-1.14022134
 10
43626.09700146
 20
-5983.29206555
 42
-0.06557028
 10
43628.25470739
 20
-5983.57601826
 10
43657.27438026
 20
-5991.34144681
 42
0.06551739
 10
43659.43033485
 20
-5991.62539952
 42
1.1403422
 10
43657.27438026
 20
-5975.24268525
 10
43628.25470739
 20
-5983.00811284
 42
-0.06551739
 10
43626.09875279
 20
-5983.29206555
 42
-0.99999997
 10
43626.09700145
 20
-5966.62539952
 42
-0.06557028
 10
43628.25470739
 20
-5966.90935223
 10
43657.27438026
 20
-5974.67477982
 42
1.14022134
 10
43659.4320862
 20
-5958.29206555
 42
0.06557028
 10
43657.27438026
 20
-5958.57601826
 10
43628.25470739
 20
-5966.34144681
 42
-0.06551739
 10
43626.0987528
 20
-5966.62539952
 42
-1.1403422
 10
43628.25470739
 20
-5950.24268525
 10
43657.27438026
 20
-5958.00811284
 42
0.06551739
 10
43659.43033485
 20
-5958.29206555
 42
0.99999997
 10
43659.43208619
 20
-5941.62539952
 42
0.06557028
 10
43657.27438026
 20
-5941.90935223
 10
43628.25470739
 20
-5949.67477982
 42
-1.14022134
 10
43626.09700145
 20
-5933.29206555
 42
-0.06557028
 10
43628.25470739
 20
-5933.57601826
 10
43657.27438026
 20
-5941.34144681
 42
0.06551739
 10
43659.43033486
 20
-5941.62539952
 42
1.1403422
 10
43657.27438026
 20
-5925.24268525
 10
43628.25470739
 20
-5933.00811284
 42
-0.06551739
 10
43626.0987528
 20
-5933.29206555
 42
-0.99999997
 10
43626.09700144
 20
-5916.62539952
 42
-0.06557028
 10
43628.25470739
 20
-5916.90935223
 10
43657.27438026
 20
-5924.67477982
 42
1.14022134
 10
43659.4320862
 20
-5908.29206555
 42
0.06557028
 10
43657.27438026
 20
-5908.57601826
 10
43628.25470739
 20
-5916.34144681
 42
-0.06551739
 10
43626.09875281
 20
-5916.62539952
 42
-1.1403422
 10
43628.25470739
 20
-5900.24268525
 10
43657.27438026
 20
-5908.00811284
 42
0.06551739
 10
43659.43033485
 20
-5908.29206555
 42
0.99999997
 10
43659.4320862
 20
-5891.62539952
 42
0.06557028
 10
43657.27438026
 20
-5891.90935223
 10
43628.25470739
 20
-5899.67477982
 42
-1.14022134
 10
43626.09700145
 20
-5883.29206555
 42
-0.06557028
 10
43628.25470739
 20
-5883.57601826
 10
43657.27438026
 20
-5891.34144681
 42
0.06551739
 10
43659.43033485
 20
-5891.62539952
 42
1.1403422
 10
43657.27438026
 20
-5875.24268525
 10
43628.25470739
 20
-5883.00811284
 42
-0.06551739
 10
43626.0987528
 20
-5883.29206555
 42
-0.99999997
 10
43626.09700145
 20
-5866.62539952
 42
-0.06557028
 10
43628.25470739
 20
-5866.90935223
 10
43657.27438026
 20
-5874.67477982
 42
1.14022134
 10
43659.43208619
 20
-5858.29206555
 42
0.06557028
 10
43657.27438026
 20
-5858.57601826
 10
43628.25470739
 20
-5866.34144681
 42
-0.06551739
 10
43626.0987528
 20
-5866.62539952
 42
-1.1403422
 10
43628.25470739
 20
-5850.24268525
 10
43657.27438026
 20
-5858.00811284
 42
0.06551739
 10
43659.43033486
 20
-5858.29206555
 42
0.99999997
 10
43659.4320862
 20
-5841.62539952
 42
0.06557028
 10
43657.27438026
 20
-5841.90935223
 10
43628.25470739
 20
-5849.67477982
 42
-1.14022134
 10
43626.09700144
 20
-5833.29206555
 42
-0.06557028
 10
43628.25470739
 20
-5833.57601826
 10
43657.27438026
 20
-5841.34144681
 42
0.06551739
 10
43659.43033485
 20
-5841.62539952
 42
1.1403422
 10
43657.27438026
 20
-5825.24268525
 10
43628.25470739
 20
-5833.00811284
 42
-0.06551739
 10
43626.09875281
 20
-5833.29206555
 42
-0.99999997
 10
43626.09700146
 20
-5816.62539952
 42
-0.06557028
 10
43628.25470739
 20
-5816.90935223
 10
43657.27438026
 20
-5824.67477982
 42
0.63155643
 10
43667.03822997
 20
-5813.22279732
  0
LWPOLYLINE
  5
625
100
AcDbEntity
  8
Ech.1_5
 62
   190
  6
CONTINUOUS
370
    -3
100
AcDbPolyline
 90
        4
 70
     0
 43
0.0
 10
43639.90605274
 20
-5813.22364132
 10
43628.25470739
 20
-5816.34144681
 42
-0.06551739
 10
43626.09875279
 20
-5816.62539952
 42
-0.23877071
 10
43619.38090551
 20
-5813.22428029
  0
LWPOLYLINE
  5
626
102
{ACAD_REACTORS
330
627
102
}
100
AcDbEntity
  8
Ech.1_5
 62
     9
  6
CONTINUOUS
370
    -3
100
AcDbPolyline
 90
       12
 70
     1
 43
0.0
 10
43621.26323813
 20
-6061.62539952
 10
43619.26454382
 20
-6061.62539952
 10
43619.26454382
 20
-6091.62539952
 10
43669.16233414
 20
-6091.62539952
 10
43669.16233414
 20
-6061.62539952
 10
43667.16233414
 20
-6061.62539952
 10
43667.16233414
 20
-6063.62539952
 10
43667.16233414
 20
-6063.62539952
 10
43667.16233414
 20
-6089.62539952
 10
43621.26323813
 20
-6089.62539952
 10
43621.26323813
 20
-6063.62539952
 10
43621.26323813
 20
-6063.62539952
  0
HATCH
  5
627
100
AcDbEntity
  8
Ech.1_5
 62
     9
  6
CONTINUOUS
100
AcDbHatch
 10
0.0
 20
0.0
 30
0.0
210
0.0
220
0.0
230
1.0
  2
SOLID
 70
     1
 71
     1
 91
        1
 92
        7
 72
     0
 73
     1
 93
       10
 10
43621.26323813
 20
-6061.62539952
 10
43619.26454382
 20
-6061.62539952
 10
43619.26454382
 20
-6091.62539952
 10
43669.16233414
 20
-6091.62539952
 10
43669.16233414
 20
-6061.62539952
 10
43667.16233414
 20
-6061.62539952
 10
43667.16233414
 20
-6063.62539952
 10
43667.16233414
 20
-6089.62539952
 10
43621.26323813
 20
-6089.62539952
 10
43621.26323813
 20
-6063.62539952
 97
        1
330
626
 75
     0
 76
     2
 47
0.775229
 98
        1
 10
0.0
 20
0.0
  0
LWPOLYLINE
  5
628
102
{ACAD_REACTORS
330
629
102
}
100
AcDbEntity
  8
Ech.1_5
 62
     9
  6
CONTINUOUS
370
    -3
100
AcDbPolyline
 90
        4
 70
     1
 43
0.0
 10
43667.76454382
 20
-6617.44724076
 10
43680.76454382
 20
-6617.44724076
 10
43680.76454382
 20
-6311.62690346
 10
43667.76454382
 20
-6311.62690346
  0
HATCH
  5
629
100
AcDbEntity
  8
Ech.1_5
 62
     9
  6
CONTINUOUS
100
AcDbHatch
 10
0.0
 20
0.0
 30
0.0
210
0.0
220
0.0
230
1.0
  2
DOTS2
 70
     0
 71
     1
 91
        1
 92
        7
 72
     0
 73
     1
 93
        4
 10
43667.76454382
 20
-6617.44724076
 10
43680.76454382
 20
-6617.44724076
 10
43680.76454382
 20
-6311.62690346
 10
43667.76454382
 20
-6311.62690346
 97
        1
330
628
 75
     0
 76
     2
 52
0.0
 41
4.72440952
 77
     0
 78
     1
 53
0.0
 43
0.0
 44
0.0
 45
3.75
 46
3.535
 79
     2
 49
0.0
 49
-3.535
 47
0.775229
 98
        1
 10
0.0
 20
0.0
  0
LWPOLYLINE
  5
62A
102
{ACAD_REACTORS
330
62B
102
}
100
AcDbEntity
  8
Ech.1_5
 62
     9
  6
CONTINUOUS
370
    -3
100
AcDbPolyline
 90
       12
 70
     1
 43
0.0
 10
43619.76323813
 20
-6341.62840741
 10
43617.76454382
 20
-6341.62840741
 10
43617.76454382
 20
-6311.62840741
 10
43667.66233414
 20
-6311.62840741
 10
43667.66233414
 20
-6341.62840741
 10
43665.66233414
 20
-6341.62840741
 10
43665.66233414
 20
-6339.62840741
 10
43665.66233414
 20
-6339.62840741
 10
43665.66233414
 20
-6313.62840741
 10
43619.76323813
 20
-6313.62840741
 10
43619.76323813
 20
-6339.62840741
 10
43619.76323813
 20
-6339.62840741
  0
HATCH
  5
62B
100
AcDbEntity
  8
Ech.1_5
 62
     9
  6
CONTINUOUS
100
AcDbHatch
 10
0.0
 20
0.0
 30
0.0
210
0.0
220
0.0
230
1.0
  2
SOLID
 70
     1
 71
     1
 91
        1
 92
        7
 72
     0
 73
     1
 93
       10
 10
43619.76323813
 20
-6341.62840741
 10
43617.76454382
 20
-6341.62840741
 10
43617.76454382
 20
-6311.62840741
 10
43667.66233414
 20
-6311.62840741
 10
43667.66233414
 20
-6341.62840741
 10
43665.66233414
 20
-6341.62840741
 10
43665.66233414
 20
-6339.62840741
 10
43665.66233414
 20
-6313.62840741
 10
43619.76323813
 20
-6313.62840741
 10
43619.76323813
 20
-6339.62840741
 97
        1
330
62A
 75
     0
 76
     2
 47
0.775229
 98
        1
 10
0.0
 20
0.0
  0
LWPOLYLINE
  5
62C
100
AcDbEntity
  8
Ech.1_5
 62
     1
  6
CADWORK_22
 48
-5.0
370
    35
100
AcDbPolyline
 90
        4
 70
     0
 43
0.0
 10
43599.12169887
 20
-5813.22457688
 10
43599.12169887
 20
-5841.78970807
 10
43605.00397942
 20
-5852.30225461
 10
43605.00397942
 20
-5929.16070168
  0
LWPOLYLINE
  5
62D
102
{ACAD_REACTORS
330
62E
102
}
100
AcDbEntity
  8
Ech.1_5
 62
     9
  6
CONTINUOUS
370
    -3
100
AcDbPolyline
 90
       11
 70
     1
 43
0.0
 10
43627.76454382
 20
-6111.62690346
 10
43750.26454382
 20
-6111.62690346
 10
43750.26454382
 20
-6091.62690346
 10
44103.21590779
 20
-6091.62690346
 10
44103.2161461
 20
-6111.62690346
 10
44103.21711254
 20
-6192.73440068
 10
44121.19446095
 20
-6209.21990388
 10
44085.23876093
 20
-6195.10996335
 10
44103.21711254
 20
-6211.59631817
 10
44103.21659608
 20
-6311.62690346
 10
43627.76454382
 20
-6311.62690346
  0
HATCH
  5
62E
100
AcDbEntity
  8
Ech.1_5
 62
     9
  6
CONTINUOUS
100
AcDbHatch
 10
0.0
 20
0.0
 30
0.0
210
0.0
220
0.0
230
1.0
  2
AR-CONC
 70
     0
 71
     1
 91
        1
 92
        7
 72
     0
 73
     1
 93
       11
 10
43627.76454382
 20
-6111.62690346
 10
43750.26454382
 20
-6111.62690346
 10
43750.26454382
 20
-6091.62690346
 10
44103.21590779
 20
-6091.62690346
 10
44103.2161461
 20
-6111.62690346
 10
44103.21711254
 20
-6192.73440068
 10
44121.19446095
 20
-6209.21990388
 10
44085.23876093
 20
-6195.10996335
 10
44103.21711254
 20
-6211.59631817
 10
44103.21659608
 20
-6311.62690346
 10
43627.76454382
 20
-6311.62690346
 97
        1
330
62D
 75
     0
 76
     2
 52
0.0
 41
0.11811097
 77
     0
 78
    13
 53
50.0
 43
0.0
 44
0.0
 45
-18.84283637
 46
1.64853443
 79
     2
 49
1.97029307
 49
-21.67322338
 53
355.0
 43
0.0
 44
0.0
 45
-3.64507756
 46
19.76051824
 79
     2
 49
1.57623377
 49
-17.3385787
 53
100.45140076
 43
1.57023568
 44
-0.13737749
 45
-15.19777228
 46
-18.11197244
 79
     2
 49
1.67449124
 49
-18.41940522
 53
46.18420029
 43
0.0
 44
5.25411576
 45
-28.03703353
 46
4.34827878
 79
     2
 49
2.95543872
 49
-32.50983238
 53
96.63559723
 43
2.33641885
 44
4.89175692
 45
-24.55412615
 46
-25.59063404
 79
     2
 49
2.51173697
 49
-27.62910426
 53
351.1842041
 43
0.0
 44
5.25411576
 45
24.55410288
 46
25.59065715
 79
     2
 49
2.36435249
 49
-26.00786805
 53
21.0
 43
2.62705699
 44
3.94058615
 45
-15.68109068
 46
10.57702905
 79
     2
 49
1.97029307
 49
-21.67322338
 53
326.0
 43
2.62705699
 44
3.94058615
 45
6.39203268
 46
19.05010734
 79
     2
 49
1.57623377
 49
-17.3385787
 53
71.45140076
 43
3.93381357
 44
3.05916555
 45
-22.07312962
 46
-8.47306182
 79
     2
 49
1.67449124
 49
-18.41940522
 53
37.5
 43
0.0
 44
0.0
 45
0.31944534
 46
8.74531245
 79
     6
 49
0.01875
 49
-17.12841332
 49
0.01875
 49
-17.60128498
 49
0.01875
 49
-17.40425348
 53
7.5
 43
0.0
 44
0.0
 45
6.91098818
 46
10.3614222
 79
     6
 49
0.01875
 49
-10.03535807
 49
0.01875
 49
-16.7343539
 49
0.01875
 49
-6.6333206
 53
-32.5
 43
-5.85833833
 44
0.0
 45
14.02382061
 46
-0.59253003
 79
     6
 49
0.01875
 49
-6.56764314
 49
0.01875
 49
-20.49104869
 49
0.01875
 49
-27.19004452
 53
-42.5
 43
-8.48539531
 44
0.0
 45
15.32063571
 46
2.62981542
 79
     6
 49
0.01875
 49
-8.53793621
 49
0.01875
 49
-13.60815793
 49
0.01875
 49
-19.30887222
 47
0.775229
 98
        1
 10
0.0
 20
0.0
  0
LINE
  5
62F
100
AcDbEntity
  8
Ech.1_5
 62
     1
  6
CADWORK_22
 48
-5.0
370
    35
100
AcDbLine
 10
43599.26454382
 20
-6617.44724076
 30
0.0
 11
43599.26454382
 21
-5854.41882603
 31
0.0
  0
LWPOLYLINE
  5
630
100
AcDbEntity
  8
Ech.1_5
 62
   190
  6
CONTINUOUS
370
    -3
100
AcDbPolyline
 90
        5
 70
     0
 43
0.0
 10
43161.89575119
 20
-6894.76020753
 10
44146.89575119
 20
-6894.76020753
 10
44146.89575119
 20
-5539.76020753
 10
43161.89575119
 20
-5539.76020753
 10
43161.89575119
 20
-6894.76020753
  0
LWPOLYLINE
  5
631
100
AcDbEntity
  8
Ech.1_5
 62
   190
  6
CONTINUOUS
370
    -3
100
AcDbPolyline
 90
       26
 70
     0
 43
0.0
 10
43447.76454382
 20
-6223.6269006
 42
1.14028181
 10
43455.52913266
 20
-6282.60467071
 10
43559.99995499
 20
-6254.6491305
 42
-1.30322619
 10
43559.99995499
 20
-6312.60467071
 10
43455.52913266
 20
-6284.6491305
 42
1.30322619
 10
43455.52913266
 20
-6342.60467071
 10
43559.99995499
 20
-6314.6491305
 42
-1.30322619
 10
43559.99995499
 20
-6372.60467071
 10
43455.52913266
 20
-6344.6491305
 42
1.30322619
 10
43455.52913266
 20
-6402.60467071
 10
43559.99995499
 20
-6374.6491305
 42
-1.30322619
 10
43559.99995499
 20
-6432.60467071
 10
43455.52913266
 20
-6404.6491305
 42
1.30322619
 10
43455.52913266
 20
-6462.60467071
 10
43559.99995499
 20
-6434.6491305
 42
-1.30322619
 10
43559.99995499
 20
-6492.60467071
 10
43455.52913266
 20
-6464.6491305
 42
1.30322619
 10
43455.52913266
 20
-6522.60467071
 10
43559.99995499
 20
-6494.6491305
 42
-1.30322619
 10
43559.99995499
 20
-6552.60467071
 10
43455.52913266
 20
-6524.6491305
 42
1.30322619
 10
43455.52913266
 20
-6582.60467071
 10
43559.99995499
 20
-6554.6491305
 42
-1.30322619
 10
43559.99995499
 20
-6612.60467071
 10
43455.52913266
 20
-6584.6491305
 42
0.53349498
 10
43418.00895988
 20
-6617.44857876
  0
LWPOLYLINE
  5
632
100
AcDbEntity
  8
Ech.1_5
 62
     9
  6
CONTINUOUS
370
    -3
100
AcDbPolyline
 90
        4
 70
     1
 43
0.0
 10
43383.76454382
 20
-5813.2252311
 10
43383.76454382
 20
-6168.1269006
 10
43408.76454382
 20
-6168.1269006
 10
43408.76454382
 20
-5813.2252311
  0
LWPOLYLINE
  5
633
100
AcDbEntity
  8
Ech.1_5
 62
     9
  6
CONTINUOUS
100
AcDbPolyline
 90
       22
 70
     0
 43
0.0
 10
43371.71027512
 20
-5813.2252311
 10
43371.38394149
 20
-5814.86582081
 10
43365.22900992
 20
-5821.55900567
 10
43363.76454382
 20
-5825.09453957
 10
43363.76454382
 20
-5944.18128388
 10
43364.72486622
 20
-5945.81115239
 10
43369.46098708
 20
-5948.7825021
 10
43369.87298845
 20
-5949.02347176
 10
43370.18680593
 20
-5949.02347176
 10
43370.6379267
 20
-5948.74140923
 10
43370.76454382
 20
-5948.40693562
 10
43370.76454382
 20
-5921.02347176
 10
43377.76454382
 20
-5921.02347176
 10
43377.76454382
 20
-5931.02347176
 10
43383.76454382
 20
-5931.02347176
 10
43383.76454382
 20
-5903.02347176
 10
43379.76454382
 20
-5899.02347176
 10
43383.76454382
 20
-5895.02347176
 10
43383.76454382
 20
-5831.02347176
 10
43379.76454382
 20
-5827.02347176
 10
43383.76454382
 20
-5823.02347176
 10
43383.76454382
 20
-5813.2252311
  0
LWPOLYLINE
  5
634
100
AcDbEntity
  8
Ech.1_5
 62
     9
  6
CONTINUOUS
100
AcDbPolyline
 90
       27
 70
     0
 43
0.0
 10
43370.6379267
 20
-6093.74140923
 10
43370.76454382
 20
-6093.40693562
 10
43370.76454382
 20
-6066.02347176
 10
43377.76454382
 20
-6066.02347176
 10
43377.76454382
 20
-6076.02347176
 10
43383.76454382
 20
-6076.02347176
 10
43383.76454382
 20
-6048.02347176
 10
43379.76454382
 20
-6044.02347176
 10
43383.76454382
 20
-6040.02347176
 10
43383.76454382
 20
-5976.02347176
 10
43379.76454382
 20
-5972.02347176
 10
43383.76454382
 20
-5968.02347176
 10
43383.76454382
 20
-5932.02347176
 10
43376.76454382
 20
-5932.02347176
 10
43376.76454382
 20
-5927.02347176
 10
43374.26454382
 20
-5922.02347176
 10
43371.76454382
 20
-5927.02347176
 10
43371.76454382
 20
-5957.95240395
 10
43371.38394149
 20
-5959.86582081
 10
43365.22900992
 20
-5966.55900567
 10
43363.76454382
 20
-5970.09453957
 10
43363.76454382
 20
-6089.18128388
 10
43364.72486622
 20
-6090.81115239
 10
43369.46098708
 20
-6093.7825021
 10
43369.87298845
 20
-6094.02347176
 10
43370.18680593
 20
-6094.02347176
 10
43370.6379267
 20
-6093.74140923
  0
LWPOLYLINE
  5
635
100
AcDbEntity
  8
Ech.1_5
 62
     9
  6
BYBLOCK
100
AcDbPolyline
 90
       23
 70
     0
 43
0.0
 10
43363.76454382
 20
-6211.50505536
 10
43363.76454382
 20
-6115.09453957
 10
43365.22900992
 20
-6111.55900567
 10
43371.38394149
 20
-6104.86582081
 10
43371.76454382
 20
-6102.95240395
 10
43371.76454382
 20
-6072.02347176
 10
43374.26454382
 20
-6067.02347176
 10
43376.76454382
 20
-6072.02347176
 10
43376.76454382
 20
-6077.02347176
 10
43383.76454382
 20
-6077.02347176
 10
43383.76454382
 20
-6113.02347176
 10
43379.76454382
 20
-6117.02347176
 10
43383.76454382
 20
-6121.02347176
 10
43383.76454382
 20
-6185.02347176
 10
43379.76454382
 20
-6189.02347176
 10
43383.76454382
 20
-6193.02347176
 10
43383.76454382
 20
-6193.02347176
 10
43371.52063022
 20
-6208.92074578
 10
43368.70383339
 20
-6212.57802384
 10
43367.61437335
 20
-6213.1269006
 10
43364.85899283
 20
-6213.1269006
 10
43363.76454382
 20
-6211.50505536
 10
43363.76454382
 20
-6206.19642727
  0
LWPOLYLINE
  5
636
100
AcDbEntity
  8
Ech.1_5
 62
   190
  6
CONTINUOUS
370
    -3
100
AcDbPolyline
 90
        6
 70
     0
 43
0.0
 10
43698.00874202
 20
-6617.44724076
 10
43550.69893502
 20
-6617.44887059
 10
43534.21343186
 20
-6635.42621892
 10
43548.32337188
 20
-6599.470519
 10
43531.8370178
 20
-6617.44887059
 10
43345.23811899
 20
-6617.44808476
  0
LWPOLYLINE
  5
637
100
AcDbEntity
  8
Ech.1_5
 62
   190
  6
CONTINUOUS
370
    -3
100
AcDbPolyline
 90
        6
 70
     0
 43
0.0
 10
43345.23811899
 20
-5813.2252311
 10
43480.19804732
 20
-5813.22375481
 10
43496.68355047
 20
-5795.24640648
 10
43482.57361046
 20
-5831.20210641
 10
43499.05996454
 20
-5813.22375481
 10
43702.72796879
 20
-5813.22457688
  0
LWPOLYLINE
  5
638
100
AcDbEntity
  8
Ech.1_5
 62
     7
  6
CONTINUOUS
370
   120
100
AcDbPolyline
 90
        3
 70
     0
 43
5.0
 10
43750.26454382
 20
-6110.27715008
 10
43601.76454382
 20
-6110.27715008
 10
43601.76454382
 20
-5960.27715008
  0
LWPOLYLINE
  5
639
100
AcDbEntity
  8
Ech.1_5
 62
   190
100
AcDbPolyline
 90
        5
 70
     0
 43
0.0
 10
43180.91186566
 20
-6563.91930334
 10
43315.34064464
 20
-6563.91930334
 10
43315.34064464
 20
-6620.64226216
 10
43180.91186566
 20
-6620.64226216
 10
43180.91186566
 20
-6563.91930334
  0
HATCH
  5
63A
100
AcDbEntity
  8
Ech.1_5
 62
   190
100
AcDbHatch
 10
0.0
 20
0.0
 30
0.0
210
0.0
220
0.0
230
1.0
  2
SOLID
 70
     1
 71
     0
 91
        1
 92
        7
 72
     0
 73
     1
 93
        4
 10
43199.19191144
 20
-6597.57611447
 10
43249.19191144
 20
-6597.57611447
 10
43249.19191144
 20
-6590.16097694
 10
43199.19191144
 20
-6590.16097694
 97
        0
 75
     0
 76
     2
 47
0.775229
 98
        1
 10
0.0
 20
0.0
  0
LWPOLYLINE
  5
63B
100
AcDbEntity
  8
Ech.1_5
 62
   190
100
AcDbPolyline
 90
        5
 70
     0
 43
0.0
 10
43199.19191144
 20
-6597.57611447
 10
43249.19191144
 20
-6597.57611447
 10
43249.19191144
 20
-6590.16097694
 10
43199.19191144
 20
-6590.16097694
 10
43199.19191144
 20
-6597.57611447
  0
LWPOLYLINE
  5
63C
100
AcDbEntity
  8
Ech.1_5
 62
   190
100
AcDbPolyline
 90
        5
 70
     0
 43
0.0
 10
43249.19191144
 20
-6597.57611447
 10
43299.19191144
 20
-6597.57611447
 10
43299.19191144
 20
-6590.16097694
 10
43249.19191144
 20
-6590.16097694
 10
43249.19191144
 20
-6597.57611447
  0
TEXT
  5
63D
100
AcDbEntity
  8
Ech.1_5
 62
   190
100
AcDbText
 10
43210.48620407
 20
-6580.57497386
 30
0.0
 40
8.00000012
  1
Echelle en mm
  7
ARIAL
 50
0.0
 41
1.0
 51
0.0
100
AcDbText
  0
TEXT
  5
63E
100
AcDbEntity
  8
Ech.1_5
 62
   190
100
AcDbText
 10
43196.50561932
 20
-6608.78480939
 30
0.0
 40
8.00000012
  1
0
  7
ARIAL
 50
0.0
 41
1.0
 51
0.0
100
AcDbText
  0
TEXT
  5
63F
100
AcDbEntity
  8
Ech.1_5
 62
   190
100
AcDbText
 10
43283.10267721
 20
-6608.78480939
 30
0.0
 40
8.00000012
  1
100
  7
ARIAL
 50
0.0
 41
1.0
 51
0.0
100
AcDbText
  0
TEXT
  5
640
100
AcDbEntity
  8
Ech.1_5
 62
   190
100
AcDbText
 10
43244.36224565
 20
-6608.78480939
 30
0.0
 40
8.00000012
  1
50
  7
ARIAL
 50
0.0
 41
1.0
 51
0.0
100
AcDbText
  0
ENDSEC
  0
SECTION
  2
OBJECTS
  0
DICTIONARY
  5
1
100
AcDbDictionary
  3
ACAD_GROUP
350
2
  3
ACAD_MLINESTYLE
350
3
  0
DICTIONARY
  5
2
102
{CDWK_REACTORS
330
1
102
}
100
AcDbDictionary
  0
DICTIONARY
  5
3
102
{CDWK_REACTORS
330
1
102
}
100
AcDbDictionary
  3
STANDARD
350
4
  0
MLINESTYLE
  5
4
102
{CDWK_REACTORS
330
3
102
}
100
AcDbMlineStyle
  2
STANDARD
 70
     0
  3

 62
     0
 51
90.0
 52
90.0
 71
     2
 49
0.5
 62
   256
  6
BYLAYER
 49
-0.5
 62
   256
  6
BYLAYER
  0
ENDSEC
  0
EOF
