  0
SECTION
  2
HEADER
  9
$ACADVER
  1
AC1014
  9
$DWGCODEPAGE
  3
ANSI_1252
  9
$INSBASE
 10
0.0
 20
0.0
 30
0.0
  9
$EXTMIN
 10
1033.98771282
 20
-21718.34332712
  9
$EXTMAX
 10
122326.07664696
 20
2240.3362527
  9
$LIMMIN
 10
1033.98771282
 20
-21718.34332712
  9
$LIMMAX
 10
122326.07664696
 20
2240.3362527
  9
$ORTHOMODE
 70
     0
  9
$REGENMODE
 70
     1
  9
$FILLMODE
 70
     1
  9
$QTEXTMODE
 70
     0
  9
$MIRRTEXT
 70
     1
  9
$DRAGMODE
 70
     2
  9
$LTSCALE
 40
5.0
  9
$OSMODE
 70
     0
  9
$ATTMODE
 70
     1
  9
$TEXTSIZE
 40
3.5
  9
$TRACEWID
 40
1.0
  9
$TEXTSTYLE
  7
STANDARD
  9
$CLAYER
  8
0
  9
$CELTYPE
  6
BYLAYER
  9
$CECOLOR
 62
   256
  9
$DIMSCALE
 40
1.0
  9
$DIMASZ
 40
2.0
  9
$DIMEXO
 40
5.0
  9
$DIMDLI
 40
10.0
  9
$DIMRND
 40
0.0
  9
$DIMDLE
 40
2.0
  9
$DIMEXE
 40
2.0
  9
$DIMTP
 40
0.0
  9
$DIMTM
 40
0.0
  9
$DIMTXT
 40
2.5
  9
$DIMCEN
 40
1.5
  9
$DIMTSZ
 40
0.0
  9
$DIMTOL
 70
     0
  9
$DIMLIM
 70
     0
  9
$DIMTIH
 70
     1
  9
$DIMTOH
 70
     0
  9
$DIMSE1
 70
     0
  9
$DIMSE2
 70
     0
  9
$DIMTAD
 70
     1
  9
$DIMZIN
 70
     8
  9
$DIMBLK
  1

  9
$DIMASO
 70
     1
  9
$DIMSHO
 70
     1
  9
$DIMPOST
  1

  9
$DIMAPOST
  1

  9
$DIMALT
 70
     0
  9
$DIMALTD
 70
     2
  9
$DIMALTF
 40
25.4
  9
$DIMLFAC
 40
1.0
  9
$DIMTOFL
 70
     0
  9
$DIMTVP
 40
0.0
  9
$DIMTIX
 70
     0
  9
$DIMSOXD
 70
     0
  9
$DIMSAH
 70
     0
  9
$DIMBLK1
  1

  9
$DIMBLK2
  1

  9
$DIMSTYLE
  2
*UNNAMED
  9
$DIMCLRD
 70
   190
  9
$DIMCLRE
 70
   190
  9
$DIMCLRT
 70
   190
  9
$DIMTFAC
 40
1.0
  9
$DIMGAP
 40
0.09
  9
$DIMUNIT
 70
     2
  9
$LUNITS
 70
     2
  9
$LUPREC
 70
     6
  9
$AXISMODE
 70
     0
  9
$AXISUNIT
 10
0.0
 20
0.0
  9
$SKETCHINC
 40
0.1
  9
$FILLETRAD
 40
0.0
  9
$AUNITS
 70
     0
  9
$AUPREC
 70
     0
  9
$MENU
  1
ACAD
  9
$ELEVATION
 40
0.0
  9
$PELEVATION
 40
0.0
  9
$THICKNESS
 40
0.0
  9
$LIMCHECK
 70
     0
  9
$BLIPMODE
 70
     1
  9
$CHAMFERA
 40
0.0
  9
$CHAMFERB
 40
0.0
  9
$SKPOLY
 70
     1
  9
$TDCREATE
 40
2457808.0000000000
  9
$TDUPDATE
 40
2457808.0000000000
  9
$TDINDWG
 40
0.0
  9
$TDUSRTIMER
 40
0.0
  9
$USRTIMER
 70
     1
  9
$ANGBASE
 50
0.0
  9
$ANGDIR
 70
     0
  9
$PDMODE
 70
     0
  9
$PDSIZE
 40
0.0
  9
$PLINEWID
 40
0.0
  9
$COORDS
 70
     2
  9
$SPLFRAME
 70
     0
  9
$SPLINETYPE
 70
     6
  9
$SPLINESEGS
 70
     8
  9
$ATTDIA
 70
     1
  9
$ATTREQ
 70
     1
  9
$HANDLING
 70
     1
  9
$HANDSEED
  5
     634
  9
$SURFTAB1
 70
     6
  9
$SURFTAB2
 70
     6
  9
$SURFTYPE
 70
     6
  9
$SURFU
 70
     6
  9
$SURFV
 70
     6
  9
$UCSNAME
  2

  9
$UCSORG
 10
0.0
 20
0.0
 30
0.0
  9
$UCSXDIR
 10
1.0
 20
0.0
 30
0.0
  9
$UCSYDIR
 10
0.0
 20
1.0
 30
0.0
  9
$PUCSNAME
  2

  9
$PUCSORG
 10
0.0
 20
0.0
 30
0.0
  9
$PUCSXDIR
 10
1.0
 20
0.0
 30
0.0
  9
$PUCSYDIR
 10
0.0
 20
1.0
 30
0.0
  9
$USERI1
 70
     0
  9
$USERI2
 70
     0
  9
$USERI3
 70
     0
  9
$USERI4
 70
     0
  9
$USERI5
 70
     0
  9
$USERR1
 40
0.0
  9
$USERR2
 40
0.0
  9
$USERR3
 40
0.0
  9
$USERR4
 40
0.0
  9
$USERR5
 40
0.0
  9
$WORLDVIEW
 70
     1
  9
$SHADEDGE
 70
     3
  9
$SHADEDIF
 70
    70
  9
$TILEMODE
 70
     1
  9
$MAXACTVP
 70
    16
  9
$PINSBASE
 10
0.0
 20
0.0
 30
0.0
  9
$PLIMCHECK
 70
     0
  9
$PEXTMIN
 10
1.0000000000000E+20
 20
1.0000000000000E+20
 30
1.0000000000000E+20
  9
$PEXTMAX
 10
-1.0000000000000E+20
 20
-1.0000000000000E+20
 30
-1.0000000000000E+20
  9
$PLIMMIN
 10
0.0
 20
0.0
  9
$UNITMODE
 70
     0
  9
$VISRETAIN
 70
     0
  9
$MEASUREMENT
 70
     1
  0
ENDSEC
  0
SECTION
  2
TABLES
  0
TABLE
  2
VPORT
  5
4A2
100
AcDbSymbolTable
 70
     1
  0
ENDTAB
  0
TABLE
  2
STYLE
  5
4A3
100
AcDbSymbolTable
 70
     3
  0
STYLE
  5
4A4
100
AcDbSymbolTableRecord
100
AcDbTextStyleTableRecord
  2
STANDARD
 70
     0
 40
0.0
 41
1.0
 50
0.0
 71
     0
 42
3.5
  3
MONOTXT
  4

  0
STYLE
  5
4A5
100
AcDbSymbolTableRecord
100
AcDbTextStyleTableRecord
  2
SYMAP
 70
     0
 40
0.0
 41
1.0
 50
0.0
 71
     0
 42
3.5
  3
SYMAP
  4

  0
STYLE
  5
4A6
100
AcDbSymbolTableRecord
100
AcDbTextStyleTableRecord
  2
CADWORK1
 70
     0
 40
0.0
 41
1.0
 50
0.0
 71
     0
 42
3.5
  3
MONOTXT
  4

  0
STYLE
  5
4A7
100
AcDbSymbolTableRecord
100
AcDbTextStyleTableRecord
  2
MONOTXT
 70
     0
 40
0.0
 41
1.0
 50
0.0
 71
     0
 42
3.5
  3
MONOTXT
  4

  0
STYLE
  5
4A8
100
AcDbSymbolTableRecord
100
AcDbTextStyleTableRecord
  2
ARIAL
 70
     0
 40
0.0
 41
1.0
 50
0.0
 71
     0
 42
3.5
  3

  4

1001
ACAD
1000
Arial
1071
        0
  0
ENDTAB
  0
TABLE
  2
LTYPE
  5
4A9
100
AcDbSymbolTable
 70
    15
  0
LTYPE
  5
4AA
100
AcDbSymbolTableRecord
100
AcDbLinetypeTableRecord
  2
BYBLOCK
 70
    64
  3

 72
    65
 73
     0
 40
0.0
  0
LTYPE
  5
4AB
100
AcDbSymbolTableRecord
100
AcDbLinetypeTableRecord
  2
BYLAYER
 70
    64
  3

 72
    65
 73
     0
 40
0.0
  0
LTYPE
  5
4AC
100
AcDbSymbolTableRecord
100
AcDbLinetypeTableRecord
  2
CONTINUOUS
 70
    64
  3
Solid line
 72
    65
 73
     0
 40
0.0
  0
LTYPE
  5
4AD
100
AcDbSymbolTableRecord
100
AcDbLinetypeTableRecord
  2
DOT2
 70
    64
  3
...............................................
 72
    65
 73
     2
 40
1.25
 49
0.0
 74
     0
 49
-1.25
 74
     0
  0
LTYPE
  5
4AE
100
AcDbSymbolTableRecord
100
AcDbLinetypeTableRecord
  2
CADWORK_13
 70
    64
  3
13 =======================================
 72
    65
 73
     2
 40
4.0
 49
2.0
 74
     0
 49
-2.0
 74
     0
  0
LTYPE
  5
4AF
100
AcDbSymbolTableRecord
100
AcDbLinetypeTableRecord
  2
DASHDOT
 70
    64
  3
 __ . __ . __ . __ . __ . __ . __ . __ . __ . __
 72
    65
 73
     4
 40
10.0
 49
5.0
 74
     0
 49
-2.5
 74
     0
 49
0.0
 74
     0
 49
-2.5
 74
     0
  0
LTYPE
  5
4B0
100
AcDbSymbolTableRecord
100
AcDbLinetypeTableRecord
  2
CENTER
 70
    64
  3
 ____ _ ____ _ ____ _ ____ _ ____ _ ____ _ ____
 72
    65
 73
     4
 40
20.0
 49
12.5
 74
     0
 49
-2.5
 74
     0
 49
2.5
 74
     0
 49
-2.5
 74
     0
  0
LTYPE
  5
4B1
100
AcDbSymbolTableRecord
100
AcDbLinetypeTableRecord
  2
DASHEDX2
 70
    64
  3
____  ____  ____  ____  ____  ____  ____  ____
 72
    65
 73
     2
 40
3.75
 49
2.5
 74
     0
 49
-1.25
 74
     0
  0
LTYPE
  5
4B2
100
AcDbSymbolTableRecord
100
AcDbLinetypeTableRecord
  2
CADWORK_22
 70
    64
  3
22 =======================================
 72
    65
 73
     0
 40
0.0
  0
LTYPE
  5
4B3
100
AcDbSymbolTableRecord
100
AcDbLinetypeTableRecord
  2
DAL
 70
    64
  3
Solid line (for MAPS)
 72
    65
 73
     0
 40
0.0
  0
LTYPE
  5
4B4
100
AcDbSymbolTableRecord
100
AcDbLinetypeTableRecord
  2
MUR
 70
    64
  3
Solid line (for MAPS)
 72
    65
 73
     0
 40
0.0
  0
LTYPE
  5
4B5
100
AcDbSymbolTableRecord
100
AcDbLinetypeTableRecord
  2
SOM
 70
    64
  3
Solid line (for MAPS)
 72
    65
 73
     0
 40
0.0
  0
LTYPE
  5
4B6
100
AcDbSymbolTableRecord
100
AcDbLinetypeTableRecord
  2
COL
 70
    64
  3
Solid line (for MAPS)
 72
    65
 73
     0
 40
0.0
  0
LTYPE
  5
4B7
100
AcDbSymbolTableRecord
100
AcDbLinetypeTableRecord
  2
LGN
 70
    64
  3
Solid line (for MAPS)
 72
    65
 73
     0
 40
0.0
  0
LTYPE
  5
4B8
100
AcDbSymbolTableRecord
100
AcDbLinetypeTableRecord
  2
PNT
 70
    64
  3
Solid line (for MAPS)
 72
    65
 73
     0
 40
0.0
  0
ENDTAB
  0
TABLE
  2
LAYER
  5
4B9
100
AcDbSymbolTable
 70
    32
  0
LAYER
  5
4BA
100
AcDbSymbolTableRecord
100
AcDbLayerTableRecord
  2
Standard
 70
     0
 62
     7
  6
CONTINUOUS
370
    -3
  0
LAYER
  5
4BB
100
AcDbSymbolTableRecord
100
AcDbLayerTableRecord
  2
Ech.1_1
 70
     0
 62
     7
  6
CONTINUOUS
370
    -3
  0
LAYER
  5
4BC
100
AcDbSymbolTableRecord
100
AcDbLayerTableRecord
  2
Ech.1_2
 70
     0
 62
     7
  6
CONTINUOUS
370
    -3
  0
LAYER
  5
4BD
100
AcDbSymbolTableRecord
100
AcDbLayerTableRecord
  2
Ech.1_5
 70
     0
 62
     7
  6
CONTINUOUS
370
    -3
  0
LAYER
  5
4BE
100
AcDbSymbolTableRecord
100
AcDbLayerTableRecord
  2
Ech.1_10
 70
     0
 62
     7
  6
CONTINUOUS
370
    -3
  0
LAYER
  5
4BF
100
AcDbSymbolTableRecord
100
AcDbLayerTableRecord
  2
Ech.1_20
 70
     0
 62
     7
  6
CONTINUOUS
370
    -3
  0
LAYER
  5
4C0
100
AcDbSymbolTableRecord
100
AcDbLayerTableRecord
  2
Ech.1_25
 70
     0
 62
     7
  6
CONTINUOUS
370
    -3
  0
LAYER
  5
4C1
100
AcDbSymbolTableRecord
100
AcDbLayerTableRecord
  2
Ech.1_33
 70
     0
 62
     7
  6
CONTINUOUS
370
    -3
  0
LAYER
  5
4C2
100
AcDbSymbolTableRecord
100
AcDbLayerTableRecord
  2
Ech.1_50
 70
     0
 62
     7
  6
CONTINUOUS
370
    -3
  0
LAYER
  5
4C3
100
AcDbSymbolTableRecord
100
AcDbLayerTableRecord
  2
Ech.1_75
 70
     0
 62
     7
  6
CONTINUOUS
370
    -3
  0
LAYER
  5
4C4
100
AcDbSymbolTableRecord
100
AcDbLayerTableRecord
  2
Ech.1_100
 70
     0
 62
     7
  6
CONTINUOUS
370
    -3
  0
LAYER
  5
4C5
100
AcDbSymbolTableRecord
100
AcDbLayerTableRecord
  2
Ech.1_200
 70
     0
 62
     7
  6
CONTINUOUS
370
    -3
  0
LAYER
  5
4C6
100
AcDbSymbolTableRecord
100
AcDbLayerTableRecord
  2
Ech.1_500
 70
     0
 62
     7
  6
CONTINUOUS
370
    -3
  0
LAYER
  5
4C7
100
AcDbSymbolTableRecord
100
AcDbLayerTableRecord
  2
Ech.1_1000
 70
     0
 62
     7
  6
CONTINUOUS
370
    -3
  0
LAYER
  5
4C8
100
AcDbSymbolTableRecord
100
AcDbLayerTableRecord
  2
Cadres traceur
 70
     0
 62
     7
  6
CONTINUOUS
370
    18
  0
LAYER
  5
4C9
100
AcDbSymbolTableRecord
100
AcDbLayerTableRecord
  2
Cadres laser
 70
     0
 62
     7
  6
CONTINUOUS
370
    18
  0
LAYER
  5
4CA
100
AcDbSymbolTableRecord
100
AcDbLayerTableRecord
  2
Légende d_aide
 70
     0
 62
     7
  6
CONTINUOUS
370
    18
  0
LAYER
  5
4CB
100
AcDbSymbolTableRecord
100
AcDbLayerTableRecord
  2
hachures ok
 70
     0
 62
     7
  6
CONTINUOUS
370
    18
  0
LAYER
  5
4CC
100
AcDbSymbolTableRecord
100
AcDbLayerTableRecord
  2
ossature bois
 70
     0
 62
     7
  6
CONTINUOUS
370
    18
  0
LAYER
  5
4CD
100
AcDbSymbolTableRecord
100
AcDbLayerTableRecord
  2
VR
 70
     0
 62
     7
  6
CONTINUOUS
370
    25
  0
LAYER
  5
4CE
100
AcDbSymbolTableRecord
100
AcDbLayerTableRecord
  2
Calque1
 70
     0
 62
     7
  6
CONTINUOUS
370
     9
  0
LAYER
  5
4CF
100
AcDbSymbolTableRecord
100
AcDbLayerTableRecord
  2
0
 70
     0
 62
     7
  6
CONTINUOUS
370
    -3
  0
LAYER
  5
4D0
100
AcDbSymbolTableRecord
100
AcDbLayerTableRecord
  2
menuiserie
 70
     0
 62
     7
  6
CONTINUOUS
370
    -3
  0
LAYER
  5
4D1
100
AcDbSymbolTableRecord
100
AcDbLayerTableRecord
  2
cotation
 70
     0
 62
   250
  6
CONTINUOUS
370
     9
  0
LAYER
  5
4D2
100
AcDbSymbolTableRecord
100
AcDbLayerTableRecord
  2
Defpoints
 70
     0
 62
    10
  6
CONTINUOUS
370
    -3
  0
LAYER
  5
4D3
100
AcDbSymbolTableRecord
100
AcDbLayerTableRecord
  2
HACHURE
 70
     0
 62
   254
  6
CONTINUOUS
370
    25
  0
LAYER
  5
4D4
100
AcDbSymbolTableRecord
100
AcDbLayerTableRecord
  2
mat1
 70
     0
 62
     7
  6
CONTINUOUS
370
    30
  0
LAYER
  5
4D5
100
AcDbSymbolTableRecord
100
AcDbLayerTableRecord
  2
mat2
 70
     0
 62
     7
  6
CONTINUOUS
370
     5
  0
LAYER
  5
4D6
100
AcDbSymbolTableRecord
100
AcDbLayerTableRecord
  2
hach
 70
     0
 62
     8
  6
CONTINUOUS
370
     5
  0
LAYER
  5
4D7
100
AcDbSymbolTableRecord
100
AcDbLayerTableRecord
  2
menuiseries
 70
     0
 62
     7
  6
CONTINUOUS
370
     9
  0
LAYER
  5
4D8
100
AcDbSymbolTableRecord
100
AcDbLayerTableRecord
  2
BétonMétal
 70
     0
 62
     7
  6
CONTINUOUS
370
    80
  0
LAYER
  5
4D9
100
AcDbSymbolTableRecord
100
AcDbLayerTableRecord
  2
bois
 70
     0
 62
     7
  6
CONTINUOUS
370
    60
  0
ENDTAB
  0
TABLE
  2
VIEW
  5
4DA
100
AcDbSymbolTable
 70
     0
  0
ENDTAB
  0
TABLE
  2
UCS
  5
4DB
100
AcDbSymbolTable
 70
     0
  0
ENDTAB
  0
TABLE
  2
APPID
  5
4DC
100
AcDbSymbolTable
 70
     1
  0
APPID
  5
4DD
100
AcDbSymbolTableRecord
100
AcDbRegAppTableRecord
  2
ACAD
 70
     0
  0
ENDTAB
  0
TABLE
  2
DIMSTYLE
  5
4DE
100
AcDbSymbolTable
 70
     0
  0
ENDTAB
  0
TABLE
  2
BLOCK_RECORD
  5
4DF
100
AcDbSymbolTable
 70
     0
  0
BLOCK_RECORD
  5
4E0
100
AcDbSymbolTableRecord
100
AcDbBlockTableRecord
  2
*MODEL_SPACE
  0
BLOCK_RECORD
  5
4E1
100
AcDbSymbolTableRecord
100
AcDbBlockTableRecord
  2
*PAPER_SPACE
  0
BLOCK_RECORD
  5
4E2
100
AcDbSymbolTableRecord
100
AcDbBlockTableRecord
  2
CDWK_EXTR_0
  0
BLOCK_RECORD
  5
4E3
100
AcDbSymbolTableRecord
100
AcDbBlockTableRecord
  2
CDWK_EXTR_1D
  0
BLOCK_RECORD
  5
4E4
100
AcDbSymbolTableRecord
100
AcDbBlockTableRecord
  2
CDWK_EXTR_1G
  0
BLOCK_RECORD
  5
4E5
100
AcDbSymbolTableRecord
100
AcDbBlockTableRecord
  2
CDWK_EXTR_2
  0
BLOCK_RECORD
  5
4E6
100
AcDbSymbolTableRecord
100
AcDbBlockTableRecord
  2
CDWK_EXTR_3
  0
BLOCK_RECORD
  5
4E7
100
AcDbSymbolTableRecord
100
AcDbBlockTableRecord
  2
CDWK_EXTR_4
  0
BLOCK_RECORD
  5
4E8
100
AcDbSymbolTableRecord
100
AcDbBlockTableRecord
  2
CDWK_PTTYP0
  0
BLOCK_RECORD
  5
4E9
100
AcDbSymbolTableRecord
100
AcDbBlockTableRecord
  2
CDWK_PTTYP1
  0
BLOCK_RECORD
  5
4EA
100
AcDbSymbolTableRecord
100
AcDbBlockTableRecord
  2
CDWK_PTTYP2
  0
BLOCK_RECORD
  5
4EB
100
AcDbSymbolTableRecord
100
AcDbBlockTableRecord
  2
CDWK_PTTYP3
  0
BLOCK_RECORD
  5
4EC
100
AcDbSymbolTableRecord
100
AcDbBlockTableRecord
  2
CDWK_PTTYP4
  0
BLOCK_RECORD
  5
4ED
100
AcDbSymbolTableRecord
100
AcDbBlockTableRecord
  2
CDWK_PTTYP5
  0
BLOCK_RECORD
  5
4EE
100
AcDbSymbolTableRecord
100
AcDbBlockTableRecord
  2
CDWK_PTTYP6
  0
BLOCK_RECORD
  5
4EF
100
AcDbSymbolTableRecord
100
AcDbBlockTableRecord
  2
CDWK_PTTYP7
  0
BLOCK_RECORD
  5
4F0
100
AcDbSymbolTableRecord
100
AcDbBlockTableRecord
  2
CDWK_PTTYP8
  0
BLOCK_RECORD
  5
4F1
100
AcDbSymbolTableRecord
100
AcDbBlockTableRecord
  2
CDWK_PTTYP9
  0
BLOCK_RECORD
  5
4F2
100
AcDbSymbolTableRecord
100
AcDbBlockTableRecord
  2
CDWK_PTTYP10
  0
BLOCK_RECORD
  5
4F3
100
AcDbSymbolTableRecord
100
AcDbBlockTableRecord
  2
CDWK_PTTYP11
  0
BLOCK_RECORD
  5
4F4
100
AcDbSymbolTableRecord
100
AcDbBlockTableRecord
  2
CDWK_PTTYP12
  0
BLOCK_RECORD
  5
4F5
100
AcDbSymbolTableRecord
100
AcDbBlockTableRecord
  2
CDWK_PTTYP13
  0
BLOCK_RECORD
  5
4F6
100
AcDbSymbolTableRecord
100
AcDbBlockTableRecord
  2
CDWK_PTTYP14
  0
BLOCK_RECORD
  5
4F7
100
AcDbSymbolTableRecord
100
AcDbBlockTableRecord
  2
CDWK_PTTYP15
  0
BLOCK_RECORD
  5
4F8
100
AcDbSymbolTableRecord
100
AcDbBlockTableRecord
  2
CDWK_PTTYP16
  0
BLOCK_RECORD
  5
4F9
100
AcDbSymbolTableRecord
100
AcDbBlockTableRecord
  2
CDWK_PTTYP17
  0
BLOCK_RECORD
  5
4FA
100
AcDbSymbolTableRecord
100
AcDbBlockTableRecord
  2
CDWK_PTTYP18
  0
BLOCK_RECORD
  5
4FB
100
AcDbSymbolTableRecord
100
AcDbBlockTableRecord
  2
CDWK_PTTYP19
  0
BLOCK_RECORD
  5
4FC
100
AcDbSymbolTableRecord
100
AcDbBlockTableRecord
  2
CDWK_PTTYP20
  0
BLOCK_RECORD
  5
4FD
100
AcDbSymbolTableRecord
100
AcDbBlockTableRecord
  2
CDWK_PTTYP21
  0
BLOCK_RECORD
  5
4FE
100
AcDbSymbolTableRecord
100
AcDbBlockTableRecord
  2
CDWK_PTTYP22
  0
BLOCK_RECORD
  5
4FF
100
AcDbSymbolTableRecord
100
AcDbBlockTableRecord
  2
CDWK_PTTYP23
  0
BLOCK_RECORD
  5
500
100
AcDbSymbolTableRecord
100
AcDbBlockTableRecord
  2
CDWK_PTTYP24
  0
BLOCK_RECORD
  5
501
100
AcDbSymbolTableRecord
100
AcDbBlockTableRecord
  2
CDWK_PTTYP25
  0
BLOCK_RECORD
  5
502
100
AcDbSymbolTableRecord
100
AcDbBlockTableRecord
  2
CDWK_PTTYP26
  0
BLOCK_RECORD
  5
503
100
AcDbSymbolTableRecord
100
AcDbBlockTableRecord
  2
CDWK_PTTYP27
  0
BLOCK_RECORD
  5
504
100
AcDbSymbolTableRecord
100
AcDbBlockTableRecord
  2
CDWK_PTTYP28
  0
BLOCK_RECORD
  5
505
100
AcDbSymbolTableRecord
100
AcDbBlockTableRecord
  2
CDWK_PTTYP29
  0
BLOCK_RECORD
  5
506
100
AcDbSymbolTableRecord
100
AcDbBlockTableRecord
  2
CDWK_PTTYP30
  0
BLOCK_RECORD
  5
507
100
AcDbSymbolTableRecord
100
AcDbBlockTableRecord
  2
CDWK_PTTYP31
  0
BLOCK_RECORD
  5
508
100
AcDbSymbolTableRecord
100
AcDbBlockTableRecord
  2
CDWK_PTTYP32
  0
BLOCK_RECORD
  5
509
100
AcDbSymbolTableRecord
100
AcDbBlockTableRecord
  2
CDWK_PTTYP33
  0
BLOCK_RECORD
  5
50A
100
AcDbSymbolTableRecord
100
AcDbBlockTableRecord
  2
CDWK_PTTYP34
  0
BLOCK_RECORD
  5
50B
100
AcDbSymbolTableRecord
100
AcDbBlockTableRecord
  2
CDWK_PTTYP35
  0
BLOCK_RECORD
  5
50C
100
AcDbSymbolTableRecord
100
AcDbBlockTableRecord
  2
CDWK_PTTYP36
  0
BLOCK_RECORD
  5
50D
100
AcDbSymbolTableRecord
100
AcDbBlockTableRecord
  2
CDWK_PTTYP37
  0
BLOCK_RECORD
  5
50E
100
AcDbSymbolTableRecord
100
AcDbBlockTableRecord
  2
CDWK_PTTYP38
  0
ENDTAB
  0
ENDSEC
  0
SECTION
  2
BLOCKS
  0
BLOCK
  5
50F
100
AcDbEntity
  8
0
100
AcDbBlockBegin
  2
*MODEL_SPACE
 70
     0
 10
0.0
 20
0.0
 30
0.0
  3
*MODEL_SPACE
  1

  0
ENDBLK
  5
510
100
AcDbEntity
100
AcDbBlockEnd
  0
BLOCK
  5
511
100
AcDbEntity
  8
0
100
AcDbBlockBegin
  2
*PAPER_SPACE
 70
     0
 10
0.0
 20
0.0
 30
0.0
  3
*PAPER_SPACE
  1

  0
ENDBLK
  5
512
100
AcDbEntity
100
AcDbBlockEnd
  0
BLOCK
  5
513
100
AcDbEntity
  8
0
100
AcDbBlockBegin
  2
CDWK_EXTR_0
 70
     0
 10
0.0
 20
0.0
 30
0.0
  3
CDWK_EXTR_0
  1

  4
Cadwork line-extremity
  0
LINE
  5
514
100
AcDbEntity
  8
0
 62
     0
370
    -2
100
AcDbLine
 10
0.0
 20
0.0
 30
0.0
 11
2.0
 21
0.5
 31
0.0
  0
LINE
  5
515
100
AcDbEntity
  8
0
 62
     0
370
    -2
100
AcDbLine
 10
0.0
 20
0.0
 30
0.0
 11
2.0
 21
-0.5
 31
0.0
  0
LINE
  5
516
100
AcDbEntity
  8
0
 62
     0
370
    -2
100
AcDbLine
 10
2.0
 20
0.5
 30
0.0
 11
2.0
 21
-0.5
 31
0.0
  0
ENDBLK
  5
517
100
AcDbEntity
100
AcDbBlockEnd
  0
BLOCK
  5
518
100
AcDbEntity
  8
0
100
AcDbBlockBegin
  2
CDWK_EXTR_1D
 70
     0
 10
0.0
 20
0.0
 30
0.0
  3
CDWK_EXTR_1D
  1

  4
Cadwork line-extremity
  0
LINE
  5
519
100
AcDbEntity
  8
0
 62
     0
370
    -2
100
AcDbLine
 10
0.0
 20
0.0
 30
0.0
 11
0.0
 21
1.0
 31
0.0
  0
LINE
  5
51A
100
AcDbEntity
  8
0
 62
     0
370
    -2
100
AcDbLine
 10
0.0
 20
1.0
 30
0.0
 11
0.5
 21
1.5
 31
0.0
  0
LINE
  5
51B
100
AcDbEntity
  8
0
 62
     0
370
    -2
100
AcDbLine
 10
0.5
 20
1.5
 30
0.0
 11
1.5
 21
1.5
 31
0.0
  0
ENDBLK
  5
51C
100
AcDbEntity
100
AcDbBlockEnd
  0
BLOCK
  5
51D
100
AcDbEntity
  8
0
100
AcDbBlockBegin
  2
CDWK_EXTR_1G
 70
     0
 10
0.0
 20
0.0
 30
0.0
  3
CDWK_EXTR_1G
  1

  4
Cadwork line-extremity
  0
LINE
  5
51E
100
AcDbEntity
  8
0
 62
     0
370
    -2
100
AcDbLine
 10
0.0
 20
0.0
 30
0.0
 11
0.0
 21
-1.0
 31
0.0
  0
LINE
  5
51F
100
AcDbEntity
  8
0
 62
     0
370
    -2
100
AcDbLine
 10
0.0
 20
-1.0
 30
0.0
 11
0.5
 21
-1.5
 31
0.0
  0
LINE
  5
520
100
AcDbEntity
  8
0
 62
     0
370
    -2
100
AcDbLine
 10
0.5
 20
-1.5
 30
0.0
 11
1.5
 21
-1.5
 31
0.0
  0
ENDBLK
  5
521
100
AcDbEntity
100
AcDbBlockEnd
  0
BLOCK
  5
522
100
AcDbEntity
  8
0
100
AcDbBlockBegin
  2
CDWK_EXTR_2
 70
     0
 10
0.0
 20
0.0
 30
0.0
  3
CDWK_EXTR_2
  1

  4
Cadwork line-extremity
  0
SOLID
  5
523
100
AcDbEntity
  8
0
 62
     0
100
AcDbTrace
 10
0.0
 20
0.0
 11
2.0
 21
0.5
 12
2.0
 22
-0.5
 13
2.0
 23
-0.5
  0
ENDBLK
  5
524
100
AcDbEntity
100
AcDbBlockEnd
  0
BLOCK
  5
525
100
AcDbEntity
  8
0
100
AcDbBlockBegin
  2
CDWK_EXTR_3
 70
     0
 10
0.0
 20
0.0
 30
0.0
  3
CDWK_EXTR_3
  1

  4
Cadwork line-extremity
  0
SOLID
  5
526
100
AcDbEntity
  8
0
 62
     0
100
AcDbTrace
 10
0.0
 20
0.0
 11
2.0
 21
0.5
 12
2.0
 22
-0.5
 13
2.0
 23
-0.5
  0
LINE
  5
527
100
AcDbEntity
  8
0
 62
     0
370
    -2
100
AcDbLine
 10
0.0
 20
1.0
 30
0.0
 11
0.0
 21
-1.0
 31
0.0
  0
ENDBLK
  5
528
100
AcDbEntity
100
AcDbBlockEnd
  0
BLOCK
  5
529
100
AcDbEntity
  8
0
100
AcDbBlockBegin
  2
CDWK_EXTR_4
 70
     0
 10
0.0
 20
0.0
 30
0.0
  3
CDWK_EXTR_4
  1

  4
Cadwork line-extremity
  0
HATCH
  5
52A
100
AcDbEntity
  8
0
 62
     0
370
    -2
100
AcDbHatch
 10
0.0
 20
0.0
 30
0.0
210
0.0
220
0.0
230
1.0
  2
SOLID
 70
     1
 71
     0
 91
        1
 92
        1
 93
        1
 72
     2
 10
0.0
 20
0.0
 40
0.5
 50
0.0
 51
360.0
 73
     1
 97
        0
 75
     0
 76
     1
 98
        1
 10
0.0
 20
0.0
  0
ENDBLK
  5
52B
100
AcDbEntity
100
AcDbBlockEnd
  0
BLOCK
  5
52C
100
AcDbEntity
  8
0
100
AcDbBlockBegin
  2
CDWK_PTTYP0
 70
     0
 10
0.0
 20
0.0
 30
0.0
  3
CDWK_PTTYP0
  1

  4
Cadwork point
  0
POINT
  5
52D
100
AcDbEntity
  8
0
 62
     0
100
AcDbPoint
 10
0.0
 20
0.0
 30
0.0
  0
ENDBLK
  5
52E
100
AcDbEntity
100
AcDbBlockEnd
  0
BLOCK
  5
52F
100
AcDbEntity
  8
0
100
AcDbBlockBegin
  2
CDWK_PTTYP1
 70
     0
 10
0.0
 20
0.0
 30
0.0
  3
CDWK_PTTYP1
  1

  4
Cadwork node
  0
LINE
  5
530
100
AcDbEntity
  8
0
 62
     0
370
    -2
100
AcDbLine
 10
-0.5
 20
0.5
 30
0.0
 11
0.5
 21
0.5
 31
0.0
  0
LINE
  5
531
100
AcDbEntity
  8
0
 62
     0
370
    -2
100
AcDbLine
 10
0.5
 20
0.5
 30
0.0
 11
0.5
 21
-0.5
 31
0.0
  0
LINE
  5
532
100
AcDbEntity
  8
0
 62
     0
370
    -2
100
AcDbLine
 10
0.5
 20
-0.5
 30
0.0
 11
-0.5
 21
-0.5
 31
0.0
  0
LINE
  5
533
100
AcDbEntity
  8
0
 62
     0
370
    -2
100
AcDbLine
 10
-0.5
 20
-0.5
 30
0.0
 11
-0.5
 21
0.5
 31
0.0
  0
ENDBLK
  5
534
100
AcDbEntity
100
AcDbBlockEnd
  0
BLOCK
  5
535
100
AcDbEntity
  8
0
100
AcDbBlockBegin
  2
CDWK_PTTYP2
 70
     0
 10
0.0
 20
0.0
 30
0.0
  3
CDWK_PTTYP2
  1

  4
Cadwork node
  0
LINE
  5
536
100
AcDbEntity
  8
0
 62
     0
370
    -2
100
AcDbLine
 10
0.0
 20
0.5
 30
0.0
 11
0.0
 21
-0.5
 31
0.0
  0
LINE
  5
537
100
AcDbEntity
  8
0
 62
     0
370
    -2
100
AcDbLine
 10
-0.5
 20
0.0
 30
0.0
 11
0.5
 21
0.0
 31
0.0
  0
ENDBLK
  5
538
100
AcDbEntity
100
AcDbBlockEnd
  0
BLOCK
  5
539
100
AcDbEntity
  8
0
100
AcDbBlockBegin
  2
CDWK_PTTYP3
 70
     0
 10
0.0
 20
0.0
 30
0.0
  3
CDWK_PTTYP3
  1

  4
Cadwork node
  0
CIRCLE
  5
53A
100
AcDbEntity
  8
0
 62
     0
370
    -2
100
AcDbCircle
 10
0.0
 20
0.0
 30
0.0
 40
0.5
  0
ENDBLK
  5
53B
100
AcDbEntity
100
AcDbBlockEnd
  0
BLOCK
  5
53C
100
AcDbEntity
  8
0
100
AcDbBlockBegin
  2
CDWK_PTTYP4
 70
     0
 10
0.0
 20
0.0
 30
0.0
  3
CDWK_PTTYP4
  1

  4
Cadwork node
  0
HATCH
  5
53D
100
AcDbEntity
  8
0
 62
     0
370
    -2
100
AcDbHatch
 10
0.0
 20
0.0
 30
0.0
210
0.0
220
0.0
230
1.0
  2
SOLID
 70
     1
 71
     0
 91
        1
 92
        1
 93
        1
 72
     2
 10
0.0
 20
0.0
 40
0.5
 50
0.0
 51
360.0
 73
     1
 97
        0
 75
     0
 76
     1
 98
        1
 10
0.0
 20
0.0
  0
ENDBLK
  5
53E
100
AcDbEntity
100
AcDbBlockEnd
  0
BLOCK
  5
53F
100
AcDbEntity
  8
0
100
AcDbBlockBegin
  2
CDWK_PTTYP5
 70
     0
 10
0.0
 20
0.0
 30
0.0
  3
CDWK_PTTYP5
  1

  4
Cadwork node
  0
LINE
  5
540
100
AcDbEntity
  8
0
 62
     0
370
    -2
100
AcDbLine
 10
-0.5
 20
0.5
 30
0.0
 11
0.5
 21
0.5
 31
0.0
  0
LINE
  5
541
100
AcDbEntity
  8
0
 62
     0
370
    -2
100
AcDbLine
 10
0.5
 20
0.5
 30
0.0
 11
0.5
 21
-0.5
 31
0.0
  0
LINE
  5
542
100
AcDbEntity
  8
0
 62
     0
370
    -2
100
AcDbLine
 10
0.5
 20
-0.5
 30
0.0
 11
-0.5
 21
-0.5
 31
0.0
  0
LINE
  5
543
100
AcDbEntity
  8
0
 62
     0
370
    -2
100
AcDbLine
 10
-0.5
 20
-0.5
 30
0.0
 11
-0.5
 21
0.5
 31
0.0
  0
SOLID
  5
544
100
AcDbEntity
  8
0
 62
     0
100
AcDbTrace
 10
-0.5
 20
-0.5
 11
-0.5
 21
0.0
 12
0.0
 22
-0.5
 13
0.0
 23
0.0
  0
SOLID
  5
545
100
AcDbEntity
  8
0
 62
     0
100
AcDbTrace
 10
0.0
 20
0.0
 11
0.0
 21
0.5
 12
0.5
 22
0.0
 13
0.5
 23
0.5
  0
ENDBLK
  5
546
100
AcDbEntity
100
AcDbBlockEnd
  0
BLOCK
  5
547
100
AcDbEntity
  8
0
100
AcDbBlockBegin
  2
CDWK_PTTYP6
 70
     0
 10
0.0
 20
0.0
 30
0.0
  3
CDWK_PTTYP6
  1

  4
Cadwork node
  0
LINE
  5
548
100
AcDbEntity
  8
0
 62
     0
370
    -2
100
AcDbLine
 10
-0.5
 20
0.5
 30
0.0
 11
0.5
 21
0.5
 31
0.0
  0
LINE
  5
549
100
AcDbEntity
  8
0
 62
     0
370
    -2
100
AcDbLine
 10
0.5
 20
0.5
 30
0.0
 11
0.5
 21
-0.5
 31
0.0
  0
LINE
  5
54A
100
AcDbEntity
  8
0
 62
     0
370
    -2
100
AcDbLine
 10
0.5
 20
-0.5
 30
0.0
 11
-0.5
 21
-0.5
 31
0.0
  0
LINE
  5
54B
100
AcDbEntity
  8
0
 62
     0
370
    -2
100
AcDbLine
 10
-0.5
 20
-0.5
 30
0.0
 11
-0.5
 21
0.5
 31
0.0
  0
SOLID
  5
54C
100
AcDbEntity
  8
0
 62
     0
100
AcDbTrace
 10
-0.5
 20
-0.5
 11
-0.5
 21
0.5
 12
0.5
 22
0.5
 13
0.5
 23
0.5
  0
ENDBLK
  5
54D
100
AcDbEntity
100
AcDbBlockEnd
  0
BLOCK
  5
54E
100
AcDbEntity
  8
0
100
AcDbBlockBegin
  2
CDWK_PTTYP7
 70
     0
 10
0.0
 20
0.0
 30
0.0
  3
CDWK_PTTYP7
  1

  4
Cadwork node
  0
LINE
  5
54F
100
AcDbEntity
  8
0
 62
     0
370
    -2
100
AcDbLine
 10
-0.5
 20
0.5
 30
0.0
 11
0.5
 21
0.5
 31
0.0
  0
LINE
  5
550
100
AcDbEntity
  8
0
 62
     0
370
    -2
100
AcDbLine
 10
0.5
 20
0.5
 30
0.0
 11
0.5
 21
-0.5
 31
0.0
  0
LINE
  5
551
100
AcDbEntity
  8
0
 62
     0
370
    -2
100
AcDbLine
 10
0.5
 20
-0.5
 30
0.0
 11
-0.5
 21
-0.5
 31
0.0
  0
LINE
  5
552
100
AcDbEntity
  8
0
 62
     0
370
    -2
100
AcDbLine
 10
-0.5
 20
-0.5
 30
0.0
 11
-0.5
 21
0.5
 31
0.0
  0
LINE
  5
553
100
AcDbEntity
  8
0
 62
     0
370
    -2
100
AcDbLine
 10
0.0
 20
0.5
 30
0.0
 11
0.0
 21
-0.5
 31
0.0
  0
LINE
  5
554
100
AcDbEntity
  8
0
 62
     0
370
    -2
100
AcDbLine
 10
-0.5
 20
0.0
 30
0.0
 11
0.5
 21
0.0
 31
0.0
  0
ENDBLK
  5
555
100
AcDbEntity
100
AcDbBlockEnd
  0
BLOCK
  5
556
100
AcDbEntity
  8
0
100
AcDbBlockBegin
  2
CDWK_PTTYP8
 70
     0
 10
0.0
 20
0.0
 30
0.0
  3
CDWK_PTTYP8
  1

  4
Cadwork node
  0
SOLID
  5
557
100
AcDbEntity
  8
0
 62
     0
100
AcDbTrace
 10
-0.5
 20
0.5
 11
0.5
 21
0.5
 12
-0.5
 22
-0.5
 13
0.5
 23
-0.5
  0
ENDBLK
  5
558
100
AcDbEntity
100
AcDbBlockEnd
  0
BLOCK
  5
559
100
AcDbEntity
  8
0
100
AcDbBlockBegin
  2
CDWK_PTTYP9
 70
     0
 10
0.0
 20
0.0
 30
0.0
  3
CDWK_PTTYP9
  1

  4
Cadwork node
  0
CIRCLE
  5
55A
100
AcDbEntity
  8
0
 62
     0
370
    -2
100
AcDbCircle
 10
0.0
 20
0.0
 30
0.0
 40
0.5
  0
CIRCLE
  5
55B
100
AcDbEntity
  8
0
 62
     0
370
    -2
100
AcDbCircle
 10
0.0
 20
0.0
 30
0.0
 40
0.16666667
  0
ENDBLK
  5
55C
100
AcDbEntity
100
AcDbBlockEnd
  0
BLOCK
  5
55D
100
AcDbEntity
  8
0
100
AcDbBlockBegin
  2
CDWK_PTTYP10
 70
     0
 10
0.0
 20
0.0
 30
0.0
  3
CDWK_PTTYP10
  1

  4
Cadwork node
  0
CIRCLE
  5
55E
100
AcDbEntity
  8
0
 62
     0
370
    -2
100
AcDbCircle
 10
0.0
 20
0.0
 30
0.0
 40
0.5
  0
ENDBLK
  5
55F
100
AcDbEntity
100
AcDbBlockEnd
  0
BLOCK
  5
560
100
AcDbEntity
  8
0
100
AcDbBlockBegin
  2
CDWK_PTTYP11
 70
     0
 10
0.0
 20
0.0
 30
0.0
  3
CDWK_PTTYP11
  1

  4
Cadwork node
  0
CIRCLE
  5
561
100
AcDbEntity
  8
0
 62
     0
370
    -2
100
AcDbCircle
 10
0.0
 20
0.0
 30
0.0
 40
0.5
  0
CIRCLE
  5
562
100
AcDbEntity
  8
0
 62
     0
370
    -2
100
AcDbCircle
 10
0.0
 20
0.0
 30
0.0
 40
0.25
  0
ENDBLK
  5
563
100
AcDbEntity
100
AcDbBlockEnd
  0
BLOCK
  5
564
100
AcDbEntity
  8
0
100
AcDbBlockBegin
  2
CDWK_PTTYP12
 70
     0
 10
0.0
 20
0.0
 30
0.0
  3
CDWK_PTTYP12
  1

  4
Cadwork node
  0
CIRCLE
  5
565
100
AcDbEntity
  8
0
 62
     0
370
    -2
100
AcDbCircle
 10
0.0
 20
0.0
 30
0.0
 40
0.5
  0
CIRCLE
  5
566
100
AcDbEntity
  8
0
 62
     0
370
    -2
100
AcDbCircle
 10
0.25
 20
0.0
 30
0.0
 40
0.25
  0
ENDBLK
  5
567
100
AcDbEntity
100
AcDbBlockEnd
  0
BLOCK
  5
568
100
AcDbEntity
  8
0
100
AcDbBlockBegin
  2
CDWK_PTTYP13
 70
     0
 10
0.0
 20
0.0
 30
0.0
  3
CDWK_PTTYP13
  1

  4
Cadwork node
  0
CIRCLE
  5
569
100
AcDbEntity
  8
0
 62
     0
370
    -2
100
AcDbCircle
 10
0.0
 20
0.0
 30
0.0
 40
0.5
  0
CIRCLE
  5
56A
100
AcDbEntity
  8
0
 62
     0
370
    -2
100
AcDbCircle
 10
0.25
 20
0.0
 30
0.0
 40
0.25
  0
CIRCLE
  5
56B
100
AcDbEntity
  8
0
 62
     0
370
    -2
100
AcDbCircle
 10
-0.25
 20
0.0
 30
0.0
 40
0.25
  0
ENDBLK
  5
56C
100
AcDbEntity
100
AcDbBlockEnd
  0
BLOCK
  5
56D
100
AcDbEntity
  8
0
100
AcDbBlockBegin
  2
CDWK_PTTYP14
 70
     0
 10
0.0
 20
0.0
 30
0.0
  3
CDWK_PTTYP14
  1

  4
Cadwork node
  0
POINT
  5
56E
100
AcDbEntity
  8
0
 62
     0
100
AcDbPoint
 10
0.0
 20
0.0
 30
0.0
  0
ENDBLK
  5
56F
100
AcDbEntity
100
AcDbBlockEnd
  0
BLOCK
  5
570
100
AcDbEntity
  8
0
100
AcDbBlockBegin
  2
CDWK_PTTYP15
 70
     0
 10
0.0
 20
0.0
 30
0.0
  3
CDWK_PTTYP15
  1

  4
Cadwork node
  0
POINT
  5
571
100
AcDbEntity
  8
0
 62
     0
100
AcDbPoint
 10
0.0
 20
0.0
 30
0.0
  0
ENDBLK
  5
572
100
AcDbEntity
100
AcDbBlockEnd
  0
BLOCK
  5
573
100
AcDbEntity
  8
0
100
AcDbBlockBegin
  2
CDWK_PTTYP16
 70
     0
 10
0.0
 20
0.0
 30
0.0
  3
CDWK_PTTYP16
  1

  4
Cadwork node
  0
LINE
  5
574
100
AcDbEntity
  8
0
 62
     0
370
    -2
100
AcDbLine
 10
-0.5
 20
-0.28867513
 30
0.0
 11
0.5
 21
-0.28867513
 31
0.0
  0
LINE
  5
575
100
AcDbEntity
  8
0
 62
     0
370
    -2
100
AcDbLine
 10
0.5
 20
-0.28867513
 30
0.0
 11
0.0
 21
0.57735027
 31
0.0
  0
LINE
  5
576
100
AcDbEntity
  8
0
 62
     0
370
    -2
100
AcDbLine
 10
0.0
 20
0.57735027
 30
0.0
 11
-0.5
 21
-0.28867513
 31
0.0
  0
CIRCLE
  5
577
100
AcDbEntity
  8
0
 62
     0
370
    -2
100
AcDbCircle
 10
0.0
 20
0.0
 30
0.0
 40
0.28867513
  0
ENDBLK
  5
578
100
AcDbEntity
100
AcDbBlockEnd
  0
BLOCK
  5
579
100
AcDbEntity
  8
0
100
AcDbBlockBegin
  2
CDWK_PTTYP17
 70
     0
 10
0.0
 20
0.0
 30
0.0
  3
CDWK_PTTYP17
  1

  4
Cadwork node
  0
CIRCLE
  5
57A
100
AcDbEntity
  8
0
 62
     0
370
    -2
100
AcDbCircle
 10
0.0
 20
0.0
 30
0.0
 40
0.5
  0
HATCH
  5
57B
100
AcDbEntity
  8
0
 62
     0
370
    -2
100
AcDbHatch
 10
0.0
 20
0.0
 30
0.0
210
0.0
220
0.0
230
1.0
  2
SOLID
 70
     1
 71
     0
 91
        1
 92
        1
 93
        1
 72
     2
 10
0.0
 20
0.0
 40
0.25
 50
0.0
 51
360.0
 73
     1
 97
        0
 75
     0
 76
     1
 98
        1
 10
0.0
 20
0.0
  0
ENDBLK
  5
57C
100
AcDbEntity
100
AcDbBlockEnd
  0
BLOCK
  5
57D
100
AcDbEntity
  8
0
100
AcDbBlockBegin
  2
CDWK_PTTYP18
 70
     0
 10
0.0
 20
0.0
 30
0.0
  3
CDWK_PTTYP18
  1

  4
Cadwork node
  0
CIRCLE
  5
57E
100
AcDbEntity
  8
0
 62
     0
370
    -2
100
AcDbCircle
 10
0.0
 20
0.0
 30
0.0
 40
0.5
  0
CIRCLE
  5
57F
100
AcDbEntity
  8
0
 62
     0
370
    -2
100
AcDbCircle
 10
0.0
 20
0.0
 30
0.0
 40
0.2
  0
ENDBLK
  5
580
100
AcDbEntity
100
AcDbBlockEnd
  0
BLOCK
  5
581
100
AcDbEntity
  8
0
100
AcDbBlockBegin
  2
CDWK_PTTYP19
 70
     0
 10
0.0
 20
0.0
 30
0.0
  3
CDWK_PTTYP19
  1

  4
Cadwork node
  0
CIRCLE
  5
582
100
AcDbEntity
  8
0
 62
     0
370
    -2
100
AcDbCircle
 10
0.0
 20
0.0
 30
0.0
 40
0.4
  0
CIRCLE
  5
583
100
AcDbEntity
  8
0
 62
     0
370
    -2
100
AcDbCircle
 10
0.0
 20
0.0
 30
0.0
 40
0.25
  0
LINE
  5
584
100
AcDbEntity
  8
0
 62
     0
370
    -2
100
AcDbLine
 10
-0.25
 20
0.0
 30
0.0
 11
0.25
 21
0.0
 31
0.0
  0
ENDBLK
  5
585
100
AcDbEntity
100
AcDbBlockEnd
  0
BLOCK
  5
586
100
AcDbEntity
  8
0
100
AcDbBlockBegin
  2
CDWK_PTTYP20
 70
     0
 10
0.0
 20
0.0
 30
0.0
  3
CDWK_PTTYP20
  1

  4
Cadwork node
  0
CIRCLE
  5
587
100
AcDbEntity
  8
0
 62
     0
370
    -2
100
AcDbCircle
 10
0.0
 20
0.0
 30
0.0
 40
0.5
  0
CIRCLE
  5
588
100
AcDbEntity
  8
0
 62
     0
370
    -2
100
AcDbCircle
 10
0.0
 20
0.0
 30
0.0
 40
0.3
  0
ENDBLK
  5
589
100
AcDbEntity
100
AcDbBlockEnd
  0
BLOCK
  5
58A
100
AcDbEntity
  8
0
100
AcDbBlockBegin
  2
CDWK_PTTYP21
 70
     0
 10
0.0
 20
0.0
 30
0.0
  3
CDWK_PTTYP21
  1

  4
Cadwork node
  0
CIRCLE
  5
58B
100
AcDbEntity
  8
0
 62
     0
370
    -2
100
AcDbCircle
 10
0.0
 20
0.0
 30
0.0
 40
0.5
  0
LINE
  5
58C
100
AcDbEntity
  8
0
 62
     0
370
    -2
100
AcDbLine
 10
-0.5
 20
0.0
 30
0.0
 11
0.5
 21
0.0
 31
0.0
  0
ENDBLK
  5
58D
100
AcDbEntity
100
AcDbBlockEnd
  0
BLOCK
  5
58E
100
AcDbEntity
  8
0
100
AcDbBlockBegin
  2
CDWK_PTTYP22
 70
     0
 10
0.0
 20
0.0
 30
0.0
  3
CDWK_PTTYP22
  1

  4
Cadwork node
  0
POINT
  5
58F
100
AcDbEntity
  8
0
 62
     0
100
AcDbPoint
 10
0.0
 20
0.0
 30
0.0
  0
ENDBLK
  5
590
100
AcDbEntity
100
AcDbBlockEnd
  0
BLOCK
  5
591
100
AcDbEntity
  8
0
100
AcDbBlockBegin
  2
CDWK_PTTYP23
 70
     0
 10
0.0
 20
0.0
 30
0.0
  3
CDWK_PTTYP23
  1

  4
Cadwork node
  0
POINT
  5
592
100
AcDbEntity
  8
0
 62
     0
100
AcDbPoint
 10
0.0
 20
0.0
 30
0.0
  0
ENDBLK
  5
593
100
AcDbEntity
100
AcDbBlockEnd
  0
BLOCK
  5
594
100
AcDbEntity
  8
0
100
AcDbBlockBegin
  2
CDWK_PTTYP24
 70
     0
 10
0.0
 20
0.0
 30
0.0
  3
CDWK_PTTYP24
  1

  4
Cadwork node
  0
POINT
  5
595
100
AcDbEntity
  8
0
 62
     0
100
AcDbPoint
 10
0.0
 20
0.0
 30
0.0
  0
ENDBLK
  5
596
100
AcDbEntity
100
AcDbBlockEnd
  0
BLOCK
  5
597
100
AcDbEntity
  8
0
100
AcDbBlockBegin
  2
CDWK_PTTYP25
 70
     0
 10
0.0
 20
0.0
 30
0.0
  3
CDWK_PTTYP25
  1

  4
Cadwork node
  0
LINE
  5
598
100
AcDbEntity
  8
0
 62
     0
370
    -2
100
AcDbLine
 10
-0.43290044
 20
-0.25
 30
0.0
 11
0.43290044
 21
-0.25
 31
0.0
  0
LINE
  5
599
100
AcDbEntity
  8
0
 62
     0
370
    -2
100
AcDbLine
 10
-0.43290044
 20
-0.25
 30
0.0
 11
0.0
 21
0.5
 31
0.0
  0
LINE
  5
59A
100
AcDbEntity
  8
0
 62
     0
370
    -2
100
AcDbLine
 10
0.43290044
 20
-0.25
 30
0.0
 11
0.0
 21
0.5
 31
0.0
  0
CIRCLE
  5
59B
100
AcDbEntity
  8
0
 62
     0
370
    -2
100
AcDbCircle
 10
0.0
 20
0.0
 30
0.0
 40
0.5
  0
ENDBLK
  5
59C
100
AcDbEntity
100
AcDbBlockEnd
  0
BLOCK
  5
59D
100
AcDbEntity
  8
0
100
AcDbBlockBegin
  2
CDWK_PTTYP26
 70
     0
 10
0.0
 20
0.0
 30
0.0
  3
CDWK_PTTYP26
  1

  4
Cadwork node
  0
LINE
  5
59E
100
AcDbEntity
  8
0
 62
     0
370
    -2
100
AcDbLine
 10
-0.5
 20
-0.28850001
 30
0.0
 11
0.5
 21
-0.28850001
 31
0.0
  0
LINE
  5
59F
100
AcDbEntity
  8
0
 62
     0
370
    -2
100
AcDbLine
 10
-0.5
 20
-0.28850001
 30
0.0
 11
0.0
 21
0.57736721
 31
0.0
  0
LINE
  5
5A0
100
AcDbEntity
  8
0
 62
     0
370
    -2
100
AcDbLine
 10
0.5
 20
-0.28850001
 30
0.0
 11
0.0
 21
0.57736721
 31
0.0
  0
CIRCLE
  5
5A1
100
AcDbEntity
  8
0
 62
     0
370
    -2
100
AcDbCircle
 10
0.0
 20
0.0
 30
0.0
 40
0.1312336
  0
ENDBLK
  5
5A2
100
AcDbEntity
100
AcDbBlockEnd
  0
BLOCK
  5
5A3
100
AcDbEntity
  8
0
100
AcDbBlockBegin
  2
CDWK_PTTYP27
 70
     0
 10
0.0
 20
0.0
 30
0.0
  3
CDWK_PTTYP27
  1

  4
Cadwork node
  0
LINE
  5
5A4
100
AcDbEntity
  8
0
 62
     0
370
    -2
100
AcDbLine
 10
-0.43290044
 20
-0.25
 30
0.0
 11
0.43290044
 21
-0.25
 31
0.0
  0
LINE
  5
5A5
100
AcDbEntity
  8
0
 62
     0
370
    -2
100
AcDbLine
 10
-0.43290044
 20
-0.25
 30
0.0
 11
0.0
 21
0.5
 31
0.0
  0
LINE
  5
5A6
100
AcDbEntity
  8
0
 62
     0
370
    -2
100
AcDbLine
 10
0.43290044
 20
-0.25
 30
0.0
 11
0.0
 21
0.5
 31
0.0
  0
CIRCLE
  5
5A7
100
AcDbEntity
  8
0
 62
     0
370
    -2
100
AcDbCircle
 10
0.0
 20
0.0
 30
0.0
 40
0.5
  0
CIRCLE
  5
5A8
100
AcDbEntity
  8
0
 62
     0
370
    -2
100
AcDbCircle
 10
0.0
 20
0.0
 30
0.0
 40
0.1312336
  0
ENDBLK
  5
5A9
100
AcDbEntity
100
AcDbBlockEnd
  0
BLOCK
  5
5AA
100
AcDbEntity
  8
0
100
AcDbBlockBegin
  2
CDWK_PTTYP28
 70
     0
 10
0.0
 20
0.0
 30
0.0
  3
CDWK_PTTYP28
  1

  4
Cadwork node
  0
POINT
  5
5AB
100
AcDbEntity
  8
0
 62
     0
100
AcDbPoint
 10
0.0
 20
0.0
 30
0.0
  0
ENDBLK
  5
5AC
100
AcDbEntity
100
AcDbBlockEnd
  0
BLOCK
  5
5AD
100
AcDbEntity
  8
0
100
AcDbBlockBegin
  2
CDWK_PTTYP29
 70
     0
 10
0.0
 20
0.0
 30
0.0
  3
CDWK_PTTYP29
  1

  4
Cadwork node
  0
CIRCLE
  5
5AE
100
AcDbEntity
  8
0
 62
     0
370
    -2
100
AcDbCircle
 10
0.0
 20
0.0
 30
0.0
 40
0.5
  0
CIRCLE
  5
5AF
100
AcDbEntity
  8
0
 62
     0
370
    -2
100
AcDbCircle
 10
0.0
 20
0.0
 30
0.0
 40
0.375
  0
CIRCLE
  5
5B0
100
AcDbEntity
  8
0
 62
     0
370
    -2
100
AcDbCircle
 10
0.0
 20
0.0
 30
0.0
 40
0.21875
  0
ENDBLK
  5
5B1
100
AcDbEntity
100
AcDbBlockEnd
  0
BLOCK
  5
5B2
100
AcDbEntity
  8
0
100
AcDbBlockBegin
  2
CDWK_PTTYP30
 70
     0
 10
0.0
 20
0.0
 30
0.0
  3
CDWK_PTTYP30
  1

  4
Cadwork node
  0
LINE
  5
5B3
100
AcDbEntity
  8
0
 62
     0
370
    -2
100
AcDbLine
 10
0.17680339
 20
0.17680339
 30
0.0
 11
0.5
 21
0.5
 31
0.0
  0
LINE
  5
5B4
100
AcDbEntity
  8
0
 62
     0
370
    -2
100
AcDbLine
 10
-0.17680339
 20
0.17680339
 30
0.0
 11
-0.5
 21
0.5
 31
0.0
  0
LINE
  5
5B5
100
AcDbEntity
  8
0
 62
     0
370
    -2
100
AcDbLine
 10
0.17680339
 20
-0.17680339
 30
0.0
 11
0.5
 21
-0.5
 31
0.0
  0
LINE
  5
5B6
100
AcDbEntity
  8
0
 62
     0
370
    -2
100
AcDbLine
 10
-0.17680339
 20
-0.17680339
 30
0.0
 11
-0.5
 21
-0.5
 31
0.0
  0
ENDBLK
  5
5B7
100
AcDbEntity
100
AcDbBlockEnd
  0
BLOCK
  5
5B8
100
AcDbEntity
  8
0
100
AcDbBlockBegin
  2
CDWK_PTTYP31
 70
     0
 10
0.0
 20
0.0
 30
0.0
  3
CDWK_PTTYP31
  1

  4
Cadwork node
  0
CIRCLE
  5
5B9
100
AcDbEntity
  8
0
 62
     0
370
    -2
100
AcDbCircle
 10
0.0
 20
0.0
 30
0.0
 40
0.075
  0
LINE
  5
5BA
100
AcDbEntity
  8
0
 62
     0
370
    -2
100
AcDbLine
 10
0.075
 20
0.0
 30
0.0
 11
0.5
 21
0.0
 31
0.0
  0
LINE
  5
5BB
100
AcDbEntity
  8
0
 62
     0
370
    -2
100
AcDbLine
 10
-0.075
 20
0.0
 30
0.0
 11
-0.5
 21
0.0
 31
0.0
  0
LINE
  5
5BC
100
AcDbEntity
  8
0
 62
     0
370
    -2
100
AcDbLine
 10
0.0
 20
0.075
 30
0.0
 11
0.0
 21
0.5
 31
0.0
  0
LINE
  5
5BD
100
AcDbEntity
  8
0
 62
     0
370
    -2
100
AcDbLine
 10
0.0
 20
-0.075
 30
0.0
 11
0.0
 21
-0.5
 31
0.0
  0
ENDBLK
  5
5BE
100
AcDbEntity
100
AcDbBlockEnd
  0
BLOCK
  5
5BF
100
AcDbEntity
  8
0
100
AcDbBlockBegin
  2
CDWK_PTTYP32
 70
     0
 10
0.0
 20
0.0
 30
0.0
  3
CDWK_PTTYP32
  1

  4
Cadwork node
  0
CIRCLE
  5
5C0
100
AcDbEntity
  8
0
 62
     0
370
    -2
100
AcDbCircle
 10
0.0
 20
0.0
 30
0.0
 40
0.5
  0
CIRCLE
  5
5C1
100
AcDbEntity
  8
0
 62
     0
370
    -2
100
AcDbCircle
 10
0.0
 20
0.0
 30
0.0
 40
0.16666667
  0
LINE
  5
5C2
100
AcDbEntity
  8
0
 62
     0
370
    -2
100
AcDbLine
 10
0.11786893
 20
0.11786893
 30
0.0
 11
0.35360678
 21
0.35360678
 31
0.0
  0
LINE
  5
5C3
100
AcDbEntity
  8
0
 62
     0
370
    -2
100
AcDbLine
 10
-0.11786893
 20
0.11786893
 30
0.0
 11
-0.35360678
 21
0.35360678
 31
0.0
  0
LINE
  5
5C4
100
AcDbEntity
  8
0
 62
     0
370
    -2
100
AcDbLine
 10
0.11786893
 20
-0.11786893
 30
0.0
 11
0.35360678
 21
-0.35360678
 31
0.0
  0
LINE
  5
5C5
100
AcDbEntity
  8
0
 62
     0
370
    -2
100
AcDbLine
 10
-0.11786893
 20
-0.11786893
 30
0.0
 11
-0.35360678
 21
-0.35360678
 31
0.0
  0
ENDBLK
  5
5C6
100
AcDbEntity
100
AcDbBlockEnd
  0
BLOCK
  5
5C7
100
AcDbEntity
  8
0
100
AcDbBlockBegin
  2
CDWK_PTTYP33
 70
     0
 10
0.0
 20
0.0
 30
0.0
  3
CDWK_PTTYP33
  1

  4
Cadwork node
  0
CIRCLE
  5
5C8
100
AcDbEntity
  8
0
 62
     0
370
    -2
100
AcDbCircle
 10
0.0
 20
0.0
 30
0.0
 40
0.5
  0
LINE
  5
5C9
100
AcDbEntity
  8
0
 62
     0
370
    -2
100
AcDbLine
 10
0.0
 20
0.5
 30
0.0
 11
0.0
 21
-0.5
 31
0.0
  0
LINE
  5
5CA
100
AcDbEntity
  8
0
 62
     0
370
    -2
100
AcDbLine
 10
-0.5
 20
0.0
 30
0.0
 11
0.5
 21
0.0
 31
0.0
  0
ENDBLK
  5
5CB
100
AcDbEntity
100
AcDbBlockEnd
  0
BLOCK
  5
5CC
100
AcDbEntity
  8
0
100
AcDbBlockBegin
  2
CDWK_PTTYP34
 70
     0
 10
0.0
 20
0.0
 30
0.0
  3
CDWK_PTTYP34
  1

  4
Cadwork node
  0
CIRCLE
  5
5CD
100
AcDbEntity
  8
0
 62
     0
370
    -2
100
AcDbCircle
 10
0.0
 20
0.0
 30
0.0
 40
0.5
  0
LINE
  5
5CE
100
AcDbEntity
  8
0
 62
     0
370
    -2
100
AcDbLine
 10
-0.30360678
 20
-0.40360678
 30
0.0
 11
0.40360678
 21
0.30360678
 31
0.0
  0
LINE
  5
5CF
100
AcDbEntity
  8
0
 62
     0
370
    -2
100
AcDbLine
 10
-0.40360678
 20
-0.30360678
 30
0.0
 11
0.30360678
 21
0.40360678
 31
0.0
  0
ENDBLK
  5
5D0
100
AcDbEntity
100
AcDbBlockEnd
  0
BLOCK
  5
5D1
100
AcDbEntity
  8
0
100
AcDbBlockBegin
  2
CDWK_PTTYP35
 70
     0
 10
0.0
 20
0.0
 30
0.0
  3
CDWK_PTTYP35
  1

  4
Cadwork node
  0
CIRCLE
  5
5D2
100
AcDbEntity
  8
0
 62
     0
370
    -2
100
AcDbCircle
 10
0.0
 20
0.0
 30
0.0
 40
0.21431634
  0
LINE
  5
5D3
100
AcDbEntity
  8
0
 62
     0
370
    -2
100
AcDbLine
 10
0.0
 20
0.21431634
 30
0.0
 11
0.0
 21
0.5
 31
0.0
  0
LINE
  5
5D4
100
AcDbEntity
  8
0
 62
     0
370
    -2
100
AcDbLine
 10
0.0
 20
-0.21431634
 30
0.0
 11
0.0
 21
-0.5
 31
0.0
  0
ENDBLK
  5
5D5
100
AcDbEntity
100
AcDbBlockEnd
  0
BLOCK
  5
5D6
100
AcDbEntity
  8
0
100
AcDbBlockBegin
  2
CDWK_PTTYP36
 70
     0
 10
0.0
 20
0.0
 30
0.0
  3
CDWK_PTTYP36
  1

  4
Cadwork node
  0
LINE
  5
5D7
100
AcDbEntity
  8
0
 62
     0
370
    -2
100
AcDbLine
 10
-0.5
 20
-0.16666667
 30
0.0
 11
0.5
 21
-0.16666667
 31
0.0
  0
LINE
  5
5D8
100
AcDbEntity
  8
0
 62
     0
370
    -2
100
AcDbLine
 10
0.5
 20
-0.16666667
 30
0.0
 11
0.5
 21
0.16666667
 31
0.0
  0
LINE
  5
5D9
100
AcDbEntity
  8
0
 62
     0
370
    -2
100
AcDbLine
 10
0.5
 20
0.16666667
 30
0.0
 11
-0.5
 21
0.16666667
 31
0.0
  0
LINE
  5
5DA
100
AcDbEntity
  8
0
 62
     0
370
    -2
100
AcDbLine
 10
-0.5
 20
0.16666667
 30
0.0
 11
-0.5
 21
-0.16666667
 31
0.0
  0
SOLID
  5
5DB
100
AcDbEntity
  8
0
 62
     0
100
AcDbTrace
 10
-0.5
 20
-0.16666667
 11
0.5
 21
0.16666667
 12
0.5
 22
-0.16666667
 13
0.5
 23
-0.16666667
  0
ENDBLK
  5
5DC
100
AcDbEntity
100
AcDbBlockEnd
  0
BLOCK
  5
5DD
100
AcDbEntity
  8
0
100
AcDbBlockBegin
  2
CDWK_PTTYP37
 70
     0
 10
0.0
 20
0.0
 30
0.0
  3
CDWK_PTTYP37
  1

  4
Cadwork node
  0
CIRCLE
  5
5DE
100
AcDbEntity
  8
0
 62
     0
370
    -2
100
AcDbCircle
 10
0.0
 20
0.0
 30
0.0
 40
0.5
  0
SOLID
  5
5DF
100
AcDbEntity
  8
0
 62
     0
100
AcDbTrace
 10
0.0
 20
0.0
 11
0.35350001
 21
0.35350001
 12
0.5
 22
0.0
 13
0.46200001
 23
0.19149999
  0
SOLID
  5
5E0
100
AcDbEntity
  8
0
 62
     0
100
AcDbTrace
 10
0.0
 20
0.0
 11
0.35350001
 21
-0.35350001
 12
0.5
 22
0.0
 13
0.46200001
 23
-0.19149999
  0
SOLID
  5
5E1
100
AcDbEntity
  8
0
 62
     0
100
AcDbTrace
 10
0.0
 20
0.0
 11
0.0
 21
-0.5
 12
0.35350001
 22
-0.35350001
 13
0.19149999
 23
-0.46200001
  0
SOLID
  5
5E2
100
AcDbEntity
  8
0
 62
     0
100
AcDbTrace
 10
0.0
 20
0.0
 11
0.0
 21
-0.5
 12
-0.35350001
 22
-0.35350001
 13
-0.19149999
 23
-0.46200001
  0
ENDBLK
  5
5E3
100
AcDbEntity
100
AcDbBlockEnd
  0
BLOCK
  5
5E4
100
AcDbEntity
  8
0
100
AcDbBlockBegin
  2
CDWK_PTTYP38
 70
     0
 10
0.0
 20
0.0
 30
0.0
  3
CDWK_PTTYP38
  1

  4
Cadwork node
  0
CIRCLE
  5
5E5
100
AcDbEntity
  8
0
 62
     0
370
    -2
100
AcDbCircle
 10
0.0
 20
0.0
 30
0.0
 40
0.5
  0
SOLID
  5
5E6
100
AcDbEntity
  8
0
 62
     0
100
AcDbTrace
 10
0.0
 20
0.0
 11
0.35350001
 21
0.35350001
 12
0.0
 22
0.5
 13
0.19149999
 23
0.46200001
  0
SOLID
  5
5E7
100
AcDbEntity
  8
0
 62
     0
100
AcDbTrace
 10
0.0
 20
0.0
 11
0.5
 21
0.0
 12
0.35350001
 22
0.35350001
 13
0.46200001
 23
0.19149999
  0
SOLID
  5
5E8
100
AcDbEntity
  8
0
 62
     0
100
AcDbTrace
 10
0.0
 20
0.0
 11
0.0
 21
-0.5
 12
-0.35350001
 22
-0.35350001
 13
-0.19149999
 23
-0.46200001
  0
SOLID
  5
5E9
100
AcDbEntity
  8
0
 62
     0
100
AcDbTrace
 10
0.0
 20
0.0
 11
-0.5
 21
0.0
 12
-0.35350001
 22
-0.35350001
 13
-0.46200001
 23
-0.19149999
  0
ENDBLK
  5
5EA
100
AcDbEntity
100
AcDbBlockEnd
  0
ENDSEC
  0
SECTION
  2
ENTITIES
  0
LWPOLYLINE
  5
5EB
100
AcDbEntity
  8
Ech.1_5
 62
   190
  6
CONTINUOUS
370
    -3
100
AcDbPolyline
 90
       10
 70
     1
 43
0.0
 10
38896.62391805
 20
-6292.13871591
 10
38896.5887943
 20
-6136.90559308
 10
39041.74979843
 20
-6136.91601293
 10
39041.78492422
 20
-6320.96993558
 10
39041.78495055
 20
-6527.85990422
 10
39014.95913075
 20
-6527.85990422
 10
38998.47277667
 20
-6545.83825581
 10
39012.58271669
 20
-6509.88255589
 10
38996.09721354
 20
-6527.85990422
 10
38896.62394642
 20
-6527.85990422
  0
LWPOLYLINE
  5
5EC
100
AcDbEntity
  8
Ech.1_5
 62
   190
  6
CONTINUOUS
370
    -3
100
AcDbPolyline
 90
        8
 70
     1
 43
0.0
 10
39386.95706518
 20
-6072.91601293
 10
39086.85393151
 20
-6072.91601293
 10
39086.85393151
 20
-5927.91601293
 10
39386.95706518
 20
-5927.91601293
 10
39386.95706518
 20
-5988.45607297
 10
39404.93441358
 20
-6004.94157617
 10
39368.97871357
 20
-5990.83163659
 10
39386.95706518
 20
-6007.31799047
  0
LWPOLYLINE
  5
5ED
100
AcDbEntity
  8
Ech.1_5
 62
   190
  6
CONTINUOUS
370
    -3
100
AcDbPolyline
 90
        4
 70
     1
 43
0.0
 10
39086.85393151
 20
-5927.91601293
 10
39086.85393151
 20
-6027.98499315
 10
38941.85129469
 20
-6027.98499315
 10
38941.85129469
 20
-5927.91601293
  0
LWPOLYLINE
  5
5EE
100
AcDbEntity
  8
Ech.1_5
 62
   190
  6
CONTINUOUS
370
    -3
100
AcDbPolyline
 90
       16
 70
     0
 43
0.0
 10
39086.85393151
 20
-5944.59417646
 42
1.14028181
 10
39054.06590177
 20
-5948.91081254
 10
39069.60747078
 20
-6006.99019353
 42
-1.30322619
 10
39037.38773828
 20
-6006.99019353
 10
39052.92930728
 20
-5948.91081254
 42
1.30322619
 10
39020.70957478
 20
-5948.91081254
 10
39036.25114379
 20
-6006.99019353
 42
-1.30322619
 10
39004.03141129
 20
-6006.99019353
 10
39019.57298029
 20
-5948.91081254
 42
1.30322619
 10
38987.35324779
 20
-5948.91081254
 10
39002.8948168
 20
-6006.99019353
 42
-1.30322619
 10
38970.6750843
 20
-6006.99019353
 10
38986.2166533
 20
-5948.91081254
 42
1.30322619
 10
38953.9969208
 20
-5948.91081254
 10
38969.53848981
 20
-6006.99019353
 42
-0.76005852
 10
38941.85393151
 20
-6023.31464593
  0
LINE
  5
5EF
100
AcDbEntity
  8
Ech.1_5
 62
     7
  6
CONTINUOUS
100
AcDbLine
 10
39386.95706518
 20
-5927.91601293
 30
0.0
 11
39279.88955887
 21
-5927.91601293
 31
0.0
  0
LWPOLYLINE
  5
5F0
100
AcDbEntity
  8
Ech.1_5
 62
   190
  6
CONTINUOUS
370
    -3
100
AcDbPolyline
 90
        4
 70
     0
 43
0.0
 10
39086.85393151
 20
-6027.91601293
 10
38941.85393151
 20
-6072.91601293
 10
38941.85393151
 20
-6027.91601293
 10
39086.85393151
 20
-6072.91601293
  0
LWPOLYLINE
  5
5F1
100
AcDbEntity
  8
Ech.1_5
 62
   190
  6
CONTINUOUS
370
    -3
100
AcDbPolyline
 90
        4
 70
     0
 43
0.0
 10
38941.78495055
 20
-6072.91601293
 10
38896.78495055
 20
-5927.84703176
 10
38941.78495055
 20
-5927.84703176
 10
38896.78495055
 20
-6072.91601293
  0
LINE
  5
5F2
100
AcDbEntity
  8
Ech.1_5
 62
     7
  6
CONTINUOUS
370
     9
100
AcDbLine
 10
38986.70808559
 20
-6316.07964151
 30
0.0
 11
38986.70808664
 21
-6315.15113847
 31
0.0
  0
LWPOLYLINE
  5
5F3
102
{ACAD_REACTORS
330
5F4
102
}
100
AcDbEntity
  8
Ech.1_5
 62
     7
  6
CONTINUOUS
370
     5
100
AcDbPolyline
 90
        4
 70
     1
 43
0.0
 10
39187.16196063
 20
-6565.20323965
 10
39212.98649171
 20
-6565.20323965
 10
39212.98649171
 20
-6555.77057955
 10
39187.16196063
 20
-6555.77057955
  0
HATCH
  5
5F4
100
AcDbEntity
  8
Ech.1_5
 62
     2
  6
CONTINUOUS
100
AcDbHatch
 10
0.0
 20
0.0
 30
0.0
210
0.0
220
0.0
230
1.0
  2
SOLID
 70
     1
 71
     1
 91
        1
 92
        7
 72
     0
 73
     1
 93
        4
 10
39187.16196063
 20
-6565.20323965
 10
39212.98649171
 20
-6565.20323965
 10
39212.98649171
 20
-6555.77057955
 10
39187.16196063
 20
-6555.77057955
 97
        1
330
5F3
 75
     0
 76
     2
 47
0.775229
 98
        1
 10
0.0
 20
0.0
  0
HATCH
  5
5F5
100
AcDbEntity
  8
Ech.1_5
 62
     7
100
AcDbHatch
 10
0.0
 20
0.0
 30
0.0
210
0.0
220
0.0
230
1.0
  2
ANSI37
 70
     0
 71
     0
 91
        1
 92
        7
 72
     0
 73
     1
 93
        4
 10
39187.16196063
 20
-6565.20323965
 10
39212.98649171
 20
-6565.20323965
 10
39212.98649171
 20
-6555.77057955
 10
39187.16196063
 20
-6555.77057955
 97
        0
 75
     0
 76
     2
 52
0.0
 41
1.87498831
 77
     0
 78
     2
 53
45.0
 43
0.0
 44
0.0
 45
4.20946876
 46
-4.20946876
 79
     0
 53
-45.0
 43
0.0
 44
0.0
 45
4.20946876
 46
4.20946876
 79
     0
 47
0.775229
 98
        1
 10
0.0
 20
0.0
  0
LWPOLYLINE
  5
5F6
100
AcDbEntity
  8
Ech.1_5
 62
   190
  6
CONTINUOUS
370
    -3
100
AcDbPolyline
 90
        4
 70
     0
 43
0.0
 10
39131.85393151
 20
-6072.91601293
 10
39086.85393151
 20
-5927.84703176
 10
39131.85393151
 20
-5927.84703176
 10
39086.85393151
 20
-6072.91601293
  0
LWPOLYLINE
  5
5F7
100
AcDbEntity
  8
Ech.1_5
 62
     5
  6
CONTINUOUS
370
    -3
100
AcDbPolyline
 90
        5
 70
     0
 43
0.0
 10
39041.78495055
 20
-6136.91601293
 10
38896.78495055
 20
-6136.91601293
 10
38896.78495055
 20
-6181.91601293
 10
39041.78495055
 20
-6181.91601293
 10
39041.78495055
 20
-6136.91601293
  0
LWPOLYLINE
  5
5F8
100
AcDbEntity
  8
Ech.1_5
 62
   190
  6
CONTINUOUS
370
    -3
100
AcDbPolyline
 90
        4
 70
     0
 43
0.0
 10
38896.78495055
 20
-6181.91601293
 10
39041.78495055
 20
-6136.91601293
 10
39041.78495055
 20
-6181.91601293
 10
38896.78495055
 20
-6136.91601293
  0
LWPOLYLINE
  5
5F9
100
AcDbEntity
  8
Ech.1_5
 62
   190
  6
CONTINUOUS
370
    35
100
AcDbPolyline
 90
        4
 70
     0
 43
0.0
 10
38976.51870277
 20
-6136.74696027
 10
39041.74979843
 20
-6091.91601293
 10
39041.74979843
 20
-6136.91601293
 10
38975.91993785
 20
-6091.91601293
  0
LWPOLYLINE
  5
5FA
100
AcDbEntity
  8
Ech.1_5
 62
     5
  6
CONTINUOUS
370
    -3
100
AcDbPolyline
 90
       12
 70
     0
 43
0.0
 10
38975.91993785
 20
-6136.91601293
 10
38981.57136632
 20
-6136.91601293
 10
38981.57140428
 20
-6136.91496293
 10
39007.39593537
 20
-6136.91496293
 10
39007.39589741
 20
-6136.91601293
 10
39041.74979843
 20
-6136.91601293
 10
39041.74979843
 20
-6091.91601293
 10
39023.71134301
 20
-6091.91601293
 10
39023.71134301
 20
-6091.91601293
 10
38997.71134301
 20
-6091.91601293
 10
38997.71134301
 20
-6091.91601293
 10
38975.91993785
 20
-6091.91601293
  0
LINE
  5
5FB
100
AcDbEntity
  8
Ech.1_5
 62
   150
  6
CONTINUOUS
370
    50
100
AcDbLine
 10
38975.91993785
 20
-6091.91601293
 30
2500.0
 11
38975.91993785
 21
-6136.91601293
 31
2500.0
  0
LWPOLYLINE
  5
5FC
100
AcDbEntity
  8
Ech.1_5
 62
   190
  6
CONTINUOUS
370
    35
100
AcDbPolyline
 90
        4
 70
     0
 43
0.0
 10
38897.38371546
 20
-6126.74696027
 10
38969.28495055
 20
-6081.91601293
 10
38969.28495055
 20
-6126.91601293
 10
38896.78495055
 20
-6081.91601293
  0
LWPOLYLINE
  5
5FD
100
AcDbEntity
  8
Ech.1_5
 62
     5
  6
CONTINUOUS
370
    -3
100
AcDbPolyline
 90
       12
 70
     0
 43
0.0
 10
38896.78495055
 20
-6126.91601293
 10
38902.43637902
 20
-6126.91601293
 10
38902.43641698
 20
-6126.91496293
 10
38928.26094806
 20
-6126.91496293
 10
38928.2609101
 20
-6126.91601293
 10
38969.28495055
 20
-6126.91601293
 10
38969.28495055
 20
-6081.91601293
 10
38944.57635571
 20
-6081.91601293
 10
38944.57635571
 20
-6081.91601293
 10
38918.57635571
 20
-6081.91601293
 10
38918.57635571
 20
-6081.91601293
 10
38896.78495055
 20
-6081.91601293
  0
LINE
  5
5FE
100
AcDbEntity
  8
Ech.1_5
 62
   150
  6
CONTINUOUS
370
    50
100
AcDbLine
 10
38896.78495055
 20
-6081.91601293
 30
2500.0
 11
38896.78495055
 21
-6126.91601293
 31
2500.0
  0
LINE
  5
5FF
100
AcDbEntity
  8
Ech.1_5
 62
     1
  6
CADWORK_22
 48
-5.0
370
    35
100
AcDbLine
 10
38896.65712044
 20
-6135.99554265
 30
0.0
 11
38969.15712044
 21
-6136.00375143
 31
0.0
  0
LINE
  5
600
100
AcDbEntity
  8
Ech.1_5
 62
     1
  6
CADWORK_22
 48
-5.0
370
    35
100
AcDbLine
 10
38896.78495055
 20
-6126.91601293
 30
0.0
 11
38969.28495055
 21
-6126.92422171
 31
0.0
  0
LWPOLYLINE
  5
601
102
{ACAD_REACTORS
330
602
102
}
100
AcDbEntity
  8
Ech.1_5
 62
     7
  6
CONTINUOUS
370
     5
100
AcDbPolyline
 90
        4
 70
     1
 43
0.0
 10
38943.9272185
 20
-6127.25037082
 10
38918.10268742
 20
-6127.25037082
 10
38918.10268742
 20
-6136.68303092
 10
38943.9272185
 20
-6136.68303092
  0
HATCH
  5
602
100
AcDbEntity
  8
Ech.1_5
 62
     2
  6
CONTINUOUS
100
AcDbHatch
 10
0.0
 20
0.0
 30
0.0
210
0.0
220
0.0
230
1.0
  2
SOLID
 70
     1
 71
     1
 91
        1
 92
        7
 72
     0
 73
     1
 93
        4
 10
38943.9272185
 20
-6127.25037082
 10
38918.10268742
 20
-6127.25037082
 10
38918.10268742
 20
-6136.68303092
 10
38943.9272185
 20
-6136.68303092
 97
        1
330
601
 75
     0
 76
     2
 47
0.775229
 98
        1
 10
0.0
 20
0.0
  0
LWPOLYLINE
  5
603
100
AcDbEntity
  8
Ech.1_5
 62
     9
  6
CONTINUOUS
370
    -3
100
AcDbPolyline
 90
        5
 70
     0
 43
0.0
 10
39075.71860745
 20
-6527.86078351
 10
39095.71860745
 20
-6527.86078351
 10
39095.71860745
 20
-6110.91865079
 10
39075.71860745
 20
-6110.91865079
 10
39075.71860745
 20
-6527.86078351
  0
LWPOLYLINE
  5
604
100
AcDbEntity
  8
Ech.1_5
 62
     9
  6
CONTINUOUS
370
    -3
100
AcDbPolyline
 90
        5
 70
     0
 43
0.0
 10
39386.95970304
 20
-6126.91865079
 10
39386.95970304
 20
-6106.91865079
 10
39099.71860745
 20
-6106.91865079
 10
39099.71860745
 20
-6126.91865079
 10
39386.95970304
 20
-6126.91865079
  0
LWPOLYLINE
  5
605
100
AcDbEntity
  8
Ech.1_5
 62
     9
  6
CONTINUOUS
370
    40
100
AcDbPolyline
 90
        5
 70
     0
 43
0.0
 10
39075.71860745
 20
-6156.9212877
 10
39050.71596958
 20
-6156.9212877
 10
39050.71596958
 20
-6081.91601293
 10
39075.71860745
 20
-6081.91601293
 10
39075.71860745
 20
-6156.9212877
  0
LWPOLYLINE
  5
606
100
AcDbEntity
  8
Ech.1_5
 62
     9
  6
CONTINUOUS
370
    -3
100
AcDbPolyline
 90
        4
 70
     0
 43
0.0
 10
39050.71596958
 20
-6081.91601293
 10
39075.71860745
 20
-6156.9212877
 10
39050.71596958
 20
-6156.9212877
 10
39075.71860745
 20
-6081.91601293
  0
LWPOLYLINE
  5
607
100
AcDbEntity
  8
Ech.1_5
 62
     9
  6
CONTINUOUS
370
    40
100
AcDbPolyline
 90
        5
 70
     0
 43
0.0
 10
39075.71860745
 20
-6106.91865079
 10
39075.71860745
 20
-6081.91601293
 10
39150.72388222
 20
-6081.91601293
 10
39150.72388222
 20
-6106.91865079
 10
39075.71860745
 20
-6106.91865079
  0
LWPOLYLINE
  5
608
100
AcDbEntity
  8
Ech.1_5
 62
     9
  6
CONTINUOUS
370
    -3
100
AcDbPolyline
 90
        4
 70
     0
 43
0.0
 10
39150.72388222
 20
-6081.91601293
 10
39075.71860745
 20
-6106.91865079
 10
39075.71860745
 20
-6081.91601293
 10
39150.72388222
 20
-6106.91865079
  0
LWPOLYLINE
  5
609
100
AcDbEntity
  8
Ech.1_5
 62
     5
  6
CONTINUOUS
370
    -3
100
AcDbPolyline
 90
        5
 70
     0
 43
0.0
 10
38941.85393151
 20
-6072.91601293
 10
39086.85393151
 20
-6072.91601293
 10
39086.85393151
 20
-6027.91601293
 10
38941.85393151
 20
-6027.91601293
 10
38941.85393151
 20
-6072.91601293
  0
LWPOLYLINE
  5
60A
100
AcDbEntity
  8
Ech.1_5
 62
     5
  6
CONTINUOUS
370
    -3
100
AcDbPolyline
 90
        5
 70
     0
 43
0.0
 10
38896.78495055
 20
-5927.84703176
 10
38896.78495055
 20
-6072.91601293
 10
38941.78495055
 20
-6072.91601293
 10
38941.78495055
 20
-5927.84703176
 10
38896.78495055
 20
-5927.84703176
  0
LWPOLYLINE
  5
60B
100
AcDbEntity
  8
Ech.1_5
 62
     5
  6
CONTINUOUS
370
    -3
100
AcDbPolyline
 90
        5
 70
     0
 43
0.0
 10
39086.85393151
 20
-5927.84703176
 10
39086.85393151
 20
-6072.91601293
 10
39131.85393151
 20
-6072.91601293
 10
39131.85393151
 20
-5927.84703176
 10
39086.85393151
 20
-5927.84703176
  0
LINE
  5
60C
100
AcDbEntity
  8
Ech.1_5
 62
     1
  6
CADWORK_22
 48
-5.0
370
    35
100
AcDbLine
 10
39386.95706518
 20
-5927.91601293
 30
0.0
 11
38898.78495055
 21
-5927.84725821
 31
0.0
  0
LWPOLYLINE
  5
60D
100
AcDbEntity
  8
Ech.1_5
 62
     1
  6
CADWORK_22
 48
-5.0
370
    35
100
AcDbPolyline
 90
        3
 70
     0
 43
0.0
 10
38898.78495055
 20
-5927.84725821
 10
38896.78495055
 20
-5927.84703176
 10
38896.78495055
 20
-6126.91601293
  0
LINE
  5
60E
100
AcDbEntity
  8
Ech.1_5
 62
   150
  6
CADWORK_22
370
    35
100
AcDbLine
 10
39386.95970304
 20
-6081.91689222
 30
2500.0
 11
38898.78758841
 21
-6081.91689222
 31
2500.0
  0
LWPOLYLINE
  5
60F
100
AcDbEntity
  8
Ech.1_5
 62
   190
  6
CONTINUOUS
370
    -3
100
AcDbPolyline
 90
        5
 70
     0
 43
0.0
 10
38511.72251603
 20
-6876.75613438
 10
39496.72251603
 20
-6876.75613438
 10
39496.72251603
 20
-5521.75613438
 10
38511.72251603
 20
-5521.75613438
 10
38511.72251603
 20
-6876.75613438
  0
LINE
  5
610
100
AcDbEntity
  8
Ech.1_5
 62
     1
  6
CADWORK_22
 48
-5.0
370
    35
100
AcDbLine
 10
38896.62394642
 20
-6527.85990422
 30
0.0
 11
38896.5887943
 21
-6136.90559308
 31
0.0
  0
LWPOLYLINE
  5
611
100
AcDbEntity
  8
Ech.1_5
 62
   190
  6
CONTINUOUS
370
    -3
100
AcDbPolyline
 90
       28
 70
     0
 43
0.0
 10
39017.59144986
 20
-6527.85990422
 42
1.14028181
 10
39011.32969702
 20
-6480.29728017
 10
38927.07919996
 20
-6502.84202621
 42
-1.30322619
 10
38927.07919996
 20
-6456.10377948
 10
39011.32969702
 20
-6478.64852552
 42
1.30322619
 10
39011.32969702
 20
-6431.91027879
 10
38927.07919996
 20
-6454.45502484
 42
-1.30322619
 10
38927.07919996
 20
-6407.71677811
 10
39011.32969702
 20
-6430.26152415
 42
1.30322619
 10
39011.32969702
 20
-6383.52327742
 10
38927.07919996
 20
-6406.06802346
 42
-1.30322619
 10
38927.07919996
 20
-6359.32977673
 10
39011.32969702
 20
-6381.87452277
 42
1.30322619
 10
39011.32969702
 20
-6335.13627604
 10
38927.07919996
 20
-6357.68102208
 42
-1.30322619
 10
38927.07919996
 20
-6310.94277536
 10
39011.32969702
 20
-6333.4875214
 42
1.30322619
 10
39011.32969702
 20
-6286.74927467
 10
38927.07919996
 20
-6309.29402071
 42
-1.30322619
 10
38927.07919996
 20
-6262.55577398
 10
39011.32969702
 20
-6285.10052002
 42
1.30322619
 10
39011.32969702
 20
-6238.36227329
 10
38927.07919996
 20
-6260.90701933
 42
-1.30322619
 10
38927.07919996
 20
-6214.16877261
 10
39011.32969702
 20
-6236.71351865
 42
1.30322619
 10
39011.32969702
 20
-6189.97527192
 10
38927.07919996
 20
-6212.52001796
 42
-0.59139911
 10
38897.73104499
 20
-6181.91601293
  0
LWPOLYLINE
  5
612
100
AcDbEntity
  8
Ech.1_5
 62
   190
  6
CONTINUOUS
370
    -3
100
AcDbPolyline
 90
       20
 70
     0
 43
0.0
 10
39386.95052728
 20
-5952.09417469
 42
1.14028181
 10
39339.41636628
 20
-5958.3391045
 10
39361.92405141
 20
-6042.54227823
 42
-1.30322619
 10
39315.21543721
 20
-6042.52964799
 10
39337.76865696
 20
-5958.33865895
 42
1.30322619
 10
39291.06004276
 20
-5958.32602871
 10
39313.56772789
 20
-6042.52920244
 42
-1.30322619
 10
39266.85911369
 20
-6042.51657219
 10
39289.41233344
 20
-5958.32558316
 42
1.30322619
 10
39242.70371924
 20
-5958.31295292
 10
39265.21140437
 20
-6042.51612665
 42
-1.30322619
 10
39218.50279017
 20
-6042.5034964
 10
39241.05600992
 20
-5958.31250737
 42
1.30322619
 10
39194.34739572
 20
-5958.29987712
 10
39216.85508085
 20
-6042.50305085
 42
-1.30322619
 10
39170.14646664
 20
-6042.49042061
 10
39192.6996864
 20
-5958.29943157
 42
1.30322619
 10
39145.9910722
 20
-5958.28680133
 10
39168.49875733
 20
-6042.48997506
 42
-0.69007167
 10
39131.81578601
 20
-6068.91507318
  0
LWPOLYLINE
  5
613
100
AcDbEntity
  8
Ech.1_5
 62
   254
  6
CONTINUOUS
370
    -3
100
AcDbPolyline
 90
        5
 70
     1
 43
0.0
 10
38866.78495055
 20
-5848.89839094
 10
38866.78495055
 20
-5897.09842412
 10
39386.95706518
 20
-5897.09842412
 10
39386.95706518
 20
-5848.89839094
 10
39319.6701862
 20
-5848.89839094
  0
LWPOLYLINE
  5
614
100
AcDbEntity
  8
Ech.1_5
 62
   254
  6
CONTINUOUS
370
    -3
100
AcDbPolyline
 90
        5
 70
     1
 43
0.0
 10
38818.58491703
 20
-5897.84832303
 10
38818.58491703
 20
-6239.25874059
 10
38818.58491703
 20
-6527.85990422
 10
38866.78495055
 20
-6527.85990422
 10
38866.78495055
 20
-5897.84703176
  0
LWPOLYLINE
  5
615
102
{ACAD_REACTORS
330
616
102
}
100
AcDbEntity
  8
Ech.1_5
 62
     9
  6
CONTINUOUS
370
    -3
100
AcDbPolyline
 90
        4
 70
     1
 43
0.0
 10
38866.78495055
 20
-5897.84703176
 10
38866.78495055
 20
-5697.84703176
 10
38666.78495055
 20
-5697.84703176
 10
38666.78495055
 20
-5897.84703176
  0
HATCH
  5
616
100
AcDbEntity
  8
Ech.1_5
 62
     9
  6
CONTINUOUS
100
AcDbHatch
 10
0.0
 20
0.0
 30
0.0
210
0.0
220
0.0
230
1.0
  2
AR-CONC
 70
     0
 71
     1
 91
        1
 92
        7
 72
     0
 73
     1
 93
        4
 10
38866.78495055
 20
-5897.84703176
 10
38866.78495055
 20
-5697.84703176
 10
38666.78495055
 20
-5697.84703176
 10
38666.78495055
 20
-5897.84703176
 97
        1
330
615
 75
     0
 76
     2
 52
0.0
 41
0.11811097
 77
     0
 78
    13
 53
50.0
 43
0.0
 44
0.0
 45
-18.84283637
 46
1.64853443
 79
     2
 49
1.97029307
 49
-21.67322338
 53
355.0
 43
0.0
 44
0.0
 45
-3.64507756
 46
19.76051824
 79
     2
 49
1.57623377
 49
-17.3385787
 53
100.45140076
 43
1.57023568
 44
-0.13737749
 45
-15.19777228
 46
-18.11197244
 79
     2
 49
1.67449124
 49
-18.41940522
 53
46.18420029
 43
0.0
 44
5.25411576
 45
-28.03703353
 46
4.34827878
 79
     2
 49
2.95543872
 49
-32.50983238
 53
96.63559723
 43
2.33641885
 44
4.89175692
 45
-24.55412615
 46
-25.59063404
 79
     2
 49
2.51173697
 49
-27.62910426
 53
351.1842041
 43
0.0
 44
5.25411576
 45
24.55410288
 46
25.59065715
 79
     2
 49
2.36435249
 49
-26.00786805
 53
21.0
 43
2.62705699
 44
3.94058615
 45
-15.68109068
 46
10.57702905
 79
     2
 49
1.97029307
 49
-21.67322338
 53
326.0
 43
2.62705699
 44
3.94058615
 45
6.39203268
 46
19.05010734
 79
     2
 49
1.57623377
 49
-17.3385787
 53
71.45140076
 43
3.93381357
 44
3.05916555
 45
-22.07312962
 46
-8.47306182
 79
     2
 49
1.67449124
 49
-18.41940522
 53
37.5
 43
0.0
 44
0.0
 45
0.31944534
 46
8.74531245
 79
     6
 49
0.01875
 49
-17.12841332
 49
0.01875
 49
-17.60128498
 49
0.01875
 49
-17.40425348
 53
7.5
 43
0.0
 44
0.0
 45
6.91098818
 46
10.3614222
 79
     6
 49
0.01875
 49
-10.03535807
 49
0.01875
 49
-16.7343539
 49
0.01875
 49
-6.6333206
 53
-32.5
 43
-5.85833833
 44
0.0
 45
14.02382061
 46
-0.59253003
 79
     6
 49
0.01875
 49
-6.56764314
 49
0.01875
 49
-20.49104869
 49
0.01875
 49
-27.19004452
 53
-42.5
 43
-8.48539531
 44
0.0
 45
15.32063571
 46
2.62981542
 79
     6
 49
0.01875
 49
-8.53793621
 49
0.01875
 49
-13.60815793
 49
0.01875
 49
-19.30887222
 47
0.775229
 98
        1
 10
0.0
 20
0.0
  0
LWPOLYLINE
  5
617
102
{ACAD_REACTORS
330
618
102
}
100
AcDbEntity
  8
Ech.1_5
 62
     9
  6
CONTINUOUS
370
    -3
100
AcDbPolyline
 90
       12
 70
     1
 43
0.0
 10
38860.78495055
 20
-5927.84703176
 10
38866.78083926
 20
-5927.84703176
 10
38866.78495055
 20
-5897.84703176
 10
38818.78495055
 20
-5897.84703176
 10
38818.78495055
 20
-5927.84703176
 10
38824.78495055
 20
-5927.84703176
 10
38824.78495055
 20
-5925.84703176
 10
38820.78495055
 20
-5925.84703176
 10
38820.78495055
 20
-5899.84703176
 10
38864.78495055
 20
-5899.84703176
 10
38864.78495055
 20
-5925.84703176
 10
38860.78495055
 20
-5925.84703176
  0
HATCH
  5
618
100
AcDbEntity
  8
Ech.1_5
 62
     9
  6
CONTINUOUS
100
AcDbHatch
 10
0.0
 20
0.0
 30
0.0
210
0.0
220
0.0
230
1.0
  2
SOLID
 70
     1
 71
     1
 91
        1
 92
        7
 72
     0
 73
     1
 93
       12
 10
38860.78495055
 20
-5927.84703176
 10
38866.78083926
 20
-5927.84703176
 10
38866.78495055
 20
-5897.84703176
 10
38818.78495055
 20
-5897.84703176
 10
38818.78495055
 20
-5927.84703176
 10
38824.78495055
 20
-5927.84703176
 10
38824.78495055
 20
-5925.84703176
 10
38820.78495055
 20
-5925.84703176
 10
38820.78495055
 20
-5899.84703176
 10
38864.78495055
 20
-5899.84703176
 10
38864.78495055
 20
-5925.84703176
 10
38860.78495055
 20
-5925.84703176
 97
        1
330
617
 75
     0
 76
     2
 47
0.775229
 98
        1
 10
0.0
 20
0.0
  0
LWPOLYLINE
  5
619
102
{ACAD_REACTORS
330
61A
102
}
100
AcDbEntity
  8
Ech.1_5
 62
     9
  6
CONTINUOUS
370
    -3
100
AcDbPolyline
 90
        4
 70
     1
 43
0.0
 10
38805.58491703
 20
-6527.85990422
 10
38818.58491703
 20
-6527.85990422
 10
38818.58491703
 20
-5897.84703176
 10
38805.58491703
 20
-5897.84703176
  0
HATCH
  5
61A
100
AcDbEntity
  8
Ech.1_5
 62
     9
  6
CONTINUOUS
100
AcDbHatch
 10
0.0
 20
0.0
 30
0.0
210
0.0
220
0.0
230
1.0
  2
DOTS2
 70
     0
 71
     1
 91
        1
 92
        7
 72
     0
 73
     1
 93
        4
 10
38805.58491703
 20
-6527.85990422
 10
38818.58491703
 20
-6527.85990422
 10
38818.58491703
 20
-5897.84703176
 10
38805.58491703
 20
-5897.84703176
 97
        1
330
619
 75
     0
 76
     2
 52
0.0
 41
4.72440952
 77
     0
 78
     1
 53
0.0
 43
0.0
 44
0.0
 45
3.75
 46
3.535
 79
     2
 49
0.0
 49
-3.535
 47
0.775229
 98
        1
 10
0.0
 20
0.0
  0
LWPOLYLINE
  5
61B
102
{ACAD_REACTORS
330
61C
102
}
100
AcDbEntity
  8
Ech.1_5
 62
     9
  6
CONTINUOUS
370
    -3
100
AcDbPolyline
 90
       12
 70
     1
 43
0.0
 10
38896.7849508
 20
-5891.84703176
 10
38896.7849508
 20
-5897.84292047
 10
38866.78495055
 20
-5897.84703176
 10
38866.78495055
 20
-5849.84703176
 10
38896.7849508
 20
-5849.84703176
 10
38896.7849508
 20
-5855.84703176
 10
38894.7849508
 20
-5855.84703176
 10
38894.7849508
 20
-5851.84703176
 10
38868.7849508
 20
-5851.84703176
 10
38868.7849508
 20
-5895.84703176
 10
38894.7849508
 20
-5895.84703176
 10
38894.7849508
 20
-5891.84703176
  0
HATCH
  5
61C
100
AcDbEntity
  8
Ech.1_5
 62
     9
  6
CONTINUOUS
100
AcDbHatch
 10
0.0
 20
0.0
 30
0.0
210
0.0
220
0.0
230
1.0
  2
SOLID
 70
     1
 71
     1
 91
        1
 92
        7
 72
     0
 73
     1
 93
       12
 10
38896.7849508
 20
-5891.84703176
 10
38896.7849508
 20
-5897.84292047
 10
38866.78495055
 20
-5897.84703176
 10
38866.78495055
 20
-5849.84703176
 10
38896.7849508
 20
-5849.84703176
 10
38896.7849508
 20
-5855.84703176
 10
38894.7849508
 20
-5855.84703176
 10
38894.7849508
 20
-5851.84703176
 10
38868.7849508
 20
-5851.84703176
 10
38868.7849508
 20
-5895.84703176
 10
38894.7849508
 20
-5895.84703176
 10
38894.7849508
 20
-5891.84703176
 97
        1
330
61B
 75
     0
 76
     2
 47
0.775229
 98
        1
 10
0.0
 20
0.0
  0
LWPOLYLINE
  5
61D
102
{ACAD_REACTORS
330
61E
102
}
100
AcDbEntity
  8
Ech.1_5
 62
     9
  6
CONTINUOUS
370
    -3
100
AcDbPolyline
 90
       12
 70
     1
 43
0.0
 10
38860.78495055
 20
-6373.15674608
 10
38866.78083926
 20
-6373.15674608
 10
38866.78495055
 20
-6343.15674608
 10
38818.78495055
 20
-6343.15674608
 10
38818.78495055
 20
-6373.15674608
 10
38824.78495055
 20
-6373.15674608
 10
38824.78495055
 20
-6371.15674608
 10
38820.78495055
 20
-6371.15674608
 10
38820.78495055
 20
-6345.15674608
 10
38864.78495055
 20
-6345.15674608
 10
38864.78495055
 20
-6371.15674608
 10
38860.78495055
 20
-6371.15674608
  0
HATCH
  5
61E
100
AcDbEntity
  8
Ech.1_5
 62
     9
  6
CONTINUOUS
100
AcDbHatch
 10
0.0
 20
0.0
 30
0.0
210
0.0
220
0.0
230
1.0
  2
SOLID
 70
     1
 71
     1
 91
        1
 92
        7
 72
     0
 73
     1
 93
       12
 10
38860.78495055
 20
-6373.15674608
 10
38866.78083926
 20
-6373.15674608
 10
38866.78495055
 20
-6343.15674608
 10
38818.78495055
 20
-6343.15674608
 10
38818.78495055
 20
-6373.15674608
 10
38824.78495055
 20
-6373.15674608
 10
38824.78495055
 20
-6371.15674608
 10
38820.78495055
 20
-6371.15674608
 10
38820.78495055
 20
-6345.15674608
 10
38864.78495055
 20
-6345.15674608
 10
38864.78495055
 20
-6371.15674608
 10
38860.78495055
 20
-6371.15674608
 97
        1
330
61D
 75
     0
 76
     2
 47
0.775229
 98
        1
 10
0.0
 20
0.0
  0
LWPOLYLINE
  5
61F
102
{ACAD_REACTORS
330
620
102
}
100
AcDbEntity
  8
Ech.1_5
 62
     9
  6
CONTINUOUS
370
    -3
100
AcDbPolyline
 90
        4
 70
     1
 43
0.0
 10
39386.95706518
 20
-5848.89839094
 10
39386.95706518
 20
-5835.89839094
 10
38866.78495055
 20
-5835.89839094
 10
38866.78495055
 20
-5848.89839094
  0
HATCH
  5
620
100
AcDbEntity
  8
Ech.1_5
 62
     9
  6
CONTINUOUS
100
AcDbHatch
 10
0.0
 20
0.0
 30
0.0
210
0.0
220
0.0
230
1.0
  2
DOTS2
 70
     0
 71
     1
 91
        1
 92
        7
 72
     0
 73
     1
 93
        4
 10
39386.95706518
 20
-5848.89839094
 10
39386.95706518
 20
-5835.89839094
 10
38866.78495055
 20
-5835.89839094
 10
38866.78495055
 20
-5848.89839094
 97
        1
330
61F
 75
     0
 76
     2
 52
0.0
 41
4.72440952
 77
     0
 78
     1
 53
0.0
 43
0.0
 44
0.0
 45
3.75
 46
3.535
 79
     2
 49
0.0
 49
-3.535
 47
0.775229
 98
        1
 10
0.0
 20
0.0
  0
LWPOLYLINE
  5
621
102
{ACAD_REACTORS
330
622
102
}
100
AcDbEntity
  8
Ech.1_5
 62
     9
  6
CONTINUOUS
370
    -3
100
AcDbPolyline
 90
       12
 70
     1
 43
0.0
 10
39328.483173
 20
-5891.84703176
 10
39328.483173
 20
-5897.84292047
 10
39298.48317275
 20
-5897.84703176
 10
39298.48317275
 20
-5849.84703176
 10
39328.483173
 20
-5849.84703176
 10
39328.483173
 20
-5855.84703176
 10
39326.483173
 20
-5855.84703176
 10
39326.483173
 20
-5851.84703176
 10
39300.483173
 20
-5851.84703176
 10
39300.483173
 20
-5895.84703176
 10
39326.483173
 20
-5895.84703176
 10
39326.483173
 20
-5891.84703176
  0
HATCH
  5
622
100
AcDbEntity
  8
Ech.1_5
 62
     9
  6
CONTINUOUS
100
AcDbHatch
 10
0.0
 20
0.0
 30
0.0
210
0.0
220
0.0
230
1.0
  2
SOLID
 70
     1
 71
     1
 91
        1
 92
        7
 72
     0
 73
     1
 93
       12
 10
39328.483173
 20
-5891.84703176
 10
39328.483173
 20
-5897.84292047
 10
39298.48317275
 20
-5897.84703176
 10
39298.48317275
 20
-5849.84703176
 10
39328.483173
 20
-5849.84703176
 10
39328.483173
 20
-5855.84703176
 10
39326.483173
 20
-5855.84703176
 10
39326.483173
 20
-5851.84703176
 10
39300.483173
 20
-5851.84703176
 10
39300.483173
 20
-5895.84703176
 10
39326.483173
 20
-5895.84703176
 10
39326.483173
 20
-5891.84703176
 97
        1
330
621
 75
     0
 76
     2
 47
0.775229
 98
        1
 10
0.0
 20
0.0
  0
LWPOLYLINE
  5
623
100
AcDbEntity
  8
Ech.1_5
 62
     9
  6
CONTINUOUS
370
    -3
100
AcDbPolyline
 90
      128
 70
     0
 43
0.0
 10
39386.95706518
 20
-5856.9317298
 42
1.14028181
 10
39371.16411809
 20
-5859.01091558
 10
39378.64999567
 20
-5886.98589948
 42
-1.30322619
 10
39363.13077922
 20
-5886.98589948
 10
39370.61665681
 20
-5859.01091558
 42
1.30322619
 10
39355.09744036
 20
-5859.01091558
 10
39362.58331794
 20
-5886.98589948
 42
-1.30322619
 10
39347.06410149
 20
-5886.98589948
 10
39354.54997908
 20
-5859.01091558
 42
1.30322619
 10
39339.03076263
 20
-5859.01091558
 10
39346.51664022
 20
-5886.98589948
 42
-1.30322619
 10
39330.99742376
 20
-5886.98589948
 10
39338.48330135
 20
-5859.01091558
 42
1.30322619
 10
39322.9640849
 20
-5859.01091558
 10
39330.44996249
 20
-5886.98589948
 42
-1.30322619
 10
39314.93074603
 20
-5886.98589948
 10
39322.41662362
 20
-5859.01091558
 42
1.30322619
 10
39306.89740717
 20
-5859.01091558
 10
39314.38328476
 20
-5886.98589948
 42
-1.30322619
 10
39298.8640683
 20
-5886.98589948
 10
39306.34994589
 20
-5859.01091558
 42
1.30322619
 10
39290.83072944
 20
-5859.01091558
 10
39298.31660703
 20
-5886.98589948
 42
-1.30322619
 10
39282.79739058
 20
-5886.98589948
 10
39290.28326816
 20
-5859.01091558
 42
1.30322619
 10
39274.76405171
 20
-5859.01091558
 10
39282.2499293
 20
-5886.98589948
 42
-1.30322619
 10
39266.73071285
 20
-5886.98589948
 10
39274.21659043
 20
-5859.01091558
 42
1.30322619
 10
39258.69737398
 20
-5859.01091558
 10
39266.18325157
 20
-5886.98589948
 42
-1.30322619
 10
39250.66403512
 20
-5886.98589948
 10
39258.1499127
 20
-5859.01091558
 42
1.30322619
 10
39242.63069625
 20
-5859.01091558
 10
39250.11657384
 20
-5886.98589948
 42
-1.30322619
 10
39234.59735739
 20
-5886.98589948
 10
39242.08323498
 20
-5859.01091558
 42
1.30322619
 10
39226.56401852
 20
-5859.01091558
 10
39234.04989611
 20
-5886.98589948
 42
-1.30322619
 10
39218.53067966
 20
-5886.98589948
 10
39226.01655725
 20
-5859.01091558
 42
1.30322619
 10
39210.49734079
 20
-5859.01091558
 10
39217.98321838
 20
-5886.98589948
 42
-1.30322619
 10
39202.46400193
 20
-5886.98589948
 10
39209.94987952
 20
-5859.01091558
 42
1.30322619
 10
39194.43066306
 20
-5859.01091558
 10
39201.91654065
 20
-5886.98589948
 42
-1.30322619
 10
39186.3973242
 20
-5886.98589948
 10
39193.88320179
 20
-5859.01091558
 42
1.30322619
 10
39178.36398533
 20
-5859.01091558
 10
39185.84986292
 20
-5886.98589948
 42
-1.30322619
 10
39170.33064647
 20
-5886.98589948
 10
39177.81652406
 20
-5859.01091558
 42
1.30322619
 10
39162.29730761
 20
-5859.01091558
 10
39169.78318519
 20
-5886.98589948
 42
-1.30322619
 10
39154.26396874
 20
-5886.98589948
 10
39161.74984633
 20
-5859.01091558
 42
1.30322619
 10
39146.23062988
 20
-5859.01091558
 10
39153.71650746
 20
-5886.98589948
 42
-1.30322619
 10
39138.19729101
 20
-5886.98589948
 10
39145.6831686
 20
-5859.01091558
 42
1.30322619
 10
39130.16395215
 20
-5859.01091558
 10
39137.64982973
 20
-5886.98589948
 42
-1.30322619
 10
39122.13061328
 20
-5886.98589948
 10
39129.61649087
 20
-5859.01091558
 42
1.30322619
 10
39114.09727442
 20
-5859.01091558
 10
39121.58315201
 20
-5886.98589948
 42
-1.30322619
 10
39106.06393555
 20
-5886.98589948
 10
39113.54981314
 20
-5859.01091558
 42
1.30322619
 10
39098.03059669
 20
-5859.01091558
 10
39105.51647428
 20
-5886.98589948
 42
-1.30322619
 10
39089.99725782
 20
-5886.98589948
 10
39097.48313541
 20
-5859.01091558
 42
1.30322619
 10
39081.96391896
 20
-5859.01091558
 10
39089.44979655
 20
-5886.98589948
 42
-1.30322619
 10
39073.93058009
 20
-5886.98589948
 10
39081.41645768
 20
-5859.01091558
 42
1.30322619
 10
39065.89724123
 20
-5859.01091558
 10
39073.38311882
 20
-5886.98589948
 42
-1.30322619
 10
39057.86390237
 20
-5886.98589948
 10
39065.34977995
 20
-5859.01091558
 42
1.30322619
 10
39049.8305635
 20
-5859.01091558
 10
39057.31644109
 20
-5886.98589948
 42
-1.30322619
 10
39041.79722464
 20
-5886.98589948
 10
39049.28310222
 20
-5859.01091558
 42
1.30322619
 10
39033.76388577
 20
-5859.01091558
 10
39041.24976336
 20
-5886.98589948
 42
-1.30322619
 10
39025.73054691
 20
-5886.98589948
 10
39033.21642449
 20
-5859.01091558
 42
1.30322619
 10
39017.69720804
 20
-5859.01091558
 10
39025.18308563
 20
-5886.98589948
 42
-1.30322619
 10
39009.66386918
 20
-5886.98589948
 10
39017.14974677
 20
-5859.01091558
 42
1.30322619
 10
39001.63053031
 20
-5859.01091558
 10
39009.1164079
 20
-5886.98589948
 42
-1.30322619
 10
38993.59719145
 20
-5886.98589948
 10
39001.08306904
 20
-5859.01091558
 42
1.30322619
 10
38985.56385258
 20
-5859.01091558
 10
38993.04973017
 20
-5886.98589948
 42
-1.30322619
 10
38977.53051372
 20
-5886.98589948
 10
38985.01639131
 20
-5859.01091558
 42
1.30322619
 10
38969.49717485
 20
-5859.01091558
 10
38976.98305244
 20
-5886.98589948
 42
-1.30322619
 10
38961.46383599
 20
-5886.98589948
 10
38968.94971358
 20
-5859.01091558
 42
1.30322619
 10
38953.43049712
 20
-5859.01091558
 10
38960.91637471
 20
-5886.98589948
 42
-1.30322619
 10
38945.39715826
 20
-5886.98589948
 10
38952.88303585
 20
-5859.01091558
 42
1.30322619
 10
38937.3638194
 20
-5859.01091558
 10
38944.84969698
 20
-5886.98589948
 42
-1.30322619
 10
38929.33048053
 20
-5886.98589948
 10
38936.81635812
 20
-5859.01091558
 42
1.30322619
 10
38921.29714167
 20
-5859.01091558
 10
38928.78301925
 20
-5886.98589948
 42
-1.30322619
 10
38913.2638028
 20
-5886.98589948
 10
38920.74968039
 20
-5859.01091558
 42
1.30322619
 10
38905.23046394
 20
-5859.01091558
 10
38912.71634152
 20
-5886.98589948
 42
-1.30322619
 10
38897.19712507
 20
-5886.98589948
 10
38904.68300266
 20
-5859.01091558
 42
1.30322619
 10
38889.16378621
 20
-5859.01091558
 10
38896.6496638
 20
-5886.98589948
 42
-1.30322619
 10
38881.13044734
 20
-5886.98589948
 10
38888.61632493
 20
-5859.01091558
 42
1.30322619
 10
38873.09710848
 20
-5859.01091558
 10
38880.58298607
 20
-5886.98589948
 42
-0.79355234
 10
38866.78495055
 20
-5894.36338019
  0
LWPOLYLINE
  5
624
100
AcDbEntity
  8
Ech.1_5
 62
     9
  6
CONTINUOUS
370
    -3
100
AcDbPolyline
 90
      156
 70
     0
 43
0.0
 10
38826.61825595
 20
-5897.84703176
 42
1.14028181
 10
38828.69744174
 20
-5913.63997896
 10
38856.67242584
 20
-5906.15410132
 42
-1.30322619
 10
38856.67242584
 20
-5921.67331788
 10
38828.69744174
 20
-5914.18744024
 42
1.30322619
 10
38828.69744174
 20
-5929.7066568
 10
38856.67242584
 20
-5922.22077916
 42
-1.30322619
 10
38856.67242584
 20
-5937.73999572
 10
38828.69744174
 20
-5930.25411808
 42
1.30322619
 10
38828.69744174
 20
-5945.77333464
 10
38856.67242584
 20
-5938.287457
 42
-1.30322619
 10
38856.67242584
 20
-5953.80667356
 10
38828.69744174
 20
-5946.32079592
 42
1.30322619
 10
38828.69744174
 20
-5961.84001248
 10
38856.67242584
 20
-5954.35413484
 42
-1.30322619
 10
38856.67242584
 20
-5969.8733514
 10
38828.69744174
 20
-5962.38747376
 42
1.30322619
 10
38828.69744174
 20
-5977.90669032
 10
38856.67242584
 20
-5970.42081268
 42
-1.30322619
 10
38856.67242584
 20
-5985.94002924
 10
38828.69744174
 20
-5978.4541516
 42
1.30322619
 10
38828.69744174
 20
-5993.97336817
 10
38856.67242584
 20
-5986.48749053
 42
-1.30322619
 10
38856.67242584
 20
-6002.00670709
 10
38828.69744174
 20
-5994.52082945
 42
1.30322619
 10
38828.69744174
 20
-6010.04004601
 10
38856.67242584
 20
-6002.55416837
 42
-1.30322619
 10
38856.67242584
 20
-6018.07338493
 10
38828.69744174
 20
-6010.58750729
 42
1.30322619
 10
38828.69744174
 20
-6026.10672385
 10
38856.67242584
 20
-6018.62084621
 42
-1.30322619
 10
38856.67242584
 20
-6034.14006277
 10
38828.69744174
 20
-6026.65418513
 42
1.30322619
 10
38828.69744174
 20
-6042.17340169
 10
38856.67242584
 20
-6034.68752405
 42
-1.30322619
 10
38856.67242584
 20
-6050.20674061
 10
38828.69744174
 20
-6042.72086297
 42
1.30322619
 10
38828.69744174
 20
-6058.24007953
 10
38856.67242584
 20
-6050.75420189
 42
-1.30322619
 10
38856.67242584
 20
-6066.27341845
 10
38828.69744174
 20
-6058.78754081
 42
1.30322619
 10
38828.69744174
 20
-6074.30675737
 10
38856.67242584
 20
-6066.82087973
 42
-1.30322619
 10
38856.67242584
 20
-6082.34009629
 10
38828.69744174
 20
-6074.85421865
 42
1.30322619
 10
38828.69744174
 20
-6090.37343521
 10
38856.67242584
 20
-6082.88755757
 42
-1.30322619
 10
38856.67242584
 20
-6098.40677413
 10
38828.69744174
 20
-6090.92089649
 42
1.30322619
 10
38828.69744174
 20
-6106.44011305
 10
38856.67242584
 20
-6098.95423541
 42
-1.30322619
 10
38856.67242584
 20
-6114.47345197
 10
38828.69744174
 20
-6106.98757433
 42
1.30322619
 10
38828.69744174
 20
-6122.50679089
 10
38856.67242584
 20
-6115.02091325
 42
-1.30322619
 10
38856.67242584
 20
-6130.54012981
 10
38828.69744174
 20
-6123.05425217
 42
1.30322619
 10
38828.69744174
 20
-6138.57346874
 10
38856.67242584
 20
-6131.0875911
 42
-1.30322619
 10
38856.67242584
 20
-6146.60680766
 10
38828.69744174
 20
-6139.12093002
 42
1.30322619
 10
38828.69744174
 20
-6154.64014658
 10
38856.67242584
 20
-6147.15426894
 42
-1.30322619
 10
38856.67242584
 20
-6162.6734855
 10
38828.69744174
 20
-6155.18760786
 42
1.30322619
 10
38828.69744174
 20
-6170.70682442
 10
38856.67242584
 20
-6163.22094678
 42
-1.30322619
 10
38856.67242584
 20
-6178.74016334
 10
38828.69744174
 20
-6171.2542857
 42
1.30322619
 10
38828.69744174
 20
-6186.77350226
 10
38856.67242584
 20
-6179.28762462
 42
-1.30322619
 10
38856.67242584
 20
-6194.80684118
 10
38828.69744174
 20
-6187.32096354
 42
1.30322619
 10
38828.69744174
 20
-6202.8401801
 10
38856.67242584
 20
-6195.35430246
 42
-1.30322619
 10
38856.67242584
 20
-6210.87351902
 10
38828.69744174
 20
-6203.38764138
 42
1.30322619
 10
38828.69744174
 20
-6218.90685794
 10
38856.67242584
 20
-6211.4209803
 42
-1.30322619
 10
38856.67242584
 20
-6226.94019686
 10
38828.69744174
 20
-6219.45431922
 42
1.30322619
 10
38828.69744174
 20
-6234.97353578
 10
38856.67242584
 20
-6227.48765814
 42
-1.30322619
 10
38856.67242584
 20
-6243.0068747
 10
38828.69744174
 20
-6235.52099706
 42
1.30322619
 10
38828.69744174
 20
-6251.04021362
 10
38856.67242584
 20
-6243.55433598
 42
-1.30322619
 10
38856.67242584
 20
-6259.07355254
 10
38828.69744174
 20
-6251.5876749
 42
1.30322619
 10
38828.69744174
 20
-6267.10689146
 10
38856.67242584
 20
-6259.62101382
 42
-1.30322619
 10
38856.67242584
 20
-6275.14023038
 10
38828.69744174
 20
-6267.65435274
 42
1.30322619
 10
38828.69744174
 20
-6283.1735693
 10
38856.67242584
 20
-6275.68769166
 42
-1.30322619
 10
38856.67242584
 20
-6291.20690823
 10
38828.69744174
 20
-6283.72103059
 42
1.30322619
 10
38828.69744174
 20
-6299.24024715
 10
38856.67242584
 20
-6291.75436951
 42
-1.30322619
 10
38856.67242584
 20
-6307.27358607
 10
38828.69744174
 20
-6299.78770843
 42
1.30322619
 10
38828.69744174
 20
-6315.30692499
 10
38856.67242584
 20
-6307.82104735
 42
-1.30322619
 10
38856.67242584
 20
-6323.34026391
 10
38828.69744174
 20
-6315.85438627
 42
1.30322619
 10
38828.69744174
 20
-6331.37360283
 10
38856.67242584
 20
-6323.88772519
 42
-1.30322619
 10
38856.67242584
 20
-6339.40694175
 10
38828.69744174
 20
-6331.92106411
 42
1.30322619
 10
38828.69744174
 20
-6347.44028067
 10
38856.67242584
 20
-6339.95440303
 42
-1.30322619
 10
38856.67242584
 20
-6355.47361959
 10
38828.69744174
 20
-6347.98774195
 42
1.30322619
 10
38828.69744174
 20
-6363.50695851
 10
38856.67242584
 20
-6356.02108087
 42
-1.30322619
 10
38856.67242584
 20
-6371.54029743
 10
38828.69744174
 20
-6364.05441979
 42
1.30322619
 10
38828.69744174
 20
-6379.57363635
 10
38856.67242584
 20
-6372.08775871
 42
-1.30322619
 10
38856.67242584
 20
-6387.60697527
 10
38828.69744174
 20
-6380.12109763
 42
1.30322619
 10
38828.69744174
 20
-6395.64031419
 10
38856.67242584
 20
-6388.15443655
 42
-1.30322619
 10
38856.67242584
 20
-6403.67365311
 10
38828.69744174
 20
-6396.18777547
 42
1.30322619
 10
38828.69744174
 20
-6411.70699203
 10
38856.67242584
 20
-6404.22111439
 42
-1.30322619
 10
38856.67242584
 20
-6419.74033095
 10
38828.69744174
 20
-6412.25445331
 42
1.30322619
 10
38828.69744174
 20
-6427.77366987
 10
38856.67242584
 20
-6420.28779223
 42
-1.30322619
 10
38856.67242584
 20
-6435.80700879
 10
38828.69744174
 20
-6428.32113115
 42
1.30322619
 10
38828.69744174
 20
-6443.84034772
 10
38856.67242584
 20
-6436.35447008
 42
-1.30322619
 10
38856.67242584
 20
-6451.87368664
 10
38828.69744174
 20
-6444.387809
 42
1.30322619
 10
38828.69744174
 20
-6459.90702556
 10
38856.67242584
 20
-6452.42114792
 42
-1.30322619
 10
38856.67242584
 20
-6467.94036448
 10
38828.69744174
 20
-6460.45448684
 42
1.30322619
 10
38828.69744174
 20
-6475.9737034
 10
38856.67242584
 20
-6468.48782576
 42
-1.30322619
 10
38856.67242584
 20
-6484.00704232
 10
38828.69744174
 20
-6476.52116468
 42
1.30322619
 10
38828.69744174
 20
-6492.04038124
 10
38856.67242584
 20
-6484.5545036
 42
-1.30322619
 10
38856.67242584
 20
-6500.07372016
 10
38828.69744174
 20
-6492.58784252
 42
1.30322619
 10
38828.69744174
 20
-6508.10705908
 10
38856.67242584
 20
-6500.62118144
 42
-1.30322619
 10
38856.67242584
 20
-6516.140398
 10
38828.69744174
 20
-6508.65452036
 42
1.30322619
 10
38828.69744174
 20
-6524.17373692
 10
38856.67242584
 20
-6516.68785928
 42
-0.63791127
 10
38866.02414972
 20
-6527.85990422
  0
LWPOLYLINE
  5
625
100
AcDbEntity
  8
Ech.1_5
 62
   150
  6
CADWORK_22
370
    35
100
AcDbPolyline
 90
        3
 70
     0
 43
0.0
 38
2500.0
 10
39050.78495055
 20
-6527.85990422
 10
39050.78495055
 20
-6091.61516033
 10
38975.85944845
 20
-6091.61516033
  0
LWPOLYLINE
  5
626
100
AcDbEntity
  8
Ech.1_5
 62
   190
  6
CONTINUOUS
370
    -3
100
AcDbPolyline
 90
        6
 70
     0
 43
0.0
 10
39386.95706518
 20
-5786.98989966
 10
39386.95706518
 20
-5988.45607297
 10
39404.93441358
 20
-6004.94157617
 10
39368.97871357
 20
-5990.83163659
 10
39386.95706518
 20
-6007.31799047
 10
39386.95706518
 20
-6181.31799047
  0
LWPOLYLINE
  5
627
100
AcDbEntity
  8
Ech.1_5
 62
   190
  6
CONTINUOUS
370
    -3
100
AcDbPolyline
 90
        6
 70
     0
 43
0.0
 10
38767.89980125
 20
-6527.85990422
 10
38996.09721354
 20
-6527.85990422
 10
39012.58271669
 20
-6509.88255589
 10
38998.47277667
 20
-6545.83825581
 10
39014.95913075
 20
-6527.85990422
 10
39150.95913075
 20
-6527.85990422
  0
HATCH
  5
628
100
AcDbEntity
  8
Ech.1_5
 62
     7
100
AcDbHatch
 10
0.0
 20
0.0
 30
0.0
210
0.0
220
0.0
230
1.0
  2
ANSI37
 70
     0
 71
     0
 91
        1
 92
        7
 72
     0
 73
     1
 93
        4
 10
38943.9272185
 20
-6127.25037082
 10
38918.10268742
 20
-6127.25037082
 10
38918.10268742
 20
-6136.68303092
 10
38943.9272185
 20
-6136.68303092
 97
        0
 75
     0
 76
     2
 52
0.0
 41
1.87498831
 77
     0
 78
     2
 53
45.0
 43
0.0
 44
0.0
 45
4.20946876
 46
-4.20946876
 79
     0
 53
-45.0
 43
0.0
 44
0.0
 45
4.20946876
 46
4.20946876
 79
     0
 47
0.775229
 98
        1
 10
0.0
 20
0.0
  0
LWPOLYLINE
  5
629
102
{ACAD_REACTORS
330
62A
102
}
100
AcDbEntity
  8
Ech.1_5
 62
     7
  6
CONTINUOUS
370
     5
100
AcDbPolyline
 90
        4
 70
     1
 43
0.0
 10
39040.73849519
 20
-6082.18337951
 10
39014.9139641
 20
-6082.18337951
 10
39014.9139641
 20
-6091.61603962
 10
39040.73849519
 20
-6091.61603962
  0
HATCH
  5
62A
100
AcDbEntity
  8
Ech.1_5
 62
     2
  6
CONTINUOUS
100
AcDbHatch
 10
0.0
 20
0.0
 30
0.0
210
0.0
220
0.0
230
1.0
  2
SOLID
 70
     1
 71
     1
 91
        1
 92
        7
 72
     0
 73
     1
 93
        4
 10
39040.73849519
 20
-6082.18337951
 10
39014.9139641
 20
-6082.18337951
 10
39014.9139641
 20
-6091.61603962
 10
39040.73849519
 20
-6091.61603962
 97
        1
330
629
 75
     0
 76
     2
 47
0.775229
 98
        1
 10
0.0
 20
0.0
  0
HATCH
  5
62B
100
AcDbEntity
  8
Ech.1_5
 62
     7
100
AcDbHatch
 10
0.0
 20
0.0
 30
0.0
210
0.0
220
0.0
230
1.0
  2
ANSI37
 70
     0
 71
     0
 91
        1
 92
        7
 72
     0
 73
     1
 93
        4
 10
39040.73849519
 20
-6082.18337951
 10
39014.9139641
 20
-6082.18337951
 10
39014.9139641
 20
-6091.61603962
 10
39040.73849519
 20
-6091.61603962
 97
        0
 75
     0
 76
     2
 52
0.0
 41
1.87498831
 77
     0
 78
     2
 53
45.0
 43
0.0
 44
0.0
 45
4.20946876
 46
-4.20946876
 79
     0
 53
-45.0
 43
0.0
 44
0.0
 45
4.20946876
 46
4.20946876
 79
     0
 47
0.775229
 98
        1
 10
0.0
 20
0.0
  0
LWPOLYLINE
  5
62C
100
AcDbEntity
  8
Ech.1_5
 62
   190
100
AcDbPolyline
 90
        5
 70
     0
 43
0.0
 10
38541.13195863
 20
-6539.36091514
 10
38675.56073762
 20
-6539.36091514
 10
38675.56073762
 20
-6596.08387395
 10
38541.13195863
 20
-6596.08387395
 10
38541.13195863
 20
-6539.36091514
  0
HATCH
  5
62D
100
AcDbEntity
  8
Ech.1_5
 62
   190
100
AcDbHatch
 10
0.0
 20
0.0
 30
0.0
210
0.0
220
0.0
230
1.0
  2
SOLID
 70
     1
 71
     0
 91
        1
 92
        7
 72
     0
 73
     1
 93
        4
 10
38559.41200442
 20
-6573.01772627
 10
38609.41200442
 20
-6573.01772627
 10
38609.41200442
 20
-6565.60258873
 10
38559.41200442
 20
-6565.60258873
 97
        0
 75
     0
 76
     2
 47
0.775229
 98
        1
 10
0.0
 20
0.0
  0
LWPOLYLINE
  5
62E
100
AcDbEntity
  8
Ech.1_5
 62
   190
100
AcDbPolyline
 90
        5
 70
     0
 43
0.0
 10
38559.41200442
 20
-6573.01772627
 10
38609.41200442
 20
-6573.01772627
 10
38609.41200442
 20
-6565.60258873
 10
38559.41200442
 20
-6565.60258873
 10
38559.41200442
 20
-6573.01772627
  0
LWPOLYLINE
  5
62F
100
AcDbEntity
  8
Ech.1_5
 62
   190
100
AcDbPolyline
 90
        5
 70
     0
 43
0.0
 10
38609.41200442
 20
-6573.01772627
 10
38659.41200442
 20
-6573.01772627
 10
38659.41200442
 20
-6565.60258873
 10
38609.41200442
 20
-6565.60258873
 10
38609.41200442
 20
-6573.01772627
  0
TEXT
  5
630
100
AcDbEntity
  8
Ech.1_5
 62
   190
100
AcDbText
 10
38570.70629704
 20
-6556.01658565
 30
0.0
 40
8.00000012
  1
Echelle en mm
  7
ARIAL
 50
0.0
 41
1.0
 51
0.0
100
AcDbText
  0
TEXT
  5
631
100
AcDbEntity
  8
Ech.1_5
 62
   190
100
AcDbText
 10
38556.72571229
 20
-6584.22642118
 30
0.0
 40
8.00000012
  1
0
  7
ARIAL
 50
0.0
 41
1.0
 51
0.0
100
AcDbText
  0
TEXT
  5
632
100
AcDbEntity
  8
Ech.1_5
 62
   190
100
AcDbText
 10
38643.32277019
 20
-6584.22642118
 30
0.0
 40
8.00000012
  1
100
  7
ARIAL
 50
0.0
 41
1.0
 51
0.0
100
AcDbText
  0
TEXT
  5
633
100
AcDbEntity
  8
Ech.1_5
 62
   190
100
AcDbText
 10
38604.58233862
 20
-6584.22642118
 30
0.0
 40
8.00000012
  1
50
  7
ARIAL
 50
0.0
 41
1.0
 51
0.0
100
AcDbText
  0
ENDSEC
  0
SECTION
  2
OBJECTS
  0
DICTIONARY
  5
1
100
AcDbDictionary
  3
ACAD_GROUP
350
2
  3
ACAD_MLINESTYLE
350
3
  0
DICTIONARY
  5
2
102
{CDWK_REACTORS
330
1
102
}
100
AcDbDictionary
  0
DICTIONARY
  5
3
102
{CDWK_REACTORS
330
1
102
}
100
AcDbDictionary
  3
STANDARD
350
4
  0
MLINESTYLE
  5
4
102
{CDWK_REACTORS
330
3
102
}
100
AcDbMlineStyle
  2
STANDARD
 70
     0
  3

 62
     0
 51
90.0
 52
90.0
 71
     2
 49
0.5
 62
   256
  6
BYLAYER
 49
-0.5
 62
   256
  6
BYLAYER
  0
ENDSEC
  0
EOF
