  0
SECTION
  2
HEADER
  9
$ACADVER
  1
AC1014
  9
$DWGCODEPAGE
  3
ANSI_1252
  9
$INSBASE
 10
0.0
 20
0.0
 30
0.0
  9
$EXTMIN
 10
1033.98771282
 20
-21718.34332712
  9
$EXTMAX
 10
122326.07664696
 20
2240.3362527
  9
$LIMMIN
 10
1033.98771282
 20
-21718.34332712
  9
$LIMMAX
 10
122326.07664696
 20
2240.3362527
  9
$ORTHOMODE
 70
     0
  9
$REGENMODE
 70
     1
  9
$FILLMODE
 70
     1
  9
$QTEXTMODE
 70
     0
  9
$MIRRTEXT
 70
     1
  9
$DRAGMODE
 70
     2
  9
$LTSCALE
 40
5.0
  9
$OSMODE
 70
     0
  9
$ATTMODE
 70
     1
  9
$TEXTSIZE
 40
3.5
  9
$TRACEWID
 40
1.0
  9
$TEXTSTYLE
  7
STANDARD
  9
$CLAYER
  8
0
  9
$CELTYPE
  6
BYLAYER
  9
$CECOLOR
 62
   256
  9
$DIMSCALE
 40
1.0
  9
$DIMASZ
 40
2.0
  9
$DIMEXO
 40
5.0
  9
$DIMDLI
 40
10.0
  9
$DIMRND
 40
0.0
  9
$DIMDLE
 40
2.0
  9
$DIMEXE
 40
2.0
  9
$DIMTP
 40
0.0
  9
$DIMTM
 40
0.0
  9
$DIMTXT
 40
2.5
  9
$DIMCEN
 40
1.5
  9
$DIMTSZ
 40
0.0
  9
$DIMTOL
 70
     0
  9
$DIMLIM
 70
     0
  9
$DIMTIH
 70
     1
  9
$DIMTOH
 70
     0
  9
$DIMSE1
 70
     0
  9
$DIMSE2
 70
     0
  9
$DIMTAD
 70
     1
  9
$DIMZIN
 70
     8
  9
$DIMBLK
  1

  9
$DIMASO
 70
     1
  9
$DIMSHO
 70
     1
  9
$DIMPOST
  1

  9
$DIMAPOST
  1

  9
$DIMALT
 70
     0
  9
$DIMALTD
 70
     2
  9
$DIMALTF
 40
25.4
  9
$DIMLFAC
 40
1.0
  9
$DIMTOFL
 70
     0
  9
$DIMTVP
 40
0.0
  9
$DIMTIX
 70
     0
  9
$DIMSOXD
 70
     0
  9
$DIMSAH
 70
     0
  9
$DIMBLK1
  1

  9
$DIMBLK2
  1

  9
$DIMSTYLE
  2
*UNNAMED
  9
$DIMCLRD
 70
   190
  9
$DIMCLRE
 70
   190
  9
$DIMCLRT
 70
   190
  9
$DIMTFAC
 40
1.0
  9
$DIMGAP
 40
0.09
  9
$DIMUNIT
 70
     2
  9
$LUNITS
 70
     2
  9
$LUPREC
 70
     6
  9
$AXISMODE
 70
     0
  9
$AXISUNIT
 10
0.0
 20
0.0
  9
$SKETCHINC
 40
0.1
  9
$FILLETRAD
 40
0.0
  9
$AUNITS
 70
     0
  9
$AUPREC
 70
     0
  9
$MENU
  1
ACAD
  9
$ELEVATION
 40
0.0
  9
$PELEVATION
 40
0.0
  9
$THICKNESS
 40
0.0
  9
$LIMCHECK
 70
     0
  9
$BLIPMODE
 70
     1
  9
$CHAMFERA
 40
0.0
  9
$CHAMFERB
 40
0.0
  9
$SKPOLY
 70
     1
  9
$TDCREATE
 40
2457808.0000000000
  9
$TDUPDATE
 40
2457808.0000000000
  9
$TDINDWG
 40
0.0
  9
$TDUSRTIMER
 40
0.0
  9
$USRTIMER
 70
     1
  9
$ANGBASE
 50
0.0
  9
$ANGDIR
 70
     0
  9
$PDMODE
 70
     0
  9
$PDSIZE
 40
0.0
  9
$PLINEWID
 40
0.0
  9
$COORDS
 70
     2
  9
$SPLFRAME
 70
     0
  9
$SPLINETYPE
 70
     6
  9
$SPLINESEGS
 70
     8
  9
$ATTDIA
 70
     1
  9
$ATTREQ
 70
     1
  9
$HANDLING
 70
     1
  9
$HANDSEED
  5
     63F
  9
$SURFTAB1
 70
     6
  9
$SURFTAB2
 70
     6
  9
$SURFTYPE
 70
     6
  9
$SURFU
 70
     6
  9
$SURFV
 70
     6
  9
$UCSNAME
  2

  9
$UCSORG
 10
0.0
 20
0.0
 30
0.0
  9
$UCSXDIR
 10
1.0
 20
0.0
 30
0.0
  9
$UCSYDIR
 10
0.0
 20
1.0
 30
0.0
  9
$PUCSNAME
  2

  9
$PUCSORG
 10
0.0
 20
0.0
 30
0.0
  9
$PUCSXDIR
 10
1.0
 20
0.0
 30
0.0
  9
$PUCSYDIR
 10
0.0
 20
1.0
 30
0.0
  9
$USERI1
 70
     0
  9
$USERI2
 70
     0
  9
$USERI3
 70
     0
  9
$USERI4
 70
     0
  9
$USERI5
 70
     0
  9
$USERR1
 40
0.0
  9
$USERR2
 40
0.0
  9
$USERR3
 40
0.0
  9
$USERR4
 40
0.0
  9
$USERR5
 40
0.0
  9
$WORLDVIEW
 70
     1
  9
$SHADEDGE
 70
     3
  9
$SHADEDIF
 70
    70
  9
$TILEMODE
 70
     1
  9
$MAXACTVP
 70
    16
  9
$PINSBASE
 10
0.0
 20
0.0
 30
0.0
  9
$PLIMCHECK
 70
     0
  9
$PEXTMIN
 10
1.0000000000000E+20
 20
1.0000000000000E+20
 30
1.0000000000000E+20
  9
$PEXTMAX
 10
-1.0000000000000E+20
 20
-1.0000000000000E+20
 30
-1.0000000000000E+20
  9
$PLIMMIN
 10
0.0
 20
0.0
  9
$UNITMODE
 70
     0
  9
$VISRETAIN
 70
     0
  9
$MEASUREMENT
 70
     1
  0
ENDSEC
  0
SECTION
  2
TABLES
  0
TABLE
  2
VPORT
  5
4A2
100
AcDbSymbolTable
 70
     1
  0
ENDTAB
  0
TABLE
  2
STYLE
  5
4A3
100
AcDbSymbolTable
 70
     4
  0
STYLE
  5
4A4
100
AcDbSymbolTableRecord
100
AcDbTextStyleTableRecord
  2
STANDARD
 70
     0
 40
0.0
 41
1.0
 50
0.0
 71
     0
 42
3.5
  3
MONOTXT
  4

  0
STYLE
  5
4A5
100
AcDbSymbolTableRecord
100
AcDbTextStyleTableRecord
  2
SYMAP
 70
     0
 40
0.0
 41
1.0
 50
0.0
 71
     0
 42
3.5
  3
SYMAP
  4

  0
STYLE
  5
4A6
100
AcDbSymbolTableRecord
100
AcDbTextStyleTableRecord
  2
CADWORK1
 70
     0
 40
0.0
 41
1.0
 50
0.0
 71
     0
 42
3.5
  3
MONOTXT
  4

  0
STYLE
  5
4A7
100
AcDbSymbolTableRecord
100
AcDbTextStyleTableRecord
  2
MONOTXT
 70
     0
 40
0.0
 41
1.0
 50
0.0
 71
     0
 42
3.5
  3
MONOTXT
  4

  0
STYLE
  5
4A8
100
AcDbSymbolTableRecord
100
AcDbTextStyleTableRecord
  2
TAHOMA
 70
     0
 40
0.0
 41
1.0
 50
0.0
 71
     0
 42
3.5
  3

  4

1001
ACAD
1000
Tahoma
1071
        0
  0
STYLE
  5
4A9
100
AcDbSymbolTableRecord
100
AcDbTextStyleTableRecord
  2
ARIAL
 70
     0
 40
0.0
 41
1.0
 50
0.0
 71
     0
 42
3.5
  3

  4

1001
ACAD
1000
Arial
1071
        0
  0
ENDTAB
  0
TABLE
  2
LTYPE
  5
4AA
100
AcDbSymbolTable
 70
    15
  0
LTYPE
  5
4AB
100
AcDbSymbolTableRecord
100
AcDbLinetypeTableRecord
  2
BYBLOCK
 70
    64
  3

 72
    65
 73
     0
 40
0.0
  0
LTYPE
  5
4AC
100
AcDbSymbolTableRecord
100
AcDbLinetypeTableRecord
  2
BYLAYER
 70
    64
  3

 72
    65
 73
     0
 40
0.0
  0
LTYPE
  5
4AD
100
AcDbSymbolTableRecord
100
AcDbLinetypeTableRecord
  2
CONTINUOUS
 70
    64
  3
Solid line
 72
    65
 73
     0
 40
0.0
  0
LTYPE
  5
4AE
100
AcDbSymbolTableRecord
100
AcDbLinetypeTableRecord
  2
DOT2
 70
    64
  3
...............................................
 72
    65
 73
     2
 40
1.25
 49
0.0
 74
     0
 49
-1.25
 74
     0
  0
LTYPE
  5
4AF
100
AcDbSymbolTableRecord
100
AcDbLinetypeTableRecord
  2
CADWORK_13
 70
    64
  3
13 =======================================
 72
    65
 73
     2
 40
4.0
 49
2.0
 74
     0
 49
-2.0
 74
     0
  0
LTYPE
  5
4B0
100
AcDbSymbolTableRecord
100
AcDbLinetypeTableRecord
  2
DASHDOT
 70
    64
  3
 __ . __ . __ . __ . __ . __ . __ . __ . __ . __
 72
    65
 73
     4
 40
10.0
 49
5.0
 74
     0
 49
-2.5
 74
     0
 49
0.0
 74
     0
 49
-2.5
 74
     0
  0
LTYPE
  5
4B1
100
AcDbSymbolTableRecord
100
AcDbLinetypeTableRecord
  2
CENTER
 70
    64
  3
 ____ _ ____ _ ____ _ ____ _ ____ _ ____ _ ____
 72
    65
 73
     4
 40
20.0
 49
12.5
 74
     0
 49
-2.5
 74
     0
 49
2.5
 74
     0
 49
-2.5
 74
     0
  0
LTYPE
  5
4B2
100
AcDbSymbolTableRecord
100
AcDbLinetypeTableRecord
  2
DASHEDX2
 70
    64
  3
____  ____  ____  ____  ____  ____  ____  ____
 72
    65
 73
     2
 40
3.75
 49
2.5
 74
     0
 49
-1.25
 74
     0
  0
LTYPE
  5
4B3
100
AcDbSymbolTableRecord
100
AcDbLinetypeTableRecord
  2
CADWORK_22
 70
    64
  3
22 =======================================
 72
    65
 73
     0
 40
0.0
  0
LTYPE
  5
4B4
100
AcDbSymbolTableRecord
100
AcDbLinetypeTableRecord
  2
DAL
 70
    64
  3
Solid line (for MAPS)
 72
    65
 73
     0
 40
0.0
  0
LTYPE
  5
4B5
100
AcDbSymbolTableRecord
100
AcDbLinetypeTableRecord
  2
MUR
 70
    64
  3
Solid line (for MAPS)
 72
    65
 73
     0
 40
0.0
  0
LTYPE
  5
4B6
100
AcDbSymbolTableRecord
100
AcDbLinetypeTableRecord
  2
SOM
 70
    64
  3
Solid line (for MAPS)
 72
    65
 73
     0
 40
0.0
  0
LTYPE
  5
4B7
100
AcDbSymbolTableRecord
100
AcDbLinetypeTableRecord
  2
COL
 70
    64
  3
Solid line (for MAPS)
 72
    65
 73
     0
 40
0.0
  0
LTYPE
  5
4B8
100
AcDbSymbolTableRecord
100
AcDbLinetypeTableRecord
  2
LGN
 70
    64
  3
Solid line (for MAPS)
 72
    65
 73
     0
 40
0.0
  0
LTYPE
  5
4B9
100
AcDbSymbolTableRecord
100
AcDbLinetypeTableRecord
  2
PNT
 70
    64
  3
Solid line (for MAPS)
 72
    65
 73
     0
 40
0.0
  0
ENDTAB
  0
TABLE
  2
LAYER
  5
4BA
100
AcDbSymbolTable
 70
    32
  0
LAYER
  5
4BB
100
AcDbSymbolTableRecord
100
AcDbLayerTableRecord
  2
Standard
 70
     0
 62
     7
  6
CONTINUOUS
370
    -3
  0
LAYER
  5
4BC
100
AcDbSymbolTableRecord
100
AcDbLayerTableRecord
  2
Ech.1_1
 70
     0
 62
     7
  6
CONTINUOUS
370
    -3
  0
LAYER
  5
4BD
100
AcDbSymbolTableRecord
100
AcDbLayerTableRecord
  2
Ech.1_2
 70
     0
 62
     7
  6
CONTINUOUS
370
    -3
  0
LAYER
  5
4BE
100
AcDbSymbolTableRecord
100
AcDbLayerTableRecord
  2
Ech.1_5
 70
     0
 62
     7
  6
CONTINUOUS
370
    -3
  0
LAYER
  5
4BF
100
AcDbSymbolTableRecord
100
AcDbLayerTableRecord
  2
Ech.1_10
 70
     0
 62
     7
  6
CONTINUOUS
370
    -3
  0
LAYER
  5
4C0
100
AcDbSymbolTableRecord
100
AcDbLayerTableRecord
  2
Ech.1_20
 70
     0
 62
     7
  6
CONTINUOUS
370
    -3
  0
LAYER
  5
4C1
100
AcDbSymbolTableRecord
100
AcDbLayerTableRecord
  2
Ech.1_25
 70
     0
 62
     7
  6
CONTINUOUS
370
    -3
  0
LAYER
  5
4C2
100
AcDbSymbolTableRecord
100
AcDbLayerTableRecord
  2
Ech.1_33
 70
     0
 62
     7
  6
CONTINUOUS
370
    -3
  0
LAYER
  5
4C3
100
AcDbSymbolTableRecord
100
AcDbLayerTableRecord
  2
Ech.1_50
 70
     0
 62
     7
  6
CONTINUOUS
370
    -3
  0
LAYER
  5
4C4
100
AcDbSymbolTableRecord
100
AcDbLayerTableRecord
  2
Ech.1_75
 70
     0
 62
     7
  6
CONTINUOUS
370
    -3
  0
LAYER
  5
4C5
100
AcDbSymbolTableRecord
100
AcDbLayerTableRecord
  2
Ech.1_100
 70
     0
 62
     7
  6
CONTINUOUS
370
    -3
  0
LAYER
  5
4C6
100
AcDbSymbolTableRecord
100
AcDbLayerTableRecord
  2
Ech.1_200
 70
     0
 62
     7
  6
CONTINUOUS
370
    -3
  0
LAYER
  5
4C7
100
AcDbSymbolTableRecord
100
AcDbLayerTableRecord
  2
Ech.1_500
 70
     0
 62
     7
  6
CONTINUOUS
370
    -3
  0
LAYER
  5
4C8
100
AcDbSymbolTableRecord
100
AcDbLayerTableRecord
  2
Ech.1_1000
 70
     0
 62
     7
  6
CONTINUOUS
370
    -3
  0
LAYER
  5
4C9
100
AcDbSymbolTableRecord
100
AcDbLayerTableRecord
  2
Cadres traceur
 70
     0
 62
     7
  6
CONTINUOUS
370
    18
  0
LAYER
  5
4CA
100
AcDbSymbolTableRecord
100
AcDbLayerTableRecord
  2
Cadres laser
 70
     0
 62
     7
  6
CONTINUOUS
370
    18
  0
LAYER
  5
4CB
100
AcDbSymbolTableRecord
100
AcDbLayerTableRecord
  2
Légende d_aide
 70
     0
 62
     7
  6
CONTINUOUS
370
    18
  0
LAYER
  5
4CC
100
AcDbSymbolTableRecord
100
AcDbLayerTableRecord
  2
hachures ok
 70
     0
 62
     7
  6
CONTINUOUS
370
    18
  0
LAYER
  5
4CD
100
AcDbSymbolTableRecord
100
AcDbLayerTableRecord
  2
ossature bois
 70
     0
 62
     7
  6
CONTINUOUS
370
    18
  0
LAYER
  5
4CE
100
AcDbSymbolTableRecord
100
AcDbLayerTableRecord
  2
VR
 70
     0
 62
     7
  6
CONTINUOUS
370
    25
  0
LAYER
  5
4CF
100
AcDbSymbolTableRecord
100
AcDbLayerTableRecord
  2
Calque1
 70
     0
 62
     7
  6
CONTINUOUS
370
     9
  0
LAYER
  5
4D0
100
AcDbSymbolTableRecord
100
AcDbLayerTableRecord
  2
0
 70
     0
 62
     7
  6
CONTINUOUS
370
    -3
  0
LAYER
  5
4D1
100
AcDbSymbolTableRecord
100
AcDbLayerTableRecord
  2
menuiserie
 70
     0
 62
     7
  6
CONTINUOUS
370
    -3
  0
LAYER
  5
4D2
100
AcDbSymbolTableRecord
100
AcDbLayerTableRecord
  2
cotation
 70
     0
 62
   250
  6
CONTINUOUS
370
     9
  0
LAYER
  5
4D3
100
AcDbSymbolTableRecord
100
AcDbLayerTableRecord
  2
Defpoints
 70
     0
 62
    10
  6
CONTINUOUS
370
    -3
  0
LAYER
  5
4D4
100
AcDbSymbolTableRecord
100
AcDbLayerTableRecord
  2
HACHURE
 70
     0
 62
   254
  6
CONTINUOUS
370
    25
  0
LAYER
  5
4D5
100
AcDbSymbolTableRecord
100
AcDbLayerTableRecord
  2
mat1
 70
     0
 62
     7
  6
CONTINUOUS
370
    30
  0
LAYER
  5
4D6
100
AcDbSymbolTableRecord
100
AcDbLayerTableRecord
  2
mat2
 70
     0
 62
     7
  6
CONTINUOUS
370
     5
  0
LAYER
  5
4D7
100
AcDbSymbolTableRecord
100
AcDbLayerTableRecord
  2
hach
 70
     0
 62
     8
  6
CONTINUOUS
370
     5
  0
LAYER
  5
4D8
100
AcDbSymbolTableRecord
100
AcDbLayerTableRecord
  2
menuiseries
 70
     0
 62
     7
  6
CONTINUOUS
370
     9
  0
LAYER
  5
4D9
100
AcDbSymbolTableRecord
100
AcDbLayerTableRecord
  2
BétonMétal
 70
     0
 62
     7
  6
CONTINUOUS
370
    80
  0
LAYER
  5
4DA
100
AcDbSymbolTableRecord
100
AcDbLayerTableRecord
  2
bois
 70
     0
 62
     7
  6
CONTINUOUS
370
    60
  0
ENDTAB
  0
TABLE
  2
VIEW
  5
4DB
100
AcDbSymbolTable
 70
     0
  0
ENDTAB
  0
TABLE
  2
UCS
  5
4DC
100
AcDbSymbolTable
 70
     0
  0
ENDTAB
  0
TABLE
  2
APPID
  5
4DD
100
AcDbSymbolTable
 70
     1
  0
APPID
  5
4DE
100
AcDbSymbolTableRecord
100
AcDbRegAppTableRecord
  2
ACAD
 70
     0
  0
ENDTAB
  0
TABLE
  2
DIMSTYLE
  5
4DF
100
AcDbSymbolTable
 70
     0
  0
ENDTAB
  0
TABLE
  2
BLOCK_RECORD
  5
4E0
100
AcDbSymbolTable
 70
     0
  0
BLOCK_RECORD
  5
4E1
100
AcDbSymbolTableRecord
100
AcDbBlockTableRecord
  2
*MODEL_SPACE
  0
BLOCK_RECORD
  5
4E2
100
AcDbSymbolTableRecord
100
AcDbBlockTableRecord
  2
*PAPER_SPACE
  0
BLOCK_RECORD
  5
4E3
100
AcDbSymbolTableRecord
100
AcDbBlockTableRecord
  2
CDWK_EXTR_0
  0
BLOCK_RECORD
  5
4E4
100
AcDbSymbolTableRecord
100
AcDbBlockTableRecord
  2
CDWK_EXTR_1D
  0
BLOCK_RECORD
  5
4E5
100
AcDbSymbolTableRecord
100
AcDbBlockTableRecord
  2
CDWK_EXTR_1G
  0
BLOCK_RECORD
  5
4E6
100
AcDbSymbolTableRecord
100
AcDbBlockTableRecord
  2
CDWK_EXTR_2
  0
BLOCK_RECORD
  5
4E7
100
AcDbSymbolTableRecord
100
AcDbBlockTableRecord
  2
CDWK_EXTR_3
  0
BLOCK_RECORD
  5
4E8
100
AcDbSymbolTableRecord
100
AcDbBlockTableRecord
  2
CDWK_EXTR_4
  0
BLOCK_RECORD
  5
4E9
100
AcDbSymbolTableRecord
100
AcDbBlockTableRecord
  2
CDWK_PTTYP0
  0
BLOCK_RECORD
  5
4EA
100
AcDbSymbolTableRecord
100
AcDbBlockTableRecord
  2
CDWK_PTTYP1
  0
BLOCK_RECORD
  5
4EB
100
AcDbSymbolTableRecord
100
AcDbBlockTableRecord
  2
CDWK_PTTYP2
  0
BLOCK_RECORD
  5
4EC
100
AcDbSymbolTableRecord
100
AcDbBlockTableRecord
  2
CDWK_PTTYP3
  0
BLOCK_RECORD
  5
4ED
100
AcDbSymbolTableRecord
100
AcDbBlockTableRecord
  2
CDWK_PTTYP4
  0
BLOCK_RECORD
  5
4EE
100
AcDbSymbolTableRecord
100
AcDbBlockTableRecord
  2
CDWK_PTTYP5
  0
BLOCK_RECORD
  5
4EF
100
AcDbSymbolTableRecord
100
AcDbBlockTableRecord
  2
CDWK_PTTYP6
  0
BLOCK_RECORD
  5
4F0
100
AcDbSymbolTableRecord
100
AcDbBlockTableRecord
  2
CDWK_PTTYP7
  0
BLOCK_RECORD
  5
4F1
100
AcDbSymbolTableRecord
100
AcDbBlockTableRecord
  2
CDWK_PTTYP8
  0
BLOCK_RECORD
  5
4F2
100
AcDbSymbolTableRecord
100
AcDbBlockTableRecord
  2
CDWK_PTTYP9
  0
BLOCK_RECORD
  5
4F3
100
AcDbSymbolTableRecord
100
AcDbBlockTableRecord
  2
CDWK_PTTYP10
  0
BLOCK_RECORD
  5
4F4
100
AcDbSymbolTableRecord
100
AcDbBlockTableRecord
  2
CDWK_PTTYP11
  0
BLOCK_RECORD
  5
4F5
100
AcDbSymbolTableRecord
100
AcDbBlockTableRecord
  2
CDWK_PTTYP12
  0
BLOCK_RECORD
  5
4F6
100
AcDbSymbolTableRecord
100
AcDbBlockTableRecord
  2
CDWK_PTTYP13
  0
BLOCK_RECORD
  5
4F7
100
AcDbSymbolTableRecord
100
AcDbBlockTableRecord
  2
CDWK_PTTYP14
  0
BLOCK_RECORD
  5
4F8
100
AcDbSymbolTableRecord
100
AcDbBlockTableRecord
  2
CDWK_PTTYP15
  0
BLOCK_RECORD
  5
4F9
100
AcDbSymbolTableRecord
100
AcDbBlockTableRecord
  2
CDWK_PTTYP16
  0
BLOCK_RECORD
  5
4FA
100
AcDbSymbolTableRecord
100
AcDbBlockTableRecord
  2
CDWK_PTTYP17
  0
BLOCK_RECORD
  5
4FB
100
AcDbSymbolTableRecord
100
AcDbBlockTableRecord
  2
CDWK_PTTYP18
  0
BLOCK_RECORD
  5
4FC
100
AcDbSymbolTableRecord
100
AcDbBlockTableRecord
  2
CDWK_PTTYP19
  0
BLOCK_RECORD
  5
4FD
100
AcDbSymbolTableRecord
100
AcDbBlockTableRecord
  2
CDWK_PTTYP20
  0
BLOCK_RECORD
  5
4FE
100
AcDbSymbolTableRecord
100
AcDbBlockTableRecord
  2
CDWK_PTTYP21
  0
BLOCK_RECORD
  5
4FF
100
AcDbSymbolTableRecord
100
AcDbBlockTableRecord
  2
CDWK_PTTYP22
  0
BLOCK_RECORD
  5
500
100
AcDbSymbolTableRecord
100
AcDbBlockTableRecord
  2
CDWK_PTTYP23
  0
BLOCK_RECORD
  5
501
100
AcDbSymbolTableRecord
100
AcDbBlockTableRecord
  2
CDWK_PTTYP24
  0
BLOCK_RECORD
  5
502
100
AcDbSymbolTableRecord
100
AcDbBlockTableRecord
  2
CDWK_PTTYP25
  0
BLOCK_RECORD
  5
503
100
AcDbSymbolTableRecord
100
AcDbBlockTableRecord
  2
CDWK_PTTYP26
  0
BLOCK_RECORD
  5
504
100
AcDbSymbolTableRecord
100
AcDbBlockTableRecord
  2
CDWK_PTTYP27
  0
BLOCK_RECORD
  5
505
100
AcDbSymbolTableRecord
100
AcDbBlockTableRecord
  2
CDWK_PTTYP28
  0
BLOCK_RECORD
  5
506
100
AcDbSymbolTableRecord
100
AcDbBlockTableRecord
  2
CDWK_PTTYP29
  0
BLOCK_RECORD
  5
507
100
AcDbSymbolTableRecord
100
AcDbBlockTableRecord
  2
CDWK_PTTYP30
  0
BLOCK_RECORD
  5
508
100
AcDbSymbolTableRecord
100
AcDbBlockTableRecord
  2
CDWK_PTTYP31
  0
BLOCK_RECORD
  5
509
100
AcDbSymbolTableRecord
100
AcDbBlockTableRecord
  2
CDWK_PTTYP32
  0
BLOCK_RECORD
  5
50A
100
AcDbSymbolTableRecord
100
AcDbBlockTableRecord
  2
CDWK_PTTYP33
  0
BLOCK_RECORD
  5
50B
100
AcDbSymbolTableRecord
100
AcDbBlockTableRecord
  2
CDWK_PTTYP34
  0
BLOCK_RECORD
  5
50C
100
AcDbSymbolTableRecord
100
AcDbBlockTableRecord
  2
CDWK_PTTYP35
  0
BLOCK_RECORD
  5
50D
100
AcDbSymbolTableRecord
100
AcDbBlockTableRecord
  2
CDWK_PTTYP36
  0
BLOCK_RECORD
  5
50E
100
AcDbSymbolTableRecord
100
AcDbBlockTableRecord
  2
CDWK_PTTYP37
  0
BLOCK_RECORD
  5
50F
100
AcDbSymbolTableRecord
100
AcDbBlockTableRecord
  2
CDWK_PTTYP38
  0
BLOCK_RECORD
  5
510
100
AcDbSymbolTableRecord
100
AcDbBlockTableRecord
  2
*D2
  0
ENDTAB
  0
ENDSEC
  0
SECTION
  2
BLOCKS
  0
BLOCK
  5
511
100
AcDbEntity
  8
0
100
AcDbBlockBegin
  2
*MODEL_SPACE
 70
     0
 10
0.0
 20
0.0
 30
0.0
  3
*MODEL_SPACE
  1

  0
ENDBLK
  5
512
100
AcDbEntity
100
AcDbBlockEnd
  0
BLOCK
  5
513
100
AcDbEntity
  8
0
100
AcDbBlockBegin
  2
*PAPER_SPACE
 70
     0
 10
0.0
 20
0.0
 30
0.0
  3
*PAPER_SPACE
  1

  0
ENDBLK
  5
514
100
AcDbEntity
100
AcDbBlockEnd
  0
BLOCK
  5
515
100
AcDbEntity
  8
0
100
AcDbBlockBegin
  2
CDWK_EXTR_0
 70
     0
 10
0.0
 20
0.0
 30
0.0
  3
CDWK_EXTR_0
  1

  4
Cadwork line-extremity
  0
LINE
  5
516
100
AcDbEntity
  8
0
 62
     0
370
    -2
100
AcDbLine
 10
0.0
 20
0.0
 30
0.0
 11
2.0
 21
0.5
 31
0.0
  0
LINE
  5
517
100
AcDbEntity
  8
0
 62
     0
370
    -2
100
AcDbLine
 10
0.0
 20
0.0
 30
0.0
 11
2.0
 21
-0.5
 31
0.0
  0
LINE
  5
518
100
AcDbEntity
  8
0
 62
     0
370
    -2
100
AcDbLine
 10
2.0
 20
0.5
 30
0.0
 11
2.0
 21
-0.5
 31
0.0
  0
ENDBLK
  5
519
100
AcDbEntity
100
AcDbBlockEnd
  0
BLOCK
  5
51A
100
AcDbEntity
  8
0
100
AcDbBlockBegin
  2
CDWK_EXTR_1D
 70
     0
 10
0.0
 20
0.0
 30
0.0
  3
CDWK_EXTR_1D
  1

  4
Cadwork line-extremity
  0
LINE
  5
51B
100
AcDbEntity
  8
0
 62
     0
370
    -2
100
AcDbLine
 10
0.0
 20
0.0
 30
0.0
 11
0.0
 21
1.0
 31
0.0
  0
LINE
  5
51C
100
AcDbEntity
  8
0
 62
     0
370
    -2
100
AcDbLine
 10
0.0
 20
1.0
 30
0.0
 11
0.5
 21
1.5
 31
0.0
  0
LINE
  5
51D
100
AcDbEntity
  8
0
 62
     0
370
    -2
100
AcDbLine
 10
0.5
 20
1.5
 30
0.0
 11
1.5
 21
1.5
 31
0.0
  0
ENDBLK
  5
51E
100
AcDbEntity
100
AcDbBlockEnd
  0
BLOCK
  5
51F
100
AcDbEntity
  8
0
100
AcDbBlockBegin
  2
CDWK_EXTR_1G
 70
     0
 10
0.0
 20
0.0
 30
0.0
  3
CDWK_EXTR_1G
  1

  4
Cadwork line-extremity
  0
LINE
  5
520
100
AcDbEntity
  8
0
 62
     0
370
    -2
100
AcDbLine
 10
0.0
 20
0.0
 30
0.0
 11
0.0
 21
-1.0
 31
0.0
  0
LINE
  5
521
100
AcDbEntity
  8
0
 62
     0
370
    -2
100
AcDbLine
 10
0.0
 20
-1.0
 30
0.0
 11
0.5
 21
-1.5
 31
0.0
  0
LINE
  5
522
100
AcDbEntity
  8
0
 62
     0
370
    -2
100
AcDbLine
 10
0.5
 20
-1.5
 30
0.0
 11
1.5
 21
-1.5
 31
0.0
  0
ENDBLK
  5
523
100
AcDbEntity
100
AcDbBlockEnd
  0
BLOCK
  5
524
100
AcDbEntity
  8
0
100
AcDbBlockBegin
  2
CDWK_EXTR_2
 70
     0
 10
0.0
 20
0.0
 30
0.0
  3
CDWK_EXTR_2
  1

  4
Cadwork line-extremity
  0
SOLID
  5
525
100
AcDbEntity
  8
0
 62
     0
100
AcDbTrace
 10
0.0
 20
0.0
 11
2.0
 21
0.5
 12
2.0
 22
-0.5
 13
2.0
 23
-0.5
  0
ENDBLK
  5
526
100
AcDbEntity
100
AcDbBlockEnd
  0
BLOCK
  5
527
100
AcDbEntity
  8
0
100
AcDbBlockBegin
  2
CDWK_EXTR_3
 70
     0
 10
0.0
 20
0.0
 30
0.0
  3
CDWK_EXTR_3
  1

  4
Cadwork line-extremity
  0
SOLID
  5
528
100
AcDbEntity
  8
0
 62
     0
100
AcDbTrace
 10
0.0
 20
0.0
 11
2.0
 21
0.5
 12
2.0
 22
-0.5
 13
2.0
 23
-0.5
  0
LINE
  5
529
100
AcDbEntity
  8
0
 62
     0
370
    -2
100
AcDbLine
 10
0.0
 20
1.0
 30
0.0
 11
0.0
 21
-1.0
 31
0.0
  0
ENDBLK
  5
52A
100
AcDbEntity
100
AcDbBlockEnd
  0
BLOCK
  5
52B
100
AcDbEntity
  8
0
100
AcDbBlockBegin
  2
CDWK_EXTR_4
 70
     0
 10
0.0
 20
0.0
 30
0.0
  3
CDWK_EXTR_4
  1

  4
Cadwork line-extremity
  0
HATCH
  5
52C
100
AcDbEntity
  8
0
 62
     0
370
    -2
100
AcDbHatch
 10
0.0
 20
0.0
 30
0.0
210
0.0
220
0.0
230
1.0
  2
SOLID
 70
     1
 71
     0
 91
        1
 92
        1
 93
        1
 72
     2
 10
0.0
 20
0.0
 40
0.5
 50
0.0
 51
360.0
 73
     1
 97
        0
 75
     0
 76
     1
 98
        1
 10
0.0
 20
0.0
  0
ENDBLK
  5
52D
100
AcDbEntity
100
AcDbBlockEnd
  0
BLOCK
  5
52E
100
AcDbEntity
  8
0
100
AcDbBlockBegin
  2
CDWK_PTTYP0
 70
     0
 10
0.0
 20
0.0
 30
0.0
  3
CDWK_PTTYP0
  1

  4
Cadwork point
  0
POINT
  5
52F
100
AcDbEntity
  8
0
 62
     0
100
AcDbPoint
 10
0.0
 20
0.0
 30
0.0
  0
ENDBLK
  5
530
100
AcDbEntity
100
AcDbBlockEnd
  0
BLOCK
  5
531
100
AcDbEntity
  8
0
100
AcDbBlockBegin
  2
CDWK_PTTYP1
 70
     0
 10
0.0
 20
0.0
 30
0.0
  3
CDWK_PTTYP1
  1

  4
Cadwork node
  0
LINE
  5
532
100
AcDbEntity
  8
0
 62
     0
370
    -2
100
AcDbLine
 10
-0.5
 20
0.5
 30
0.0
 11
0.5
 21
0.5
 31
0.0
  0
LINE
  5
533
100
AcDbEntity
  8
0
 62
     0
370
    -2
100
AcDbLine
 10
0.5
 20
0.5
 30
0.0
 11
0.5
 21
-0.5
 31
0.0
  0
LINE
  5
534
100
AcDbEntity
  8
0
 62
     0
370
    -2
100
AcDbLine
 10
0.5
 20
-0.5
 30
0.0
 11
-0.5
 21
-0.5
 31
0.0
  0
LINE
  5
535
100
AcDbEntity
  8
0
 62
     0
370
    -2
100
AcDbLine
 10
-0.5
 20
-0.5
 30
0.0
 11
-0.5
 21
0.5
 31
0.0
  0
ENDBLK
  5
536
100
AcDbEntity
100
AcDbBlockEnd
  0
BLOCK
  5
537
100
AcDbEntity
  8
0
100
AcDbBlockBegin
  2
CDWK_PTTYP2
 70
     0
 10
0.0
 20
0.0
 30
0.0
  3
CDWK_PTTYP2
  1

  4
Cadwork node
  0
LINE
  5
538
100
AcDbEntity
  8
0
 62
     0
370
    -2
100
AcDbLine
 10
0.0
 20
0.5
 30
0.0
 11
0.0
 21
-0.5
 31
0.0
  0
LINE
  5
539
100
AcDbEntity
  8
0
 62
     0
370
    -2
100
AcDbLine
 10
-0.5
 20
0.0
 30
0.0
 11
0.5
 21
0.0
 31
0.0
  0
ENDBLK
  5
53A
100
AcDbEntity
100
AcDbBlockEnd
  0
BLOCK
  5
53B
100
AcDbEntity
  8
0
100
AcDbBlockBegin
  2
CDWK_PTTYP3
 70
     0
 10
0.0
 20
0.0
 30
0.0
  3
CDWK_PTTYP3
  1

  4
Cadwork node
  0
CIRCLE
  5
53C
100
AcDbEntity
  8
0
 62
     0
370
    -2
100
AcDbCircle
 10
0.0
 20
0.0
 30
0.0
 40
0.5
  0
ENDBLK
  5
53D
100
AcDbEntity
100
AcDbBlockEnd
  0
BLOCK
  5
53E
100
AcDbEntity
  8
0
100
AcDbBlockBegin
  2
CDWK_PTTYP4
 70
     0
 10
0.0
 20
0.0
 30
0.0
  3
CDWK_PTTYP4
  1

  4
Cadwork node
  0
HATCH
  5
53F
100
AcDbEntity
  8
0
 62
     0
370
    -2
100
AcDbHatch
 10
0.0
 20
0.0
 30
0.0
210
0.0
220
0.0
230
1.0
  2
SOLID
 70
     1
 71
     0
 91
        1
 92
        1
 93
        1
 72
     2
 10
0.0
 20
0.0
 40
0.5
 50
0.0
 51
360.0
 73
     1
 97
        0
 75
     0
 76
     1
 98
        1
 10
0.0
 20
0.0
  0
ENDBLK
  5
540
100
AcDbEntity
100
AcDbBlockEnd
  0
BLOCK
  5
541
100
AcDbEntity
  8
0
100
AcDbBlockBegin
  2
CDWK_PTTYP5
 70
     0
 10
0.0
 20
0.0
 30
0.0
  3
CDWK_PTTYP5
  1

  4
Cadwork node
  0
LINE
  5
542
100
AcDbEntity
  8
0
 62
     0
370
    -2
100
AcDbLine
 10
-0.5
 20
0.5
 30
0.0
 11
0.5
 21
0.5
 31
0.0
  0
LINE
  5
543
100
AcDbEntity
  8
0
 62
     0
370
    -2
100
AcDbLine
 10
0.5
 20
0.5
 30
0.0
 11
0.5
 21
-0.5
 31
0.0
  0
LINE
  5
544
100
AcDbEntity
  8
0
 62
     0
370
    -2
100
AcDbLine
 10
0.5
 20
-0.5
 30
0.0
 11
-0.5
 21
-0.5
 31
0.0
  0
LINE
  5
545
100
AcDbEntity
  8
0
 62
     0
370
    -2
100
AcDbLine
 10
-0.5
 20
-0.5
 30
0.0
 11
-0.5
 21
0.5
 31
0.0
  0
SOLID
  5
546
100
AcDbEntity
  8
0
 62
     0
100
AcDbTrace
 10
-0.5
 20
-0.5
 11
-0.5
 21
0.0
 12
0.0
 22
-0.5
 13
0.0
 23
0.0
  0
SOLID
  5
547
100
AcDbEntity
  8
0
 62
     0
100
AcDbTrace
 10
0.0
 20
0.0
 11
0.0
 21
0.5
 12
0.5
 22
0.0
 13
0.5
 23
0.5
  0
ENDBLK
  5
548
100
AcDbEntity
100
AcDbBlockEnd
  0
BLOCK
  5
549
100
AcDbEntity
  8
0
100
AcDbBlockBegin
  2
CDWK_PTTYP6
 70
     0
 10
0.0
 20
0.0
 30
0.0
  3
CDWK_PTTYP6
  1

  4
Cadwork node
  0
LINE
  5
54A
100
AcDbEntity
  8
0
 62
     0
370
    -2
100
AcDbLine
 10
-0.5
 20
0.5
 30
0.0
 11
0.5
 21
0.5
 31
0.0
  0
LINE
  5
54B
100
AcDbEntity
  8
0
 62
     0
370
    -2
100
AcDbLine
 10
0.5
 20
0.5
 30
0.0
 11
0.5
 21
-0.5
 31
0.0
  0
LINE
  5
54C
100
AcDbEntity
  8
0
 62
     0
370
    -2
100
AcDbLine
 10
0.5
 20
-0.5
 30
0.0
 11
-0.5
 21
-0.5
 31
0.0
  0
LINE
  5
54D
100
AcDbEntity
  8
0
 62
     0
370
    -2
100
AcDbLine
 10
-0.5
 20
-0.5
 30
0.0
 11
-0.5
 21
0.5
 31
0.0
  0
SOLID
  5
54E
100
AcDbEntity
  8
0
 62
     0
100
AcDbTrace
 10
-0.5
 20
-0.5
 11
-0.5
 21
0.5
 12
0.5
 22
0.5
 13
0.5
 23
0.5
  0
ENDBLK
  5
54F
100
AcDbEntity
100
AcDbBlockEnd
  0
BLOCK
  5
550
100
AcDbEntity
  8
0
100
AcDbBlockBegin
  2
CDWK_PTTYP7
 70
     0
 10
0.0
 20
0.0
 30
0.0
  3
CDWK_PTTYP7
  1

  4
Cadwork node
  0
LINE
  5
551
100
AcDbEntity
  8
0
 62
     0
370
    -2
100
AcDbLine
 10
-0.5
 20
0.5
 30
0.0
 11
0.5
 21
0.5
 31
0.0
  0
LINE
  5
552
100
AcDbEntity
  8
0
 62
     0
370
    -2
100
AcDbLine
 10
0.5
 20
0.5
 30
0.0
 11
0.5
 21
-0.5
 31
0.0
  0
LINE
  5
553
100
AcDbEntity
  8
0
 62
     0
370
    -2
100
AcDbLine
 10
0.5
 20
-0.5
 30
0.0
 11
-0.5
 21
-0.5
 31
0.0
  0
LINE
  5
554
100
AcDbEntity
  8
0
 62
     0
370
    -2
100
AcDbLine
 10
-0.5
 20
-0.5
 30
0.0
 11
-0.5
 21
0.5
 31
0.0
  0
LINE
  5
555
100
AcDbEntity
  8
0
 62
     0
370
    -2
100
AcDbLine
 10
0.0
 20
0.5
 30
0.0
 11
0.0
 21
-0.5
 31
0.0
  0
LINE
  5
556
100
AcDbEntity
  8
0
 62
     0
370
    -2
100
AcDbLine
 10
-0.5
 20
0.0
 30
0.0
 11
0.5
 21
0.0
 31
0.0
  0
ENDBLK
  5
557
100
AcDbEntity
100
AcDbBlockEnd
  0
BLOCK
  5
558
100
AcDbEntity
  8
0
100
AcDbBlockBegin
  2
CDWK_PTTYP8
 70
     0
 10
0.0
 20
0.0
 30
0.0
  3
CDWK_PTTYP8
  1

  4
Cadwork node
  0
SOLID
  5
559
100
AcDbEntity
  8
0
 62
     0
100
AcDbTrace
 10
-0.5
 20
0.5
 11
0.5
 21
0.5
 12
-0.5
 22
-0.5
 13
0.5
 23
-0.5
  0
ENDBLK
  5
55A
100
AcDbEntity
100
AcDbBlockEnd
  0
BLOCK
  5
55B
100
AcDbEntity
  8
0
100
AcDbBlockBegin
  2
CDWK_PTTYP9
 70
     0
 10
0.0
 20
0.0
 30
0.0
  3
CDWK_PTTYP9
  1

  4
Cadwork node
  0
CIRCLE
  5
55C
100
AcDbEntity
  8
0
 62
     0
370
    -2
100
AcDbCircle
 10
0.0
 20
0.0
 30
0.0
 40
0.5
  0
CIRCLE
  5
55D
100
AcDbEntity
  8
0
 62
     0
370
    -2
100
AcDbCircle
 10
0.0
 20
0.0
 30
0.0
 40
0.16666667
  0
ENDBLK
  5
55E
100
AcDbEntity
100
AcDbBlockEnd
  0
BLOCK
  5
55F
100
AcDbEntity
  8
0
100
AcDbBlockBegin
  2
CDWK_PTTYP10
 70
     0
 10
0.0
 20
0.0
 30
0.0
  3
CDWK_PTTYP10
  1

  4
Cadwork node
  0
CIRCLE
  5
560
100
AcDbEntity
  8
0
 62
     0
370
    -2
100
AcDbCircle
 10
0.0
 20
0.0
 30
0.0
 40
0.5
  0
ENDBLK
  5
561
100
AcDbEntity
100
AcDbBlockEnd
  0
BLOCK
  5
562
100
AcDbEntity
  8
0
100
AcDbBlockBegin
  2
CDWK_PTTYP11
 70
     0
 10
0.0
 20
0.0
 30
0.0
  3
CDWK_PTTYP11
  1

  4
Cadwork node
  0
CIRCLE
  5
563
100
AcDbEntity
  8
0
 62
     0
370
    -2
100
AcDbCircle
 10
0.0
 20
0.0
 30
0.0
 40
0.5
  0
CIRCLE
  5
564
100
AcDbEntity
  8
0
 62
     0
370
    -2
100
AcDbCircle
 10
0.0
 20
0.0
 30
0.0
 40
0.25
  0
ENDBLK
  5
565
100
AcDbEntity
100
AcDbBlockEnd
  0
BLOCK
  5
566
100
AcDbEntity
  8
0
100
AcDbBlockBegin
  2
CDWK_PTTYP12
 70
     0
 10
0.0
 20
0.0
 30
0.0
  3
CDWK_PTTYP12
  1

  4
Cadwork node
  0
CIRCLE
  5
567
100
AcDbEntity
  8
0
 62
     0
370
    -2
100
AcDbCircle
 10
0.0
 20
0.0
 30
0.0
 40
0.5
  0
CIRCLE
  5
568
100
AcDbEntity
  8
0
 62
     0
370
    -2
100
AcDbCircle
 10
0.25
 20
0.0
 30
0.0
 40
0.25
  0
ENDBLK
  5
569
100
AcDbEntity
100
AcDbBlockEnd
  0
BLOCK
  5
56A
100
AcDbEntity
  8
0
100
AcDbBlockBegin
  2
CDWK_PTTYP13
 70
     0
 10
0.0
 20
0.0
 30
0.0
  3
CDWK_PTTYP13
  1

  4
Cadwork node
  0
CIRCLE
  5
56B
100
AcDbEntity
  8
0
 62
     0
370
    -2
100
AcDbCircle
 10
0.0
 20
0.0
 30
0.0
 40
0.5
  0
CIRCLE
  5
56C
100
AcDbEntity
  8
0
 62
     0
370
    -2
100
AcDbCircle
 10
0.25
 20
0.0
 30
0.0
 40
0.25
  0
CIRCLE
  5
56D
100
AcDbEntity
  8
0
 62
     0
370
    -2
100
AcDbCircle
 10
-0.25
 20
0.0
 30
0.0
 40
0.25
  0
ENDBLK
  5
56E
100
AcDbEntity
100
AcDbBlockEnd
  0
BLOCK
  5
56F
100
AcDbEntity
  8
0
100
AcDbBlockBegin
  2
CDWK_PTTYP14
 70
     0
 10
0.0
 20
0.0
 30
0.0
  3
CDWK_PTTYP14
  1

  4
Cadwork node
  0
POINT
  5
570
100
AcDbEntity
  8
0
 62
     0
100
AcDbPoint
 10
0.0
 20
0.0
 30
0.0
  0
ENDBLK
  5
571
100
AcDbEntity
100
AcDbBlockEnd
  0
BLOCK
  5
572
100
AcDbEntity
  8
0
100
AcDbBlockBegin
  2
CDWK_PTTYP15
 70
     0
 10
0.0
 20
0.0
 30
0.0
  3
CDWK_PTTYP15
  1

  4
Cadwork node
  0
POINT
  5
573
100
AcDbEntity
  8
0
 62
     0
100
AcDbPoint
 10
0.0
 20
0.0
 30
0.0
  0
ENDBLK
  5
574
100
AcDbEntity
100
AcDbBlockEnd
  0
BLOCK
  5
575
100
AcDbEntity
  8
0
100
AcDbBlockBegin
  2
CDWK_PTTYP16
 70
     0
 10
0.0
 20
0.0
 30
0.0
  3
CDWK_PTTYP16
  1

  4
Cadwork node
  0
LINE
  5
576
100
AcDbEntity
  8
0
 62
     0
370
    -2
100
AcDbLine
 10
-0.5
 20
-0.28867513
 30
0.0
 11
0.5
 21
-0.28867513
 31
0.0
  0
LINE
  5
577
100
AcDbEntity
  8
0
 62
     0
370
    -2
100
AcDbLine
 10
0.5
 20
-0.28867513
 30
0.0
 11
0.0
 21
0.57735027
 31
0.0
  0
LINE
  5
578
100
AcDbEntity
  8
0
 62
     0
370
    -2
100
AcDbLine
 10
0.0
 20
0.57735027
 30
0.0
 11
-0.5
 21
-0.28867513
 31
0.0
  0
CIRCLE
  5
579
100
AcDbEntity
  8
0
 62
     0
370
    -2
100
AcDbCircle
 10
0.0
 20
0.0
 30
0.0
 40
0.28867513
  0
ENDBLK
  5
57A
100
AcDbEntity
100
AcDbBlockEnd
  0
BLOCK
  5
57B
100
AcDbEntity
  8
0
100
AcDbBlockBegin
  2
CDWK_PTTYP17
 70
     0
 10
0.0
 20
0.0
 30
0.0
  3
CDWK_PTTYP17
  1

  4
Cadwork node
  0
CIRCLE
  5
57C
100
AcDbEntity
  8
0
 62
     0
370
    -2
100
AcDbCircle
 10
0.0
 20
0.0
 30
0.0
 40
0.5
  0
HATCH
  5
57D
100
AcDbEntity
  8
0
 62
     0
370
    -2
100
AcDbHatch
 10
0.0
 20
0.0
 30
0.0
210
0.0
220
0.0
230
1.0
  2
SOLID
 70
     1
 71
     0
 91
        1
 92
        1
 93
        1
 72
     2
 10
0.0
 20
0.0
 40
0.25
 50
0.0
 51
360.0
 73
     1
 97
        0
 75
     0
 76
     1
 98
        1
 10
0.0
 20
0.0
  0
ENDBLK
  5
57E
100
AcDbEntity
100
AcDbBlockEnd
  0
BLOCK
  5
57F
100
AcDbEntity
  8
0
100
AcDbBlockBegin
  2
CDWK_PTTYP18
 70
     0
 10
0.0
 20
0.0
 30
0.0
  3
CDWK_PTTYP18
  1

  4
Cadwork node
  0
CIRCLE
  5
580
100
AcDbEntity
  8
0
 62
     0
370
    -2
100
AcDbCircle
 10
0.0
 20
0.0
 30
0.0
 40
0.5
  0
CIRCLE
  5
581
100
AcDbEntity
  8
0
 62
     0
370
    -2
100
AcDbCircle
 10
0.0
 20
0.0
 30
0.0
 40
0.2
  0
ENDBLK
  5
582
100
AcDbEntity
100
AcDbBlockEnd
  0
BLOCK
  5
583
100
AcDbEntity
  8
0
100
AcDbBlockBegin
  2
CDWK_PTTYP19
 70
     0
 10
0.0
 20
0.0
 30
0.0
  3
CDWK_PTTYP19
  1

  4
Cadwork node
  0
CIRCLE
  5
584
100
AcDbEntity
  8
0
 62
     0
370
    -2
100
AcDbCircle
 10
0.0
 20
0.0
 30
0.0
 40
0.4
  0
CIRCLE
  5
585
100
AcDbEntity
  8
0
 62
     0
370
    -2
100
AcDbCircle
 10
0.0
 20
0.0
 30
0.0
 40
0.25
  0
LINE
  5
586
100
AcDbEntity
  8
0
 62
     0
370
    -2
100
AcDbLine
 10
-0.25
 20
0.0
 30
0.0
 11
0.25
 21
0.0
 31
0.0
  0
ENDBLK
  5
587
100
AcDbEntity
100
AcDbBlockEnd
  0
BLOCK
  5
588
100
AcDbEntity
  8
0
100
AcDbBlockBegin
  2
CDWK_PTTYP20
 70
     0
 10
0.0
 20
0.0
 30
0.0
  3
CDWK_PTTYP20
  1

  4
Cadwork node
  0
CIRCLE
  5
589
100
AcDbEntity
  8
0
 62
     0
370
    -2
100
AcDbCircle
 10
0.0
 20
0.0
 30
0.0
 40
0.5
  0
CIRCLE
  5
58A
100
AcDbEntity
  8
0
 62
     0
370
    -2
100
AcDbCircle
 10
0.0
 20
0.0
 30
0.0
 40
0.3
  0
ENDBLK
  5
58B
100
AcDbEntity
100
AcDbBlockEnd
  0
BLOCK
  5
58C
100
AcDbEntity
  8
0
100
AcDbBlockBegin
  2
CDWK_PTTYP21
 70
     0
 10
0.0
 20
0.0
 30
0.0
  3
CDWK_PTTYP21
  1

  4
Cadwork node
  0
CIRCLE
  5
58D
100
AcDbEntity
  8
0
 62
     0
370
    -2
100
AcDbCircle
 10
0.0
 20
0.0
 30
0.0
 40
0.5
  0
LINE
  5
58E
100
AcDbEntity
  8
0
 62
     0
370
    -2
100
AcDbLine
 10
-0.5
 20
0.0
 30
0.0
 11
0.5
 21
0.0
 31
0.0
  0
ENDBLK
  5
58F
100
AcDbEntity
100
AcDbBlockEnd
  0
BLOCK
  5
590
100
AcDbEntity
  8
0
100
AcDbBlockBegin
  2
CDWK_PTTYP22
 70
     0
 10
0.0
 20
0.0
 30
0.0
  3
CDWK_PTTYP22
  1

  4
Cadwork node
  0
POINT
  5
591
100
AcDbEntity
  8
0
 62
     0
100
AcDbPoint
 10
0.0
 20
0.0
 30
0.0
  0
ENDBLK
  5
592
100
AcDbEntity
100
AcDbBlockEnd
  0
BLOCK
  5
593
100
AcDbEntity
  8
0
100
AcDbBlockBegin
  2
CDWK_PTTYP23
 70
     0
 10
0.0
 20
0.0
 30
0.0
  3
CDWK_PTTYP23
  1

  4
Cadwork node
  0
POINT
  5
594
100
AcDbEntity
  8
0
 62
     0
100
AcDbPoint
 10
0.0
 20
0.0
 30
0.0
  0
ENDBLK
  5
595
100
AcDbEntity
100
AcDbBlockEnd
  0
BLOCK
  5
596
100
AcDbEntity
  8
0
100
AcDbBlockBegin
  2
CDWK_PTTYP24
 70
     0
 10
0.0
 20
0.0
 30
0.0
  3
CDWK_PTTYP24
  1

  4
Cadwork node
  0
POINT
  5
597
100
AcDbEntity
  8
0
 62
     0
100
AcDbPoint
 10
0.0
 20
0.0
 30
0.0
  0
ENDBLK
  5
598
100
AcDbEntity
100
AcDbBlockEnd
  0
BLOCK
  5
599
100
AcDbEntity
  8
0
100
AcDbBlockBegin
  2
CDWK_PTTYP25
 70
     0
 10
0.0
 20
0.0
 30
0.0
  3
CDWK_PTTYP25
  1

  4
Cadwork node
  0
LINE
  5
59A
100
AcDbEntity
  8
0
 62
     0
370
    -2
100
AcDbLine
 10
-0.43290044
 20
-0.25
 30
0.0
 11
0.43290044
 21
-0.25
 31
0.0
  0
LINE
  5
59B
100
AcDbEntity
  8
0
 62
     0
370
    -2
100
AcDbLine
 10
-0.43290044
 20
-0.25
 30
0.0
 11
0.0
 21
0.5
 31
0.0
  0
LINE
  5
59C
100
AcDbEntity
  8
0
 62
     0
370
    -2
100
AcDbLine
 10
0.43290044
 20
-0.25
 30
0.0
 11
0.0
 21
0.5
 31
0.0
  0
CIRCLE
  5
59D
100
AcDbEntity
  8
0
 62
     0
370
    -2
100
AcDbCircle
 10
0.0
 20
0.0
 30
0.0
 40
0.5
  0
ENDBLK
  5
59E
100
AcDbEntity
100
AcDbBlockEnd
  0
BLOCK
  5
59F
100
AcDbEntity
  8
0
100
AcDbBlockBegin
  2
CDWK_PTTYP26
 70
     0
 10
0.0
 20
0.0
 30
0.0
  3
CDWK_PTTYP26
  1

  4
Cadwork node
  0
LINE
  5
5A0
100
AcDbEntity
  8
0
 62
     0
370
    -2
100
AcDbLine
 10
-0.5
 20
-0.28850001
 30
0.0
 11
0.5
 21
-0.28850001
 31
0.0
  0
LINE
  5
5A1
100
AcDbEntity
  8
0
 62
     0
370
    -2
100
AcDbLine
 10
-0.5
 20
-0.28850001
 30
0.0
 11
0.0
 21
0.57736721
 31
0.0
  0
LINE
  5
5A2
100
AcDbEntity
  8
0
 62
     0
370
    -2
100
AcDbLine
 10
0.5
 20
-0.28850001
 30
0.0
 11
0.0
 21
0.57736721
 31
0.0
  0
CIRCLE
  5
5A3
100
AcDbEntity
  8
0
 62
     0
370
    -2
100
AcDbCircle
 10
0.0
 20
0.0
 30
0.0
 40
0.1312336
  0
ENDBLK
  5
5A4
100
AcDbEntity
100
AcDbBlockEnd
  0
BLOCK
  5
5A5
100
AcDbEntity
  8
0
100
AcDbBlockBegin
  2
CDWK_PTTYP27
 70
     0
 10
0.0
 20
0.0
 30
0.0
  3
CDWK_PTTYP27
  1

  4
Cadwork node
  0
LINE
  5
5A6
100
AcDbEntity
  8
0
 62
     0
370
    -2
100
AcDbLine
 10
-0.43290044
 20
-0.25
 30
0.0
 11
0.43290044
 21
-0.25
 31
0.0
  0
LINE
  5
5A7
100
AcDbEntity
  8
0
 62
     0
370
    -2
100
AcDbLine
 10
-0.43290044
 20
-0.25
 30
0.0
 11
0.0
 21
0.5
 31
0.0
  0
LINE
  5
5A8
100
AcDbEntity
  8
0
 62
     0
370
    -2
100
AcDbLine
 10
0.43290044
 20
-0.25
 30
0.0
 11
0.0
 21
0.5
 31
0.0
  0
CIRCLE
  5
5A9
100
AcDbEntity
  8
0
 62
     0
370
    -2
100
AcDbCircle
 10
0.0
 20
0.0
 30
0.0
 40
0.5
  0
CIRCLE
  5
5AA
100
AcDbEntity
  8
0
 62
     0
370
    -2
100
AcDbCircle
 10
0.0
 20
0.0
 30
0.0
 40
0.1312336
  0
ENDBLK
  5
5AB
100
AcDbEntity
100
AcDbBlockEnd
  0
BLOCK
  5
5AC
100
AcDbEntity
  8
0
100
AcDbBlockBegin
  2
CDWK_PTTYP28
 70
     0
 10
0.0
 20
0.0
 30
0.0
  3
CDWK_PTTYP28
  1

  4
Cadwork node
  0
POINT
  5
5AD
100
AcDbEntity
  8
0
 62
     0
100
AcDbPoint
 10
0.0
 20
0.0
 30
0.0
  0
ENDBLK
  5
5AE
100
AcDbEntity
100
AcDbBlockEnd
  0
BLOCK
  5
5AF
100
AcDbEntity
  8
0
100
AcDbBlockBegin
  2
CDWK_PTTYP29
 70
     0
 10
0.0
 20
0.0
 30
0.0
  3
CDWK_PTTYP29
  1

  4
Cadwork node
  0
CIRCLE
  5
5B0
100
AcDbEntity
  8
0
 62
     0
370
    -2
100
AcDbCircle
 10
0.0
 20
0.0
 30
0.0
 40
0.5
  0
CIRCLE
  5
5B1
100
AcDbEntity
  8
0
 62
     0
370
    -2
100
AcDbCircle
 10
0.0
 20
0.0
 30
0.0
 40
0.375
  0
CIRCLE
  5
5B2
100
AcDbEntity
  8
0
 62
     0
370
    -2
100
AcDbCircle
 10
0.0
 20
0.0
 30
0.0
 40
0.21875
  0
ENDBLK
  5
5B3
100
AcDbEntity
100
AcDbBlockEnd
  0
BLOCK
  5
5B4
100
AcDbEntity
  8
0
100
AcDbBlockBegin
  2
CDWK_PTTYP30
 70
     0
 10
0.0
 20
0.0
 30
0.0
  3
CDWK_PTTYP30
  1

  4
Cadwork node
  0
LINE
  5
5B5
100
AcDbEntity
  8
0
 62
     0
370
    -2
100
AcDbLine
 10
0.17680339
 20
0.17680339
 30
0.0
 11
0.5
 21
0.5
 31
0.0
  0
LINE
  5
5B6
100
AcDbEntity
  8
0
 62
     0
370
    -2
100
AcDbLine
 10
-0.17680339
 20
0.17680339
 30
0.0
 11
-0.5
 21
0.5
 31
0.0
  0
LINE
  5
5B7
100
AcDbEntity
  8
0
 62
     0
370
    -2
100
AcDbLine
 10
0.17680339
 20
-0.17680339
 30
0.0
 11
0.5
 21
-0.5
 31
0.0
  0
LINE
  5
5B8
100
AcDbEntity
  8
0
 62
     0
370
    -2
100
AcDbLine
 10
-0.17680339
 20
-0.17680339
 30
0.0
 11
-0.5
 21
-0.5
 31
0.0
  0
ENDBLK
  5
5B9
100
AcDbEntity
100
AcDbBlockEnd
  0
BLOCK
  5
5BA
100
AcDbEntity
  8
0
100
AcDbBlockBegin
  2
CDWK_PTTYP31
 70
     0
 10
0.0
 20
0.0
 30
0.0
  3
CDWK_PTTYP31
  1

  4
Cadwork node
  0
CIRCLE
  5
5BB
100
AcDbEntity
  8
0
 62
     0
370
    -2
100
AcDbCircle
 10
0.0
 20
0.0
 30
0.0
 40
0.075
  0
LINE
  5
5BC
100
AcDbEntity
  8
0
 62
     0
370
    -2
100
AcDbLine
 10
0.075
 20
0.0
 30
0.0
 11
0.5
 21
0.0
 31
0.0
  0
LINE
  5
5BD
100
AcDbEntity
  8
0
 62
     0
370
    -2
100
AcDbLine
 10
-0.075
 20
0.0
 30
0.0
 11
-0.5
 21
0.0
 31
0.0
  0
LINE
  5
5BE
100
AcDbEntity
  8
0
 62
     0
370
    -2
100
AcDbLine
 10
0.0
 20
0.075
 30
0.0
 11
0.0
 21
0.5
 31
0.0
  0
LINE
  5
5BF
100
AcDbEntity
  8
0
 62
     0
370
    -2
100
AcDbLine
 10
0.0
 20
-0.075
 30
0.0
 11
0.0
 21
-0.5
 31
0.0
  0
ENDBLK
  5
5C0
100
AcDbEntity
100
AcDbBlockEnd
  0
BLOCK
  5
5C1
100
AcDbEntity
  8
0
100
AcDbBlockBegin
  2
CDWK_PTTYP32
 70
     0
 10
0.0
 20
0.0
 30
0.0
  3
CDWK_PTTYP32
  1

  4
Cadwork node
  0
CIRCLE
  5
5C2
100
AcDbEntity
  8
0
 62
     0
370
    -2
100
AcDbCircle
 10
0.0
 20
0.0
 30
0.0
 40
0.5
  0
CIRCLE
  5
5C3
100
AcDbEntity
  8
0
 62
     0
370
    -2
100
AcDbCircle
 10
0.0
 20
0.0
 30
0.0
 40
0.16666667
  0
LINE
  5
5C4
100
AcDbEntity
  8
0
 62
     0
370
    -2
100
AcDbLine
 10
0.11786893
 20
0.11786893
 30
0.0
 11
0.35360678
 21
0.35360678
 31
0.0
  0
LINE
  5
5C5
100
AcDbEntity
  8
0
 62
     0
370
    -2
100
AcDbLine
 10
-0.11786893
 20
0.11786893
 30
0.0
 11
-0.35360678
 21
0.35360678
 31
0.0
  0
LINE
  5
5C6
100
AcDbEntity
  8
0
 62
     0
370
    -2
100
AcDbLine
 10
0.11786893
 20
-0.11786893
 30
0.0
 11
0.35360678
 21
-0.35360678
 31
0.0
  0
LINE
  5
5C7
100
AcDbEntity
  8
0
 62
     0
370
    -2
100
AcDbLine
 10
-0.11786893
 20
-0.11786893
 30
0.0
 11
-0.35360678
 21
-0.35360678
 31
0.0
  0
ENDBLK
  5
5C8
100
AcDbEntity
100
AcDbBlockEnd
  0
BLOCK
  5
5C9
100
AcDbEntity
  8
0
100
AcDbBlockBegin
  2
CDWK_PTTYP33
 70
     0
 10
0.0
 20
0.0
 30
0.0
  3
CDWK_PTTYP33
  1

  4
Cadwork node
  0
CIRCLE
  5
5CA
100
AcDbEntity
  8
0
 62
     0
370
    -2
100
AcDbCircle
 10
0.0
 20
0.0
 30
0.0
 40
0.5
  0
LINE
  5
5CB
100
AcDbEntity
  8
0
 62
     0
370
    -2
100
AcDbLine
 10
0.0
 20
0.5
 30
0.0
 11
0.0
 21
-0.5
 31
0.0
  0
LINE
  5
5CC
100
AcDbEntity
  8
0
 62
     0
370
    -2
100
AcDbLine
 10
-0.5
 20
0.0
 30
0.0
 11
0.5
 21
0.0
 31
0.0
  0
ENDBLK
  5
5CD
100
AcDbEntity
100
AcDbBlockEnd
  0
BLOCK
  5
5CE
100
AcDbEntity
  8
0
100
AcDbBlockBegin
  2
CDWK_PTTYP34
 70
     0
 10
0.0
 20
0.0
 30
0.0
  3
CDWK_PTTYP34
  1

  4
Cadwork node
  0
CIRCLE
  5
5CF
100
AcDbEntity
  8
0
 62
     0
370
    -2
100
AcDbCircle
 10
0.0
 20
0.0
 30
0.0
 40
0.5
  0
LINE
  5
5D0
100
AcDbEntity
  8
0
 62
     0
370
    -2
100
AcDbLine
 10
-0.30360678
 20
-0.40360678
 30
0.0
 11
0.40360678
 21
0.30360678
 31
0.0
  0
LINE
  5
5D1
100
AcDbEntity
  8
0
 62
     0
370
    -2
100
AcDbLine
 10
-0.40360678
 20
-0.30360678
 30
0.0
 11
0.30360678
 21
0.40360678
 31
0.0
  0
ENDBLK
  5
5D2
100
AcDbEntity
100
AcDbBlockEnd
  0
BLOCK
  5
5D3
100
AcDbEntity
  8
0
100
AcDbBlockBegin
  2
CDWK_PTTYP35
 70
     0
 10
0.0
 20
0.0
 30
0.0
  3
CDWK_PTTYP35
  1

  4
Cadwork node
  0
CIRCLE
  5
5D4
100
AcDbEntity
  8
0
 62
     0
370
    -2
100
AcDbCircle
 10
0.0
 20
0.0
 30
0.0
 40
0.21431634
  0
LINE
  5
5D5
100
AcDbEntity
  8
0
 62
     0
370
    -2
100
AcDbLine
 10
0.0
 20
0.21431634
 30
0.0
 11
0.0
 21
0.5
 31
0.0
  0
LINE
  5
5D6
100
AcDbEntity
  8
0
 62
     0
370
    -2
100
AcDbLine
 10
0.0
 20
-0.21431634
 30
0.0
 11
0.0
 21
-0.5
 31
0.0
  0
ENDBLK
  5
5D7
100
AcDbEntity
100
AcDbBlockEnd
  0
BLOCK
  5
5D8
100
AcDbEntity
  8
0
100
AcDbBlockBegin
  2
CDWK_PTTYP36
 70
     0
 10
0.0
 20
0.0
 30
0.0
  3
CDWK_PTTYP36
  1

  4
Cadwork node
  0
LINE
  5
5D9
100
AcDbEntity
  8
0
 62
     0
370
    -2
100
AcDbLine
 10
-0.5
 20
-0.16666667
 30
0.0
 11
0.5
 21
-0.16666667
 31
0.0
  0
LINE
  5
5DA
100
AcDbEntity
  8
0
 62
     0
370
    -2
100
AcDbLine
 10
0.5
 20
-0.16666667
 30
0.0
 11
0.5
 21
0.16666667
 31
0.0
  0
LINE
  5
5DB
100
AcDbEntity
  8
0
 62
     0
370
    -2
100
AcDbLine
 10
0.5
 20
0.16666667
 30
0.0
 11
-0.5
 21
0.16666667
 31
0.0
  0
LINE
  5
5DC
100
AcDbEntity
  8
0
 62
     0
370
    -2
100
AcDbLine
 10
-0.5
 20
0.16666667
 30
0.0
 11
-0.5
 21
-0.16666667
 31
0.0
  0
SOLID
  5
5DD
100
AcDbEntity
  8
0
 62
     0
100
AcDbTrace
 10
-0.5
 20
-0.16666667
 11
0.5
 21
0.16666667
 12
0.5
 22
-0.16666667
 13
0.5
 23
-0.16666667
  0
ENDBLK
  5
5DE
100
AcDbEntity
100
AcDbBlockEnd
  0
BLOCK
  5
5DF
100
AcDbEntity
  8
0
100
AcDbBlockBegin
  2
CDWK_PTTYP37
 70
     0
 10
0.0
 20
0.0
 30
0.0
  3
CDWK_PTTYP37
  1

  4
Cadwork node
  0
CIRCLE
  5
5E0
100
AcDbEntity
  8
0
 62
     0
370
    -2
100
AcDbCircle
 10
0.0
 20
0.0
 30
0.0
 40
0.5
  0
SOLID
  5
5E1
100
AcDbEntity
  8
0
 62
     0
100
AcDbTrace
 10
0.0
 20
0.0
 11
0.35350001
 21
0.35350001
 12
0.5
 22
0.0
 13
0.46200001
 23
0.19149999
  0
SOLID
  5
5E2
100
AcDbEntity
  8
0
 62
     0
100
AcDbTrace
 10
0.0
 20
0.0
 11
0.35350001
 21
-0.35350001
 12
0.5
 22
0.0
 13
0.46200001
 23
-0.19149999
  0
SOLID
  5
5E3
100
AcDbEntity
  8
0
 62
     0
100
AcDbTrace
 10
0.0
 20
0.0
 11
0.0
 21
-0.5
 12
0.35350001
 22
-0.35350001
 13
0.19149999
 23
-0.46200001
  0
SOLID
  5
5E4
100
AcDbEntity
  8
0
 62
     0
100
AcDbTrace
 10
0.0
 20
0.0
 11
0.0
 21
-0.5
 12
-0.35350001
 22
-0.35350001
 13
-0.19149999
 23
-0.46200001
  0
ENDBLK
  5
5E5
100
AcDbEntity
100
AcDbBlockEnd
  0
BLOCK
  5
5E6
100
AcDbEntity
  8
0
100
AcDbBlockBegin
  2
CDWK_PTTYP38
 70
     0
 10
0.0
 20
0.0
 30
0.0
  3
CDWK_PTTYP38
  1

  4
Cadwork node
  0
CIRCLE
  5
5E7
100
AcDbEntity
  8
0
 62
     0
370
    -2
100
AcDbCircle
 10
0.0
 20
0.0
 30
0.0
 40
0.5
  0
SOLID
  5
5E8
100
AcDbEntity
  8
0
 62
     0
100
AcDbTrace
 10
0.0
 20
0.0
 11
0.35350001
 21
0.35350001
 12
0.0
 22
0.5
 13
0.19149999
 23
0.46200001
  0
SOLID
  5
5E9
100
AcDbEntity
  8
0
 62
     0
100
AcDbTrace
 10
0.0
 20
0.0
 11
0.5
 21
0.0
 12
0.35350001
 22
0.35350001
 13
0.46200001
 23
0.19149999
  0
SOLID
  5
5EA
100
AcDbEntity
  8
0
 62
     0
100
AcDbTrace
 10
0.0
 20
0.0
 11
0.0
 21
-0.5
 12
-0.35350001
 22
-0.35350001
 13
-0.19149999
 23
-0.46200001
  0
SOLID
  5
5EB
100
AcDbEntity
  8
0
 62
     0
100
AcDbTrace
 10
0.0
 20
0.0
 11
-0.5
 21
0.0
 12
-0.35350001
 22
-0.35350001
 13
-0.46200001
 23
-0.19149999
  0
ENDBLK
  5
5EC
100
AcDbEntity
100
AcDbBlockEnd
  0
BLOCK
  5
5ED
100
AcDbEntity
  8
Ech.1_5
100
AcDbBlockBegin
  2
*D2
 70
     1
 10
0.0
 20
0.0
 30
0.0
  3
*D2
  1

  4
Cadwork dimension
  0
TEXT
  5
5EE
100
AcDbEntity
  8
Ech.1_5
 62
     7
370
    18
100
AcDbText
 10
37376.22272798
 20
-5905.8745693
 30
0.0
 40
10.0
  1
> 100 mm
  7
TAHOMA
 50
89.9999975
 41
1.0
 51
0.0
100
AcDbText
  0
LINE
  5
5EF
100
AcDbEntity
  8
Ech.1_5
 62
     9
370
    -2
100
AcDbLine
 10
37371.22272798
 20
-5922.44766652
 30
0.0
 11
37386.29405153
 21
-5922.44766652
 31
0.0
  0
LINE
  5
5F0
100
AcDbEntity
  8
Ech.1_5
 62
     9
370
    -2
100
AcDbLine
 10
37371.22272798
 20
-5836.35704744
 30
0.0
 11
37386.29405153
 21
-5836.35704744
 31
0.0
  0
LINE
  5
5F1
100
AcDbEntity
  8
Ech.1_5
 62
     9
370
    -2
100
AcDbLine
 10
37381.22272798
 20
-5932.44766652
 30
0.0
 11
37381.22272798
 21
-5826.35704744
 31
0.0
  0
LINE
  5
5F2
100
AcDbEntity
  8
Ech.1_5
 62
     9
370
    -2
100
AcDbLine
 10
37386.22272798
 20
-5927.44766652
 30
0.0
 11
37376.22272798
 21
-5917.44766652
 31
0.0
  0
LINE
  5
5F3
100
AcDbEntity
  8
Ech.1_5
 62
     9
370
    -2
100
AcDbLine
 10
37386.22272798
 20
-5841.35704744
 30
0.0
 11
37376.22272798
 21
-5831.35704744
 31
0.0
  0
ENDBLK
  5
5F4
100
AcDbEntity
100
AcDbBlockEnd
  0
ENDSEC
  0
SECTION
  2
ENTITIES
  0
LWPOLYLINE
  5
5F5
100
AcDbEntity
  8
Ech.1_5
 62
   254
  6
CONTINUOUS
370
    -3
100
AcDbPolyline
 90
        5
 70
     1
 43
0.0
 10
37372.58787431
 20
-5749.00974786
 10
37372.58787431
 20
-5797.20978105
 10
38001.82986776
 20
-5797.20978105
 10
38001.82986776
 20
-5749.00974786
 10
37825.47310996
 20
-5749.00974786
  0
LWPOLYLINE
  5
5F6
100
AcDbEntity
  8
Ech.1_5
 62
   254
  6
CONTINUOUS
370
    -3
100
AcDbPolyline
 90
        5
 70
     1
 43
0.0
 10
37324.38784079
 20
-5797.95967996
 10
37324.38784079
 20
-6139.37009752
 10
37324.38784079
 20
-6581.21311509
 10
37372.58787431
 20
-6581.21311509
 10
37372.58787431
 20
-5797.95838869
  0
LWPOLYLINE
  5
5F7
100
AcDbEntity
  8
Ech.1_5
 62
   190
  6
CONTINUOUS
370
    -3
100
AcDbPolyline
 90
       10
 70
     1
 43
0.0
 10
37392.42684182
 20
-6181.5014652
 10
37392.39171807
 20
-6016.26834237
 10
37537.5527222
 20
-6016.27876222
 10
37537.58784799
 20
-6210.33268487
 10
37537.58787432
 20
-6581.21311509
 10
37510.76205452
 20
-6581.21311509
 10
37494.27570044
 20
-6599.19146669
 10
37508.38564046
 20
-6563.23576677
 10
37491.9001373
 20
-6581.21311509
 10
37392.42687019
 20
-6581.21311509
  0
LWPOLYLINE
  5
5F8
100
AcDbEntity
  8
Ech.1_5
 62
   190
  6
CONTINUOUS
370
    -3
100
AcDbPolyline
 90
        8
 70
     1
 43
0.0
 10
38001.82986776
 20
-5962.27876222
 10
37582.65685528
 20
-5962.27876222
 10
37582.65685528
 20
-5817.27876222
 10
38001.82986776
 20
-5817.27876222
 10
38001.82986776
 20
-5877.81882226
 10
38019.80721617
 20
-5894.30432546
 10
37983.85151615
 20
-5880.19438589
 10
38001.82986776
 20
-5896.68073976
  0
LWPOLYLINE
  5
5F9
100
AcDbEntity
  8
Ech.1_5
 62
   190
  6
CONTINUOUS
370
    -3
100
AcDbPolyline
 90
        4
 70
     1
 43
0.0
 10
37582.65685528
 20
-5817.27876222
 10
37582.65685528
 20
-5917.34774244
 10
37437.65421846
 20
-5917.34774244
 10
37437.65421846
 20
-5817.27876222
  0
LWPOLYLINE
  5
5FA
100
AcDbEntity
  8
Ech.1_5
 62
   190
  6
CONTINUOUS
370
    -3
100
AcDbPolyline
 90
       34
 70
     0
 43
0.0
 10
37582.65685528
 20
-5938.11209524
 42
1.14028181
 10
37630.16672564
 20
-5931.85728776
 10
37607.64698492
 20
-5847.70023668
 42
-1.30322619
 10
37654.33339231
 20
-5847.70023668
 10
37631.81365159
 20
-5931.85728776
 42
1.30322619
 10
37678.50005898
 20
-5931.85728776
 10
37655.98031825
 20
-5847.70023668
 42
-1.30322619
 10
37702.66672564
 20
-5847.70023668
 10
37680.14698492
 20
-5931.85728776
 42
1.30322619
 10
37726.83339231
 20
-5931.85728776
 10
37704.31365159
 20
-5847.70023668
 42
-1.30322619
 10
37751.00005898
 20
-5847.70023668
 10
37728.48031825
 20
-5931.85728776
 42
1.30322619
 10
37775.16672564
 20
-5931.85728776
 10
37752.64698492
 20
-5847.70023668
 42
-1.30322619
 10
37799.33339231
 20
-5847.70023668
 10
37776.81365159
 20
-5931.85728776
 42
1.30322619
 10
37823.50005898
 20
-5931.85728776
 10
37800.98031825
 20
-5847.70023668
 42
-1.30322619
 10
37847.66672564
 20
-5847.70023668
 10
37825.14698492
 20
-5931.85728776
 42
1.30322619
 10
37871.83339231
 20
-5931.85728776
 10
37849.31365159
 20
-5847.70023668
 42
-1.30322619
 10
37896.00005898
 20
-5847.70023668
 10
37873.48031825
 20
-5931.85728776
 42
1.30322619
 10
37920.16672564
 20
-5931.85728776
 10
37897.64698492
 20
-5847.70023668
 42
-1.30322619
 10
37944.33339231
 20
-5847.70023668
 10
37921.81365159
 20
-5931.85728776
 42
1.30322619
 10
37968.50005898
 20
-5931.85728776
 10
37945.98031825
 20
-5847.70023668
 42
-1.30322619
 10
37992.66672564
 20
-5847.70023668
 10
37970.14698492
 20
-5931.85728776
 42
0.60793384
 10
38001.82986776
 20
-5960.79419267
  0
LWPOLYLINE
  5
5FB
100
AcDbEntity
  8
Ech.1_5
 62
   190
  6
CONTINUOUS
370
    -3
100
AcDbPolyline
 90
       16
 70
     0
 43
0.0
 10
37582.65685528
 20
-5833.95692575
 42
1.14028181
 10
37549.86882554
 20
-5838.27356183
 10
37565.41039454
 20
-5896.35294282
 42
-1.30322619
 10
37533.19066204
 20
-5896.35294282
 10
37548.73223105
 20
-5838.27356183
 42
1.30322619
 10
37516.51249855
 20
-5838.27356183
 10
37532.05406755
 20
-5896.35294282
 42
-1.30322619
 10
37499.83433505
 20
-5896.35294282
 10
37515.37590406
 20
-5838.27356183
 42
1.30322619
 10
37483.15617156
 20
-5838.27356183
 10
37498.69774056
 20
-5896.35294282
 42
-1.30322619
 10
37466.47800807
 20
-5896.35294282
 10
37482.01957707
 20
-5838.27356183
 42
1.30322619
 10
37449.79984457
 20
-5838.27356183
 10
37465.34141358
 20
-5896.35294282
 42
-0.76005852
 10
37437.65685528
 20
-5912.67739522
  0
LINE
  5
5FC
100
AcDbEntity
  8
Ech.1_5
 62
     7
  6
CONTINUOUS
100
AcDbLine
 10
38001.82986776
 20
-5817.27876222
 30
0.0
 11
37775.69248264
 21
-5817.27876222
 31
0.0
  0
LWPOLYLINE
  5
5FD
100
AcDbEntity
  8
Ech.1_5
 62
     5
  6
CONTINUOUS
370
    -3
100
AcDbPolyline
 90
        5
 70
     0
 43
0.0
 10
37537.58787431
 20
-5971.27876222
 10
37392.58787431
 20
-5971.27876222
 10
37392.58787431
 20
-6016.27876222
 10
37537.58787431
 20
-6016.27876222
 10
37537.58787431
 20
-5971.27876222
  0
LWPOLYLINE
  5
5FE
100
AcDbEntity
  8
Ech.1_5
 62
   190
  6
CONTINUOUS
370
    -3
100
AcDbPolyline
 90
        4
 70
     0
 43
0.0
 10
37392.58787431
 20
-6016.27876222
 10
37537.58787431
 20
-5971.27876222
 10
37537.58787431
 20
-6016.27876222
 10
37392.58787431
 20
-5971.27876222
  0
LWPOLYLINE
  5
5FF
100
AcDbEntity
  8
Ech.1_5
 62
     5
  6
CONTINUOUS
370
    -3
100
AcDbPolyline
 90
        5
 70
     0
 43
0.0
 10
37437.65685528
 20
-5962.27876222
 10
37582.65685528
 20
-5962.27876222
 10
37582.65685528
 20
-5917.27876222
 10
37437.65685528
 20
-5917.27876222
 10
37437.65685528
 20
-5962.27876222
  0
LWPOLYLINE
  5
600
100
AcDbEntity
  8
Ech.1_5
 62
   190
  6
CONTINUOUS
370
    -3
100
AcDbPolyline
 90
        4
 70
     0
 43
0.0
 10
37582.65685528
 20
-5917.27876222
 10
37437.65685528
 20
-5962.27876222
 10
37437.65685528
 20
-5917.27876222
 10
37582.65685528
 20
-5962.27876222
  0
LWPOLYLINE
  5
601
100
AcDbEntity
  8
Ech.1_5
 62
     5
  6
CONTINUOUS
370
    -3
100
AcDbPolyline
 90
        5
 70
     0
 43
0.0
 10
37392.58787431
 20
-5817.20978105
 10
37392.58787431
 20
-5962.27876222
 10
37437.58787431
 20
-5962.27876222
 10
37437.58787431
 20
-5817.20978105
 10
37392.58787431
 20
-5817.20978105
  0
LWPOLYLINE
  5
602
100
AcDbEntity
  8
Ech.1_5
 62
   190
  6
CONTINUOUS
370
    -3
100
AcDbPolyline
 90
        4
 70
     0
 43
0.0
 10
37437.58787431
 20
-5962.27876222
 10
37392.58787431
 20
-5817.20978105
 10
37437.58787431
 20
-5817.20978105
 10
37392.58787431
 20
-5962.27876222
  0
LWPOLYLINE
  5
603
100
AcDbEntity
  8
Ech.1_5
 62
     9
  6
CONTINUOUS
370
    40
100
AcDbPolyline
 90
        5
 70
     0
 43
0.0
 10
37546.54532605
 20
-6515.10284364
 10
37571.54796372
 20
-6515.10284364
 10
37571.54796372
 20
-6465.10284364
 10
37546.54532605
 20
-6465.10284364
 10
37546.54532605
 20
-6515.10284364
  0
LWPOLYLINE
  5
604
100
AcDbEntity
  8
Ech.1_5
 62
     9
  6
CONTINUOUS
370
    -3
100
AcDbPolyline
 90
        4
 70
     0
 43
0.0
 10
37571.54796372
 20
-6465.10284364
 10
37546.54532605
 20
-6515.10284364
 10
37571.54796372
 20
-6515.10284364
 10
37546.54532605
 20
-6465.10284364
  0
LINE
  5
605
100
AcDbEntity
  8
Ech.1_5
 62
     7
  6
CONTINUOUS
370
     9
100
AcDbLine
 10
37482.51100936
 20
-6205.4423908
 30
0.0
 11
37482.5110104
 21
-6204.51388776
 31
0.0
  0
LINE
  5
606
100
AcDbEntity
  8
Ech.1_5
 62
   190
  6
CONTINUOUS
370
    -3
100
AcDbLine
 10
37500.06618613
 20
-5967.77972448
 30
0.0
 11
37507.06618643
 21
-5974.77972352
 31
0.0
  0
LINE
  5
607
100
AcDbEntity
  8
Ech.1_5
 62
   190
  6
CONTINUOUS
370
    -3
100
AcDbLine
 10
37423.10956231
 20
-6069.70714414
 30
0.0
 11
37430.10956239
 21
-6076.70714319
 31
0.0
  0
LWPOLYLINE
  5
608
100
AcDbEntity
  8
Ech.1_5
 62
     3
370
    90
100
AcDbPolyline
 90
        4
 70
     0
 43
0.0
 10
37388.8499293
 20
-5816.33570707
 10
37388.8499293
 20
-5829.3248409
 10
37383.16931633
 20
-5833.25957334
 10
37383.16931633
 20
-5846.73800313
  0
LWPOLYLINE
  5
609
100
AcDbEntity
  8
Ech.1_5
 62
     9
  6
CONTINUOUS
370
    -3
100
AcDbPolyline
 90
        5
 70
     0
 43
0.0
 10
37571.51889335
 20
-6581.21311509
 10
37591.51889335
 20
-6581.21311509
 10
37591.51889335
 20
-6000.2805208
 10
37571.51889335
 20
-6000.2805208
 10
37571.51889335
 20
-6581.21311509
  0
LWPOLYLINE
  5
60A
102
{ACAD_REACTORS
330
60B
102
}
100
AcDbEntity
  8
Ech.1_5
 62
     9
  6
CONTINUOUS
370
    -3
100
AcDbPolyline
 90
        4
 70
     1
 43
0.0
 10
37372.58787431
 20
-5797.95838869
 10
37372.58787431
 20
-5597.95838869
 10
37172.58787431
 20
-5597.95838869
 10
37172.58787431
 20
-5797.95838869
  0
HATCH
  5
60B
100
AcDbEntity
  8
Ech.1_5
 62
     9
  6
CONTINUOUS
100
AcDbHatch
 10
0.0
 20
0.0
 30
0.0
210
0.0
220
0.0
230
1.0
  2
AR-CONC
 70
     0
 71
     1
 91
        1
 92
        7
 72
     0
 73
     1
 93
        4
 10
37372.58787431
 20
-5797.95838869
 10
37372.58787431
 20
-5597.95838869
 10
37172.58787431
 20
-5597.95838869
 10
37172.58787431
 20
-5797.95838869
 97
        1
330
60A
 75
     0
 76
     2
 52
0.0
 41
0.11811097
 77
     0
 78
    13
 53
50.0
 43
0.0
 44
0.0
 45
-18.84283637
 46
1.64853443
 79
     2
 49
1.97029307
 49
-21.67322338
 53
355.0
 43
0.0
 44
0.0
 45
-3.64507756
 46
19.76051824
 79
     2
 49
1.57623377
 49
-17.3385787
 53
100.45140076
 43
1.57023568
 44
-0.13737749
 45
-15.19777228
 46
-18.11197244
 79
     2
 49
1.67449124
 49
-18.41940522
 53
46.18420029
 43
0.0
 44
5.25411576
 45
-28.03703353
 46
4.34827878
 79
     2
 49
2.95543872
 49
-32.50983238
 53
96.63559723
 43
2.33641885
 44
4.89175692
 45
-24.55412615
 46
-25.59063404
 79
     2
 49
2.51173697
 49
-27.62910426
 53
351.1842041
 43
0.0
 44
5.25411576
 45
24.55410288
 46
25.59065715
 79
     2
 49
2.36435249
 49
-26.00786805
 53
21.0
 43
2.62705699
 44
3.94058615
 45
-15.68109068
 46
10.57702905
 79
     2
 49
1.97029307
 49
-21.67322338
 53
326.0
 43
2.62705699
 44
3.94058615
 45
6.39203268
 46
19.05010734
 79
     2
 49
1.57623377
 49
-17.3385787
 53
71.45140076
 43
3.93381357
 44
3.05916555
 45
-22.07312962
 46
-8.47306182
 79
     2
 49
1.67449124
 49
-18.41940522
 53
37.5
 43
0.0
 44
0.0
 45
0.31944534
 46
8.74531245
 79
     6
 49
0.01875
 49
-17.12841332
 49
0.01875
 49
-17.60128498
 49
0.01875
 49
-17.40425348
 53
7.5
 43
0.0
 44
0.0
 45
6.91098818
 46
10.3614222
 79
     6
 49
0.01875
 49
-10.03535807
 49
0.01875
 49
-16.7343539
 49
0.01875
 49
-6.6333206
 53
-32.5
 43
-5.85833833
 44
0.0
 45
14.02382061
 46
-0.59253003
 79
     6
 49
0.01875
 49
-6.56764314
 49
0.01875
 49
-20.49104869
 49
0.01875
 49
-27.19004452
 53
-42.5
 43
-8.48539531
 44
0.0
 45
15.32063571
 46
2.62981542
 79
     6
 49
0.01875
 49
-8.53793621
 49
0.01875
 49
-13.60815793
 49
0.01875
 49
-19.30887222
 47
0.775229
 98
        1
 10
0.0
 20
0.0
  0
LWPOLYLINE
  5
60C
100
AcDbEntity
  8
Ech.1_5
 62
     9
  6
CONTINUOUS
370
    -3
100
AcDbPolyline
 90
        5
 70
     0
 43
0.0
 10
38001.82986776
 20
-6016.2805208
 10
38001.82986776
 20
-5996.2805208
 10
37595.51889335
 20
-5996.2805208
 10
37595.51889335
 20
-6016.2805208
 10
38001.82986776
 20
-6016.2805208
  0
LWPOLYLINE
  5
60D
100
AcDbEntity
  8
Ech.1_5
 62
   190
  6
CONTINUOUS
370
    -3
100
AcDbPolyline
 90
       46
 70
     0
 43
0.0
 10
37513.41558588
 20
-6581.21461904
 42
1.14028182
 10
37507.15636627
 20
-6533.69408643
 10
37422.98113949
 20
-6556.2243036
 42
-1.30322617
 10
37422.97823383
 20
-6509.52703512
 10
37507.15626377
 20
-6532.04677713
 42
1.30322619
 10
37507.1533581
 20
-6485.3495096
 10
37422.97813133
 20
-6507.87972677
 42
-1.30322617
 10
37422.97522567
 20
-6461.18245828
 10
37507.1532556
 20
-6483.70220029
 42
1.30322619
 10
37507.15034994
 20
-6437.00493276
 10
37422.97512317
 20
-6459.53514993
 42
-1.30322617
 10
37422.97221751
 20
-6412.83788144
 10
37507.15024744
 20
-6435.35762346
 42
1.30322619
 10
37507.14734178
 20
-6388.66035592
 10
37422.972115
 20
-6411.1905731
 42
-1.30322617
 10
37422.96920934
 20
-6364.49330461
 10
37507.14723928
 20
-6387.01304662
 42
1.30322619
 10
37507.14433362
 20
-6340.31577909
 10
37422.96910684
 20
-6362.84599626
 42
-1.30322617
 10
37422.96620118
 20
-6316.14872777
 10
37507.14423112
 20
-6338.66846979
 42
1.30322619
 10
37507.14132545
 20
-6291.97120225
 10
37422.96609868
 20
-6314.50141942
 42
-1.30322617
 10
37422.96319302
 20
-6267.80415094
 10
37507.14122295
 20
-6290.32389295
 42
1.30322619
 10
37507.13831729
 20
-6243.62662542
 10
37422.96309052
 20
-6266.15684163
 42
-1.30322619
 10
37422.96018486
 20
-6219.4595741
 10
37507.13821479
 20
-6241.97931611
 42
1.30322617
 10
37507.13530913
 20
-6195.28204763
 10
37422.96008235
 20
-6217.8122648
 42
-1.30322619
 10
37422.95717669
 20
-6171.11499727
 10
37507.13520663
 20
-6193.63473928
 42
1.30322617
 10
37507.13230097
 20
-6146.93747079
 10
37422.95707419
 20
-6169.46768796
 42
-1.30322619
 10
37422.95416853
 20
-6122.77042043
 10
37507.13219847
 20
-6145.29016244
 42
1.30322617
 10
37507.1292928
 20
-6098.59289396
 10
37422.95406603
 20
-6121.12311113
 42
-1.30322619
 10
37422.95116037
 20
-6074.4258436
 10
37507.1291903
 20
-6096.94558561
 42
1.30322617
 10
37507.12628464
 20
-6050.24831712
 10
37422.95105787
 20
-6072.77853429
 42
-1.30322619
 10
37422.94815221
 20
-6026.08126676
 10
37507.12618214
 20
-6048.60100877
 42
0.61753445
 10
37535.8260968
 20
-6016.27886999
  0
LWPOLYLINE
  5
60E
100
AcDbEntity
  8
Ech.1_5
 62
   190
  6
CONTINUOUS
370
    -3
100
AcDbPolyline
 90
        4
 70
     0
 43
0.0
 10
37537.54532605
 20
-6468.10284364
 10
37392.47634508
 20
-6513.10284364
 10
37392.47634508
 20
-6468.10284364
 10
37537.54532605
 20
-6513.10284364
  0
LWPOLYLINE
  5
60F
100
AcDbEntity
  8
Ech.1_5
 62
     5
  6
CONTINUOUS
370
    -3
100
AcDbPolyline
 90
        5
 70
     0
 43
0.0
 10
37392.47634508
 20
-6513.10284364
 10
37537.54532605
 20
-6513.10284364
 10
37537.54532605
 20
-6468.10284364
 10
37392.47634508
 20
-6468.10284364
 10
37392.47634508
 20
-6513.10284364
  0
LWPOLYLINE
  5
610
102
{ACAD_REACTORS
330
611
102
}
100
AcDbEntity
  8
Ech.1_5
 62
     7
  6
CONTINUOUS
370
     5
100
AcDbPolyline
 90
        4
 70
     1
 43
0.0
 10
37679.41720393
 20
-6294.7174114
 10
37705.24173502
 20
-6294.7174114
 10
37705.24173502
 20
-6285.28475129
 10
37679.41720393
 20
-6285.28475129
  0
HATCH
  5
611
100
AcDbEntity
  8
Ech.1_5
 62
     2
  6
CONTINUOUS
100
AcDbHatch
 10
0.0
 20
0.0
 30
0.0
210
0.0
220
0.0
230
1.0
  2
SOLID
 70
     1
 71
     1
 91
        1
 92
        7
 72
     0
 73
     1
 93
        4
 10
37679.41720393
 20
-6294.7174114
 10
37705.24173502
 20
-6294.7174114
 10
37705.24173502
 20
-6285.28475129
 10
37679.41720393
 20
-6285.28475129
 97
        1
330
610
 75
     0
 76
     2
 47
0.775229
 98
        1
 10
0.0
 20
0.0
  0
HATCH
  5
612
100
AcDbEntity
  8
Ech.1_5
 62
     7
100
AcDbHatch
 10
0.0
 20
0.0
 30
0.0
210
0.0
220
0.0
230
1.0
  2
ANSI37
 70
     0
 71
     0
 91
        1
 92
        7
 72
     0
 73
     1
 93
        4
 10
37679.41720393
 20
-6294.7174114
 10
37705.24173502
 20
-6294.7174114
 10
37705.24173502
 20
-6285.28475129
 10
37679.41720393
 20
-6285.28475129
 97
        0
 75
     0
 76
     2
 52
0.0
 41
1.87498831
 77
     0
 78
     2
 53
45.0
 43
0.0
 44
0.0
 45
4.20946876
 46
-4.20946876
 79
     0
 53
-45.0
 43
0.0
 44
0.0
 45
4.20946876
 46
4.20946876
 79
     0
 47
0.775229
 98
        1
 10
0.0
 20
0.0
  0
LWPOLYLINE
  5
613
100
AcDbEntity
  8
Ech.1_5
 62
     3
370
    90
100
AcDbPolyline
 90
        4
 70
     0
 43
0.0
 10
37709.7912851
 20
-6316.8893848
 10
37696.80215168
 20
-6316.8893848
 10
37692.86741954
 20
-6311.20877224
 10
37679.38898954
 20
-6311.20877224
  0
LWPOLYLINE
  5
614
102
{ACAD_REACTORS
330
615
102
}
100
AcDbEntity
  8
Ech.1_5
 62
     9
  6
CONTINUOUS
370
    -3
100
AcDbPolyline
 90
       12
 70
     1
 43
0.0
 10
37366.58787431
 20
-5827.95838869
 10
37372.58376302
 20
-5827.95838869
 10
37372.58787431
 20
-5797.95838869
 10
37324.58787431
 20
-5797.95838869
 10
37324.58787431
 20
-5827.95838869
 10
37330.58787431
 20
-5827.95838869
 10
37330.58787431
 20
-5825.95838869
 10
37326.58787431
 20
-5825.95838869
 10
37326.58787431
 20
-5799.95838869
 10
37370.58787431
 20
-5799.95838869
 10
37370.58787431
 20
-5825.95838869
 10
37366.58787431
 20
-5825.95838869
  0
HATCH
  5
615
100
AcDbEntity
  8
Ech.1_5
 62
     9
  6
CONTINUOUS
100
AcDbHatch
 10
0.0
 20
0.0
 30
0.0
210
0.0
220
0.0
230
1.0
  2
SOLID
 70
     1
 71
     1
 91
        1
 92
        7
 72
     0
 73
     1
 93
       12
 10
37366.58787431
 20
-5827.95838869
 10
37372.58376302
 20
-5827.95838869
 10
37372.58787431
 20
-5797.95838869
 10
37324.58787431
 20
-5797.95838869
 10
37324.58787431
 20
-5827.95838869
 10
37330.58787431
 20
-5827.95838869
 10
37330.58787431
 20
-5825.95838869
 10
37326.58787431
 20
-5825.95838869
 10
37326.58787431
 20
-5799.95838869
 10
37370.58787431
 20
-5799.95838869
 10
37370.58787431
 20
-5825.95838869
 10
37366.58787431
 20
-5825.95838869
 97
        1
330
614
 75
     0
 76
     2
 47
0.775229
 98
        1
 10
0.0
 20
0.0
  0
LWPOLYLINE
  5
616
102
{ACAD_REACTORS
330
617
102
}
100
AcDbEntity
  8
Ech.1_5
 62
     9
  6
CONTINUOUS
370
    -3
100
AcDbPolyline
 90
        4
 70
     1
 43
0.0
 10
37311.38784079
 20
-6581.21311509
 10
37324.38784079
 20
-6581.21311509
 10
37324.38784079
 20
-5797.95838869
 10
37311.38784079
 20
-5797.95838869
  0
HATCH
  5
617
100
AcDbEntity
  8
Ech.1_5
 62
     9
  6
CONTINUOUS
100
AcDbHatch
 10
0.0
 20
0.0
 30
0.0
210
0.0
220
0.0
230
1.0
  2
DOTS2
 70
     0
 71
     1
 91
        1
 92
        7
 72
     0
 73
     1
 93
        4
 10
37311.38784079
 20
-6581.21311509
 10
37324.38784079
 20
-6581.21311509
 10
37324.38784079
 20
-5797.95838869
 10
37311.38784079
 20
-5797.95838869
 97
        1
330
616
 75
     0
 76
     2
 52
0.0
 41
4.72440952
 77
     0
 78
     1
 53
0.0
 43
0.0
 44
0.0
 45
3.75
 46
3.535
 79
     2
 49
0.0
 49
-3.535
 47
0.775229
 98
        1
 10
0.0
 20
0.0
  0
LWPOLYLINE
  5
618
100
AcDbEntity
  8
Ech.1_5
 62
     5
  6
CONTINUOUS
370
    -3
100
AcDbPolyline
 90
        5
 70
     0
 43
0.0
 10
37582.65685528
 20
-5817.20978105
 10
37582.65685528
 20
-5962.27876222
 10
37627.65685528
 20
-5962.27876222
 10
37627.65685528
 20
-5817.20978105
 10
37582.65685528
 20
-5817.20978105
  0
LWPOLYLINE
  5
619
100
AcDbEntity
  8
Ech.1_5
 62
   190
  6
CONTINUOUS
370
    -3
100
AcDbPolyline
 90
        4
 70
     0
 43
0.0
 10
37627.65685528
 20
-5962.27876222
 10
37582.65685528
 20
-5817.20978105
 10
37627.65685528
 20
-5817.20978105
 10
37582.65685528
 20
-5962.27876222
  0
LWPOLYLINE
  5
61A
100
AcDbEntity
  8
Ech.1_5
 62
     1
  6
CADWORK_22
 48
-5.0
370
    35
100
AcDbPolyline
 90
        3
 70
     0
 43
0.0
 10
38001.82986776
 20
-5817.27876222
 10
37392.58787431
 20
-5817.20978105
 10
37392.58787431
 20
-5925.5580467
  0
LWPOLYLINE
  5
61B
100
AcDbEntity
  8
Ech.1_5
 62
     1
  6
CADWORK_22
 48
-5.0
370
    35
100
AcDbPolyline
 90
        3
 70
     0
 43
0.0
 10
37392.42687019
 20
-5934.61879098
 10
37386.29405153
 20
-5922.44766652
 10
37386.29405153
 20
-5836.35704744
  0
LINE
  5
61C
100
AcDbEntity
  8
Ech.1_5
 62
   150
  6
CADWORK_22
370
    35
100
AcDbLine
 10
38001.82986776
 20
-5971.27876222
 30
2500.0
 11
37394.58787431
 21
-5971.27876222
 31
2500.0
  0
LWPOLYLINE
  5
61D
100
AcDbEntity
  8
Ech.1_5
 62
   150
  6
CADWORK_22
370
    35
100
AcDbPolyline
 90
        3
 70
     0
 43
0.0
 38
2500.0
 10
37546.58787432
 20
-6581.21311509
 10
37546.58787432
 20
-5975.78097665
 10
37654.48716091
 20
-5975.78097665
  0
LWPOLYLINE
  5
61E
100
AcDbEntity
  8
Ech.1_5
 62
     9
  6
CONTINUOUS
370
    40
100
AcDbPolyline
 90
        5
 70
     0
 43
0.0
 10
37571.51889335
 20
-6046.28315771
 10
37546.51625549
 20
-6046.28315771
 10
37546.51625549
 20
-5971.27788293
 10
37571.51889335
 20
-5971.27788293
 10
37571.51889335
 20
-6046.28315771
  0
LWPOLYLINE
  5
61F
100
AcDbEntity
  8
Ech.1_5
 62
     9
  6
CONTINUOUS
370
    -3
100
AcDbPolyline
 90
        4
 70
     0
 43
0.0
 10
37546.51625549
 20
-5971.27788293
 10
37571.51889335
 20
-6046.28315771
 10
37546.51625549
 20
-6046.28315771
 10
37571.51889335
 20
-5971.27788293
  0
LWPOLYLINE
  5
620
100
AcDbEntity
  8
Ech.1_5
 62
     9
  6
CONTINUOUS
370
    40
100
AcDbPolyline
 90
        5
 70
     0
 43
0.0
 10
37571.51889335
 20
-5996.2805208
 10
37571.51889335
 20
-5971.27788293
 10
37646.52416812
 20
-5971.27788293
 10
37646.52416812
 20
-5996.2805208
 10
37571.51889335
 20
-5996.2805208
  0
LWPOLYLINE
  5
621
100
AcDbEntity
  8
Ech.1_5
 62
     9
  6
CONTINUOUS
370
    -3
100
AcDbPolyline
 90
        4
 70
     0
 43
0.0
 10
37646.52416812
 20
-5971.27788293
 10
37571.51889335
 20
-5996.2805208
 10
37571.51889335
 20
-5971.27788293
 10
37646.52416812
 20
-5996.2805208
  0
LWPOLYLINE
  5
622
102
{ACAD_REACTORS
330
623
102
}
100
AcDbEntity
  8
Ech.1_5
 62
     9
  6
CONTINUOUS
370
    -3
100
AcDbPolyline
 90
       12
 70
     1
 43
0.0
 10
37402.58787457
 20
-5791.95838869
 10
37402.58787457
 20
-5797.9542774
 10
37372.58787431
 20
-5797.95838869
 10
37372.58787431
 20
-5749.95838869
 10
37402.58787457
 20
-5749.95838869
 10
37402.58787457
 20
-5755.95838869
 10
37400.58787457
 20
-5755.95838869
 10
37400.58787457
 20
-5751.95838869
 10
37374.58787457
 20
-5751.95838869
 10
37374.58787457
 20
-5795.95838869
 10
37400.58787457
 20
-5795.95838869
 10
37400.58787457
 20
-5791.95838869
  0
HATCH
  5
623
100
AcDbEntity
  8
Ech.1_5
 62
     9
  6
CONTINUOUS
100
AcDbHatch
 10
0.0
 20
0.0
 30
0.0
210
0.0
220
0.0
230
1.0
  2
SOLID
 70
     1
 71
     1
 91
        1
 92
        7
 72
     0
 73
     1
 93
       12
 10
37402.58787457
 20
-5791.95838869
 10
37402.58787457
 20
-5797.9542774
 10
37372.58787431
 20
-5797.95838869
 10
37372.58787431
 20
-5749.95838869
 10
37402.58787457
 20
-5749.95838869
 10
37402.58787457
 20
-5755.95838869
 10
37400.58787457
 20
-5755.95838869
 10
37400.58787457
 20
-5751.95838869
 10
37374.58787457
 20
-5751.95838869
 10
37374.58787457
 20
-5795.95838869
 10
37400.58787457
 20
-5795.95838869
 10
37400.58787457
 20
-5791.95838869
 97
        1
330
622
 75
     0
 76
     2
 47
0.775229
 98
        1
 10
0.0
 20
0.0
  0
LWPOLYLINE
  5
624
102
{ACAD_REACTORS
330
625
102
}
100
AcDbEntity
  8
Ech.1_5
 62
     9
  6
CONTINUOUS
370
    -3
100
AcDbPolyline
 90
       12
 70
     1
 43
0.0
 10
37366.58787431
 20
-6273.268103
 10
37372.58376302
 20
-6273.268103
 10
37372.58787431
 20
-6243.268103
 10
37324.58787431
 20
-6243.268103
 10
37324.58787431
 20
-6273.268103
 10
37330.58787431
 20
-6273.268103
 10
37330.58787431
 20
-6271.268103
 10
37326.58787431
 20
-6271.268103
 10
37326.58787431
 20
-6245.268103
 10
37370.58787431
 20
-6245.268103
 10
37370.58787431
 20
-6271.268103
 10
37366.58787431
 20
-6271.268103
  0
HATCH
  5
625
100
AcDbEntity
  8
Ech.1_5
 62
     9
  6
CONTINUOUS
100
AcDbHatch
 10
0.0
 20
0.0
 30
0.0
210
0.0
220
0.0
230
1.0
  2
SOLID
 70
     1
 71
     1
 91
        1
 92
        7
 72
     0
 73
     1
 93
       12
 10
37366.58787431
 20
-6273.268103
 10
37372.58376302
 20
-6273.268103
 10
37372.58787431
 20
-6243.268103
 10
37324.58787431
 20
-6243.268103
 10
37324.58787431
 20
-6273.268103
 10
37330.58787431
 20
-6273.268103
 10
37330.58787431
 20
-6271.268103
 10
37326.58787431
 20
-6271.268103
 10
37326.58787431
 20
-6245.268103
 10
37370.58787431
 20
-6245.268103
 10
37370.58787431
 20
-6271.268103
 10
37366.58787431
 20
-6271.268103
 97
        1
330
624
 75
     0
 76
     2
 47
0.775229
 98
        1
 10
0.0
 20
0.0
  0
LWPOLYLINE
  5
626
102
{ACAD_REACTORS
330
627
102
}
100
AcDbEntity
  8
Ech.1_5
 62
     9
  6
CONTINUOUS
370
    -3
100
AcDbPolyline
 90
        4
 70
     1
 43
0.0
 10
38001.82986776
 20
-5749.00974786
 10
38001.82986776
 20
-5736.00974786
 10
37372.58787431
 20
-5736.00974786
 10
37372.58787431
 20
-5749.00974786
  0
HATCH
  5
627
100
AcDbEntity
  8
Ech.1_5
 62
     9
  6
CONTINUOUS
100
AcDbHatch
 10
0.0
 20
0.0
 30
0.0
210
0.0
220
0.0
230
1.0
  2
DOTS2
 70
     0
 71
     1
 91
        1
 92
        7
 72
     0
 73
     1
 93
        4
 10
38001.82986776
 20
-5749.00974786
 10
38001.82986776
 20
-5736.00974786
 10
37372.58787431
 20
-5736.00974786
 10
37372.58787431
 20
-5749.00974786
 97
        1
330
626
 75
     0
 76
     2
 52
0.0
 41
4.72440952
 77
     0
 78
     1
 53
0.0
 43
0.0
 44
0.0
 45
3.75
 46
3.535
 79
     2
 49
0.0
 49
-3.535
 47
0.775229
 98
        1
 10
0.0
 20
0.0
  0
LWPOLYLINE
  5
628
102
{ACAD_REACTORS
330
629
102
}
100
AcDbEntity
  8
Ech.1_5
 62
     9
  6
CONTINUOUS
370
    -3
100
AcDbPolyline
 90
       12
 70
     1
 43
0.0
 10
37834.28609677
 20
-5791.95838869
 10
37834.28609677
 20
-5797.9542774
 10
37804.28609652
 20
-5797.95838869
 10
37804.28609652
 20
-5749.95838869
 10
37834.28609677
 20
-5749.95838869
 10
37834.28609677
 20
-5755.95838869
 10
37832.28609677
 20
-5755.95838869
 10
37832.28609677
 20
-5751.95838869
 10
37806.28609677
 20
-5751.95838869
 10
37806.28609677
 20
-5795.95838869
 10
37832.28609677
 20
-5795.95838869
 10
37832.28609677
 20
-5791.95838869
  0
HATCH
  5
629
100
AcDbEntity
  8
Ech.1_5
 62
     9
  6
CONTINUOUS
100
AcDbHatch
 10
0.0
 20
0.0
 30
0.0
210
0.0
220
0.0
230
1.0
  2
SOLID
 70
     1
 71
     1
 91
        1
 92
        7
 72
     0
 73
     1
 93
       12
 10
37834.28609677
 20
-5791.95838869
 10
37834.28609677
 20
-5797.9542774
 10
37804.28609652
 20
-5797.95838869
 10
37804.28609652
 20
-5749.95838869
 10
37834.28609677
 20
-5749.95838869
 10
37834.28609677
 20
-5755.95838869
 10
37832.28609677
 20
-5755.95838869
 10
37832.28609677
 20
-5751.95838869
 10
37806.28609677
 20
-5751.95838869
 10
37806.28609677
 20
-5795.95838869
 10
37832.28609677
 20
-5795.95838869
 10
37832.28609677
 20
-5791.95838869
 97
        1
330
628
 75
     0
 76
     2
 47
0.775229
 98
        1
 10
0.0
 20
0.0
  0
LWPOLYLINE
  5
62A
102
{ACAD_REACTORS
330
62B
102
}
100
AcDbEntity
  8
Ech.1_5
 62
     7
  6
CONTINUOUS
370
     5
100
AcDbPolyline
 90
        4
 70
     1
 43
0.0
 10
37517.61111768
 20
-5969.12881887
 10
37491.7865866
 20
-5969.12881887
 10
37491.7865866
 20
-5978.56147897
 10
37517.61111768
 20
-5978.56147897
  0
HATCH
  5
62B
100
AcDbEntity
  8
Ech.1_5
 62
     2
  6
CONTINUOUS
100
AcDbHatch
 10
0.0
 20
0.0
 30
0.0
210
0.0
220
0.0
230
1.0
  2
SOLID
 70
     1
 71
     1
 91
        1
 92
        7
 72
     0
 73
     1
 93
        4
 10
37517.61111768
 20
-5969.12881887
 10
37491.7865866
 20
-5969.12881887
 10
37491.7865866
 20
-5978.56147897
 10
37517.61111768
 20
-5978.56147897
 97
        1
330
62A
 75
     0
 76
     2
 47
0.775229
 98
        1
 10
0.0
 20
0.0
  0
LWPOLYLINE
  5
62C
102
{ACAD_REACTORS
330
62D
102
}
100
AcDbEntity
  8
Ech.1_5
 62
     7
  6
CONTINUOUS
370
     5
100
AcDbPolyline
 90
        4
 70
     1
 43
0.0
 10
37439.73014227
 20
-5969.12881887
 10
37413.90561118
 20
-5969.12881887
 10
37413.90561118
 20
-5978.56147897
 10
37439.73014227
 20
-5978.56147897
  0
HATCH
  5
62D
100
AcDbEntity
  8
Ech.1_5
 62
     2
  6
CONTINUOUS
100
AcDbHatch
 10
0.0
 20
0.0
 30
0.0
210
0.0
220
0.0
230
1.0
  2
SOLID
 70
     1
 71
     1
 91
        1
 92
        7
 72
     0
 73
     1
 93
        4
 10
37439.73014227
 20
-5969.12881887
 10
37413.90561118
 20
-5969.12881887
 10
37413.90561118
 20
-5978.56147897
 10
37439.73014227
 20
-5978.56147897
 97
        1
330
62C
 75
     0
 76
     2
 47
0.775229
 98
        1
 10
0.0
 20
0.0
  0
LWPOLYLINE
  5
62E
100
AcDbEntity
  8
Ech.1_5
 62
   190
  6
CONTINUOUS
370
    -3
100
AcDbPolyline
 90
        5
 70
     0
 43
0.0
 10
37097.94890001
 20
-6876.75613438
 10
38082.94890001
 20
-6876.75613438
 10
38082.94890001
 20
-5521.75613438
 10
37097.94890001
 20
-5521.75613438
 10
37097.94890001
 20
-6876.75613438
  0
LWPOLYLINE
  5
62F
100
AcDbEntity
  8
Ech.1_5
 62
     9
  6
CONTINUOUS
370
    -3
100
AcDbPolyline
 90
      156
 70
     0
 43
0.0
 10
38001.82986776
 20
-5757.04308673
 42
1.14028181
 10
37986.03692067
 20
-5759.1222725
 10
37993.52279825
 20
-5787.09725641
 42
-1.30322619
 10
37978.0035818
 20
-5787.09725641
 10
37985.48945939
 20
-5759.1222725
 42
1.30322619
 10
37969.97024294
 20
-5759.1222725
 10
37977.45612053
 20
-5787.09725641
 42
-1.30322619
 10
37961.93690407
 20
-5787.09725641
 10
37969.42278166
 20
-5759.1222725
 42
1.30322619
 10
37953.90356521
 20
-5759.1222725
 10
37961.3894428
 20
-5787.09725641
 42
-1.30322619
 10
37945.87022634
 20
-5787.09725641
 10
37953.35610393
 20
-5759.1222725
 42
1.30322619
 10
37937.83688748
 20
-5759.1222725
 10
37945.32276507
 20
-5787.09725641
 42
-1.30322619
 10
37929.80354861
 20
-5787.09725641
 10
37937.2894262
 20
-5759.1222725
 42
1.30322619
 10
37921.77020975
 20
-5759.1222725
 10
37929.25608734
 20
-5787.09725641
 42
-1.30322619
 10
37913.73687088
 20
-5787.09725641
 10
37921.22274847
 20
-5759.1222725
 42
1.30322619
 10
37905.70353202
 20
-5759.1222725
 10
37913.18940961
 20
-5787.09725641
 42
-1.30322619
 10
37897.67019316
 20
-5787.09725641
 10
37905.15607074
 20
-5759.1222725
 42
1.30322619
 10
37889.63685429
 20
-5759.1222725
 10
37897.12273188
 20
-5787.09725641
 42
-1.30322619
 10
37881.60351543
 20
-5787.09725641
 10
37889.08939301
 20
-5759.1222725
 42
1.30322619
 10
37873.57017656
 20
-5759.1222725
 10
37881.05605415
 20
-5787.09725641
 42
-1.30322619
 10
37865.5368377
 20
-5787.09725641
 10
37873.02271528
 20
-5759.1222725
 42
1.30322619
 10
37857.50349883
 20
-5759.1222725
 10
37864.98937642
 20
-5787.09725641
 42
-1.30322619
 10
37849.47015997
 20
-5787.09725641
 10
37856.95603756
 20
-5759.1222725
 42
1.30322619
 10
37841.4368211
 20
-5759.1222725
 10
37848.92269869
 20
-5787.09725641
 42
-1.30322619
 10
37833.40348224
 20
-5787.09725641
 10
37840.88935983
 20
-5759.1222725
 42
1.30322619
 10
37825.37014337
 20
-5759.1222725
 10
37832.85602096
 20
-5787.09725641
 42
-1.30322619
 10
37817.33680451
 20
-5787.09725641
 10
37824.8226821
 20
-5759.1222725
 42
1.30322619
 10
37809.30346564
 20
-5759.1222725
 10
37816.78934323
 20
-5787.09725641
 42
-1.30322619
 10
37801.27012678
 20
-5787.09725641
 10
37808.75600437
 20
-5759.1222725
 42
1.30322619
 10
37793.23678792
 20
-5759.1222725
 10
37800.7226655
 20
-5787.09725641
 42
-1.30322619
 10
37785.20344905
 20
-5787.09725641
 10
37792.68932664
 20
-5759.1222725
 42
1.30322619
 10
37777.17011019
 20
-5759.1222725
 10
37784.65598777
 20
-5787.09725641
 42
-1.30322619
 10
37769.13677132
 20
-5787.09725641
 10
37776.62264891
 20
-5759.1222725
 42
1.30322619
 10
37761.10343246
 20
-5759.1222725
 10
37768.58931004
 20
-5787.09725641
 42
-1.30322619
 10
37753.07009359
 20
-5787.09725641
 10
37760.55597118
 20
-5759.1222725
 42
1.30322619
 10
37745.03675473
 20
-5759.1222725
 10
37752.52263232
 20
-5787.09725641
 42
-1.30322619
 10
37737.00341586
 20
-5787.09725641
 10
37744.48929345
 20
-5759.1222725
 42
1.30322619
 10
37728.970077
 20
-5759.1222725
 10
37736.45595459
 20
-5787.09725641
 42
-1.30322619
 10
37720.93673813
 20
-5787.09725641
 10
37728.42261572
 20
-5759.1222725
 42
1.30322619
 10
37712.90339927
 20
-5759.1222725
 10
37720.38927686
 20
-5787.09725641
 42
-1.30322619
 10
37704.8700604
 20
-5787.09725641
 10
37712.35593799
 20
-5759.1222725
 42
1.30322619
 10
37696.83672154
 20
-5759.1222725
 10
37704.32259913
 20
-5787.09725641
 42
-1.30322619
 10
37688.80338267
 20
-5787.09725641
 10
37696.28926026
 20
-5759.1222725
 42
1.30322619
 10
37680.77004381
 20
-5759.1222725
 10
37688.2559214
 20
-5787.09725641
 42
-1.30322619
 10
37672.73670495
 20
-5787.09725641
 10
37680.22258253
 20
-5759.1222725
 42
1.30322619
 10
37664.70336608
 20
-5759.1222725
 10
37672.18924367
 20
-5787.09725641
 42
-1.30322619
 10
37656.67002722
 20
-5787.09725641
 10
37664.1559048
 20
-5759.1222725
 42
1.30322619
 10
37648.63668835
 20
-5759.1222725
 10
37656.12256594
 20
-5787.09725641
 42
-1.30322619
 10
37640.60334949
 20
-5787.09725641
 10
37648.08922707
 20
-5759.1222725
 42
1.30322619
 10
37632.57001062
 20
-5759.1222725
 10
37640.05588821
 20
-5787.09725641
 42
-1.30322619
 10
37624.53667176
 20
-5787.09725641
 10
37632.02254935
 20
-5759.1222725
 42
1.30322619
 10
37616.50333289
 20
-5759.1222725
 10
37623.98921048
 20
-5787.09725641
 42
-1.30322619
 10
37608.46999403
 20
-5787.09725641
 10
37615.95587162
 20
-5759.1222725
 42
1.30322619
 10
37600.43665516
 20
-5759.1222725
 10
37607.92253275
 20
-5787.09725641
 42
-1.30322619
 10
37592.4033163
 20
-5787.09725641
 10
37599.88919389
 20
-5759.1222725
 42
1.30322619
 10
37584.36997743
 20
-5759.1222725
 10
37591.85585502
 20
-5787.09725641
 42
-1.30322619
 10
37576.33663857
 20
-5787.09725641
 10
37583.82251616
 20
-5759.1222725
 42
1.30322619
 10
37568.30329971
 20
-5759.1222725
 10
37575.78917729
 20
-5787.09725641
 42
-1.30322619
 10
37560.26996084
 20
-5787.09725641
 10
37567.75583843
 20
-5759.1222725
 42
1.30322619
 10
37552.23662198
 20
-5759.1222725
 10
37559.72249956
 20
-5787.09725641
 42
-1.30322619
 10
37544.20328311
 20
-5787.09725641
 10
37551.6891607
 20
-5759.1222725
 42
1.30322619
 10
37536.16994425
 20
-5759.1222725
 10
37543.65582183
 20
-5787.09725641
 42
-1.30322619
 10
37528.13660538
 20
-5787.09725641
 10
37535.62248297
 20
-5759.1222725
 42
1.30322619
 10
37520.10326652
 20
-5759.1222725
 10
37527.58914411
 20
-5787.09725641
 42
-1.30322619
 10
37512.06992765
 20
-5787.09725641
 10
37519.55580524
 20
-5759.1222725
 42
1.30322619
 10
37504.03658879
 20
-5759.1222725
 10
37511.52246638
 20
-5787.09725641
 42
-1.30322619
 10
37496.00324992
 20
-5787.09725641
 10
37503.48912751
 20
-5759.1222725
 42
1.30322619
 10
37487.96991106
 20
-5759.1222725
 10
37495.45578865
 20
-5787.09725641
 42
-1.30322619
 10
37479.93657219
 20
-5787.09725641
 10
37487.42244978
 20
-5759.1222725
 42
1.30322619
 10
37471.90323333
 20
-5759.1222725
 10
37479.38911092
 20
-5787.09725641
 42
-1.30322619
 10
37463.86989446
 20
-5787.09725641
 10
37471.35577205
 20
-5759.1222725
 42
1.30322619
 10
37455.8365556
 20
-5759.1222725
 10
37463.32243319
 20
-5787.09725641
 42
-1.30322619
 10
37447.80321674
 20
-5787.09725641
 10
37455.28909432
 20
-5759.1222725
 42
1.30322619
 10
37439.76987787
 20
-5759.1222725
 10
37447.25575546
 20
-5787.09725641
 42
-1.30322619
 10
37431.73653901
 20
-5787.09725641
 10
37439.22241659
 20
-5759.1222725
 42
1.30322619
 10
37423.70320014
 20
-5759.1222725
 10
37431.18907773
 20
-5787.09725641
 42
-1.30322619
 10
37415.66986128
 20
-5787.09725641
 10
37423.15573886
 20
-5759.1222725
 42
1.30322619
 10
37407.63652241
 20
-5759.1222725
 10
37415.1224
 20
-5787.09725641
 42
-1.30322619
 10
37399.60318355
 20
-5787.09725641
 10
37407.08906114
 20
-5759.1222725
 42
1.30322619
 10
37391.56984468
 20
-5759.1222725
 10
37399.05572227
 20
-5787.09725641
 42
-1.30322619
 10
37383.53650582
 20
-5787.09725641
 10
37391.02238341
 20
-5759.1222725
 42
1.30322619
 10
37375.50316695
 20
-5759.1222725
 10
37382.98904454
 20
-5787.09725641
 42
-0.60203412
 10
37372.58787431
 20
-5796.76305431
  0
LWPOLYLINE
  5
630
100
AcDbEntity
  8
Ech.1_5
 62
     9
  6
CONTINUOUS
370
    -3
100
AcDbPolyline
 90
      194
 70
     0
 43
0.0
 10
37364.55453539
 20
-6581.21311509
 42
1.14028181
 10
37362.4753496
 20
-6565.42016789
 10
37334.5003655
 20
-6572.90604553
 42
-1.30322619
 10
37334.5003655
 20
-6557.38682897
 10
37362.4753496
 20
-6564.87270661
 42
1.30322619
 10
37362.4753496
 20
-6549.35349005
 10
37334.5003655
 20
-6556.83936769
 42
-1.30322619
 10
37334.5003655
 20
-6541.32015113
 10
37362.4753496
 20
-6548.80602877
 42
1.30322619
 10
37362.4753496
 20
-6533.28681221
 10
37334.5003655
 20
-6540.77268985
 42
-1.30322619
 10
37334.5003655
 20
-6525.25347329
 10
37362.4753496
 20
-6532.73935093
 42
1.30322619
 10
37362.4753496
 20
-6517.22013437
 10
37334.5003655
 20
-6524.70601201
 42
-1.30322619
 10
37334.5003655
 20
-6509.18679545
 10
37362.4753496
 20
-6516.67267309
 42
1.30322619
 10
37362.4753496
 20
-6501.15345653
 10
37334.5003655
 20
-6508.63933417
 42
-1.30322619
 10
37334.5003655
 20
-6493.12011761
 10
37362.4753496
 20
-6500.60599525
 42
1.30322619
 10
37362.4753496
 20
-6485.08677869
 10
37334.5003655
 20
-6492.57265633
 42
-1.30322619
 10
37334.5003655
 20
-6477.05343977
 10
37362.4753496
 20
-6484.53931741
 42
1.30322619
 10
37362.4753496
 20
-6469.02010085
 10
37334.5003655
 20
-6476.50597849
 42
-1.30322619
 10
37334.5003655
 20
-6460.98676193
 10
37362.4753496
 20
-6468.47263957
 42
1.30322619
 10
37362.4753496
 20
-6452.95342301
 10
37334.5003655
 20
-6460.43930065
 42
-1.30322619
 10
37334.5003655
 20
-6444.92008409
 10
37362.4753496
 20
-6452.40596173
 42
1.30322619
 10
37362.4753496
 20
-6436.88674517
 10
37334.5003655
 20
-6444.37262281
 42
-1.30322619
 10
37334.5003655
 20
-6428.85340625
 10
37362.4753496
 20
-6436.33928389
 42
1.30322619
 10
37362.4753496
 20
-6420.82006732
 10
37334.5003655
 20
-6428.30594496
 42
-1.30322619
 10
37334.5003655
 20
-6412.7867284
 10
37362.4753496
 20
-6420.27260604
 42
1.30322619
 10
37362.4753496
 20
-6404.75338948
 10
37334.5003655
 20
-6412.23926712
 42
-1.30322619
 10
37334.5003655
 20
-6396.72005056
 10
37362.4753496
 20
-6404.2059282
 42
1.30322619
 10
37362.4753496
 20
-6388.68671164
 10
37334.5003655
 20
-6396.17258928
 42
-1.30322619
 10
37334.5003655
 20
-6380.65337272
 10
37362.4753496
 20
-6388.13925036
 42
1.30322619
 10
37362.4753496
 20
-6372.6200338
 10
37334.5003655
 20
-6380.10591144
 42
-1.30322619
 10
37334.5003655
 20
-6364.58669488
 10
37362.4753496
 20
-6372.07257252
 42
1.30322619
 10
37362.4753496
 20
-6356.55335596
 10
37334.5003655
 20
-6364.0392336
 42
-1.30322619
 10
37334.5003655
 20
-6348.52001704
 10
37362.4753496
 20
-6356.00589468
 42
1.30322619
 10
37362.4753496
 20
-6340.48667812
 10
37334.5003655
 20
-6347.97255576
 42
-1.30322619
 10
37334.5003655
 20
-6332.4533392
 10
37362.4753496
 20
-6339.93921684
 42
1.30322619
 10
37362.4753496
 20
-6324.42000028
 10
37334.5003655
 20
-6331.90587792
 42
-1.30322619
 10
37334.5003655
 20
-6316.38666136
 10
37362.4753496
 20
-6323.872539
 42
1.30322619
 10
37362.4753496
 20
-6308.35332244
 10
37334.5003655
 20
-6315.83920008
 42
-1.30322619
 10
37334.5003655
 20
-6300.31998352
 10
37362.4753496
 20
-6307.80586116
 42
1.30322619
 10
37362.4753496
 20
-6292.2866446
 10
37334.5003655
 20
-6299.77252224
 42
-1.30322619
 10
37334.5003655
 20
-6284.25330568
 10
37362.4753496
 20
-6291.73918332
 42
1.30322619
 10
37362.4753496
 20
-6276.21996676
 10
37334.5003655
 20
-6283.7058444
 42
-1.30322619
 10
37334.5003655
 20
-6268.18662783
 10
37362.4753496
 20
-6275.67250547
 42
1.30322619
 10
37362.4753496
 20
-6260.15328891
 10
37334.5003655
 20
-6267.63916655
 42
-1.30322619
 10
37334.5003655
 20
-6252.11994999
 10
37362.4753496
 20
-6259.60582763
 42
1.30322619
 10
37362.4753496
 20
-6244.08661107
 10
37334.5003655
 20
-6251.57248871
 42
-1.30322619
 10
37334.5003655
 20
-6236.05327215
 10
37362.4753496
 20
-6243.53914979
 42
1.30322619
 10
37362.4753496
 20
-6228.01993323
 10
37334.5003655
 20
-6235.50581087
 42
-1.30322619
 10
37334.5003655
 20
-6219.98659431
 10
37362.4753496
 20
-6227.47247195
 42
1.30322619
 10
37362.4753496
 20
-6211.95325539
 10
37334.5003655
 20
-6219.43913303
 42
-1.30322619
 10
37334.5003655
 20
-6203.91991647
 10
37362.4753496
 20
-6211.40579411
 42
1.30322619
 10
37362.4753496
 20
-6195.88657755
 10
37334.5003655
 20
-6203.37245519
 42
-1.30322619
 10
37334.5003655
 20
-6187.85323863
 10
37362.4753496
 20
-6195.33911627
 42
1.30322619
 10
37362.4753496
 20
-6179.81989971
 10
37334.5003655
 20
-6187.30577735
 42
-1.30322619
 10
37334.5003655
 20
-6171.78656079
 10
37362.4753496
 20
-6179.27243843
 42
1.30322619
 10
37362.4753496
 20
-6163.75322187
 10
37334.5003655
 20
-6171.23909951
 42
-1.30322619
 10
37334.5003655
 20
-6155.71988295
 10
37362.4753496
 20
-6163.20576059
 42
1.30322619
 10
37362.4753496
 20
-6147.68654403
 10
37334.5003655
 20
-6155.17242167
 42
-1.30322619
 10
37334.5003655
 20
-6139.65320511
 10
37362.4753496
 20
-6147.13908275
 42
1.30322619
 10
37362.4753496
 20
-6131.61986619
 10
37334.5003655
 20
-6139.10574383
 42
-1.30322619
 10
37334.5003655
 20
-6123.58652727
 10
37362.4753496
 20
-6131.07240491
 42
1.30322619
 10
37362.4753496
 20
-6115.55318834
 10
37334.5003655
 20
-6123.03906598
 42
-1.30322619
 10
37334.5003655
 20
-6107.51984942
 10
37362.4753496
 20
-6115.00572706
 42
1.30322619
 10
37362.4753496
 20
-6099.4865105
 10
37334.5003655
 20
-6106.97238814
 42
-1.30322619
 10
37334.5003655
 20
-6091.45317158
 10
37362.4753496
 20
-6098.93904922
 42
1.30322619
 10
37362.4753496
 20
-6083.41983266
 10
37334.5003655
 20
-6090.9057103
 42
-1.30322619
 10
37334.5003655
 20
-6075.38649374
 10
37362.4753496
 20
-6082.87237138
 42
1.30322619
 10
37362.4753496
 20
-6067.35315482
 10
37334.5003655
 20
-6074.83903246
 42
-1.30322619
 10
37334.5003655
 20
-6059.3198159
 10
37362.4753496
 20
-6066.80569354
 42
1.30322619
 10
37362.4753496
 20
-6051.28647698
 10
37334.5003655
 20
-6058.77235462
 42
-1.30322619
 10
37334.5003655
 20
-6043.25313806
 10
37362.4753496
 20
-6050.7390157
 42
1.30322619
 10
37362.4753496
 20
-6035.21979914
 10
37334.5003655
 20
-6042.70567678
 42
-1.30322619
 10
37334.5003655
 20
-6027.18646022
 10
37362.4753496
 20
-6034.67233786
 42
1.30322619
 10
37362.4753496
 20
-6019.1531213
 10
37334.5003655
 20
-6026.63899894
 42
-1.30322619
 10
37334.5003655
 20
-6011.11978238
 10
37362.4753496
 20
-6018.60566002
 42
1.30322619
 10
37362.4753496
 20
-6003.08644346
 10
37334.5003655
 20
-6010.5723211
 42
-1.30322619
 10
37334.5003655
 20
-5995.05310454
 10
37362.4753496
 20
-6002.53898218
 42
1.30322619
 10
37362.4753496
 20
-5987.01976562
 10
37334.5003655
 20
-5994.50564326
 42
-1.30322619
 10
37334.5003655
 20
-5978.9864267
 10
37362.4753496
 20
-5986.47230434
 42
1.30322619
 10
37362.4753496
 20
-5970.95308778
 10
37334.5003655
 20
-5978.43896541
 42
-1.30322619
 10
37334.5003655
 20
-5962.91974885
 10
37362.4753496
 20
-5970.40562649
 42
1.30322619
 10
37362.4753496
 20
-5954.88640993
 10
37334.5003655
 20
-5962.37228757
 42
-1.30322619
 10
37334.5003655
 20
-5946.85307101
 10
37362.4753496
 20
-5954.33894865
 42
1.30322619
 10
37362.4753496
 20
-5938.81973209
 10
37334.5003655
 20
-5946.30560973
 42
-1.30322619
 10
37334.5003655
 20
-5930.78639317
 10
37362.4753496
 20
-5938.27227081
 42
1.30322619
 10
37362.4753496
 20
-5922.75305425
 10
37334.5003655
 20
-5930.23893189
 42
-1.30322619
 10
37334.5003655
 20
-5914.71971533
 10
37362.4753496
 20
-5922.20559297
 42
1.30322619
 10
37362.4753496
 20
-5906.68637641
 10
37334.5003655
 20
-5914.17225405
 42
-1.30322619
 10
37334.5003655
 20
-5898.65303749
 10
37362.4753496
 20
-5906.13891513
 42
1.30322619
 10
37362.4753496
 20
-5890.61969857
 10
37334.5003655
 20
-5898.10557621
 42
-1.30322619
 10
37334.5003655
 20
-5882.58635965
 10
37362.4753496
 20
-5890.07223729
 42
1.30322619
 10
37362.4753496
 20
-5874.55302073
 10
37334.5003655
 20
-5882.03889837
 42
-1.30322619
 10
37334.5003655
 20
-5866.51968181
 10
37362.4753496
 20
-5874.00555945
 42
1.30322619
 10
37362.4753496
 20
-5858.48634289
 10
37334.5003655
 20
-5865.97222053
 42
-1.30322619
 10
37334.5003655
 20
-5850.45300397
 10
37362.4753496
 20
-5857.93888161
 42
1.30322619
 10
37362.4753496
 20
-5842.41966505
 10
37334.5003655
 20
-5849.90554269
 42
-1.30322619
 10
37334.5003655
 20
-5834.38632613
 10
37362.4753496
 20
-5841.87220377
 42
1.30322619
 10
37362.4753496
 20
-5826.35298721
 10
37334.5003655
 20
-5833.83886485
 42
-1.30322619
 10
37334.5003655
 20
-5818.31964828
 10
37362.4753496
 20
-5825.80552592
 42
1.30322619
 10
37362.4753496
 20
-5810.28630936
 10
37334.5003655
 20
-5817.772187
 42
-1.30322619
 10
37334.5003655
 20
-5802.25297044
 10
37362.4753496
 20
-5809.73884808
 42
0.66839627
 10
37371.50919502
 20
-5797.95838869
  0
LINE
  5
631
100
AcDbEntity
  8
Ech.1_5
 62
     1
  6
CADWORK_22
 48
-5.0
370
    35
100
AcDbLine
 10
37392.42687019
 20
-6581.21311509
 30
0.0
 11
37392.42687019
 21
-5934.61879098
 31
0.0
  0
LWPOLYLINE
  5
632
100
AcDbEntity
  8
Ech.1_5
 62
   190
  6
CONTINUOUS
370
    -3
100
AcDbPolyline
 90
        6
 70
     0
 43
0.0
 10
38001.82986776
 20
-5699.91870344
 10
38001.82986776
 20
-5877.81882226
 10
38019.80721617
 20
-5894.30432546
 10
37983.85151615
 20
-5880.19438589
 10
38001.82986776
 20
-5896.68073976
 10
38001.82986776
 20
-6070.68073976
  0
LWPOLYLINE
  5
633
100
AcDbEntity
  8
Ech.1_5
 62
   190
  6
CONTINUOUS
370
    -3
100
AcDbPolyline
 90
        6
 70
     0
 43
0.0
 10
37284.04877513
 20
-6581.21311509
 10
37491.9001373
 20
-6581.21311509
 10
37508.38564046
 20
-6563.23576677
 10
37494.27570044
 20
-6599.19146669
 10
37510.76205452
 20
-6581.21311509
 10
37646.76205452
 20
-6581.21311509
  0
HATCH
  5
634
100
AcDbEntity
  8
Ech.1_5
 62
     7
100
AcDbHatch
 10
0.0
 20
0.0
 30
0.0
210
0.0
220
0.0
230
1.0
  2
ANSI37
 70
     0
 71
     0
 91
        1
 92
        7
 72
     0
 73
     1
 93
        4
 10
37517.61111768
 20
-5969.12881887
 10
37491.7865866
 20
-5969.12881887
 10
37491.7865866
 20
-5978.56147897
 10
37517.61111768
 20
-5978.56147897
 97
        0
 75
     0
 76
     2
 52
0.0
 41
1.87498831
 77
     0
 78
     2
 53
45.0
 43
0.0
 44
0.0
 45
4.20946876
 46
-4.20946876
 79
     0
 53
-45.0
 43
0.0
 44
0.0
 45
4.20946876
 46
4.20946876
 79
     0
 47
0.775229
 98
        1
 10
0.0
 20
0.0
  0
HATCH
  5
635
100
AcDbEntity
  8
Ech.1_5
 62
     7
100
AcDbHatch
 10
0.0
 20
0.0
 30
0.0
210
0.0
220
0.0
230
1.0
  2
ANSI37
 70
     0
 71
     0
 91
        1
 92
        7
 72
     0
 73
     1
 93
        4
 10
37439.73014227
 20
-5969.12881887
 10
37413.90561118
 20
-5969.12881887
 10
37413.90561118
 20
-5978.56147897
 10
37439.73014227
 20
-5978.56147897
 97
        0
 75
     0
 76
     2
 52
0.0
 41
1.87498831
 77
     0
 78
     2
 53
45.0
 43
0.0
 44
0.0
 45
4.20946876
 46
-4.20946876
 79
     0
 53
-45.0
 43
0.0
 44
0.0
 45
4.20946876
 46
4.20946876
 79
     0
 47
0.775229
 98
        1
 10
0.0
 20
0.0
  0
LWPOLYLINE
  5
636
100
AcDbEntity
  8
Ech.1_5
 62
   190
100
AcDbPolyline
 90
        5
 70
     0
 43
0.0
 10
37721.93461174
 20
-6353.41887027
 10
37856.36339072
 20
-6353.41887027
 10
37856.36339072
 20
-6410.14182908
 10
37721.93461174
 20
-6410.14182908
 10
37721.93461174
 20
-6353.41887027
  0
HATCH
  5
637
100
AcDbEntity
  8
Ech.1_5
 62
   190
100
AcDbHatch
 10
0.0
 20
0.0
 30
0.0
210
0.0
220
0.0
230
1.0
  2
SOLID
 70
     1
 71
     0
 91
        1
 92
        7
 72
     0
 73
     1
 93
        4
 10
37740.21465752
 20
-6387.0756814
 10
37790.21465752
 20
-6387.0756814
 10
37790.21465752
 20
-6379.66054387
 10
37740.21465752
 20
-6379.66054387
 97
        0
 75
     0
 76
     2
 47
0.775229
 98
        1
 10
0.0
 20
0.0
  0
LWPOLYLINE
  5
638
100
AcDbEntity
  8
Ech.1_5
 62
   190
100
AcDbPolyline
 90
        5
 70
     0
 43
0.0
 10
37740.21465752
 20
-6387.0756814
 10
37790.21465752
 20
-6387.0756814
 10
37790.21465752
 20
-6379.66054387
 10
37740.21465752
 20
-6379.66054387
 10
37740.21465752
 20
-6387.0756814
  0
LWPOLYLINE
  5
639
100
AcDbEntity
  8
Ech.1_5
 62
   190
100
AcDbPolyline
 90
        5
 70
     0
 43
0.0
 10
37790.21465752
 20
-6387.0756814
 10
37840.21465752
 20
-6387.0756814
 10
37840.21465752
 20
-6379.66054387
 10
37790.21465752
 20
-6379.66054387
 10
37790.21465752
 20
-6387.0756814
  0
TEXT
  5
63A
100
AcDbEntity
  8
Ech.1_5
 62
   190
100
AcDbText
 10
37751.50895015
 20
-6370.07454079
 30
0.0
 40
8.00000012
  1
Echelle en mm
  7
ARIAL
 50
0.0
 41
1.0
 51
0.0
100
AcDbText
  0
TEXT
  5
63B
100
AcDbEntity
  8
Ech.1_5
 62
   190
100
AcDbText
 10
37737.5283654
 20
-6398.28437632
 30
0.0
 40
8.00000012
  1
0
  7
ARIAL
 50
0.0
 41
1.0
 51
0.0
100
AcDbText
  0
TEXT
  5
63C
100
AcDbEntity
  8
Ech.1_5
 62
   190
100
AcDbText
 10
37824.12542329
 20
-6398.28437632
 30
0.0
 40
8.00000012
  1
100
  7
ARIAL
 50
0.0
 41
1.0
 51
0.0
100
AcDbText
  0
TEXT
  5
63D
100
AcDbEntity
  8
Ech.1_5
 62
   190
100
AcDbText
 10
37785.38499172
 20
-6398.28437632
 30
0.0
 40
8.00000012
  1
50
  7
ARIAL
 50
0.0
 41
1.0
 51
0.0
100
AcDbText
  0
INSERT
  5
63E
100
AcDbEntity
  8
Ech.1_5
 62
     0
370
    -3
100
AcDbBlockReference
  2
*D2
 10
0.0
 20
0.0
 30
0.0
  0
ENDSEC
  0
SECTION
  2
OBJECTS
  0
DICTIONARY
  5
1
100
AcDbDictionary
  3
ACAD_GROUP
350
2
  3
ACAD_MLINESTYLE
350
3
  0
DICTIONARY
  5
2
102
{CDWK_REACTORS
330
1
102
}
100
AcDbDictionary
  0
DICTIONARY
  5
3
102
{CDWK_REACTORS
330
1
102
}
100
AcDbDictionary
  3
STANDARD
350
4
  0
MLINESTYLE
  5
4
102
{CDWK_REACTORS
330
3
102
}
100
AcDbMlineStyle
  2
STANDARD
 70
     0
  3

 62
     0
 51
90.0
 52
90.0
 71
     2
 49
0.5
 62
   256
  6
BYLAYER
 49
-0.5
 62
   256
  6
BYLAYER
  0
ENDSEC
  0
EOF
