  0
SECTION
  2
HEADER
  9
$ACADVER
  1
AC1014
  9
$DWGCODEPAGE
  3
ANSI_1252
  9
$INSBASE
 10
0.0
 20
0.0
 30
0.0
  9
$EXTMIN
 10
1033.98771282
 20
-21718.34332712
  9
$EXTMAX
 10
122326.07664696
 20
2240.3362527
  9
$LIMMIN
 10
1033.98771282
 20
-21718.34332712
  9
$LIMMAX
 10
122326.07664696
 20
2240.3362527
  9
$ORTHOMODE
 70
     0
  9
$REGENMODE
 70
     1
  9
$FILLMODE
 70
     1
  9
$QTEXTMODE
 70
     0
  9
$MIRRTEXT
 70
     1
  9
$DRAGMODE
 70
     2
  9
$LTSCALE
 40
5.0
  9
$OSMODE
 70
     0
  9
$ATTMODE
 70
     1
  9
$TEXTSIZE
 40
3.5
  9
$TRACEWID
 40
1.0
  9
$TEXTSTYLE
  7
STANDARD
  9
$CLAYER
  8
0
  9
$CELTYPE
  6
BYLAYER
  9
$CECOLOR
 62
   256
  9
$DIMSCALE
 40
1.0
  9
$DIMASZ
 40
2.0
  9
$DIMEXO
 40
5.0
  9
$DIMDLI
 40
10.0
  9
$DIMRND
 40
0.0
  9
$DIMDLE
 40
2.0
  9
$DIMEXE
 40
2.0
  9
$DIMTP
 40
0.0
  9
$DIMTM
 40
0.0
  9
$DIMTXT
 40
2.5
  9
$DIMCEN
 40
1.5
  9
$DIMTSZ
 40
0.0
  9
$DIMTOL
 70
     0
  9
$DIMLIM
 70
     0
  9
$DIMTIH
 70
     1
  9
$DIMTOH
 70
     0
  9
$DIMSE1
 70
     0
  9
$DIMSE2
 70
     0
  9
$DIMTAD
 70
     1
  9
$DIMZIN
 70
     8
  9
$DIMBLK
  1

  9
$DIMASO
 70
     1
  9
$DIMSHO
 70
     1
  9
$DIMPOST
  1

  9
$DIMAPOST
  1

  9
$DIMALT
 70
     0
  9
$DIMALTD
 70
     2
  9
$DIMALTF
 40
25.4
  9
$DIMLFAC
 40
1.0
  9
$DIMTOFL
 70
     0
  9
$DIMTVP
 40
0.0
  9
$DIMTIX
 70
     0
  9
$DIMSOXD
 70
     0
  9
$DIMSAH
 70
     0
  9
$DIMBLK1
  1

  9
$DIMBLK2
  1

  9
$DIMSTYLE
  2
*UNNAMED
  9
$DIMCLRD
 70
   190
  9
$DIMCLRE
 70
   190
  9
$DIMCLRT
 70
   190
  9
$DIMTFAC
 40
1.0
  9
$DIMGAP
 40
0.09
  9
$DIMUNIT
 70
     2
  9
$LUNITS
 70
     2
  9
$LUPREC
 70
     6
  9
$AXISMODE
 70
     0
  9
$AXISUNIT
 10
0.0
 20
0.0
  9
$SKETCHINC
 40
0.1
  9
$FILLETRAD
 40
0.0
  9
$AUNITS
 70
     0
  9
$AUPREC
 70
     0
  9
$MENU
  1
ACAD
  9
$ELEVATION
 40
0.0
  9
$PELEVATION
 40
0.0
  9
$THICKNESS
 40
0.0
  9
$LIMCHECK
 70
     0
  9
$BLIPMODE
 70
     1
  9
$CHAMFERA
 40
0.0
  9
$CHAMFERB
 40
0.0
  9
$SKPOLY
 70
     1
  9
$TDCREATE
 40
2457808.0000000000
  9
$TDUPDATE
 40
2457808.0000000000
  9
$TDINDWG
 40
0.0
  9
$TDUSRTIMER
 40
0.0
  9
$USRTIMER
 70
     1
  9
$ANGBASE
 50
0.0
  9
$ANGDIR
 70
     0
  9
$PDMODE
 70
     0
  9
$PDSIZE
 40
0.0
  9
$PLINEWID
 40
0.0
  9
$COORDS
 70
     2
  9
$SPLFRAME
 70
     0
  9
$SPLINETYPE
 70
     6
  9
$SPLINESEGS
 70
     8
  9
$ATTDIA
 70
     1
  9
$ATTREQ
 70
     1
  9
$HANDLING
 70
     1
  9
$HANDSEED
  5
     63D
  9
$SURFTAB1
 70
     6
  9
$SURFTAB2
 70
     6
  9
$SURFTYPE
 70
     6
  9
$SURFU
 70
     6
  9
$SURFV
 70
     6
  9
$UCSNAME
  2

  9
$UCSORG
 10
0.0
 20
0.0
 30
0.0
  9
$UCSXDIR
 10
1.0
 20
0.0
 30
0.0
  9
$UCSYDIR
 10
0.0
 20
1.0
 30
0.0
  9
$PUCSNAME
  2

  9
$PUCSORG
 10
0.0
 20
0.0
 30
0.0
  9
$PUCSXDIR
 10
1.0
 20
0.0
 30
0.0
  9
$PUCSYDIR
 10
0.0
 20
1.0
 30
0.0
  9
$USERI1
 70
     0
  9
$USERI2
 70
     0
  9
$USERI3
 70
     0
  9
$USERI4
 70
     0
  9
$USERI5
 70
     0
  9
$USERR1
 40
0.0
  9
$USERR2
 40
0.0
  9
$USERR3
 40
0.0
  9
$USERR4
 40
0.0
  9
$USERR5
 40
0.0
  9
$WORLDVIEW
 70
     1
  9
$SHADEDGE
 70
     3
  9
$SHADEDIF
 70
    70
  9
$TILEMODE
 70
     1
  9
$MAXACTVP
 70
    16
  9
$PINSBASE
 10
0.0
 20
0.0
 30
0.0
  9
$PLIMCHECK
 70
     0
  9
$PEXTMIN
 10
1.0000000000000E+20
 20
1.0000000000000E+20
 30
1.0000000000000E+20
  9
$PEXTMAX
 10
-1.0000000000000E+20
 20
-1.0000000000000E+20
 30
-1.0000000000000E+20
  9
$PLIMMIN
 10
0.0
 20
0.0
  9
$UNITMODE
 70
     0
  9
$VISRETAIN
 70
     0
  9
$MEASUREMENT
 70
     1
  0
ENDSEC
  0
SECTION
  2
TABLES
  0
TABLE
  2
VPORT
  5
4A2
100
AcDbSymbolTable
 70
     1
  0
ENDTAB
  0
TABLE
  2
STYLE
  5
4A3
100
AcDbSymbolTable
 70
     3
  0
STYLE
  5
4A4
100
AcDbSymbolTableRecord
100
AcDbTextStyleTableRecord
  2
STANDARD
 70
     0
 40
0.0
 41
1.0
 50
0.0
 71
     0
 42
3.5
  3
MONOTXT
  4

  0
STYLE
  5
4A5
100
AcDbSymbolTableRecord
100
AcDbTextStyleTableRecord
  2
SYMAP
 70
     0
 40
0.0
 41
1.0
 50
0.0
 71
     0
 42
3.5
  3
SYMAP
  4

  0
STYLE
  5
4A6
100
AcDbSymbolTableRecord
100
AcDbTextStyleTableRecord
  2
CADWORK1
 70
     0
 40
0.0
 41
1.0
 50
0.0
 71
     0
 42
3.5
  3
MONOTXT
  4

  0
STYLE
  5
4A7
100
AcDbSymbolTableRecord
100
AcDbTextStyleTableRecord
  2
MONOTXT
 70
     0
 40
0.0
 41
1.0
 50
0.0
 71
     0
 42
3.5
  3
MONOTXT
  4

  0
STYLE
  5
4A8
100
AcDbSymbolTableRecord
100
AcDbTextStyleTableRecord
  2
ARIAL
 70
     0
 40
0.0
 41
1.0
 50
0.0
 71
     0
 42
3.5
  3

  4

1001
ACAD
1000
Arial
1071
        0
  0
ENDTAB
  0
TABLE
  2
LTYPE
  5
4A9
100
AcDbSymbolTable
 70
    15
  0
LTYPE
  5
4AA
100
AcDbSymbolTableRecord
100
AcDbLinetypeTableRecord
  2
BYBLOCK
 70
    64
  3

 72
    65
 73
     0
 40
0.0
  0
LTYPE
  5
4AB
100
AcDbSymbolTableRecord
100
AcDbLinetypeTableRecord
  2
BYLAYER
 70
    64
  3

 72
    65
 73
     0
 40
0.0
  0
LTYPE
  5
4AC
100
AcDbSymbolTableRecord
100
AcDbLinetypeTableRecord
  2
CONTINUOUS
 70
    64
  3
Solid line
 72
    65
 73
     0
 40
0.0
  0
LTYPE
  5
4AD
100
AcDbSymbolTableRecord
100
AcDbLinetypeTableRecord
  2
DOT2
 70
    64
  3
...............................................
 72
    65
 73
     2
 40
1.25
 49
0.0
 74
     0
 49
-1.25
 74
     0
  0
LTYPE
  5
4AE
100
AcDbSymbolTableRecord
100
AcDbLinetypeTableRecord
  2
CADWORK_13
 70
    64
  3
13 =======================================
 72
    65
 73
     2
 40
4.0
 49
2.0
 74
     0
 49
-2.0
 74
     0
  0
LTYPE
  5
4AF
100
AcDbSymbolTableRecord
100
AcDbLinetypeTableRecord
  2
DASHDOT
 70
    64
  3
 __ . __ . __ . __ . __ . __ . __ . __ . __ . __
 72
    65
 73
     4
 40
10.0
 49
5.0
 74
     0
 49
-2.5
 74
     0
 49
0.0
 74
     0
 49
-2.5
 74
     0
  0
LTYPE
  5
4B0
100
AcDbSymbolTableRecord
100
AcDbLinetypeTableRecord
  2
CENTER
 70
    64
  3
 ____ _ ____ _ ____ _ ____ _ ____ _ ____ _ ____
 72
    65
 73
     4
 40
20.0
 49
12.5
 74
     0
 49
-2.5
 74
     0
 49
2.5
 74
     0
 49
-2.5
 74
     0
  0
LTYPE
  5
4B1
100
AcDbSymbolTableRecord
100
AcDbLinetypeTableRecord
  2
DASHEDX2
 70
    64
  3
____  ____  ____  ____  ____  ____  ____  ____
 72
    65
 73
     2
 40
3.75
 49
2.5
 74
     0
 49
-1.25
 74
     0
  0
LTYPE
  5
4B2
100
AcDbSymbolTableRecord
100
AcDbLinetypeTableRecord
  2
CADWORK_22
 70
    64
  3
22 =======================================
 72
    65
 73
     0
 40
0.0
  0
LTYPE
  5
4B3
100
AcDbSymbolTableRecord
100
AcDbLinetypeTableRecord
  2
DAL
 70
    64
  3
Solid line (for MAPS)
 72
    65
 73
     0
 40
0.0
  0
LTYPE
  5
4B4
100
AcDbSymbolTableRecord
100
AcDbLinetypeTableRecord
  2
MUR
 70
    64
  3
Solid line (for MAPS)
 72
    65
 73
     0
 40
0.0
  0
LTYPE
  5
4B5
100
AcDbSymbolTableRecord
100
AcDbLinetypeTableRecord
  2
SOM
 70
    64
  3
Solid line (for MAPS)
 72
    65
 73
     0
 40
0.0
  0
LTYPE
  5
4B6
100
AcDbSymbolTableRecord
100
AcDbLinetypeTableRecord
  2
COL
 70
    64
  3
Solid line (for MAPS)
 72
    65
 73
     0
 40
0.0
  0
LTYPE
  5
4B7
100
AcDbSymbolTableRecord
100
AcDbLinetypeTableRecord
  2
LGN
 70
    64
  3
Solid line (for MAPS)
 72
    65
 73
     0
 40
0.0
  0
LTYPE
  5
4B8
100
AcDbSymbolTableRecord
100
AcDbLinetypeTableRecord
  2
PNT
 70
    64
  3
Solid line (for MAPS)
 72
    65
 73
     0
 40
0.0
  0
ENDTAB
  0
TABLE
  2
LAYER
  5
4B9
100
AcDbSymbolTable
 70
    32
  0
LAYER
  5
4BA
100
AcDbSymbolTableRecord
100
AcDbLayerTableRecord
  2
Standard
 70
     0
 62
     7
  6
CONTINUOUS
370
    -3
  0
LAYER
  5
4BB
100
AcDbSymbolTableRecord
100
AcDbLayerTableRecord
  2
Ech.1_1
 70
     0
 62
     7
  6
CONTINUOUS
370
    -3
  0
LAYER
  5
4BC
100
AcDbSymbolTableRecord
100
AcDbLayerTableRecord
  2
Ech.1_2
 70
     0
 62
     7
  6
CONTINUOUS
370
    -3
  0
LAYER
  5
4BD
100
AcDbSymbolTableRecord
100
AcDbLayerTableRecord
  2
Ech.1_5
 70
     0
 62
     7
  6
CONTINUOUS
370
    -3
  0
LAYER
  5
4BE
100
AcDbSymbolTableRecord
100
AcDbLayerTableRecord
  2
Ech.1_10
 70
     0
 62
     7
  6
CONTINUOUS
370
    -3
  0
LAYER
  5
4BF
100
AcDbSymbolTableRecord
100
AcDbLayerTableRecord
  2
Ech.1_20
 70
     0
 62
     7
  6
CONTINUOUS
370
    -3
  0
LAYER
  5
4C0
100
AcDbSymbolTableRecord
100
AcDbLayerTableRecord
  2
Ech.1_25
 70
     0
 62
     7
  6
CONTINUOUS
370
    -3
  0
LAYER
  5
4C1
100
AcDbSymbolTableRecord
100
AcDbLayerTableRecord
  2
Ech.1_33
 70
     0
 62
     7
  6
CONTINUOUS
370
    -3
  0
LAYER
  5
4C2
100
AcDbSymbolTableRecord
100
AcDbLayerTableRecord
  2
Ech.1_50
 70
     0
 62
     7
  6
CONTINUOUS
370
    -3
  0
LAYER
  5
4C3
100
AcDbSymbolTableRecord
100
AcDbLayerTableRecord
  2
Ech.1_75
 70
     0
 62
     7
  6
CONTINUOUS
370
    -3
  0
LAYER
  5
4C4
100
AcDbSymbolTableRecord
100
AcDbLayerTableRecord
  2
Ech.1_100
 70
     0
 62
     7
  6
CONTINUOUS
370
    -3
  0
LAYER
  5
4C5
100
AcDbSymbolTableRecord
100
AcDbLayerTableRecord
  2
Ech.1_200
 70
     0
 62
     7
  6
CONTINUOUS
370
    -3
  0
LAYER
  5
4C6
100
AcDbSymbolTableRecord
100
AcDbLayerTableRecord
  2
Ech.1_500
 70
     0
 62
     7
  6
CONTINUOUS
370
    -3
  0
LAYER
  5
4C7
100
AcDbSymbolTableRecord
100
AcDbLayerTableRecord
  2
Ech.1_1000
 70
     0
 62
     7
  6
CONTINUOUS
370
    -3
  0
LAYER
  5
4C8
100
AcDbSymbolTableRecord
100
AcDbLayerTableRecord
  2
Cadres traceur
 70
     0
 62
     7
  6
CONTINUOUS
370
    18
  0
LAYER
  5
4C9
100
AcDbSymbolTableRecord
100
AcDbLayerTableRecord
  2
Cadres laser
 70
     0
 62
     7
  6
CONTINUOUS
370
    18
  0
LAYER
  5
4CA
100
AcDbSymbolTableRecord
100
AcDbLayerTableRecord
  2
Légende d_aide
 70
     0
 62
     7
  6
CONTINUOUS
370
    18
  0
LAYER
  5
4CB
100
AcDbSymbolTableRecord
100
AcDbLayerTableRecord
  2
hachures ok
 70
     0
 62
     7
  6
CONTINUOUS
370
    18
  0
LAYER
  5
4CC
100
AcDbSymbolTableRecord
100
AcDbLayerTableRecord
  2
ossature bois
 70
     0
 62
     7
  6
CONTINUOUS
370
    18
  0
LAYER
  5
4CD
100
AcDbSymbolTableRecord
100
AcDbLayerTableRecord
  2
VR
 70
     0
 62
     7
  6
CONTINUOUS
370
    25
  0
LAYER
  5
4CE
100
AcDbSymbolTableRecord
100
AcDbLayerTableRecord
  2
Calque1
 70
     0
 62
     7
  6
CONTINUOUS
370
     9
  0
LAYER
  5
4CF
100
AcDbSymbolTableRecord
100
AcDbLayerTableRecord
  2
0
 70
     0
 62
     7
  6
CONTINUOUS
370
    -3
  0
LAYER
  5
4D0
100
AcDbSymbolTableRecord
100
AcDbLayerTableRecord
  2
menuiserie
 70
     0
 62
     7
  6
CONTINUOUS
370
    -3
  0
LAYER
  5
4D1
100
AcDbSymbolTableRecord
100
AcDbLayerTableRecord
  2
cotation
 70
     0
 62
   250
  6
CONTINUOUS
370
     9
  0
LAYER
  5
4D2
100
AcDbSymbolTableRecord
100
AcDbLayerTableRecord
  2
Defpoints
 70
     0
 62
    10
  6
CONTINUOUS
370
    -3
  0
LAYER
  5
4D3
100
AcDbSymbolTableRecord
100
AcDbLayerTableRecord
  2
HACHURE
 70
     0
 62
   254
  6
CONTINUOUS
370
    25
  0
LAYER
  5
4D4
100
AcDbSymbolTableRecord
100
AcDbLayerTableRecord
  2
mat1
 70
     0
 62
     7
  6
CONTINUOUS
370
    30
  0
LAYER
  5
4D5
100
AcDbSymbolTableRecord
100
AcDbLayerTableRecord
  2
mat2
 70
     0
 62
     7
  6
CONTINUOUS
370
     5
  0
LAYER
  5
4D6
100
AcDbSymbolTableRecord
100
AcDbLayerTableRecord
  2
hach
 70
     0
 62
     8
  6
CONTINUOUS
370
     5
  0
LAYER
  5
4D7
100
AcDbSymbolTableRecord
100
AcDbLayerTableRecord
  2
menuiseries
 70
     0
 62
     7
  6
CONTINUOUS
370
     9
  0
LAYER
  5
4D8
100
AcDbSymbolTableRecord
100
AcDbLayerTableRecord
  2
BétonMétal
 70
     0
 62
     7
  6
CONTINUOUS
370
    80
  0
LAYER
  5
4D9
100
AcDbSymbolTableRecord
100
AcDbLayerTableRecord
  2
bois
 70
     0
 62
     7
  6
CONTINUOUS
370
    60
  0
ENDTAB
  0
TABLE
  2
VIEW
  5
4DA
100
AcDbSymbolTable
 70
     0
  0
ENDTAB
  0
TABLE
  2
UCS
  5
4DB
100
AcDbSymbolTable
 70
     0
  0
ENDTAB
  0
TABLE
  2
APPID
  5
4DC
100
AcDbSymbolTable
 70
     1
  0
APPID
  5
4DD
100
AcDbSymbolTableRecord
100
AcDbRegAppTableRecord
  2
ACAD
 70
     0
  0
ENDTAB
  0
TABLE
  2
DIMSTYLE
  5
4DE
100
AcDbSymbolTable
 70
     0
  0
ENDTAB
  0
TABLE
  2
BLOCK_RECORD
  5
4DF
100
AcDbSymbolTable
 70
     0
  0
BLOCK_RECORD
  5
4E0
100
AcDbSymbolTableRecord
100
AcDbBlockTableRecord
  2
*MODEL_SPACE
  0
BLOCK_RECORD
  5
4E1
100
AcDbSymbolTableRecord
100
AcDbBlockTableRecord
  2
*PAPER_SPACE
  0
BLOCK_RECORD
  5
4E2
100
AcDbSymbolTableRecord
100
AcDbBlockTableRecord
  2
CDWK_EXTR_0
  0
BLOCK_RECORD
  5
4E3
100
AcDbSymbolTableRecord
100
AcDbBlockTableRecord
  2
CDWK_EXTR_1D
  0
BLOCK_RECORD
  5
4E4
100
AcDbSymbolTableRecord
100
AcDbBlockTableRecord
  2
CDWK_EXTR_1G
  0
BLOCK_RECORD
  5
4E5
100
AcDbSymbolTableRecord
100
AcDbBlockTableRecord
  2
CDWK_EXTR_2
  0
BLOCK_RECORD
  5
4E6
100
AcDbSymbolTableRecord
100
AcDbBlockTableRecord
  2
CDWK_EXTR_3
  0
BLOCK_RECORD
  5
4E7
100
AcDbSymbolTableRecord
100
AcDbBlockTableRecord
  2
CDWK_EXTR_4
  0
BLOCK_RECORD
  5
4E8
100
AcDbSymbolTableRecord
100
AcDbBlockTableRecord
  2
CDWK_PTTYP0
  0
BLOCK_RECORD
  5
4E9
100
AcDbSymbolTableRecord
100
AcDbBlockTableRecord
  2
CDWK_PTTYP1
  0
BLOCK_RECORD
  5
4EA
100
AcDbSymbolTableRecord
100
AcDbBlockTableRecord
  2
CDWK_PTTYP2
  0
BLOCK_RECORD
  5
4EB
100
AcDbSymbolTableRecord
100
AcDbBlockTableRecord
  2
CDWK_PTTYP3
  0
BLOCK_RECORD
  5
4EC
100
AcDbSymbolTableRecord
100
AcDbBlockTableRecord
  2
CDWK_PTTYP4
  0
BLOCK_RECORD
  5
4ED
100
AcDbSymbolTableRecord
100
AcDbBlockTableRecord
  2
CDWK_PTTYP5
  0
BLOCK_RECORD
  5
4EE
100
AcDbSymbolTableRecord
100
AcDbBlockTableRecord
  2
CDWK_PTTYP6
  0
BLOCK_RECORD
  5
4EF
100
AcDbSymbolTableRecord
100
AcDbBlockTableRecord
  2
CDWK_PTTYP7
  0
BLOCK_RECORD
  5
4F0
100
AcDbSymbolTableRecord
100
AcDbBlockTableRecord
  2
CDWK_PTTYP8
  0
BLOCK_RECORD
  5
4F1
100
AcDbSymbolTableRecord
100
AcDbBlockTableRecord
  2
CDWK_PTTYP9
  0
BLOCK_RECORD
  5
4F2
100
AcDbSymbolTableRecord
100
AcDbBlockTableRecord
  2
CDWK_PTTYP10
  0
BLOCK_RECORD
  5
4F3
100
AcDbSymbolTableRecord
100
AcDbBlockTableRecord
  2
CDWK_PTTYP11
  0
BLOCK_RECORD
  5
4F4
100
AcDbSymbolTableRecord
100
AcDbBlockTableRecord
  2
CDWK_PTTYP12
  0
BLOCK_RECORD
  5
4F5
100
AcDbSymbolTableRecord
100
AcDbBlockTableRecord
  2
CDWK_PTTYP13
  0
BLOCK_RECORD
  5
4F6
100
AcDbSymbolTableRecord
100
AcDbBlockTableRecord
  2
CDWK_PTTYP14
  0
BLOCK_RECORD
  5
4F7
100
AcDbSymbolTableRecord
100
AcDbBlockTableRecord
  2
CDWK_PTTYP15
  0
BLOCK_RECORD
  5
4F8
100
AcDbSymbolTableRecord
100
AcDbBlockTableRecord
  2
CDWK_PTTYP16
  0
BLOCK_RECORD
  5
4F9
100
AcDbSymbolTableRecord
100
AcDbBlockTableRecord
  2
CDWK_PTTYP17
  0
BLOCK_RECORD
  5
4FA
100
AcDbSymbolTableRecord
100
AcDbBlockTableRecord
  2
CDWK_PTTYP18
  0
BLOCK_RECORD
  5
4FB
100
AcDbSymbolTableRecord
100
AcDbBlockTableRecord
  2
CDWK_PTTYP19
  0
BLOCK_RECORD
  5
4FC
100
AcDbSymbolTableRecord
100
AcDbBlockTableRecord
  2
CDWK_PTTYP20
  0
BLOCK_RECORD
  5
4FD
100
AcDbSymbolTableRecord
100
AcDbBlockTableRecord
  2
CDWK_PTTYP21
  0
BLOCK_RECORD
  5
4FE
100
AcDbSymbolTableRecord
100
AcDbBlockTableRecord
  2
CDWK_PTTYP22
  0
BLOCK_RECORD
  5
4FF
100
AcDbSymbolTableRecord
100
AcDbBlockTableRecord
  2
CDWK_PTTYP23
  0
BLOCK_RECORD
  5
500
100
AcDbSymbolTableRecord
100
AcDbBlockTableRecord
  2
CDWK_PTTYP24
  0
BLOCK_RECORD
  5
501
100
AcDbSymbolTableRecord
100
AcDbBlockTableRecord
  2
CDWK_PTTYP25
  0
BLOCK_RECORD
  5
502
100
AcDbSymbolTableRecord
100
AcDbBlockTableRecord
  2
CDWK_PTTYP26
  0
BLOCK_RECORD
  5
503
100
AcDbSymbolTableRecord
100
AcDbBlockTableRecord
  2
CDWK_PTTYP27
  0
BLOCK_RECORD
  5
504
100
AcDbSymbolTableRecord
100
AcDbBlockTableRecord
  2
CDWK_PTTYP28
  0
BLOCK_RECORD
  5
505
100
AcDbSymbolTableRecord
100
AcDbBlockTableRecord
  2
CDWK_PTTYP29
  0
BLOCK_RECORD
  5
506
100
AcDbSymbolTableRecord
100
AcDbBlockTableRecord
  2
CDWK_PTTYP30
  0
BLOCK_RECORD
  5
507
100
AcDbSymbolTableRecord
100
AcDbBlockTableRecord
  2
CDWK_PTTYP31
  0
BLOCK_RECORD
  5
508
100
AcDbSymbolTableRecord
100
AcDbBlockTableRecord
  2
CDWK_PTTYP32
  0
BLOCK_RECORD
  5
509
100
AcDbSymbolTableRecord
100
AcDbBlockTableRecord
  2
CDWK_PTTYP33
  0
BLOCK_RECORD
  5
50A
100
AcDbSymbolTableRecord
100
AcDbBlockTableRecord
  2
CDWK_PTTYP34
  0
BLOCK_RECORD
  5
50B
100
AcDbSymbolTableRecord
100
AcDbBlockTableRecord
  2
CDWK_PTTYP35
  0
BLOCK_RECORD
  5
50C
100
AcDbSymbolTableRecord
100
AcDbBlockTableRecord
  2
CDWK_PTTYP36
  0
BLOCK_RECORD
  5
50D
100
AcDbSymbolTableRecord
100
AcDbBlockTableRecord
  2
CDWK_PTTYP37
  0
BLOCK_RECORD
  5
50E
100
AcDbSymbolTableRecord
100
AcDbBlockTableRecord
  2
CDWK_PTTYP38
  0
ENDTAB
  0
ENDSEC
  0
SECTION
  2
BLOCKS
  0
BLOCK
  5
50F
100
AcDbEntity
  8
0
100
AcDbBlockBegin
  2
*MODEL_SPACE
 70
     0
 10
0.0
 20
0.0
 30
0.0
  3
*MODEL_SPACE
  1

  0
ENDBLK
  5
510
100
AcDbEntity
100
AcDbBlockEnd
  0
BLOCK
  5
511
100
AcDbEntity
  8
0
100
AcDbBlockBegin
  2
*PAPER_SPACE
 70
     0
 10
0.0
 20
0.0
 30
0.0
  3
*PAPER_SPACE
  1

  0
ENDBLK
  5
512
100
AcDbEntity
100
AcDbBlockEnd
  0
BLOCK
  5
513
100
AcDbEntity
  8
0
100
AcDbBlockBegin
  2
CDWK_EXTR_0
 70
     0
 10
0.0
 20
0.0
 30
0.0
  3
CDWK_EXTR_0
  1

  4
Cadwork line-extremity
  0
LINE
  5
514
100
AcDbEntity
  8
0
 62
     0
370
    -2
100
AcDbLine
 10
0.0
 20
0.0
 30
0.0
 11
2.0
 21
0.5
 31
0.0
  0
LINE
  5
515
100
AcDbEntity
  8
0
 62
     0
370
    -2
100
AcDbLine
 10
0.0
 20
0.0
 30
0.0
 11
2.0
 21
-0.5
 31
0.0
  0
LINE
  5
516
100
AcDbEntity
  8
0
 62
     0
370
    -2
100
AcDbLine
 10
2.0
 20
0.5
 30
0.0
 11
2.0
 21
-0.5
 31
0.0
  0
ENDBLK
  5
517
100
AcDbEntity
100
AcDbBlockEnd
  0
BLOCK
  5
518
100
AcDbEntity
  8
0
100
AcDbBlockBegin
  2
CDWK_EXTR_1D
 70
     0
 10
0.0
 20
0.0
 30
0.0
  3
CDWK_EXTR_1D
  1

  4
Cadwork line-extremity
  0
LINE
  5
519
100
AcDbEntity
  8
0
 62
     0
370
    -2
100
AcDbLine
 10
0.0
 20
0.0
 30
0.0
 11
0.0
 21
1.0
 31
0.0
  0
LINE
  5
51A
100
AcDbEntity
  8
0
 62
     0
370
    -2
100
AcDbLine
 10
0.0
 20
1.0
 30
0.0
 11
0.5
 21
1.5
 31
0.0
  0
LINE
  5
51B
100
AcDbEntity
  8
0
 62
     0
370
    -2
100
AcDbLine
 10
0.5
 20
1.5
 30
0.0
 11
1.5
 21
1.5
 31
0.0
  0
ENDBLK
  5
51C
100
AcDbEntity
100
AcDbBlockEnd
  0
BLOCK
  5
51D
100
AcDbEntity
  8
0
100
AcDbBlockBegin
  2
CDWK_EXTR_1G
 70
     0
 10
0.0
 20
0.0
 30
0.0
  3
CDWK_EXTR_1G
  1

  4
Cadwork line-extremity
  0
LINE
  5
51E
100
AcDbEntity
  8
0
 62
     0
370
    -2
100
AcDbLine
 10
0.0
 20
0.0
 30
0.0
 11
0.0
 21
-1.0
 31
0.0
  0
LINE
  5
51F
100
AcDbEntity
  8
0
 62
     0
370
    -2
100
AcDbLine
 10
0.0
 20
-1.0
 30
0.0
 11
0.5
 21
-1.5
 31
0.0
  0
LINE
  5
520
100
AcDbEntity
  8
0
 62
     0
370
    -2
100
AcDbLine
 10
0.5
 20
-1.5
 30
0.0
 11
1.5
 21
-1.5
 31
0.0
  0
ENDBLK
  5
521
100
AcDbEntity
100
AcDbBlockEnd
  0
BLOCK
  5
522
100
AcDbEntity
  8
0
100
AcDbBlockBegin
  2
CDWK_EXTR_2
 70
     0
 10
0.0
 20
0.0
 30
0.0
  3
CDWK_EXTR_2
  1

  4
Cadwork line-extremity
  0
SOLID
  5
523
100
AcDbEntity
  8
0
 62
     0
100
AcDbTrace
 10
0.0
 20
0.0
 11
2.0
 21
0.5
 12
2.0
 22
-0.5
 13
2.0
 23
-0.5
  0
ENDBLK
  5
524
100
AcDbEntity
100
AcDbBlockEnd
  0
BLOCK
  5
525
100
AcDbEntity
  8
0
100
AcDbBlockBegin
  2
CDWK_EXTR_3
 70
     0
 10
0.0
 20
0.0
 30
0.0
  3
CDWK_EXTR_3
  1

  4
Cadwork line-extremity
  0
SOLID
  5
526
100
AcDbEntity
  8
0
 62
     0
100
AcDbTrace
 10
0.0
 20
0.0
 11
2.0
 21
0.5
 12
2.0
 22
-0.5
 13
2.0
 23
-0.5
  0
LINE
  5
527
100
AcDbEntity
  8
0
 62
     0
370
    -2
100
AcDbLine
 10
0.0
 20
1.0
 30
0.0
 11
0.0
 21
-1.0
 31
0.0
  0
ENDBLK
  5
528
100
AcDbEntity
100
AcDbBlockEnd
  0
BLOCK
  5
529
100
AcDbEntity
  8
0
100
AcDbBlockBegin
  2
CDWK_EXTR_4
 70
     0
 10
0.0
 20
0.0
 30
0.0
  3
CDWK_EXTR_4
  1

  4
Cadwork line-extremity
  0
HATCH
  5
52A
100
AcDbEntity
  8
0
 62
     0
370
    -2
100
AcDbHatch
 10
0.0
 20
0.0
 30
0.0
210
0.0
220
0.0
230
1.0
  2
SOLID
 70
     1
 71
     0
 91
        1
 92
        1
 93
        1
 72
     2
 10
0.0
 20
0.0
 40
0.5
 50
0.0
 51
360.0
 73
     1
 97
        0
 75
     0
 76
     1
 98
        1
 10
0.0
 20
0.0
  0
ENDBLK
  5
52B
100
AcDbEntity
100
AcDbBlockEnd
  0
BLOCK
  5
52C
100
AcDbEntity
  8
0
100
AcDbBlockBegin
  2
CDWK_PTTYP0
 70
     0
 10
0.0
 20
0.0
 30
0.0
  3
CDWK_PTTYP0
  1

  4
Cadwork point
  0
POINT
  5
52D
100
AcDbEntity
  8
0
 62
     0
100
AcDbPoint
 10
0.0
 20
0.0
 30
0.0
  0
ENDBLK
  5
52E
100
AcDbEntity
100
AcDbBlockEnd
  0
BLOCK
  5
52F
100
AcDbEntity
  8
0
100
AcDbBlockBegin
  2
CDWK_PTTYP1
 70
     0
 10
0.0
 20
0.0
 30
0.0
  3
CDWK_PTTYP1
  1

  4
Cadwork node
  0
LINE
  5
530
100
AcDbEntity
  8
0
 62
     0
370
    -2
100
AcDbLine
 10
-0.5
 20
0.5
 30
0.0
 11
0.5
 21
0.5
 31
0.0
  0
LINE
  5
531
100
AcDbEntity
  8
0
 62
     0
370
    -2
100
AcDbLine
 10
0.5
 20
0.5
 30
0.0
 11
0.5
 21
-0.5
 31
0.0
  0
LINE
  5
532
100
AcDbEntity
  8
0
 62
     0
370
    -2
100
AcDbLine
 10
0.5
 20
-0.5
 30
0.0
 11
-0.5
 21
-0.5
 31
0.0
  0
LINE
  5
533
100
AcDbEntity
  8
0
 62
     0
370
    -2
100
AcDbLine
 10
-0.5
 20
-0.5
 30
0.0
 11
-0.5
 21
0.5
 31
0.0
  0
ENDBLK
  5
534
100
AcDbEntity
100
AcDbBlockEnd
  0
BLOCK
  5
535
100
AcDbEntity
  8
0
100
AcDbBlockBegin
  2
CDWK_PTTYP2
 70
     0
 10
0.0
 20
0.0
 30
0.0
  3
CDWK_PTTYP2
  1

  4
Cadwork node
  0
LINE
  5
536
100
AcDbEntity
  8
0
 62
     0
370
    -2
100
AcDbLine
 10
0.0
 20
0.5
 30
0.0
 11
0.0
 21
-0.5
 31
0.0
  0
LINE
  5
537
100
AcDbEntity
  8
0
 62
     0
370
    -2
100
AcDbLine
 10
-0.5
 20
0.0
 30
0.0
 11
0.5
 21
0.0
 31
0.0
  0
ENDBLK
  5
538
100
AcDbEntity
100
AcDbBlockEnd
  0
BLOCK
  5
539
100
AcDbEntity
  8
0
100
AcDbBlockBegin
  2
CDWK_PTTYP3
 70
     0
 10
0.0
 20
0.0
 30
0.0
  3
CDWK_PTTYP3
  1

  4
Cadwork node
  0
CIRCLE
  5
53A
100
AcDbEntity
  8
0
 62
     0
370
    -2
100
AcDbCircle
 10
0.0
 20
0.0
 30
0.0
 40
0.5
  0
ENDBLK
  5
53B
100
AcDbEntity
100
AcDbBlockEnd
  0
BLOCK
  5
53C
100
AcDbEntity
  8
0
100
AcDbBlockBegin
  2
CDWK_PTTYP4
 70
     0
 10
0.0
 20
0.0
 30
0.0
  3
CDWK_PTTYP4
  1

  4
Cadwork node
  0
HATCH
  5
53D
100
AcDbEntity
  8
0
 62
     0
370
    -2
100
AcDbHatch
 10
0.0
 20
0.0
 30
0.0
210
0.0
220
0.0
230
1.0
  2
SOLID
 70
     1
 71
     0
 91
        1
 92
        1
 93
        1
 72
     2
 10
0.0
 20
0.0
 40
0.5
 50
0.0
 51
360.0
 73
     1
 97
        0
 75
     0
 76
     1
 98
        1
 10
0.0
 20
0.0
  0
ENDBLK
  5
53E
100
AcDbEntity
100
AcDbBlockEnd
  0
BLOCK
  5
53F
100
AcDbEntity
  8
0
100
AcDbBlockBegin
  2
CDWK_PTTYP5
 70
     0
 10
0.0
 20
0.0
 30
0.0
  3
CDWK_PTTYP5
  1

  4
Cadwork node
  0
LINE
  5
540
100
AcDbEntity
  8
0
 62
     0
370
    -2
100
AcDbLine
 10
-0.5
 20
0.5
 30
0.0
 11
0.5
 21
0.5
 31
0.0
  0
LINE
  5
541
100
AcDbEntity
  8
0
 62
     0
370
    -2
100
AcDbLine
 10
0.5
 20
0.5
 30
0.0
 11
0.5
 21
-0.5
 31
0.0
  0
LINE
  5
542
100
AcDbEntity
  8
0
 62
     0
370
    -2
100
AcDbLine
 10
0.5
 20
-0.5
 30
0.0
 11
-0.5
 21
-0.5
 31
0.0
  0
LINE
  5
543
100
AcDbEntity
  8
0
 62
     0
370
    -2
100
AcDbLine
 10
-0.5
 20
-0.5
 30
0.0
 11
-0.5
 21
0.5
 31
0.0
  0
SOLID
  5
544
100
AcDbEntity
  8
0
 62
     0
100
AcDbTrace
 10
-0.5
 20
-0.5
 11
-0.5
 21
0.0
 12
0.0
 22
-0.5
 13
0.0
 23
0.0
  0
SOLID
  5
545
100
AcDbEntity
  8
0
 62
     0
100
AcDbTrace
 10
0.0
 20
0.0
 11
0.0
 21
0.5
 12
0.5
 22
0.0
 13
0.5
 23
0.5
  0
ENDBLK
  5
546
100
AcDbEntity
100
AcDbBlockEnd
  0
BLOCK
  5
547
100
AcDbEntity
  8
0
100
AcDbBlockBegin
  2
CDWK_PTTYP6
 70
     0
 10
0.0
 20
0.0
 30
0.0
  3
CDWK_PTTYP6
  1

  4
Cadwork node
  0
LINE
  5
548
100
AcDbEntity
  8
0
 62
     0
370
    -2
100
AcDbLine
 10
-0.5
 20
0.5
 30
0.0
 11
0.5
 21
0.5
 31
0.0
  0
LINE
  5
549
100
AcDbEntity
  8
0
 62
     0
370
    -2
100
AcDbLine
 10
0.5
 20
0.5
 30
0.0
 11
0.5
 21
-0.5
 31
0.0
  0
LINE
  5
54A
100
AcDbEntity
  8
0
 62
     0
370
    -2
100
AcDbLine
 10
0.5
 20
-0.5
 30
0.0
 11
-0.5
 21
-0.5
 31
0.0
  0
LINE
  5
54B
100
AcDbEntity
  8
0
 62
     0
370
    -2
100
AcDbLine
 10
-0.5
 20
-0.5
 30
0.0
 11
-0.5
 21
0.5
 31
0.0
  0
SOLID
  5
54C
100
AcDbEntity
  8
0
 62
     0
100
AcDbTrace
 10
-0.5
 20
-0.5
 11
-0.5
 21
0.5
 12
0.5
 22
0.5
 13
0.5
 23
0.5
  0
ENDBLK
  5
54D
100
AcDbEntity
100
AcDbBlockEnd
  0
BLOCK
  5
54E
100
AcDbEntity
  8
0
100
AcDbBlockBegin
  2
CDWK_PTTYP7
 70
     0
 10
0.0
 20
0.0
 30
0.0
  3
CDWK_PTTYP7
  1

  4
Cadwork node
  0
LINE
  5
54F
100
AcDbEntity
  8
0
 62
     0
370
    -2
100
AcDbLine
 10
-0.5
 20
0.5
 30
0.0
 11
0.5
 21
0.5
 31
0.0
  0
LINE
  5
550
100
AcDbEntity
  8
0
 62
     0
370
    -2
100
AcDbLine
 10
0.5
 20
0.5
 30
0.0
 11
0.5
 21
-0.5
 31
0.0
  0
LINE
  5
551
100
AcDbEntity
  8
0
 62
     0
370
    -2
100
AcDbLine
 10
0.5
 20
-0.5
 30
0.0
 11
-0.5
 21
-0.5
 31
0.0
  0
LINE
  5
552
100
AcDbEntity
  8
0
 62
     0
370
    -2
100
AcDbLine
 10
-0.5
 20
-0.5
 30
0.0
 11
-0.5
 21
0.5
 31
0.0
  0
LINE
  5
553
100
AcDbEntity
  8
0
 62
     0
370
    -2
100
AcDbLine
 10
0.0
 20
0.5
 30
0.0
 11
0.0
 21
-0.5
 31
0.0
  0
LINE
  5
554
100
AcDbEntity
  8
0
 62
     0
370
    -2
100
AcDbLine
 10
-0.5
 20
0.0
 30
0.0
 11
0.5
 21
0.0
 31
0.0
  0
ENDBLK
  5
555
100
AcDbEntity
100
AcDbBlockEnd
  0
BLOCK
  5
556
100
AcDbEntity
  8
0
100
AcDbBlockBegin
  2
CDWK_PTTYP8
 70
     0
 10
0.0
 20
0.0
 30
0.0
  3
CDWK_PTTYP8
  1

  4
Cadwork node
  0
SOLID
  5
557
100
AcDbEntity
  8
0
 62
     0
100
AcDbTrace
 10
-0.5
 20
0.5
 11
0.5
 21
0.5
 12
-0.5
 22
-0.5
 13
0.5
 23
-0.5
  0
ENDBLK
  5
558
100
AcDbEntity
100
AcDbBlockEnd
  0
BLOCK
  5
559
100
AcDbEntity
  8
0
100
AcDbBlockBegin
  2
CDWK_PTTYP9
 70
     0
 10
0.0
 20
0.0
 30
0.0
  3
CDWK_PTTYP9
  1

  4
Cadwork node
  0
CIRCLE
  5
55A
100
AcDbEntity
  8
0
 62
     0
370
    -2
100
AcDbCircle
 10
0.0
 20
0.0
 30
0.0
 40
0.5
  0
CIRCLE
  5
55B
100
AcDbEntity
  8
0
 62
     0
370
    -2
100
AcDbCircle
 10
0.0
 20
0.0
 30
0.0
 40
0.16666667
  0
ENDBLK
  5
55C
100
AcDbEntity
100
AcDbBlockEnd
  0
BLOCK
  5
55D
100
AcDbEntity
  8
0
100
AcDbBlockBegin
  2
CDWK_PTTYP10
 70
     0
 10
0.0
 20
0.0
 30
0.0
  3
CDWK_PTTYP10
  1

  4
Cadwork node
  0
CIRCLE
  5
55E
100
AcDbEntity
  8
0
 62
     0
370
    -2
100
AcDbCircle
 10
0.0
 20
0.0
 30
0.0
 40
0.5
  0
ENDBLK
  5
55F
100
AcDbEntity
100
AcDbBlockEnd
  0
BLOCK
  5
560
100
AcDbEntity
  8
0
100
AcDbBlockBegin
  2
CDWK_PTTYP11
 70
     0
 10
0.0
 20
0.0
 30
0.0
  3
CDWK_PTTYP11
  1

  4
Cadwork node
  0
CIRCLE
  5
561
100
AcDbEntity
  8
0
 62
     0
370
    -2
100
AcDbCircle
 10
0.0
 20
0.0
 30
0.0
 40
0.5
  0
CIRCLE
  5
562
100
AcDbEntity
  8
0
 62
     0
370
    -2
100
AcDbCircle
 10
0.0
 20
0.0
 30
0.0
 40
0.25
  0
ENDBLK
  5
563
100
AcDbEntity
100
AcDbBlockEnd
  0
BLOCK
  5
564
100
AcDbEntity
  8
0
100
AcDbBlockBegin
  2
CDWK_PTTYP12
 70
     0
 10
0.0
 20
0.0
 30
0.0
  3
CDWK_PTTYP12
  1

  4
Cadwork node
  0
CIRCLE
  5
565
100
AcDbEntity
  8
0
 62
     0
370
    -2
100
AcDbCircle
 10
0.0
 20
0.0
 30
0.0
 40
0.5
  0
CIRCLE
  5
566
100
AcDbEntity
  8
0
 62
     0
370
    -2
100
AcDbCircle
 10
0.25
 20
0.0
 30
0.0
 40
0.25
  0
ENDBLK
  5
567
100
AcDbEntity
100
AcDbBlockEnd
  0
BLOCK
  5
568
100
AcDbEntity
  8
0
100
AcDbBlockBegin
  2
CDWK_PTTYP13
 70
     0
 10
0.0
 20
0.0
 30
0.0
  3
CDWK_PTTYP13
  1

  4
Cadwork node
  0
CIRCLE
  5
569
100
AcDbEntity
  8
0
 62
     0
370
    -2
100
AcDbCircle
 10
0.0
 20
0.0
 30
0.0
 40
0.5
  0
CIRCLE
  5
56A
100
AcDbEntity
  8
0
 62
     0
370
    -2
100
AcDbCircle
 10
0.25
 20
0.0
 30
0.0
 40
0.25
  0
CIRCLE
  5
56B
100
AcDbEntity
  8
0
 62
     0
370
    -2
100
AcDbCircle
 10
-0.25
 20
0.0
 30
0.0
 40
0.25
  0
ENDBLK
  5
56C
100
AcDbEntity
100
AcDbBlockEnd
  0
BLOCK
  5
56D
100
AcDbEntity
  8
0
100
AcDbBlockBegin
  2
CDWK_PTTYP14
 70
     0
 10
0.0
 20
0.0
 30
0.0
  3
CDWK_PTTYP14
  1

  4
Cadwork node
  0
POINT
  5
56E
100
AcDbEntity
  8
0
 62
     0
100
AcDbPoint
 10
0.0
 20
0.0
 30
0.0
  0
ENDBLK
  5
56F
100
AcDbEntity
100
AcDbBlockEnd
  0
BLOCK
  5
570
100
AcDbEntity
  8
0
100
AcDbBlockBegin
  2
CDWK_PTTYP15
 70
     0
 10
0.0
 20
0.0
 30
0.0
  3
CDWK_PTTYP15
  1

  4
Cadwork node
  0
POINT
  5
571
100
AcDbEntity
  8
0
 62
     0
100
AcDbPoint
 10
0.0
 20
0.0
 30
0.0
  0
ENDBLK
  5
572
100
AcDbEntity
100
AcDbBlockEnd
  0
BLOCK
  5
573
100
AcDbEntity
  8
0
100
AcDbBlockBegin
  2
CDWK_PTTYP16
 70
     0
 10
0.0
 20
0.0
 30
0.0
  3
CDWK_PTTYP16
  1

  4
Cadwork node
  0
LINE
  5
574
100
AcDbEntity
  8
0
 62
     0
370
    -2
100
AcDbLine
 10
-0.5
 20
-0.28867513
 30
0.0
 11
0.5
 21
-0.28867513
 31
0.0
  0
LINE
  5
575
100
AcDbEntity
  8
0
 62
     0
370
    -2
100
AcDbLine
 10
0.5
 20
-0.28867513
 30
0.0
 11
0.0
 21
0.57735027
 31
0.0
  0
LINE
  5
576
100
AcDbEntity
  8
0
 62
     0
370
    -2
100
AcDbLine
 10
0.0
 20
0.57735027
 30
0.0
 11
-0.5
 21
-0.28867513
 31
0.0
  0
CIRCLE
  5
577
100
AcDbEntity
  8
0
 62
     0
370
    -2
100
AcDbCircle
 10
0.0
 20
0.0
 30
0.0
 40
0.28867513
  0
ENDBLK
  5
578
100
AcDbEntity
100
AcDbBlockEnd
  0
BLOCK
  5
579
100
AcDbEntity
  8
0
100
AcDbBlockBegin
  2
CDWK_PTTYP17
 70
     0
 10
0.0
 20
0.0
 30
0.0
  3
CDWK_PTTYP17
  1

  4
Cadwork node
  0
CIRCLE
  5
57A
100
AcDbEntity
  8
0
 62
     0
370
    -2
100
AcDbCircle
 10
0.0
 20
0.0
 30
0.0
 40
0.5
  0
HATCH
  5
57B
100
AcDbEntity
  8
0
 62
     0
370
    -2
100
AcDbHatch
 10
0.0
 20
0.0
 30
0.0
210
0.0
220
0.0
230
1.0
  2
SOLID
 70
     1
 71
     0
 91
        1
 92
        1
 93
        1
 72
     2
 10
0.0
 20
0.0
 40
0.25
 50
0.0
 51
360.0
 73
     1
 97
        0
 75
     0
 76
     1
 98
        1
 10
0.0
 20
0.0
  0
ENDBLK
  5
57C
100
AcDbEntity
100
AcDbBlockEnd
  0
BLOCK
  5
57D
100
AcDbEntity
  8
0
100
AcDbBlockBegin
  2
CDWK_PTTYP18
 70
     0
 10
0.0
 20
0.0
 30
0.0
  3
CDWK_PTTYP18
  1

  4
Cadwork node
  0
CIRCLE
  5
57E
100
AcDbEntity
  8
0
 62
     0
370
    -2
100
AcDbCircle
 10
0.0
 20
0.0
 30
0.0
 40
0.5
  0
CIRCLE
  5
57F
100
AcDbEntity
  8
0
 62
     0
370
    -2
100
AcDbCircle
 10
0.0
 20
0.0
 30
0.0
 40
0.2
  0
ENDBLK
  5
580
100
AcDbEntity
100
AcDbBlockEnd
  0
BLOCK
  5
581
100
AcDbEntity
  8
0
100
AcDbBlockBegin
  2
CDWK_PTTYP19
 70
     0
 10
0.0
 20
0.0
 30
0.0
  3
CDWK_PTTYP19
  1

  4
Cadwork node
  0
CIRCLE
  5
582
100
AcDbEntity
  8
0
 62
     0
370
    -2
100
AcDbCircle
 10
0.0
 20
0.0
 30
0.0
 40
0.4
  0
CIRCLE
  5
583
100
AcDbEntity
  8
0
 62
     0
370
    -2
100
AcDbCircle
 10
0.0
 20
0.0
 30
0.0
 40
0.25
  0
LINE
  5
584
100
AcDbEntity
  8
0
 62
     0
370
    -2
100
AcDbLine
 10
-0.25
 20
0.0
 30
0.0
 11
0.25
 21
0.0
 31
0.0
  0
ENDBLK
  5
585
100
AcDbEntity
100
AcDbBlockEnd
  0
BLOCK
  5
586
100
AcDbEntity
  8
0
100
AcDbBlockBegin
  2
CDWK_PTTYP20
 70
     0
 10
0.0
 20
0.0
 30
0.0
  3
CDWK_PTTYP20
  1

  4
Cadwork node
  0
CIRCLE
  5
587
100
AcDbEntity
  8
0
 62
     0
370
    -2
100
AcDbCircle
 10
0.0
 20
0.0
 30
0.0
 40
0.5
  0
CIRCLE
  5
588
100
AcDbEntity
  8
0
 62
     0
370
    -2
100
AcDbCircle
 10
0.0
 20
0.0
 30
0.0
 40
0.3
  0
ENDBLK
  5
589
100
AcDbEntity
100
AcDbBlockEnd
  0
BLOCK
  5
58A
100
AcDbEntity
  8
0
100
AcDbBlockBegin
  2
CDWK_PTTYP21
 70
     0
 10
0.0
 20
0.0
 30
0.0
  3
CDWK_PTTYP21
  1

  4
Cadwork node
  0
CIRCLE
  5
58B
100
AcDbEntity
  8
0
 62
     0
370
    -2
100
AcDbCircle
 10
0.0
 20
0.0
 30
0.0
 40
0.5
  0
LINE
  5
58C
100
AcDbEntity
  8
0
 62
     0
370
    -2
100
AcDbLine
 10
-0.5
 20
0.0
 30
0.0
 11
0.5
 21
0.0
 31
0.0
  0
ENDBLK
  5
58D
100
AcDbEntity
100
AcDbBlockEnd
  0
BLOCK
  5
58E
100
AcDbEntity
  8
0
100
AcDbBlockBegin
  2
CDWK_PTTYP22
 70
     0
 10
0.0
 20
0.0
 30
0.0
  3
CDWK_PTTYP22
  1

  4
Cadwork node
  0
POINT
  5
58F
100
AcDbEntity
  8
0
 62
     0
100
AcDbPoint
 10
0.0
 20
0.0
 30
0.0
  0
ENDBLK
  5
590
100
AcDbEntity
100
AcDbBlockEnd
  0
BLOCK
  5
591
100
AcDbEntity
  8
0
100
AcDbBlockBegin
  2
CDWK_PTTYP23
 70
     0
 10
0.0
 20
0.0
 30
0.0
  3
CDWK_PTTYP23
  1

  4
Cadwork node
  0
POINT
  5
592
100
AcDbEntity
  8
0
 62
     0
100
AcDbPoint
 10
0.0
 20
0.0
 30
0.0
  0
ENDBLK
  5
593
100
AcDbEntity
100
AcDbBlockEnd
  0
BLOCK
  5
594
100
AcDbEntity
  8
0
100
AcDbBlockBegin
  2
CDWK_PTTYP24
 70
     0
 10
0.0
 20
0.0
 30
0.0
  3
CDWK_PTTYP24
  1

  4
Cadwork node
  0
POINT
  5
595
100
AcDbEntity
  8
0
 62
     0
100
AcDbPoint
 10
0.0
 20
0.0
 30
0.0
  0
ENDBLK
  5
596
100
AcDbEntity
100
AcDbBlockEnd
  0
BLOCK
  5
597
100
AcDbEntity
  8
0
100
AcDbBlockBegin
  2
CDWK_PTTYP25
 70
     0
 10
0.0
 20
0.0
 30
0.0
  3
CDWK_PTTYP25
  1

  4
Cadwork node
  0
LINE
  5
598
100
AcDbEntity
  8
0
 62
     0
370
    -2
100
AcDbLine
 10
-0.43290044
 20
-0.25
 30
0.0
 11
0.43290044
 21
-0.25
 31
0.0
  0
LINE
  5
599
100
AcDbEntity
  8
0
 62
     0
370
    -2
100
AcDbLine
 10
-0.43290044
 20
-0.25
 30
0.0
 11
0.0
 21
0.5
 31
0.0
  0
LINE
  5
59A
100
AcDbEntity
  8
0
 62
     0
370
    -2
100
AcDbLine
 10
0.43290044
 20
-0.25
 30
0.0
 11
0.0
 21
0.5
 31
0.0
  0
CIRCLE
  5
59B
100
AcDbEntity
  8
0
 62
     0
370
    -2
100
AcDbCircle
 10
0.0
 20
0.0
 30
0.0
 40
0.5
  0
ENDBLK
  5
59C
100
AcDbEntity
100
AcDbBlockEnd
  0
BLOCK
  5
59D
100
AcDbEntity
  8
0
100
AcDbBlockBegin
  2
CDWK_PTTYP26
 70
     0
 10
0.0
 20
0.0
 30
0.0
  3
CDWK_PTTYP26
  1

  4
Cadwork node
  0
LINE
  5
59E
100
AcDbEntity
  8
0
 62
     0
370
    -2
100
AcDbLine
 10
-0.5
 20
-0.28850001
 30
0.0
 11
0.5
 21
-0.28850001
 31
0.0
  0
LINE
  5
59F
100
AcDbEntity
  8
0
 62
     0
370
    -2
100
AcDbLine
 10
-0.5
 20
-0.28850001
 30
0.0
 11
0.0
 21
0.57736721
 31
0.0
  0
LINE
  5
5A0
100
AcDbEntity
  8
0
 62
     0
370
    -2
100
AcDbLine
 10
0.5
 20
-0.28850001
 30
0.0
 11
0.0
 21
0.57736721
 31
0.0
  0
CIRCLE
  5
5A1
100
AcDbEntity
  8
0
 62
     0
370
    -2
100
AcDbCircle
 10
0.0
 20
0.0
 30
0.0
 40
0.1312336
  0
ENDBLK
  5
5A2
100
AcDbEntity
100
AcDbBlockEnd
  0
BLOCK
  5
5A3
100
AcDbEntity
  8
0
100
AcDbBlockBegin
  2
CDWK_PTTYP27
 70
     0
 10
0.0
 20
0.0
 30
0.0
  3
CDWK_PTTYP27
  1

  4
Cadwork node
  0
LINE
  5
5A4
100
AcDbEntity
  8
0
 62
     0
370
    -2
100
AcDbLine
 10
-0.43290044
 20
-0.25
 30
0.0
 11
0.43290044
 21
-0.25
 31
0.0
  0
LINE
  5
5A5
100
AcDbEntity
  8
0
 62
     0
370
    -2
100
AcDbLine
 10
-0.43290044
 20
-0.25
 30
0.0
 11
0.0
 21
0.5
 31
0.0
  0
LINE
  5
5A6
100
AcDbEntity
  8
0
 62
     0
370
    -2
100
AcDbLine
 10
0.43290044
 20
-0.25
 30
0.0
 11
0.0
 21
0.5
 31
0.0
  0
CIRCLE
  5
5A7
100
AcDbEntity
  8
0
 62
     0
370
    -2
100
AcDbCircle
 10
0.0
 20
0.0
 30
0.0
 40
0.5
  0
CIRCLE
  5
5A8
100
AcDbEntity
  8
0
 62
     0
370
    -2
100
AcDbCircle
 10
0.0
 20
0.0
 30
0.0
 40
0.1312336
  0
ENDBLK
  5
5A9
100
AcDbEntity
100
AcDbBlockEnd
  0
BLOCK
  5
5AA
100
AcDbEntity
  8
0
100
AcDbBlockBegin
  2
CDWK_PTTYP28
 70
     0
 10
0.0
 20
0.0
 30
0.0
  3
CDWK_PTTYP28
  1

  4
Cadwork node
  0
POINT
  5
5AB
100
AcDbEntity
  8
0
 62
     0
100
AcDbPoint
 10
0.0
 20
0.0
 30
0.0
  0
ENDBLK
  5
5AC
100
AcDbEntity
100
AcDbBlockEnd
  0
BLOCK
  5
5AD
100
AcDbEntity
  8
0
100
AcDbBlockBegin
  2
CDWK_PTTYP29
 70
     0
 10
0.0
 20
0.0
 30
0.0
  3
CDWK_PTTYP29
  1

  4
Cadwork node
  0
CIRCLE
  5
5AE
100
AcDbEntity
  8
0
 62
     0
370
    -2
100
AcDbCircle
 10
0.0
 20
0.0
 30
0.0
 40
0.5
  0
CIRCLE
  5
5AF
100
AcDbEntity
  8
0
 62
     0
370
    -2
100
AcDbCircle
 10
0.0
 20
0.0
 30
0.0
 40
0.375
  0
CIRCLE
  5
5B0
100
AcDbEntity
  8
0
 62
     0
370
    -2
100
AcDbCircle
 10
0.0
 20
0.0
 30
0.0
 40
0.21875
  0
ENDBLK
  5
5B1
100
AcDbEntity
100
AcDbBlockEnd
  0
BLOCK
  5
5B2
100
AcDbEntity
  8
0
100
AcDbBlockBegin
  2
CDWK_PTTYP30
 70
     0
 10
0.0
 20
0.0
 30
0.0
  3
CDWK_PTTYP30
  1

  4
Cadwork node
  0
LINE
  5
5B3
100
AcDbEntity
  8
0
 62
     0
370
    -2
100
AcDbLine
 10
0.17680339
 20
0.17680339
 30
0.0
 11
0.5
 21
0.5
 31
0.0
  0
LINE
  5
5B4
100
AcDbEntity
  8
0
 62
     0
370
    -2
100
AcDbLine
 10
-0.17680339
 20
0.17680339
 30
0.0
 11
-0.5
 21
0.5
 31
0.0
  0
LINE
  5
5B5
100
AcDbEntity
  8
0
 62
     0
370
    -2
100
AcDbLine
 10
0.17680339
 20
-0.17680339
 30
0.0
 11
0.5
 21
-0.5
 31
0.0
  0
LINE
  5
5B6
100
AcDbEntity
  8
0
 62
     0
370
    -2
100
AcDbLine
 10
-0.17680339
 20
-0.17680339
 30
0.0
 11
-0.5
 21
-0.5
 31
0.0
  0
ENDBLK
  5
5B7
100
AcDbEntity
100
AcDbBlockEnd
  0
BLOCK
  5
5B8
100
AcDbEntity
  8
0
100
AcDbBlockBegin
  2
CDWK_PTTYP31
 70
     0
 10
0.0
 20
0.0
 30
0.0
  3
CDWK_PTTYP31
  1

  4
Cadwork node
  0
CIRCLE
  5
5B9
100
AcDbEntity
  8
0
 62
     0
370
    -2
100
AcDbCircle
 10
0.0
 20
0.0
 30
0.0
 40
0.075
  0
LINE
  5
5BA
100
AcDbEntity
  8
0
 62
     0
370
    -2
100
AcDbLine
 10
0.075
 20
0.0
 30
0.0
 11
0.5
 21
0.0
 31
0.0
  0
LINE
  5
5BB
100
AcDbEntity
  8
0
 62
     0
370
    -2
100
AcDbLine
 10
-0.075
 20
0.0
 30
0.0
 11
-0.5
 21
0.0
 31
0.0
  0
LINE
  5
5BC
100
AcDbEntity
  8
0
 62
     0
370
    -2
100
AcDbLine
 10
0.0
 20
0.075
 30
0.0
 11
0.0
 21
0.5
 31
0.0
  0
LINE
  5
5BD
100
AcDbEntity
  8
0
 62
     0
370
    -2
100
AcDbLine
 10
0.0
 20
-0.075
 30
0.0
 11
0.0
 21
-0.5
 31
0.0
  0
ENDBLK
  5
5BE
100
AcDbEntity
100
AcDbBlockEnd
  0
BLOCK
  5
5BF
100
AcDbEntity
  8
0
100
AcDbBlockBegin
  2
CDWK_PTTYP32
 70
     0
 10
0.0
 20
0.0
 30
0.0
  3
CDWK_PTTYP32
  1

  4
Cadwork node
  0
CIRCLE
  5
5C0
100
AcDbEntity
  8
0
 62
     0
370
    -2
100
AcDbCircle
 10
0.0
 20
0.0
 30
0.0
 40
0.5
  0
CIRCLE
  5
5C1
100
AcDbEntity
  8
0
 62
     0
370
    -2
100
AcDbCircle
 10
0.0
 20
0.0
 30
0.0
 40
0.16666667
  0
LINE
  5
5C2
100
AcDbEntity
  8
0
 62
     0
370
    -2
100
AcDbLine
 10
0.11786893
 20
0.11786893
 30
0.0
 11
0.35360678
 21
0.35360678
 31
0.0
  0
LINE
  5
5C3
100
AcDbEntity
  8
0
 62
     0
370
    -2
100
AcDbLine
 10
-0.11786893
 20
0.11786893
 30
0.0
 11
-0.35360678
 21
0.35360678
 31
0.0
  0
LINE
  5
5C4
100
AcDbEntity
  8
0
 62
     0
370
    -2
100
AcDbLine
 10
0.11786893
 20
-0.11786893
 30
0.0
 11
0.35360678
 21
-0.35360678
 31
0.0
  0
LINE
  5
5C5
100
AcDbEntity
  8
0
 62
     0
370
    -2
100
AcDbLine
 10
-0.11786893
 20
-0.11786893
 30
0.0
 11
-0.35360678
 21
-0.35360678
 31
0.0
  0
ENDBLK
  5
5C6
100
AcDbEntity
100
AcDbBlockEnd
  0
BLOCK
  5
5C7
100
AcDbEntity
  8
0
100
AcDbBlockBegin
  2
CDWK_PTTYP33
 70
     0
 10
0.0
 20
0.0
 30
0.0
  3
CDWK_PTTYP33
  1

  4
Cadwork node
  0
CIRCLE
  5
5C8
100
AcDbEntity
  8
0
 62
     0
370
    -2
100
AcDbCircle
 10
0.0
 20
0.0
 30
0.0
 40
0.5
  0
LINE
  5
5C9
100
AcDbEntity
  8
0
 62
     0
370
    -2
100
AcDbLine
 10
0.0
 20
0.5
 30
0.0
 11
0.0
 21
-0.5
 31
0.0
  0
LINE
  5
5CA
100
AcDbEntity
  8
0
 62
     0
370
    -2
100
AcDbLine
 10
-0.5
 20
0.0
 30
0.0
 11
0.5
 21
0.0
 31
0.0
  0
ENDBLK
  5
5CB
100
AcDbEntity
100
AcDbBlockEnd
  0
BLOCK
  5
5CC
100
AcDbEntity
  8
0
100
AcDbBlockBegin
  2
CDWK_PTTYP34
 70
     0
 10
0.0
 20
0.0
 30
0.0
  3
CDWK_PTTYP34
  1

  4
Cadwork node
  0
CIRCLE
  5
5CD
100
AcDbEntity
  8
0
 62
     0
370
    -2
100
AcDbCircle
 10
0.0
 20
0.0
 30
0.0
 40
0.5
  0
LINE
  5
5CE
100
AcDbEntity
  8
0
 62
     0
370
    -2
100
AcDbLine
 10
-0.30360678
 20
-0.40360678
 30
0.0
 11
0.40360678
 21
0.30360678
 31
0.0
  0
LINE
  5
5CF
100
AcDbEntity
  8
0
 62
     0
370
    -2
100
AcDbLine
 10
-0.40360678
 20
-0.30360678
 30
0.0
 11
0.30360678
 21
0.40360678
 31
0.0
  0
ENDBLK
  5
5D0
100
AcDbEntity
100
AcDbBlockEnd
  0
BLOCK
  5
5D1
100
AcDbEntity
  8
0
100
AcDbBlockBegin
  2
CDWK_PTTYP35
 70
     0
 10
0.0
 20
0.0
 30
0.0
  3
CDWK_PTTYP35
  1

  4
Cadwork node
  0
CIRCLE
  5
5D2
100
AcDbEntity
  8
0
 62
     0
370
    -2
100
AcDbCircle
 10
0.0
 20
0.0
 30
0.0
 40
0.21431634
  0
LINE
  5
5D3
100
AcDbEntity
  8
0
 62
     0
370
    -2
100
AcDbLine
 10
0.0
 20
0.21431634
 30
0.0
 11
0.0
 21
0.5
 31
0.0
  0
LINE
  5
5D4
100
AcDbEntity
  8
0
 62
     0
370
    -2
100
AcDbLine
 10
0.0
 20
-0.21431634
 30
0.0
 11
0.0
 21
-0.5
 31
0.0
  0
ENDBLK
  5
5D5
100
AcDbEntity
100
AcDbBlockEnd
  0
BLOCK
  5
5D6
100
AcDbEntity
  8
0
100
AcDbBlockBegin
  2
CDWK_PTTYP36
 70
     0
 10
0.0
 20
0.0
 30
0.0
  3
CDWK_PTTYP36
  1

  4
Cadwork node
  0
LINE
  5
5D7
100
AcDbEntity
  8
0
 62
     0
370
    -2
100
AcDbLine
 10
-0.5
 20
-0.16666667
 30
0.0
 11
0.5
 21
-0.16666667
 31
0.0
  0
LINE
  5
5D8
100
AcDbEntity
  8
0
 62
     0
370
    -2
100
AcDbLine
 10
0.5
 20
-0.16666667
 30
0.0
 11
0.5
 21
0.16666667
 31
0.0
  0
LINE
  5
5D9
100
AcDbEntity
  8
0
 62
     0
370
    -2
100
AcDbLine
 10
0.5
 20
0.16666667
 30
0.0
 11
-0.5
 21
0.16666667
 31
0.0
  0
LINE
  5
5DA
100
AcDbEntity
  8
0
 62
     0
370
    -2
100
AcDbLine
 10
-0.5
 20
0.16666667
 30
0.0
 11
-0.5
 21
-0.16666667
 31
0.0
  0
SOLID
  5
5DB
100
AcDbEntity
  8
0
 62
     0
100
AcDbTrace
 10
-0.5
 20
-0.16666667
 11
0.5
 21
0.16666667
 12
0.5
 22
-0.16666667
 13
0.5
 23
-0.16666667
  0
ENDBLK
  5
5DC
100
AcDbEntity
100
AcDbBlockEnd
  0
BLOCK
  5
5DD
100
AcDbEntity
  8
0
100
AcDbBlockBegin
  2
CDWK_PTTYP37
 70
     0
 10
0.0
 20
0.0
 30
0.0
  3
CDWK_PTTYP37
  1

  4
Cadwork node
  0
CIRCLE
  5
5DE
100
AcDbEntity
  8
0
 62
     0
370
    -2
100
AcDbCircle
 10
0.0
 20
0.0
 30
0.0
 40
0.5
  0
SOLID
  5
5DF
100
AcDbEntity
  8
0
 62
     0
100
AcDbTrace
 10
0.0
 20
0.0
 11
0.35350001
 21
0.35350001
 12
0.5
 22
0.0
 13
0.46200001
 23
0.19149999
  0
SOLID
  5
5E0
100
AcDbEntity
  8
0
 62
     0
100
AcDbTrace
 10
0.0
 20
0.0
 11
0.35350001
 21
-0.35350001
 12
0.5
 22
0.0
 13
0.46200001
 23
-0.19149999
  0
SOLID
  5
5E1
100
AcDbEntity
  8
0
 62
     0
100
AcDbTrace
 10
0.0
 20
0.0
 11
0.0
 21
-0.5
 12
0.35350001
 22
-0.35350001
 13
0.19149999
 23
-0.46200001
  0
SOLID
  5
5E2
100
AcDbEntity
  8
0
 62
     0
100
AcDbTrace
 10
0.0
 20
0.0
 11
0.0
 21
-0.5
 12
-0.35350001
 22
-0.35350001
 13
-0.19149999
 23
-0.46200001
  0
ENDBLK
  5
5E3
100
AcDbEntity
100
AcDbBlockEnd
  0
BLOCK
  5
5E4
100
AcDbEntity
  8
0
100
AcDbBlockBegin
  2
CDWK_PTTYP38
 70
     0
 10
0.0
 20
0.0
 30
0.0
  3
CDWK_PTTYP38
  1

  4
Cadwork node
  0
CIRCLE
  5
5E5
100
AcDbEntity
  8
0
 62
     0
370
    -2
100
AcDbCircle
 10
0.0
 20
0.0
 30
0.0
 40
0.5
  0
SOLID
  5
5E6
100
AcDbEntity
  8
0
 62
     0
100
AcDbTrace
 10
0.0
 20
0.0
 11
0.35350001
 21
0.35350001
 12
0.0
 22
0.5
 13
0.19149999
 23
0.46200001
  0
SOLID
  5
5E7
100
AcDbEntity
  8
0
 62
     0
100
AcDbTrace
 10
0.0
 20
0.0
 11
0.5
 21
0.0
 12
0.35350001
 22
0.35350001
 13
0.46200001
 23
0.19149999
  0
SOLID
  5
5E8
100
AcDbEntity
  8
0
 62
     0
100
AcDbTrace
 10
0.0
 20
0.0
 11
0.0
 21
-0.5
 12
-0.35350001
 22
-0.35350001
 13
-0.19149999
 23
-0.46200001
  0
SOLID
  5
5E9
100
AcDbEntity
  8
0
 62
     0
100
AcDbTrace
 10
0.0
 20
0.0
 11
-0.5
 21
0.0
 12
-0.35350001
 22
-0.35350001
 13
-0.46200001
 23
-0.19149999
  0
ENDBLK
  5
5EA
100
AcDbEntity
100
AcDbBlockEnd
  0
ENDSEC
  0
SECTION
  2
ENTITIES
  0
LWPOLYLINE
  5
5EB
100
AcDbEntity
  8
Ech.1_5
 62
    41
  6
CONTINUOUS
370
    15
100
AcDbPolyline
 90
        4
 70
     1
 43
0.0
 10
36305.34140121
 20
-5888.18608257
 10
36505.34140121
 20
-5888.18608257
 10
36505.34140121
 20
-5918.18608257
 10
36305.34140121
 20
-5918.18608257
  0
LWPOLYLINE
  5
5EC
100
AcDbEntity
  8
Ech.1_5
 62
    41
  6
CONTINUOUS
370
    15
100
AcDbPolyline
 90
        4
 70
     1
 43
0.0
 10
36505.34140121
 20
-5888.18608257
 10
36505.34140121
 20
-6118.18608257
 10
36535.34140121
 20
-6118.18608257
 10
36535.34140121
 20
-5888.18608257
  0
LWPOLYLINE
  5
5ED
100
AcDbEntity
  8
Ech.1_5
 62
   190
  6
CONTINUOUS
370
    -3
100
AcDbPolyline
 90
       80
 70
     0
 43
0.0
 10
36305.34140121
 20
-5913.18608257
 42
1.14028181
 10
36315.17102956
 20
-5911.89198443
 10
36310.51177286
 20
-5894.48018071
 42
-1.30322619
 10
36320.17102956
 20
-5894.48018071
 10
36315.51177286
 20
-5911.89198443
 42
1.30322619
 10
36325.17102956
 20
-5911.89198443
 10
36320.51177286
 20
-5894.48018071
 42
-1.30322619
 10
36330.17102956
 20
-5894.48018071
 10
36325.51177286
 20
-5911.89198443
 42
1.30322619
 10
36335.17102956
 20
-5911.89198443
 10
36330.51177286
 20
-5894.48018071
 42
-1.30322619
 10
36340.17102956
 20
-5894.48018071
 10
36335.51177286
 20
-5911.89198443
 42
1.30322619
 10
36345.17102956
 20
-5911.89198443
 10
36340.51177286
 20
-5894.48018071
 42
-1.30322619
 10
36350.17102956
 20
-5894.48018071
 10
36345.51177286
 20
-5911.89198443
 42
1.30322619
 10
36355.17102956
 20
-5911.89198443
 10
36350.51177286
 20
-5894.48018071
 42
-1.30322619
 10
36360.17102956
 20
-5894.48018071
 10
36355.51177286
 20
-5911.89198443
 42
1.30322619
 10
36365.17102956
 20
-5911.89198443
 10
36360.51177286
 20
-5894.48018071
 42
-1.30322619
 10
36370.17102956
 20
-5894.48018071
 10
36365.51177286
 20
-5911.89198443
 42
1.30322619
 10
36375.17102956
 20
-5911.89198443
 10
36370.51177286
 20
-5894.48018071
 42
-1.30322619
 10
36380.17102956
 20
-5894.48018071
 10
36375.51177286
 20
-5911.89198443
 42
1.30322619
 10
36385.17102956
 20
-5911.89198443
 10
36380.51177286
 20
-5894.48018071
 42
-1.30322619
 10
36390.17102956
 20
-5894.48018071
 10
36385.51177286
 20
-5911.89198443
 42
1.30322619
 10
36395.17102956
 20
-5911.89198443
 10
36390.51177286
 20
-5894.48018071
 42
-1.30322619
 10
36400.17102956
 20
-5894.48018071
 10
36395.51177286
 20
-5911.89198443
 42
1.30322619
 10
36405.17102956
 20
-5911.89198443
 10
36400.51177286
 20
-5894.48018071
 42
-1.30322619
 10
36410.17102956
 20
-5894.48018071
 10
36405.51177286
 20
-5911.89198443
 42
1.30322619
 10
36415.17102956
 20
-5911.89198443
 10
36410.51177286
 20
-5894.48018071
 42
-1.30322619
 10
36420.17102956
 20
-5894.48018071
 10
36415.51177286
 20
-5911.89198443
 42
1.30322619
 10
36425.17102956
 20
-5911.89198443
 10
36420.51177286
 20
-5894.48018071
 42
-1.30322619
 10
36430.17102956
 20
-5894.48018071
 10
36425.51177286
 20
-5911.89198443
 42
1.30322619
 10
36435.17102956
 20
-5911.89198443
 10
36430.51177286
 20
-5894.48018071
 42
-1.30322619
 10
36440.17102956
 20
-5894.48018071
 10
36435.51177286
 20
-5911.89198443
 42
1.30322619
 10
36445.17102956
 20
-5911.89198443
 10
36440.51177286
 20
-5894.48018071
 42
-1.30322619
 10
36450.17102956
 20
-5894.48018071
 10
36445.51177286
 20
-5911.89198443
 42
1.30322619
 10
36455.17102956
 20
-5911.89198443
 10
36450.51177286
 20
-5894.48018071
 42
-1.30322619
 10
36460.17102956
 20
-5894.48018071
 10
36455.51177286
 20
-5911.89198443
 42
1.30322619
 10
36465.17102956
 20
-5911.89198443
 10
36460.51177286
 20
-5894.48018071
 42
-1.30322619
 10
36470.17102956
 20
-5894.48018071
 10
36465.51177286
 20
-5911.89198443
 42
1.30322619
 10
36475.17102956
 20
-5911.89198443
 10
36470.51177286
 20
-5894.48018071
 42
-1.30322619
 10
36480.17102956
 20
-5894.48018071
 10
36475.51177286
 20
-5911.89198443
 42
1.30322619
 10
36485.17102956
 20
-5911.89198443
 10
36480.51177286
 20
-5894.48018071
 42
-1.30322619
 10
36490.17102956
 20
-5894.48018071
 10
36485.51177286
 20
-5911.89198443
 42
1.30322619
 10
36495.17102956
 20
-5911.89198443
 10
36490.51177286
 20
-5894.48018071
 42
-1.30322619
 10
36500.17102956
 20
-5894.48018071
 10
36495.51177286
 20
-5911.89198443
 42
1.30322619
 10
36505.17102956
 20
-5911.89198443
 10
36500.51177286
 20
-5894.48018071
 42
-0.52586277
 10
36505.34140121
 20
-5888.18608257
  0
LWPOLYLINE
  5
5EE
100
AcDbEntity
  8
Ech.1_5
 62
   190
  6
CONTINUOUS
370
    -3
100
AcDbPolyline
 90
       92
 70
     0
 43
0.0
 10
36530.34140121
 20
-6118.18608257
 42
1.14028181
 10
36529.04730307
 20
-6108.35645422
 10
36511.63549935
 20
-6113.01571092
 42
-1.30322619
 10
36511.63549935
 20
-6103.35645422
 10
36529.04730307
 20
-6108.01571092
 42
1.30322619
 10
36529.04730307
 20
-6098.35645422
 10
36511.63549935
 20
-6103.01571092
 42
-1.30322619
 10
36511.63549935
 20
-6093.35645422
 10
36529.04730307
 20
-6098.01571092
 42
1.30322619
 10
36529.04730307
 20
-6088.35645422
 10
36511.63549935
 20
-6093.01571092
 42
-1.30322619
 10
36511.63549935
 20
-6083.35645422
 10
36529.04730307
 20
-6088.01571092
 42
1.30322619
 10
36529.04730307
 20
-6078.35645422
 10
36511.63549935
 20
-6083.01571092
 42
-1.30322619
 10
36511.63549935
 20
-6073.35645422
 10
36529.04730307
 20
-6078.01571092
 42
1.30322619
 10
36529.04730307
 20
-6068.35645422
 10
36511.63549935
 20
-6073.01571092
 42
-1.30322619
 10
36511.63549935
 20
-6063.35645422
 10
36529.04730307
 20
-6068.01571092
 42
1.30322619
 10
36529.04730307
 20
-6058.35645422
 10
36511.63549935
 20
-6063.01571092
 42
-1.30322619
 10
36511.63549935
 20
-6053.35645422
 10
36529.04730307
 20
-6058.01571092
 42
1.30322619
 10
36529.04730307
 20
-6048.35645422
 10
36511.63549935
 20
-6053.01571092
 42
-1.30322619
 10
36511.63549935
 20
-6043.35645422
 10
36529.04730307
 20
-6048.01571092
 42
1.30322619
 10
36529.04730307
 20
-6038.35645422
 10
36511.63549935
 20
-6043.01571092
 42
-1.30322619
 10
36511.63549935
 20
-6033.35645422
 10
36529.04730307
 20
-6038.01571092
 42
1.30322619
 10
36529.04730307
 20
-6028.35645422
 10
36511.63549935
 20
-6033.01571092
 42
-1.30322619
 10
36511.63549935
 20
-6023.35645422
 10
36529.04730307
 20
-6028.01571092
 42
1.30322619
 10
36529.04730307
 20
-6018.35645422
 10
36511.63549935
 20
-6023.01571092
 42
-1.30322619
 10
36511.63549935
 20
-6013.35645422
 10
36529.04730307
 20
-6018.01571092
 42
1.30322619
 10
36529.04730307
 20
-6008.35645422
 10
36511.63549935
 20
-6013.01571092
 42
-1.30322619
 10
36511.63549935
 20
-6003.35645422
 10
36529.04730307
 20
-6008.01571092
 42
1.30322619
 10
36529.04730307
 20
-5998.35645422
 10
36511.63549935
 20
-6003.01571092
 42
-1.30322619
 10
36511.63549935
 20
-5993.35645422
 10
36529.04730307
 20
-5998.01571092
 42
1.30322619
 10
36529.04730307
 20
-5988.35645422
 10
36511.63549935
 20
-5993.01571092
 42
-1.30322619
 10
36511.63549935
 20
-5983.35645422
 10
36529.04730307
 20
-5988.01571092
 42
1.30322619
 10
36529.04730307
 20
-5978.35645422
 10
36511.63549935
 20
-5983.01571092
 42
-1.30322619
 10
36511.63549935
 20
-5973.35645422
 10
36529.04730307
 20
-5978.01571092
 42
1.30322619
 10
36529.04730307
 20
-5968.35645422
 10
36511.63549935
 20
-5973.01571092
 42
-1.30322619
 10
36511.63549935
 20
-5963.35645422
 10
36529.04730307
 20
-5968.01571092
 42
1.30322619
 10
36529.04730307
 20
-5958.35645422
 10
36511.63549935
 20
-5963.01571092
 42
-1.30322619
 10
36511.63549935
 20
-5953.35645422
 10
36529.04730307
 20
-5958.01571092
 42
1.30322619
 10
36529.04730307
 20
-5948.35645422
 10
36511.63549935
 20
-5953.01571092
 42
-1.30322619
 10
36511.63549935
 20
-5943.35645422
 10
36529.04730307
 20
-5948.01571092
 42
1.30322619
 10
36529.04730307
 20
-5938.35645422
 10
36511.63549935
 20
-5943.01571092
 42
-1.30322619
 10
36511.63549935
 20
-5933.35645422
 10
36529.04730307
 20
-5938.01571092
 42
1.30322619
 10
36529.04730307
 20
-5928.35645422
 10
36511.63549935
 20
-5933.01571092
 42
-1.30322619
 10
36511.63549935
 20
-5923.35645422
 10
36529.04730307
 20
-5928.01571092
 42
1.30322619
 10
36529.04730307
 20
-5918.35645422
 10
36511.63549935
 20
-5923.01571092
 42
-1.30322619
 10
36511.63549935
 20
-5913.35645422
 10
36529.04730307
 20
-5918.01571092
 42
1.30322619
 10
36529.04730307
 20
-5908.35645422
 10
36511.63549935
 20
-5913.01571092
 42
-1.30322619
 10
36511.63549935
 20
-5903.35645422
 10
36529.04730307
 20
-5908.01571092
 42
1.30322619
 10
36529.04730307
 20
-5898.35645422
 10
36511.63549935
 20
-5903.01571092
 42
-1.30322619
 10
36511.63549935
 20
-5893.35645422
 10
36529.04730307
 20
-5898.01571092
 42
1.30322619
 10
36529.04730307
 20
-5888.35645422
 10
36511.63549935
 20
-5893.01571092
 42
-0.52586277
 10
36505.34140121
 20
-5888.18608257
  0
LINE
  5
5EF
100
AcDbEntity
  8
Ech.1_5
 62
     7
  6
CONTINUOUS
370
     9
100
AcDbLine
 10
36625.26453625
 20
-6122.35976107
 30
0.0
 11
36625.2645373
 21
-6121.43125803
 31
0.0
  0
LWPOLYLINE
  5
5F0
100
AcDbEntity
  8
Ech.1_5
 62
   190
  6
CONTINUOUS
370
    -3
100
AcDbPolyline
 90
       10
 70
     1
 43
0.0
 10
36535.18036871
 20
-6098.41883547
 10
36535.15587572
 20
-5983.19611917
 10
36680.3153015
 20
-5983.20653891
 10
36680.34137488
 20
-6127.25005514
 10
36680.34140121
 20
-6498.13048537
 10
36653.51558141
 20
-6498.13048537
 10
36637.02922733
 20
-6516.10883696
 10
36651.13916735
 20
-6480.15313704
 10
36634.65366419
 20
-6498.13048537
 10
36535.18039708
 20
-6498.13048537
  0
LWPOLYLINE
  5
5F1
100
AcDbEntity
  8
Ech.1_5
 62
   190
  6
CONTINUOUS
370
    -3
100
AcDbPolyline
 90
        8
 70
     1
 43
0.0
 10
36071.09940776
 20
-5743.12715132
 10
36490.27242024
 20
-5743.12715132
 10
36490.27242024
 20
-5888.12715132
 10
36071.09940776
 20
-5888.12715132
 10
36071.09940776
 20
-5827.58709128
 10
36053.12205936
 20
-5811.10158808
 10
36089.07775937
 20
-5825.21152766
 10
36071.09940776
 20
-5808.72517378
  0
LWPOLYLINE
  5
5F2
100
AcDbEntity
  8
Ech.1_5
 62
   190
  6
CONTINUOUS
370
    -3
100
AcDbPolyline
 90
        4
 70
     1
 43
0.0
 10
36490.33876438
 20
-5843.18841059
 10
36490.33876438
 20
-5743.11943037
 10
36635.34140121
 20
-5743.11943037
 10
36635.34140121
 20
-5843.18841059
  0
LWPOLYLINE
  5
5F3
100
AcDbEntity
  8
Ech.1_5
 62
   190
  6
CONTINUOUS
370
    -3
100
AcDbPolyline
 90
       34
 70
     0
 43
0.0
 10
36490.27242024
 20
-5767.2938183
 42
1.14028181
 10
36442.76254988
 20
-5773.54862578
 10
36465.2822906
 20
-5857.70567686
 42
-1.30322619
 10
36418.59588321
 20
-5857.70567686
 10
36441.11562394
 20
-5773.54862578
 42
1.30322619
 10
36394.42921655
 20
-5773.54862578
 10
36416.94895727
 20
-5857.70567686
 42
-1.30322619
 10
36370.26254988
 20
-5857.70567686
 10
36392.7822906
 20
-5773.54862578
 42
1.30322619
 10
36346.09588321
 20
-5773.54862578
 10
36368.61562394
 20
-5857.70567686
 42
-1.30322619
 10
36321.92921655
 20
-5857.70567686
 10
36344.44895727
 20
-5773.54862578
 42
1.30322619
 10
36297.76254988
 20
-5773.54862578
 10
36320.2822906
 20
-5857.70567686
 42
-1.30322619
 10
36273.59588321
 20
-5857.70567686
 10
36296.11562394
 20
-5773.54862578
 42
1.30322619
 10
36249.42921655
 20
-5773.54862578
 10
36271.94895727
 20
-5857.70567686
 42
-1.30322619
 10
36225.26254988
 20
-5857.70567686
 10
36247.7822906
 20
-5773.54862578
 42
1.30322619
 10
36201.09588321
 20
-5773.54862578
 10
36223.61562394
 20
-5857.70567686
 42
-1.30322619
 10
36176.92921655
 20
-5857.70567686
 10
36199.44895727
 20
-5773.54862578
 42
1.30322619
 10
36152.76254988
 20
-5773.54862578
 10
36175.2822906
 20
-5857.70567686
 42
-1.30322619
 10
36128.59588321
 20
-5857.70567686
 10
36151.11562394
 20
-5773.54862578
 42
1.30322619
 10
36104.42921655
 20
-5773.54862578
 10
36126.94895727
 20
-5857.70567686
 42
-1.30322619
 10
36080.26254988
 20
-5857.70567686
 10
36102.7822906
 20
-5773.54862578
 42
0.60793384
 10
36071.09940776
 20
-5744.61172087
  0
LWPOLYLINE
  5
5F4
100
AcDbEntity
  8
Ech.1_5
 62
   190
  6
CONTINUOUS
370
    -3
100
AcDbPolyline
 90
       16
 70
     0
 43
0.0
 10
36490.33876438
 20
-5826.51024706
 42
1.14028181
 10
36523.12679413
 20
-5822.19361098
 10
36507.58522512
 20
-5764.11422999
 42
-1.30322619
 10
36539.80495762
 20
-5764.11422999
 10
36524.26338862
 20
-5822.19361098
 42
1.30322619
 10
36556.48312112
 20
-5822.19361098
 10
36540.94155211
 20
-5764.11422999
 42
-1.30322619
 10
36573.16128461
 20
-5764.11422999
 10
36557.61971561
 20
-5822.19361098
 42
1.30322619
 10
36589.83944811
 20
-5822.19361098
 10
36574.2978791
 20
-5764.11422999
 42
-1.30322619
 10
36606.5176116
 20
-5764.11422999
 10
36590.97604259
 20
-5822.19361098
 42
1.30322619
 10
36623.19577509
 20
-5822.19361098
 10
36607.65420609
 20
-5764.11422999
 42
-0.76005852
 10
36635.33876438
 20
-5747.78977759
  0
LINE
  5
5F5
100
AcDbEntity
  8
Ech.1_5
 62
     7
  6
CONTINUOUS
100
AcDbLine
 10
36071.09940776
 20
-5888.12715132
 30
0.0
 11
36297.23679288
 21
-5888.12715132
 31
0.0
  0
LWPOLYLINE
  5
5F6
100
AcDbEntity
  8
Ech.1_5
 62
     5
  6
CONTINUOUS
370
    -3
100
AcDbPolyline
 90
        5
 70
     0
 43
0.0
 10
36273.77243157
 20
-5888.12715132
 10
36273.77243157
 20
-5743.12715132
 10
36228.77243157
 20
-5743.12715132
 10
36228.77243157
 20
-5888.12715132
 10
36273.77243157
 20
-5888.12715132
  0
LWPOLYLINE
  5
5F7
100
AcDbEntity
  8
Ech.1_5
 62
   190
  6
CONTINUOUS
370
    -3
100
AcDbPolyline
 90
        4
 70
     0
 43
0.0
 10
36228.77243157
 20
-5743.12715132
 10
36273.77243157
 20
-5888.12715132
 10
36228.77243157
 20
-5888.12715132
 10
36273.77243157
 20
-5743.12715132
  0
LWPOLYLINE
  5
5F8
100
AcDbEntity
  8
Ech.1_5
 62
     5
  6
CONTINUOUS
370
    -3
100
AcDbPolyline
 90
        5
 70
     0
 43
0.0
 10
36635.33876438
 20
-5843.18841059
 10
36490.33876438
 20
-5843.18841059
 10
36490.33876438
 20
-5888.18841059
 10
36635.33876438
 20
-5888.18841059
 10
36635.33876438
 20
-5843.18841059
  0
LWPOLYLINE
  5
5F9
100
AcDbEntity
  8
Ech.1_5
 62
   190
  6
CONTINUOUS
370
    -3
100
AcDbPolyline
 90
        4
 70
     0
 43
0.0
 10
36490.33876438
 20
-5888.18841059
 10
36635.33876438
 20
-5843.18841059
 10
36635.33876438
 20
-5888.18841059
 10
36490.33876438
 20
-5843.18841059
  0
LWPOLYLINE
  5
5FA
100
AcDbEntity
  8
Ech.1_5
 62
   190
  6
CONTINUOUS
370
    -3
100
AcDbPolyline
 90
        4
 70
     0
 43
0.0
 10
36635.34140121
 20
-5743.12715132
 10
36680.34140121
 20
-5888.19613249
 10
36635.34140121
 20
-5888.19613249
 10
36680.34140121
 20
-5743.12715132
  0
LINE
  5
5FB
100
AcDbEntity
  8
Ech.1_5
 62
   190
  6
CONTINUOUS
370
    -3
100
AcDbLine
 10
36565.8630892
 20
-5986.62451441
 30
0.0
 11
36572.86308928
 21
-5993.62451346
 31
0.0
  0
LWPOLYLINE
  5
5FC
100
AcDbEntity
  8
Ech.1_5
 62
   190
  6
CONTINUOUS
370
    -3
100
AcDbPolyline
 90
       46
 70
     0
 43
0.0
 10
36656.16911277
 20
-6498.13198931
 42
1.14028182
 10
36649.90989316
 20
-6450.6114567
 10
36565.73466638
 20
-6473.14167387
 42
-1.30322617
 10
36565.73176072
 20
-6426.44440539
 10
36649.90979066
 20
-6448.9641474
 42
1.30322619
 10
36649.906885
 20
-6402.26687987
 10
36565.73165822
 20
-6424.79709704
 42
-1.30322617
 10
36565.72875256
 20
-6378.09982855
 10
36649.9067825
 20
-6400.61957056
 42
1.30322619
 10
36649.90387683
 20
-6353.92230303
 10
36565.72865006
 20
-6376.4525202
 42
-1.30322617
 10
36565.7257444
 20
-6329.75525172
 10
36649.90377433
 20
-6352.27499373
 42
1.30322619
 10
36649.90086867
 20
-6305.57772619
 10
36565.7256419
 20
-6328.10794337
 42
-1.30322617
 10
36565.72273624
 20
-6281.41067488
 10
36649.90076617
 20
-6303.93041689
 42
1.30322619
 10
36649.89786051
 20
-6257.23314936
 10
36565.72263373
 20
-6279.76336653
 42
-1.30322617
 10
36565.71972807
 20
-6233.06609804
 10
36649.89775801
 20
-6255.58584006
 42
1.30322619
 10
36649.89485235
 20
-6208.88857252
 10
36565.71962557
 20
-6231.41878969
 42
-1.30322617
 10
36565.71671991
 20
-6184.72152121
 10
36649.89474985
 20
-6207.24126322
 42
1.30322619
 10
36649.89184418
 20
-6160.54399569
 10
36565.71661741
 20
-6183.07421191
 42
-1.30322619
 10
36565.71371175
 20
-6136.37694437
 10
36649.89174168
 20
-6158.89668638
 42
1.30322617
 10
36649.88883602
 20
-6112.1994179
 10
36565.71360925
 20
-6134.72963507
 42
-1.30322619
 10
36565.71070359
 20
-6088.03236754
 10
36649.88873352
 20
-6110.55210955
 42
1.30322617
 10
36649.88582786
 20
-6063.85484106
 10
36565.71060108
 20
-6086.38505823
 42
-1.30322619
 10
36565.70769542
 20
-6039.6877907
 10
36649.88572536
 20
-6062.20753271
 42
1.30322617
 10
36649.8828197
 20
-6015.51026423
 10
36565.70759292
 20
-6038.0404814
 42
-1.30322619
 10
36565.70468726
 20
-5991.34321387
 10
36649.88271719
 20
-6013.86295588
 42
1.30322617
 10
36649.87981153
 20
-5967.16568739
 10
36565.70458476
 20
-5989.69590456
 42
-1.30322619
 10
36565.7016791
 20
-5942.99863703
 10
36649.87970903
 20
-5965.51837904
 42
0.61753445
 10
36678.5796237
 20
-5933.19624026
  0
LWPOLYLINE
  5
5FD
100
AcDbEntity
  8
Ech.1_5
 62
   190
  6
CONTINUOUS
370
    -3
100
AcDbPolyline
 90
        4
 70
     0
 43
0.0
 10
36680.29885294
 20
-6305.02021391
 10
36535.22987197
 20
-6350.02021391
 10
36535.22987197
 20
-6305.02021391
 10
36680.29885294
 20
-6350.02021391
  0
LWPOLYLINE
  5
5FE
100
AcDbEntity
  8
Ech.1_5
 62
     5
  6
CONTINUOUS
370
    -3
100
AcDbPolyline
 90
        5
 70
     0
 43
0.0
 10
36535.22987197
 20
-6350.02021391
 10
36680.29885294
 20
-6350.02021391
 10
36680.29885294
 20
-6305.02021391
 10
36535.22987197
 20
-6305.02021391
 10
36535.22987197
 20
-6350.02021391
  0
LWPOLYLINE
  5
5FF
102
{ACAD_REACTORS
330
600
102
}
100
AcDbEntity
  8
Ech.1_5
 62
     7
  6
CONTINUOUS
370
     5
100
AcDbPolyline
 90
        4
 70
     1
 43
0.0
 10
35897.59464985
 20
-6569.37938303
 10
35923.41918094
 20
-6569.37938303
 10
35923.41918094
 20
-6559.94672293
 10
35897.59464985
 20
-6559.94672293
  0
HATCH
  5
600
100
AcDbEntity
  8
Ech.1_5
 62
     2
  6
CONTINUOUS
100
AcDbHatch
 10
0.0
 20
0.0
 30
0.0
210
0.0
220
0.0
230
1.0
  2
SOLID
 70
     1
 71
     1
 91
        1
 92
        7
 72
     0
 73
     1
 93
        4
 10
35897.59464985
 20
-6569.37938303
 10
35923.41918094
 20
-6569.37938303
 10
35923.41918094
 20
-6559.94672293
 10
35897.59464985
 20
-6559.94672293
 97
        1
330
5FF
 75
     0
 76
     2
 47
0.775229
 98
        1
 10
0.0
 20
0.0
  0
HATCH
  5
601
100
AcDbEntity
  8
Ech.1_5
 62
     7
100
AcDbHatch
 10
0.0
 20
0.0
 30
0.0
210
0.0
220
0.0
230
1.0
  2
ANSI37
 70
     0
 71
     0
 91
        1
 92
        7
 72
     0
 73
     1
 93
        4
 10
35897.59464985
 20
-6569.37938303
 10
35923.41918094
 20
-6569.37938303
 10
35923.41918094
 20
-6559.94672293
 10
35897.59464985
 20
-6559.94672293
 97
        0
 75
     0
 76
     2
 52
0.0
 41
1.87498831
 77
     0
 78
     2
 53
45.0
 43
0.0
 44
0.0
 45
4.20946876
 46
-4.20946876
 79
     0
 53
-45.0
 43
0.0
 44
0.0
 45
4.20946876
 46
4.20946876
 79
     0
 47
0.775229
 98
        1
 10
0.0
 20
0.0
  0
LINE
  5
602
100
AcDbEntity
  8
Ech.1_5
 62
     1
  6
CADWORK_22
 48
-5.0
370
    35
100
AcDbLine
 10
36071.09940776
 20
-5888.12715132
 30
0.0
 11
36614.51154063
 21
-5888.19613249
 31
0.0
  0
LWPOLYLINE
  5
603
100
AcDbEntity
  8
Ech.1_5
 62
     5
  6
CONTINUOUS
370
    -3
100
AcDbPolyline
 90
        5
 70
     0
 43
0.0
 10
36680.34140121
 20
-5938.19613249
 10
36535.34140121
 20
-5938.19613249
 10
36535.34140121
 20
-5983.19613249
 10
36680.34140121
 20
-5983.19613249
 10
36680.34140121
 20
-5938.19613249
  0
LWPOLYLINE
  5
604
100
AcDbEntity
  8
Ech.1_5
 62
   190
  6
CONTINUOUS
370
    -3
100
AcDbPolyline
 90
        4
 70
     0
 43
0.0
 10
36535.34140121
 20
-5983.19613249
 10
36680.34140121
 20
-5938.19613249
 10
36680.34140121
 20
-5983.19613249
 10
36535.34140121
 20
-5938.19613249
  0
LWPOLYLINE
  5
605
100
AcDbEntity
  8
Ech.1_5
 62
   190
  6
CONTINUOUS
370
    35
100
AcDbPolyline
 90
        4
 70
     0
 43
0.0
 10
36615.11030555
 20
-5933.02707983
 10
36680.34140121
 20
-5888.19613249
 10
36680.34140121
 20
-5933.19613249
 10
36614.51154063
 20
-5888.19613249
  0
LWPOLYLINE
  5
606
100
AcDbEntity
  8
Ech.1_5
 62
     5
  6
CONTINUOUS
370
    -3
100
AcDbPolyline
 90
       12
 70
     0
 43
0.0
 10
36614.51154063
 20
-5933.19613249
 10
36620.1629691
 20
-5933.19613249
 10
36620.16300706
 20
-5933.1950825
 10
36645.98753815
 20
-5933.1950825
 10
36645.98750018
 20
-5933.19613249
 10
36680.34140121
 20
-5933.19613249
 10
36680.34140121
 20
-5888.19613249
 10
36662.30294579
 20
-5888.19613249
 10
36662.30294579
 20
-5888.19613249
 10
36636.30294579
 20
-5888.19613249
 10
36636.30294579
 20
-5888.19613249
 10
36614.51154063
 20
-5888.19613249
  0
LINE
  5
607
100
AcDbEntity
  8
Ech.1_5
 62
   150
  6
CONTINUOUS
370
    50
100
AcDbLine
 10
36614.51154063
 20
-5888.19613249
 30
2500.0
 11
36614.51154063
 21
-5933.19613249
 31
2500.0
  0
LWPOLYLINE
  5
608
100
AcDbEntity
  8
Ech.1_5
 62
   190
  6
CONTINUOUS
370
    35
100
AcDbPolyline
 90
        4
 70
     0
 43
0.0
 10
36535.94016612
 20
-5938.02707983
 10
36607.84140121
 20
-5893.19613249
 10
36607.84140121
 20
-5938.19613249
 10
36535.34140121
 20
-5893.19613249
  0
LWPOLYLINE
  5
609
100
AcDbEntity
  8
Ech.1_5
 62
     5
  6
CONTINUOUS
370
    -3
100
AcDbPolyline
 90
       12
 70
     0
 43
0.0
 10
36535.34140121
 20
-5938.19613249
 10
36540.99282968
 20
-5938.19613249
 10
36540.99286764
 20
-5938.1950825
 10
36566.81739872
 20
-5938.1950825
 10
36566.81736076
 20
-5938.19613249
 10
36607.84140121
 20
-5938.19613249
 10
36607.84140121
 20
-5893.19613249
 10
36583.13280637
 20
-5893.19613249
 10
36583.13280637
 20
-5893.19613249
 10
36557.13280637
 20
-5893.19613249
 10
36557.13280637
 20
-5893.19613249
 10
36535.34140121
 20
-5893.19613249
  0
LINE
  5
60A
100
AcDbEntity
  8
Ech.1_5
 62
   150
  6
CONTINUOUS
370
    50
100
AcDbLine
 10
36535.34140121
 20
-5893.19613249
 30
2500.0
 11
36535.34140121
 21
-5938.19613249
 31
2500.0
  0
LINE
  5
60B
100
AcDbEntity
  8
Ech.1_5
 62
     1
  6
CADWORK_22
 48
-5.0
370
    35
100
AcDbLine
 10
36535.18039708
 20
-6498.13048537
 30
0.0
 11
36535.34140121
 21
-5893.19613249
 31
0.0
  0
LINE
  5
60C
100
AcDbEntity
  8
Ech.1_5
 62
     1
  6
CADWORK_22
 48
-5.0
370
    35
100
AcDbLine
 10
36535.34140121
 20
-5893.19613249
 30
0.0
 11
36607.84140121
 21
-5893.20434127
 31
0.0
  0
LWPOLYLINE
  5
60D
102
{ACAD_REACTORS
330
60E
102
}
100
AcDbEntity
  8
Ech.1_5
 62
     7
  6
CONTINUOUS
370
     5
100
AcDbPolyline
 90
        4
 70
     1
 43
0.0
 10
36555.31815784
 20
-5895.10420342
 10
36581.14268892
 20
-5895.10420342
 10
36581.14268892
 20
-5885.67154332
 10
36555.31815784
 20
-5885.67154332
  0
HATCH
  5
60E
100
AcDbEntity
  8
Ech.1_5
 62
     2
  6
CONTINUOUS
100
AcDbHatch
 10
0.0
 20
0.0
 30
0.0
210
0.0
220
0.0
230
1.0
  2
SOLID
 70
     1
 71
     1
 91
        1
 92
        7
 72
     0
 73
     1
 93
        4
 10
36555.31815784
 20
-5895.10420342
 10
36581.14268892
 20
-5895.10420342
 10
36581.14268892
 20
-5885.67154332
 10
36555.31815784
 20
-5885.67154332
 97
        1
330
60D
 75
     0
 76
     2
 47
0.775229
 98
        1
 10
0.0
 20
0.0
  0
HATCH
  5
60F
100
AcDbEntity
  8
Ech.1_5
 62
     7
100
AcDbHatch
 10
0.0
 20
0.0
 30
0.0
210
0.0
220
0.0
230
1.0
  2
ANSI37
 70
     0
 71
     0
 91
        1
 92
        7
 72
     0
 73
     1
 93
        4
 10
36555.31815784
 20
-5895.10420342
 10
36581.14268892
 20
-5895.10420342
 10
36581.14268892
 20
-5885.67154332
 10
36555.31815784
 20
-5885.67154332
 97
        0
 75
     0
 76
     2
 52
0.0
 41
1.87498831
 77
     0
 78
     2
 53
45.0
 43
0.0
 44
0.0
 45
4.20946876
 46
-4.20946876
 79
     0
 53
-45.0
 43
0.0
 44
0.0
 45
4.20946876
 46
4.20946876
 79
     0
 47
0.775229
 98
        1
 10
0.0
 20
0.0
  0
LWPOLYLINE
  5
610
100
AcDbEntity
  8
Ech.1_5
 62
     9
  6
CONTINUOUS
370
    40
100
AcDbPolyline
 90
        5
 70
     0
 43
0.0
 10
36276.27243157
 20
-5734.12715132
 10
36276.27243157
 20
-5709.12451346
 10
36226.27243157
 20
-5709.12451346
 10
36226.27243157
 20
-5734.12715132
 10
36276.27243157
 20
-5734.12715132
  0
LWPOLYLINE
  5
611
100
AcDbEntity
  8
Ech.1_5
 62
     9
  6
CONTINUOUS
370
    -3
100
AcDbPolyline
 90
        4
 70
     0
 43
0.0
 10
36226.27243157
 20
-5709.12451346
 10
36276.27243157
 20
-5734.12715132
 10
36276.27243157
 20
-5709.12451346
 10
36226.27243157
 20
-5734.12715132
  0
LWPOLYLINE
  5
612
100
AcDbEntity
  8
Ech.1_5
 62
     9
  6
CONTINUOUS
370
    40
100
AcDbPolyline
 90
        5
 70
     0
 43
0.0
 10
36614.26714545
 20
-5734.12715132
 10
36614.26714545
 20
-5709.12451346
 10
36689.27242024
 20
-5709.12451346
 10
36689.27242024
 20
-5734.12715132
 10
36614.26714545
 20
-5734.12715132
  0
LWPOLYLINE
  5
613
100
AcDbEntity
  8
Ech.1_5
 62
     9
  6
CONTINUOUS
370
    -3
100
AcDbPolyline
 90
        4
 70
     0
 43
0.0
 10
36689.27242024
 20
-5709.12451346
 10
36614.26714545
 20
-5734.12715132
 10
36614.26714545
 20
-5709.12451346
 10
36689.27242024
 20
-5734.12715132
  0
LWPOLYLINE
  5
614
100
AcDbEntity
  8
Ech.1_5
 62
     9
  6
CONTINUOUS
370
    40
100
AcDbPolyline
 90
        5
 70
     0
 43
0.0
 10
36689.27154099
 20
-5709.12715132
 10
36714.27417866
 20
-5709.12715132
 10
36714.27417866
 20
-5784.13242609
 10
36689.27154099
 20
-5784.13242609
 10
36689.27154099
 20
-5709.12715132
  0
LWPOLYLINE
  5
615
100
AcDbEntity
  8
Ech.1_5
 62
     9
  6
CONTINUOUS
370
    -3
100
AcDbPolyline
 90
        4
 70
     0
 43
0.0
 10
36714.27417866
 20
-5784.13242609
 10
36689.27154099
 20
-5709.12715132
 10
36714.27417866
 20
-5709.12715132
 10
36689.27154099
 20
-5784.13242609
  0
LWPOLYLINE
  5
616
100
AcDbEntity
  8
Ech.1_5
 62
     9
  6
CONTINUOUS
370
    40
100
AcDbPolyline
 90
        5
 70
     0
 43
0.0
 10
36689.27242024
 20
-6433.03389151
 10
36714.27505791
 20
-6433.03389151
 10
36714.27505791
 20
-6383.03389151
 10
36689.27242024
 20
-6383.03389151
 10
36689.27242024
 20
-6433.03389151
  0
LWPOLYLINE
  5
617
100
AcDbEntity
  8
Ech.1_5
 62
     9
  6
CONTINUOUS
370
    -3
100
AcDbPolyline
 90
        4
 70
     0
 43
0.0
 10
36714.27505791
 20
-6383.03389151
 10
36689.27242024
 20
-6433.03389151
 10
36714.27505792
 20
-6433.03389151
 10
36689.27242024
 20
-6383.03389151
  0
LWPOLYLINE
  5
618
100
AcDbEntity
  8
Ech.1_5
 62
     9
  6
CONTINUOUS
370
    40
100
AcDbPolyline
 90
        5
 70
     0
 43
0.0
 10
36689.27242024
 20
-5938.19613249
 10
36714.27505791
 20
-5938.19613249
 10
36714.27505791
 20
-5888.19613249
 10
36689.27242024
 20
-5888.19613249
 10
36689.27242024
 20
-5938.19613249
  0
LWPOLYLINE
  5
619
100
AcDbEntity
  8
Ech.1_5
 62
     9
  6
CONTINUOUS
370
    40
100
AcDbPolyline
 90
        4
 70
     0
 43
0.0
 10
36714.27505791
 20
-5888.19613249
 10
36689.27242024
 20
-5938.19613249
 10
36714.27505792
 20
-5938.19613249
 10
36689.27242024
 20
-5888.19613249
  0
LWPOLYLINE
  5
61A
100
AcDbEntity
  8
Ech.1_5
 62
     9
  6
CONTINUOUS
370
    -3
100
AcDbPolyline
 90
        5
 70
     0
 43
0.0
 10
36071.09940776
 20
-5689.12451346
 10
36071.09940776
 20
-5709.12451346
 10
36731.56350869
 20
-5709.12451346
 10
36731.56350869
 20
-5689.12451346
 10
36071.09940776
 20
-5689.12451346
  0
LWPOLYLINE
  5
61B
100
AcDbEntity
  8
Ech.1_5
 62
     9
  6
CONTINUOUS
370
    -3
100
AcDbPolyline
 90
        5
 70
     0
 43
0.0
 10
36754.27242024
 20
-5669.12451346
 10
36754.27242024
 20
-5689.12451346
 10
36684.33226333
 20
-5689.12451346
 10
36684.33226333
 20
-5669.12451346
 10
36754.27242024
 20
-5669.12451346
  0
LWPOLYLINE
  5
61C
100
AcDbEntity
  8
Ech.1_5
 62
     9
  6
CONTINUOUS
370
    -3
100
AcDbPolyline
 90
        5
 70
     0
 43
0.0
 10
36754.27242024
 20
-5759.04864771
 10
36734.27242024
 20
-5759.04864771
 10
36734.27242024
 20
-5689.12322123
 10
36754.27242024
 20
-5689.12322123
 10
36754.27242024
 20
-5759.04864771
  0
LWPOLYLINE
  5
61D
100
AcDbEntity
  8
Ech.1_5
 62
     9
  6
CONTINUOUS
370
    -3
100
AcDbPolyline
 90
        5
 70
     0
 43
0.0
 10
36714.27242024
 20
-6498.13048537
 10
36734.27242024
 20
-6498.13048537
 10
36734.27242024
 20
-5712.8895405
 10
36714.27242024
 20
-5712.8895405
 10
36714.27242024
 20
-6498.13048537
  0
LWPOLYLINE
  5
61E
100
AcDbEntity
  8
Ech.1_5
 62
   150
  6
CADWORK_22
370
    35
100
AcDbPolyline
 90
        3
 70
     0
 43
0.0
 38
2500.0
 10
36689.34140121
 20
-6498.13048537
 10
36689.27242024
 20
-5938.47029422
 10
36614.26714545
 20
-5938.47029422
  0
LWPOLYLINE
  5
61F
100
AcDbEntity
  8
Ech.1_5
 62
     5
  6
CONTINUOUS
370
    -3
100
AcDbPolyline
 90
        5
 70
     0
 43
0.0
 10
36680.34140121
 20
-5888.19613249
 10
36680.34140121
 20
-5743.12715132
 10
36635.34140121
 20
-5743.12715132
 10
36635.34140121
 20
-5888.19613249
 10
36680.34140121
 20
-5888.19613249
  0
LWPOLYLINE
  5
620
100
AcDbEntity
  8
Ech.1_5
 62
   190
  6
CONTINUOUS
370
    -3
100
AcDbPolyline
 90
        5
 70
     0
 43
0.0
 10
35876.88738716
 20
-6880.17682778
 10
36861.88738716
 20
-6880.17682778
 10
36861.88738716
 20
-5525.17682778
 10
35876.88738716
 20
-5525.17682778
 10
35876.88738716
 20
-6880.17682778
  0
LWPOLYLINE
  5
621
100
AcDbEntity
  8
Ech.1_5
 62
   254
  6
CONTINUOUS
370
    -3
100
AcDbPolyline
 90
        4
 70
     1
 43
0.0
 10
36305.34140121
 20
-5958.1171014
 10
36071.09940776
 20
-5958.1171014
 10
36071.09940776
 20
-5908.1171014
 10
36305.34140121
 20
-5908.1171014
  0
LWPOLYLINE
  5
622
102
{ACAD_REACTORS
330
623
102
}
100
AcDbEntity
  8
Ech.1_5
 62
     9
  6
CONTINUOUS
370
    -3
100
AcDbPolyline
 90
        4
 70
     1
 43
0.0
 10
36305.34140121
 20
-5958.1171014
 10
36305.34140121
 20
-5971.1171014
 10
36071.09940776
 20
-5971.1171014
 10
36071.09940776
 20
-5958.1171014
  0
HATCH
  5
623
100
AcDbEntity
  8
Ech.1_5
 62
     9
  6
CONTINUOUS
100
AcDbHatch
 10
0.0
 20
0.0
 30
0.0
210
0.0
220
0.0
230
1.0
  2
DOTS2
 70
     0
 71
     1
 91
        1
 92
        7
 72
     0
 73
     1
 93
        4
 10
36305.34140121
 20
-5958.1171014
 10
36305.34140121
 20
-5971.1171014
 10
36071.09940776
 20
-5971.1171014
 10
36071.09940776
 20
-5958.1171014
 97
        1
330
622
 75
     0
 76
     2
 52
0.0
 41
4.72440952
 77
     0
 78
     1
 53
0.0
 43
0.0
 44
0.0
 45
3.75
 46
3.535
 79
     2
 49
0.0
 49
-3.535
 47
0.775229
 98
        1
 10
0.0
 20
0.0
  0
LWPOLYLINE
  5
624
100
AcDbEntity
  8
Ech.1_5
 62
   254
  6
CONTINUOUS
370
    -3
100
AcDbPolyline
 90
        4
 70
     1
 43
0.0
 10
36465.18037011
 20
-6118.18608257
 10
36465.18037011
 20
-6498.12043544
 10
36515.18037011
 20
-6498.12043544
 10
36515.18037011
 20
-6118.18608257
  0
LWPOLYLINE
  5
625
102
{ACAD_REACTORS
330
626
102
}
100
AcDbEntity
  8
Ech.1_5
 62
     9
  6
CONTINUOUS
370
    -3
100
AcDbPolyline
 90
       12
 70
     1
 43
0.0
 10
36507.18037011
 20
-6148.18608257
 10
36513.17625882
 20
-6148.18608257
 10
36513.18037011
 20
-6118.18608257
 10
36465.18037011
 20
-6118.18608257
 10
36465.18037011
 20
-6148.18608257
 10
36471.18037011
 20
-6148.18608257
 10
36471.18037011
 20
-6146.18608257
 10
36467.18037011
 20
-6146.18608257
 10
36467.18037011
 20
-6120.18608257
 10
36511.18037011
 20
-6120.18608257
 10
36511.18037011
 20
-6146.18608257
 10
36507.18037011
 20
-6146.18608257
  0
HATCH
  5
626
100
AcDbEntity
  8
Ech.1_5
 62
     9
  6
CONTINUOUS
100
AcDbHatch
 10
0.0
 20
0.0
 30
0.0
210
0.0
220
0.0
230
1.0
  2
SOLID
 70
     1
 71
     1
 91
        1
 92
        7
 72
     0
 73
     1
 93
       12
 10
36507.18037011
 20
-6148.18608257
 10
36513.17625882
 20
-6148.18608257
 10
36513.18037011
 20
-6118.18608257
 10
36465.18037011
 20
-6118.18608257
 10
36465.18037011
 20
-6148.18608257
 10
36471.18037011
 20
-6148.18608257
 10
36471.18037011
 20
-6146.18608257
 10
36467.18037011
 20
-6146.18608257
 10
36467.18037011
 20
-6120.18608257
 10
36511.18037011
 20
-6120.18608257
 10
36511.18037011
 20
-6146.18608257
 10
36507.18037011
 20
-6146.18608257
 97
        1
330
625
 75
     0
 76
     2
 47
0.775229
 98
        1
 10
0.0
 20
0.0
  0
LWPOLYLINE
  5
627
102
{ACAD_REACTORS
330
628
102
}
100
AcDbEntity
  8
Ech.1_5
 62
     9
  6
CONTINUOUS
370
    -3
100
AcDbPolyline
 90
        4
 70
     1
 43
0.0
 10
36465.18037011
 20
-6118.18608257
 10
36452.18037011
 20
-6118.18608257
 10
36452.18037011
 20
-6498.12043544
 10
36465.18037011
 20
-6498.12043544
  0
HATCH
  5
628
100
AcDbEntity
  8
Ech.1_5
 62
     9
  6
CONTINUOUS
100
AcDbHatch
 10
0.0
 20
0.0
 30
0.0
210
0.0
220
0.0
230
1.0
  2
DOTS2
 70
     0
 71
     1
 91
        1
 92
        7
 72
     0
 73
     1
 93
        4
 10
36465.18037011
 20
-6118.18608257
 10
36452.18037011
 20
-6118.18608257
 10
36452.18037011
 20
-6498.12043544
 10
36465.18037011
 20
-6498.12043544
 97
        1
330
627
 75
     0
 76
     2
 52
0.0
 41
4.72440952
 77
     0
 78
     1
 53
0.0
 43
0.0
 44
0.0
 45
3.75
 46
3.535
 79
     2
 49
0.0
 49
-3.535
 47
0.775229
 98
        1
 10
0.0
 20
0.0
  0
LWPOLYLINE
  5
629
102
{ACAD_REACTORS
330
62A
102
}
100
AcDbEntity
  8
Ech.1_5
 62
     9
  6
CONTINUOUS
370
    -3
100
AcDbPolyline
 90
       12
 70
     1
 43
0.0
 10
36275.34140121
 20
-5916.1171014
 10
36275.34140121
 20
-5910.12121269
 10
36305.34140121
 20
-5910.1171014
 10
36305.34140121
 20
-5958.1171014
 10
36275.34140121
 20
-5958.1171014
 10
36275.34140121
 20
-5952.1171014
 10
36277.34140121
 20
-5952.1171014
 10
36277.34140121
 20
-5956.1171014
 10
36303.34140121
 20
-5956.1171014
 10
36303.34140121
 20
-5912.1171014
 10
36277.34140121
 20
-5912.1171014
 10
36277.34140121
 20
-5916.1171014
  0
HATCH
  5
62A
100
AcDbEntity
  8
Ech.1_5
 62
     9
  6
CONTINUOUS
100
AcDbHatch
 10
0.0
 20
0.0
 30
0.0
210
0.0
220
0.0
230
1.0
  2
SOLID
 70
     1
 71
     1
 91
        1
 92
        7
 72
     0
 73
     1
 93
       12
 10
36275.34140121
 20
-5916.1171014
 10
36275.34140121
 20
-5910.12121269
 10
36305.34140121
 20
-5910.1171014
 10
36305.34140121
 20
-5958.1171014
 10
36275.34140121
 20
-5958.1171014
 10
36275.34140121
 20
-5952.1171014
 10
36277.34140121
 20
-5952.1171014
 10
36277.34140121
 20
-5956.1171014
 10
36303.34140121
 20
-5956.1171014
 10
36303.34140121
 20
-5912.1171014
 10
36277.34140121
 20
-5912.1171014
 10
36277.34140121
 20
-5916.1171014
 97
        1
330
629
 75
     0
 76
     2
 47
0.775229
 98
        1
 10
0.0
 20
0.0
  0
LWPOLYLINE
  5
62B
100
AcDbEntity
  8
Ech.1_5
 62
     9
  6
CONTINUOUS
370
    -3
100
AcDbPolyline
 90
       56
 70
     0
 43
0.0
 10
36071.09940776
 20
-5949.78376807
 42
1.14028181
 10
36087.48212168
 20
-5947.62693783
 10
36079.71669385
 20
-5918.60726496
 42
-1.30322619
 10
36095.81545502
 20
-5918.60726496
 10
36088.05002718
 20
-5947.62693783
 42
1.30322619
 10
36104.14878835
 20
-5947.62693783
 10
36096.38336051
 20
-5918.60726496
 42
-1.30322619
 10
36112.48212168
 20
-5918.60726496
 10
36104.71669385
 20
-5947.62693783
 42
1.30322619
 10
36120.81545502
 20
-5947.62693783
 10
36113.05002718
 20
-5918.60726496
 42
-1.30322619
 10
36129.14878835
 20
-5918.60726496
 10
36121.38336051
 20
-5947.62693783
 42
1.30322619
 10
36137.48212168
 20
-5947.62693783
 10
36129.71669385
 20
-5918.60726496
 42
-1.30322619
 10
36145.81545502
 20
-5918.60726496
 10
36138.05002718
 20
-5947.62693783
 42
1.30322619
 10
36154.14878835
 20
-5947.62693783
 10
36146.38336051
 20
-5918.60726496
 42
-1.30322619
 10
36162.48212168
 20
-5918.60726496
 10
36154.71669385
 20
-5947.62693783
 42
1.30322619
 10
36170.81545502
 20
-5947.62693783
 10
36163.05002718
 20
-5918.60726496
 42
-1.30322619
 10
36179.14878835
 20
-5918.60726496
 10
36171.38336051
 20
-5947.62693783
 42
1.30322619
 10
36187.48212168
 20
-5947.62693783
 10
36179.71669385
 20
-5918.60726496
 42
-1.30322619
 10
36195.81545502
 20
-5918.60726496
 10
36188.05002718
 20
-5947.62693783
 42
1.30322619
 10
36204.14878835
 20
-5947.62693783
 10
36196.38336051
 20
-5918.60726496
 42
-1.30322619
 10
36212.48212168
 20
-5918.60726496
 10
36204.71669385
 20
-5947.62693783
 42
1.30322619
 10
36220.81545502
 20
-5947.62693783
 10
36213.05002718
 20
-5918.60726496
 42
-1.30322619
 10
36229.14878835
 20
-5918.60726496
 10
36221.38336051
 20
-5947.62693783
 42
1.30322619
 10
36237.48212168
 20
-5947.62693783
 10
36229.71669385
 20
-5918.60726496
 42
-1.30322619
 10
36245.81545502
 20
-5918.60726496
 10
36238.05002718
 20
-5947.62693783
 42
1.30322619
 10
36254.14878835
 20
-5947.62693783
 10
36246.38336051
 20
-5918.60726496
 42
-1.30322619
 10
36262.48212168
 20
-5918.60726496
 10
36254.71669385
 20
-5947.62693783
 42
1.30322619
 10
36270.81545502
 20
-5947.62693783
 10
36263.05002718
 20
-5918.60726496
 42
-1.30322619
 10
36279.14878835
 20
-5918.60726496
 10
36271.38336051
 20
-5947.62693783
 42
1.30322619
 10
36287.48212168
 20
-5947.62693783
 10
36279.71669385
 20
-5918.60726496
 42
-1.30322619
 10
36295.81545502
 20
-5918.60726496
 10
36288.05002718
 20
-5947.62693783
 42
1.30322619
 10
36304.14878835
 20
-5947.62693783
 10
36296.38336051
 20
-5918.60726496
 42
-0.52757463
 10
36305.34140121
 20
-5908.16678932
  0
LWPOLYLINE
  5
62C
100
AcDbEntity
  8
Ech.1_5
 62
     9
  6
CONTINUOUS
370
    -3
100
AcDbPolyline
 90
       90
 70
     0
 43
0.0
 10
36473.51370345
 20
-6118.18608257
 42
1.14028181
 10
36475.67053368
 20
-6134.56879649
 10
36504.69020655
 20
-6126.80336865
 42
-1.30322619
 10
36504.69020655
 20
-6142.90212982
 10
36475.67053368
 20
-6135.13670199
 42
1.30322619
 10
36475.67053368
 20
-6151.23546315
 10
36504.69020655
 20
-6143.47003532
 42
-1.30322619
 10
36504.69020655
 20
-6159.56879649
 10
36475.67053368
 20
-6151.80336865
 42
1.30322619
 10
36475.67053368
 20
-6167.90212982
 10
36504.69020655
 20
-6160.13670199
 42
-1.30322619
 10
36504.69020655
 20
-6176.23546315
 10
36475.67053368
 20
-6168.47003532
 42
1.30322619
 10
36475.67053368
 20
-6184.56879649
 10
36504.69020655
 20
-6176.80336865
 42
-1.30322619
 10
36504.69020655
 20
-6192.90212982
 10
36475.67053368
 20
-6185.13670199
 42
1.30322619
 10
36475.67053368
 20
-6201.23546315
 10
36504.69020655
 20
-6193.47003532
 42
-1.30322619
 10
36504.69020655
 20
-6209.56879649
 10
36475.67053368
 20
-6201.80336865
 42
1.30322619
 10
36475.67053368
 20
-6217.90212982
 10
36504.69020655
 20
-6210.13670199
 42
-1.30322619
 10
36504.69020655
 20
-6226.23546315
 10
36475.67053368
 20
-6218.47003532
 42
1.30322619
 10
36475.67053368
 20
-6234.56879649
 10
36504.69020655
 20
-6226.80336865
 42
-1.30322619
 10
36504.69020655
 20
-6242.90212982
 10
36475.67053368
 20
-6235.13670199
 42
1.30322619
 10
36475.67053368
 20
-6251.23546315
 10
36504.69020655
 20
-6243.47003532
 42
-1.30322619
 10
36504.69020655
 20
-6259.56879649
 10
36475.67053368
 20
-6251.80336865
 42
1.30322619
 10
36475.67053368
 20
-6267.90212982
 10
36504.69020655
 20
-6260.13670199
 42
-1.30322619
 10
36504.69020655
 20
-6276.23546315
 10
36475.67053368
 20
-6268.47003532
 42
1.30322619
 10
36475.67053368
 20
-6284.56879649
 10
36504.69020655
 20
-6276.80336865
 42
-1.30322619
 10
36504.69020655
 20
-6292.90212982
 10
36475.67053368
 20
-6285.13670199
 42
1.30322619
 10
36475.67053368
 20
-6301.23546315
 10
36504.69020655
 20
-6293.47003532
 42
-1.30322619
 10
36504.69020655
 20
-6309.56879649
 10
36475.67053368
 20
-6301.80336865
 42
1.30322619
 10
36475.67053368
 20
-6317.90212982
 10
36504.69020655
 20
-6310.13670199
 42
-1.30322619
 10
36504.69020655
 20
-6326.23546315
 10
36475.67053368
 20
-6318.47003532
 42
1.30322619
 10
36475.67053368
 20
-6334.56879649
 10
36504.69020655
 20
-6326.80336865
 42
-1.30322619
 10
36504.69020655
 20
-6342.90212982
 10
36475.67053368
 20
-6335.13670199
 42
1.30322619
 10
36475.67053368
 20
-6351.23546315
 10
36504.69020655
 20
-6343.47003532
 42
-1.30322619
 10
36504.69020655
 20
-6359.56879649
 10
36475.67053368
 20
-6351.80336865
 42
1.30322619
 10
36475.67053368
 20
-6367.90212982
 10
36504.69020655
 20
-6360.13670199
 42
-1.30322619
 10
36504.69020655
 20
-6376.23546315
 10
36475.67053368
 20
-6368.47003532
 42
1.30322619
 10
36475.67053368
 20
-6384.56879649
 10
36504.69020655
 20
-6376.80336865
 42
-1.30322619
 10
36504.69020655
 20
-6392.90212982
 10
36475.67053368
 20
-6385.13670199
 42
1.30322619
 10
36475.67053368
 20
-6401.23546315
 10
36504.69020655
 20
-6393.47003532
 42
-1.30322619
 10
36504.69020655
 20
-6409.56879649
 10
36475.67053368
 20
-6401.80336865
 42
1.30322619
 10
36475.67053368
 20
-6417.90212982
 10
36504.69020655
 20
-6410.13670199
 42
-1.30322619
 10
36504.69020655
 20
-6426.23546315
 10
36475.67053368
 20
-6418.47003532
 42
1.30322619
 10
36475.67053368
 20
-6434.56879649
 10
36504.69020655
 20
-6426.80336865
 42
-1.30322619
 10
36504.69020655
 20
-6442.90212982
 10
36475.67053368
 20
-6435.13670199
 42
1.30322619
 10
36475.67053368
 20
-6451.23546315
 10
36504.69020655
 20
-6443.47003532
 42
-1.30322619
 10
36504.69020655
 20
-6459.56879649
 10
36475.67053368
 20
-6451.80336865
 42
1.30322619
 10
36475.67053368
 20
-6467.90212982
 10
36504.69020655
 20
-6460.13670199
 42
-1.30322619
 10
36504.69020655
 20
-6476.23546315
 10
36475.67053368
 20
-6468.47003532
 42
1.30322619
 10
36475.67053368
 20
-6484.56879649
 10
36504.69020655
 20
-6476.80336865
 42
-1.30322619
 10
36504.69020655
 20
-6492.90212982
 10
36475.67053368
 20
-6485.13670199
 42
0.70874585
 10
36466.79830278
 20
-6498.12043544
  0
LWPOLYLINE
  5
62D
102
{ACAD_REACTORS
330
62E
102
}
100
AcDbEntity
  8
Ech.1_5
 62
     9
  6
CONTINUOUS
370
    -3
100
AcDbPolyline
 90
        4
 70
     1
 43
0.0
 10
36505.34140121
 20
-5918.18608257
 10
36305.34140121
 20
-5918.18608257
 10
36305.34140121
 20
-6118.18608257
 10
36505.34140121
 20
-6118.18608257
  0
HATCH
  5
62E
100
AcDbEntity
  8
Ech.1_5
 62
     9
  6
CONTINUOUS
100
AcDbHatch
 10
0.0
 20
0.0
 30
0.0
210
0.0
220
0.0
230
1.0
  2
AR-CONC
 70
     0
 71
     1
 91
        1
 92
        7
 72
     0
 73
     1
 93
        4
 10
36505.34140121
 20
-5918.18608257
 10
36305.34140121
 20
-5918.18608257
 10
36305.34140121
 20
-6118.18608257
 10
36505.34140121
 20
-6118.18608257
 97
        1
330
62D
 75
     0
 76
     2
 52
0.0
 41
0.11811097
 77
     0
 78
    13
 53
50.0
 43
0.0
 44
0.0
 45
-18.84283637
 46
1.64853443
 79
     2
 49
1.97029307
 49
-21.67322338
 53
355.0
 43
0.0
 44
0.0
 45
-3.64507756
 46
19.76051824
 79
     2
 49
1.57623377
 49
-17.3385787
 53
100.45140076
 43
1.57023568
 44
-0.13737749
 45
-15.19777228
 46
-18.11197244
 79
     2
 49
1.67449124
 49
-18.41940522
 53
46.18420029
 43
0.0
 44
5.25411576
 45
-28.03703353
 46
4.34827878
 79
     2
 49
2.95543872
 49
-32.50983238
 53
96.63559723
 43
2.33641885
 44
4.89175692
 45
-24.55412615
 46
-25.59063404
 79
     2
 49
2.51173697
 49
-27.62910426
 53
351.1842041
 43
0.0
 44
5.25411576
 45
24.55410288
 46
25.59065715
 79
     2
 49
2.36435249
 49
-26.00786805
 53
21.0
 43
2.62705699
 44
3.94058615
 45
-15.68109068
 46
10.57702905
 79
     2
 49
1.97029307
 49
-21.67322338
 53
326.0
 43
2.62705699
 44
3.94058615
 45
6.39203268
 46
19.05010734
 79
     2
 49
1.57623377
 49
-17.3385787
 53
71.45140076
 43
3.93381357
 44
3.05916555
 45
-22.07312962
 46
-8.47306182
 79
     2
 49
1.67449124
 49
-18.41940522
 53
37.5
 43
0.0
 44
0.0
 45
0.31944534
 46
8.74531245
 79
     6
 49
0.01875
 49
-17.12841332
 49
0.01875
 49
-17.60128498
 49
0.01875
 49
-17.40425348
 53
7.5
 43
0.0
 44
0.0
 45
6.91098818
 46
10.3614222
 79
     6
 49
0.01875
 49
-10.03535807
 49
0.01875
 49
-16.7343539
 49
0.01875
 49
-6.6333206
 53
-32.5
 43
-5.85833833
 44
0.0
 45
14.02382061
 46
-0.59253003
 79
     6
 49
0.01875
 49
-6.56764314
 49
0.01875
 49
-20.49104869
 49
0.01875
 49
-27.19004452
 53
-42.5
 43
-8.48539531
 44
0.0
 45
15.32063571
 46
2.62981542
 79
     6
 49
0.01875
 49
-8.53793621
 49
0.01875
 49
-13.60815793
 49
0.01875
 49
-19.30887222
 47
0.775229
 98
        1
 10
0.0
 20
0.0
  0
LWPOLYLINE
  5
62F
100
AcDbEntity
  8
Ech.1_5
 62
   150
  6
CADWORK_22
370
    35
100
AcDbPolyline
 90
        6
 70
     0
 43
0.0
 38
2500.0
 10
36071.09940776
 20
-5734.12715132
 10
36607.32791021
 20
-5734.12715132
 10
36617.24512849
 20
-5734.12715132
 10
36689.27242024
 20
-5734.12715132
 10
36689.27242024
 20
-5933.19613249
 10
36614.26714545
 20
-5933.19613249
  0
LWPOLYLINE
  5
630
102
{ACAD_REACTORS
330
631
102
}
100
AcDbEntity
  8
Ech.1_5
 62
     7
  6
CONTINUOUS
370
     5
100
AcDbPolyline
 90
        4
 70
     1
 43
0.0
 10
36653.98743326
 20
-5939.89700085
 10
36679.81196435
 20
-5939.89700085
 10
36679.81196435
 20
-5930.46434075
 10
36653.98743326
 20
-5930.46434075
  0
HATCH
  5
631
100
AcDbEntity
  8
Ech.1_5
 62
     2
  6
CONTINUOUS
100
AcDbHatch
 10
0.0
 20
0.0
 30
0.0
210
0.0
220
0.0
230
1.0
  2
SOLID
 70
     1
 71
     1
 91
        1
 92
        7
 72
     0
 73
     1
 93
        4
 10
36653.98743326
 20
-5939.89700085
 10
36679.81196435
 20
-5939.89700085
 10
36679.81196435
 20
-5930.46434075
 10
36653.98743326
 20
-5930.46434075
 97
        1
330
630
 75
     0
 76
     2
 47
0.775229
 98
        1
 10
0.0
 20
0.0
  0
HATCH
  5
632
100
AcDbEntity
  8
Ech.1_5
 62
     7
100
AcDbHatch
 10
0.0
 20
0.0
 30
0.0
210
0.0
220
0.0
230
1.0
  2
ANSI37
 70
     0
 71
     0
 91
        1
 92
        7
 72
     0
 73
     1
 93
        4
 10
36653.98743326
 20
-5939.89700085
 10
36679.81196435
 20
-5939.89700085
 10
36679.81196435
 20
-5930.46434075
 10
36653.98743326
 20
-5930.46434075
 97
        0
 75
     0
 76
     2
 52
0.0
 41
1.87498831
 77
     0
 78
     2
 53
45.0
 43
0.0
 44
0.0
 45
4.20946876
 46
-4.20946876
 79
     0
 53
-45.0
 43
0.0
 44
0.0
 45
4.20946876
 46
4.20946876
 79
     0
 47
0.775229
 98
        1
 10
0.0
 20
0.0
  0
LWPOLYLINE
  5
633
100
AcDbEntity
  8
Ech.1_5
 62
   190
  6
CONTINUOUS
370
    -3
100
AcDbPolyline
 90
        6
 70
     0
 43
0.0
 10
36071.09940776
 20
-5998.15185207
 10
36071.09940776
 20
-5827.58709128
 10
36053.12205936
 20
-5811.10158808
 10
36089.07775937
 20
-5825.21152766
 10
36071.09940776
 20
-5808.72517378
 10
36071.09940776
 20
-5634.72517378
  0
LWPOLYLINE
  5
634
100
AcDbEntity
  8
Ech.1_5
 62
   190
  6
CONTINUOUS
370
    -3
100
AcDbPolyline
 90
        6
 70
     0
 43
0.0
 10
36410.24401035
 20
-6498.13048537
 10
36634.65366419
 20
-6498.13048537
 10
36651.13916735
 20
-6480.15313704
 10
36637.02922733
 20
-6516.10883696
 10
36653.51558141
 20
-6498.13048537
 10
36789.51558141
 20
-6498.13048537
  0
LWPOLYLINE
  5
635
100
AcDbEntity
  8
Ech.1_5
 62
   190
100
AcDbPolyline
 90
        5
 70
     0
 43
0.0
 10
36211.59418061
 20
-6537.60675573
 10
36346.02295959
 20
-6537.60675573
 10
36346.02295959
 20
-6594.32971455
 10
36211.59418061
 20
-6594.32971455
 10
36211.59418061
 20
-6537.60675573
  0
HATCH
  5
636
100
AcDbEntity
  8
Ech.1_5
 62
   190
100
AcDbHatch
 10
0.0
 20
0.0
 30
0.0
210
0.0
220
0.0
230
1.0
  2
SOLID
 70
     1
 71
     0
 91
        1
 92
        7
 72
     0
 73
     1
 93
        4
 10
36229.87422639
 20
-6571.26356686
 10
36279.87422639
 20
-6571.26356686
 10
36279.87422639
 20
-6563.84842933
 10
36229.87422639
 20
-6563.84842933
 97
        0
 75
     0
 76
     2
 47
0.775229
 98
        1
 10
0.0
 20
0.0
  0
LWPOLYLINE
  5
637
100
AcDbEntity
  8
Ech.1_5
 62
   190
100
AcDbPolyline
 90
        5
 70
     0
 43
0.0
 10
36229.87422639
 20
-6571.26356686
 10
36279.87422639
 20
-6571.26356686
 10
36279.87422639
 20
-6563.84842933
 10
36229.87422639
 20
-6563.84842933
 10
36229.87422639
 20
-6571.26356686
  0
LWPOLYLINE
  5
638
100
AcDbEntity
  8
Ech.1_5
 62
   190
100
AcDbPolyline
 90
        5
 70
     0
 43
0.0
 10
36279.87422639
 20
-6571.26356686
 10
36329.87422639
 20
-6571.26356686
 10
36329.87422639
 20
-6563.84842933
 10
36279.87422639
 20
-6563.84842933
 10
36279.87422639
 20
-6571.26356686
  0
TEXT
  5
639
100
AcDbEntity
  8
Ech.1_5
 62
   190
100
AcDbText
 10
36241.16851902
 20
-6554.26242625
 30
0.0
 40
8.00000012
  1
Echelle en mm
  7
ARIAL
 50
0.0
 41
1.0
 51
0.0
100
AcDbText
  0
TEXT
  5
63A
100
AcDbEntity
  8
Ech.1_5
 62
   190
100
AcDbText
 10
36227.18793427
 20
-6582.47226178
 30
0.0
 40
8.00000012
  1
0
  7
ARIAL
 50
0.0
 41
1.0
 51
0.0
100
AcDbText
  0
TEXT
  5
63B
100
AcDbEntity
  8
Ech.1_5
 62
   190
100
AcDbText
 10
36313.78499216
 20
-6582.47226178
 30
0.0
 40
8.00000012
  1
100
  7
ARIAL
 50
0.0
 41
1.0
 51
0.0
100
AcDbText
  0
TEXT
  5
63C
100
AcDbEntity
  8
Ech.1_5
 62
   190
100
AcDbText
 10
36275.04456059
 20
-6582.47226178
 30
0.0
 40
8.00000012
  1
50
  7
ARIAL
 50
0.0
 41
1.0
 51
0.0
100
AcDbText
  0
ENDSEC
  0
SECTION
  2
OBJECTS
  0
DICTIONARY
  5
1
100
AcDbDictionary
  3
ACAD_GROUP
350
2
  3
ACAD_MLINESTYLE
350
3
  0
DICTIONARY
  5
2
102
{CDWK_REACTORS
330
1
102
}
100
AcDbDictionary
  0
DICTIONARY
  5
3
102
{CDWK_REACTORS
330
1
102
}
100
AcDbDictionary
  3
STANDARD
350
4
  0
MLINESTYLE
  5
4
102
{CDWK_REACTORS
330
3
102
}
100
AcDbMlineStyle
  2
STANDARD
 70
     0
  3

 62
     0
 51
90.0
 52
90.0
 71
     2
 49
0.5
 62
   256
  6
BYLAYER
 49
-0.5
 62
   256
  6
BYLAYER
  0
ENDSEC
  0
EOF
