  0
SECTION
  2
HEADER
  9
$ACADVER
  1
AC1014
  9
$DWGCODEPAGE
  3
ANSI_1252
  9
$INSBASE
 10
0.0
 20
0.0
 30
0.0
  9
$EXTMIN
 10
1033.98771282
 20
-21718.34332712
  9
$EXTMAX
 10
122326.07664696
 20
2240.3362527
  9
$LIMMIN
 10
1033.98771282
 20
-21718.34332712
  9
$LIMMAX
 10
122326.07664696
 20
2240.3362527
  9
$ORTHOMODE
 70
     0
  9
$REGENMODE
 70
     1
  9
$FILLMODE
 70
     1
  9
$QTEXTMODE
 70
     0
  9
$MIRRTEXT
 70
     1
  9
$DRAGMODE
 70
     2
  9
$LTSCALE
 40
5.0
  9
$OSMODE
 70
     0
  9
$ATTMODE
 70
     1
  9
$TEXTSIZE
 40
3.5
  9
$TRACEWID
 40
1.0
  9
$TEXTSTYLE
  7
STANDARD
  9
$CLAYER
  8
0
  9
$CELTYPE
  6
BYLAYER
  9
$CECOLOR
 62
   256
  9
$DIMSCALE
 40
1.0
  9
$DIMASZ
 40
2.0
  9
$DIMEXO
 40
5.0
  9
$DIMDLI
 40
10.0
  9
$DIMRND
 40
0.0
  9
$DIMDLE
 40
2.0
  9
$DIMEXE
 40
2.0
  9
$DIMTP
 40
0.0
  9
$DIMTM
 40
0.0
  9
$DIMTXT
 40
2.5
  9
$DIMCEN
 40
1.5
  9
$DIMTSZ
 40
0.0
  9
$DIMTOL
 70
     0
  9
$DIMLIM
 70
     0
  9
$DIMTIH
 70
     1
  9
$DIMTOH
 70
     0
  9
$DIMSE1
 70
     0
  9
$DIMSE2
 70
     0
  9
$DIMTAD
 70
     1
  9
$DIMZIN
 70
     8
  9
$DIMBLK
  1

  9
$DIMASO
 70
     1
  9
$DIMSHO
 70
     1
  9
$DIMPOST
  1

  9
$DIMAPOST
  1

  9
$DIMALT
 70
     0
  9
$DIMALTD
 70
     2
  9
$DIMALTF
 40
25.4
  9
$DIMLFAC
 40
1.0
  9
$DIMTOFL
 70
     0
  9
$DIMTVP
 40
0.0
  9
$DIMTIX
 70
     0
  9
$DIMSOXD
 70
     0
  9
$DIMSAH
 70
     0
  9
$DIMBLK1
  1

  9
$DIMBLK2
  1

  9
$DIMSTYLE
  2
*UNNAMED
  9
$DIMCLRD
 70
   190
  9
$DIMCLRE
 70
   190
  9
$DIMCLRT
 70
   190
  9
$DIMTFAC
 40
1.0
  9
$DIMGAP
 40
0.09
  9
$DIMUNIT
 70
     2
  9
$LUNITS
 70
     2
  9
$LUPREC
 70
     6
  9
$AXISMODE
 70
     0
  9
$AXISUNIT
 10
0.0
 20
0.0
  9
$SKETCHINC
 40
0.1
  9
$FILLETRAD
 40
0.0
  9
$AUNITS
 70
     0
  9
$AUPREC
 70
     0
  9
$MENU
  1
ACAD
  9
$ELEVATION
 40
0.0
  9
$PELEVATION
 40
0.0
  9
$THICKNESS
 40
0.0
  9
$LIMCHECK
 70
     0
  9
$BLIPMODE
 70
     1
  9
$CHAMFERA
 40
0.0
  9
$CHAMFERB
 40
0.0
  9
$SKPOLY
 70
     1
  9
$TDCREATE
 40
2457808.0000000000
  9
$TDUPDATE
 40
2457808.0000000000
  9
$TDINDWG
 40
0.0
  9
$TDUSRTIMER
 40
0.0
  9
$USRTIMER
 70
     1
  9
$ANGBASE
 50
0.0
  9
$ANGDIR
 70
     0
  9
$PDMODE
 70
     0
  9
$PDSIZE
 40
0.0
  9
$PLINEWID
 40
0.0
  9
$COORDS
 70
     2
  9
$SPLFRAME
 70
     0
  9
$SPLINETYPE
 70
     6
  9
$SPLINESEGS
 70
     8
  9
$ATTDIA
 70
     1
  9
$ATTREQ
 70
     1
  9
$HANDLING
 70
     1
  9
$HANDSEED
  5
     639
  9
$SURFTAB1
 70
     6
  9
$SURFTAB2
 70
     6
  9
$SURFTYPE
 70
     6
  9
$SURFU
 70
     6
  9
$SURFV
 70
     6
  9
$UCSNAME
  2

  9
$UCSORG
 10
0.0
 20
0.0
 30
0.0
  9
$UCSXDIR
 10
1.0
 20
0.0
 30
0.0
  9
$UCSYDIR
 10
0.0
 20
1.0
 30
0.0
  9
$PUCSNAME
  2

  9
$PUCSORG
 10
0.0
 20
0.0
 30
0.0
  9
$PUCSXDIR
 10
1.0
 20
0.0
 30
0.0
  9
$PUCSYDIR
 10
0.0
 20
1.0
 30
0.0
  9
$USERI1
 70
     0
  9
$USERI2
 70
     0
  9
$USERI3
 70
     0
  9
$USERI4
 70
     0
  9
$USERI5
 70
     0
  9
$USERR1
 40
0.0
  9
$USERR2
 40
0.0
  9
$USERR3
 40
0.0
  9
$USERR4
 40
0.0
  9
$USERR5
 40
0.0
  9
$WORLDVIEW
 70
     1
  9
$SHADEDGE
 70
     3
  9
$SHADEDIF
 70
    70
  9
$TILEMODE
 70
     1
  9
$MAXACTVP
 70
    16
  9
$PINSBASE
 10
0.0
 20
0.0
 30
0.0
  9
$PLIMCHECK
 70
     0
  9
$PEXTMIN
 10
1.0000000000000E+20
 20
1.0000000000000E+20
 30
1.0000000000000E+20
  9
$PEXTMAX
 10
-1.0000000000000E+20
 20
-1.0000000000000E+20
 30
-1.0000000000000E+20
  9
$PLIMMIN
 10
0.0
 20
0.0
  9
$UNITMODE
 70
     0
  9
$VISRETAIN
 70
     0
  9
$MEASUREMENT
 70
     1
  0
ENDSEC
  0
SECTION
  2
TABLES
  0
TABLE
  2
VPORT
  5
4A2
100
AcDbSymbolTable
 70
     1
  0
ENDTAB
  0
TABLE
  2
STYLE
  5
4A3
100
AcDbSymbolTable
 70
     3
  0
STYLE
  5
4A4
100
AcDbSymbolTableRecord
100
AcDbTextStyleTableRecord
  2
STANDARD
 70
     0
 40
0.0
 41
1.0
 50
0.0
 71
     0
 42
3.5
  3
MONOTXT
  4

  0
STYLE
  5
4A5
100
AcDbSymbolTableRecord
100
AcDbTextStyleTableRecord
  2
SYMAP
 70
     0
 40
0.0
 41
1.0
 50
0.0
 71
     0
 42
3.5
  3
SYMAP
  4

  0
STYLE
  5
4A6
100
AcDbSymbolTableRecord
100
AcDbTextStyleTableRecord
  2
CADWORK1
 70
     0
 40
0.0
 41
1.0
 50
0.0
 71
     0
 42
3.5
  3
MONOTXT
  4

  0
STYLE
  5
4A7
100
AcDbSymbolTableRecord
100
AcDbTextStyleTableRecord
  2
MONOTXT
 70
     0
 40
0.0
 41
1.0
 50
0.0
 71
     0
 42
3.5
  3
MONOTXT
  4

  0
STYLE
  5
4A8
100
AcDbSymbolTableRecord
100
AcDbTextStyleTableRecord
  2
ARIAL
 70
     0
 40
0.0
 41
1.0
 50
0.0
 71
     0
 42
3.5
  3

  4

1001
ACAD
1000
Arial
1071
        0
  0
ENDTAB
  0
TABLE
  2
LTYPE
  5
4A9
100
AcDbSymbolTable
 70
    15
  0
LTYPE
  5
4AA
100
AcDbSymbolTableRecord
100
AcDbLinetypeTableRecord
  2
BYBLOCK
 70
    64
  3

 72
    65
 73
     0
 40
0.0
  0
LTYPE
  5
4AB
100
AcDbSymbolTableRecord
100
AcDbLinetypeTableRecord
  2
BYLAYER
 70
    64
  3

 72
    65
 73
     0
 40
0.0
  0
LTYPE
  5
4AC
100
AcDbSymbolTableRecord
100
AcDbLinetypeTableRecord
  2
CONTINUOUS
 70
    64
  3
Solid line
 72
    65
 73
     0
 40
0.0
  0
LTYPE
  5
4AD
100
AcDbSymbolTableRecord
100
AcDbLinetypeTableRecord
  2
DOT2
 70
    64
  3
...............................................
 72
    65
 73
     2
 40
1.25
 49
0.0
 74
     0
 49
-1.25
 74
     0
  0
LTYPE
  5
4AE
100
AcDbSymbolTableRecord
100
AcDbLinetypeTableRecord
  2
CADWORK_13
 70
    64
  3
13 =======================================
 72
    65
 73
     2
 40
4.0
 49
2.0
 74
     0
 49
-2.0
 74
     0
  0
LTYPE
  5
4AF
100
AcDbSymbolTableRecord
100
AcDbLinetypeTableRecord
  2
DASHDOT
 70
    64
  3
 __ . __ . __ . __ . __ . __ . __ . __ . __ . __
 72
    65
 73
     4
 40
10.0
 49
5.0
 74
     0
 49
-2.5
 74
     0
 49
0.0
 74
     0
 49
-2.5
 74
     0
  0
LTYPE
  5
4B0
100
AcDbSymbolTableRecord
100
AcDbLinetypeTableRecord
  2
CENTER
 70
    64
  3
 ____ _ ____ _ ____ _ ____ _ ____ _ ____ _ ____
 72
    65
 73
     4
 40
20.0
 49
12.5
 74
     0
 49
-2.5
 74
     0
 49
2.5
 74
     0
 49
-2.5
 74
     0
  0
LTYPE
  5
4B1
100
AcDbSymbolTableRecord
100
AcDbLinetypeTableRecord
  2
DASHEDX2
 70
    64
  3
____  ____  ____  ____  ____  ____  ____  ____
 72
    65
 73
     2
 40
3.75
 49
2.5
 74
     0
 49
-1.25
 74
     0
  0
LTYPE
  5
4B2
100
AcDbSymbolTableRecord
100
AcDbLinetypeTableRecord
  2
CADWORK_22
 70
    64
  3
22 =======================================
 72
    65
 73
     0
 40
0.0
  0
LTYPE
  5
4B3
100
AcDbSymbolTableRecord
100
AcDbLinetypeTableRecord
  2
DAL
 70
    64
  3
Solid line (for MAPS)
 72
    65
 73
     0
 40
0.0
  0
LTYPE
  5
4B4
100
AcDbSymbolTableRecord
100
AcDbLinetypeTableRecord
  2
MUR
 70
    64
  3
Solid line (for MAPS)
 72
    65
 73
     0
 40
0.0
  0
LTYPE
  5
4B5
100
AcDbSymbolTableRecord
100
AcDbLinetypeTableRecord
  2
SOM
 70
    64
  3
Solid line (for MAPS)
 72
    65
 73
     0
 40
0.0
  0
LTYPE
  5
4B6
100
AcDbSymbolTableRecord
100
AcDbLinetypeTableRecord
  2
COL
 70
    64
  3
Solid line (for MAPS)
 72
    65
 73
     0
 40
0.0
  0
LTYPE
  5
4B7
100
AcDbSymbolTableRecord
100
AcDbLinetypeTableRecord
  2
LGN
 70
    64
  3
Solid line (for MAPS)
 72
    65
 73
     0
 40
0.0
  0
LTYPE
  5
4B8
100
AcDbSymbolTableRecord
100
AcDbLinetypeTableRecord
  2
PNT
 70
    64
  3
Solid line (for MAPS)
 72
    65
 73
     0
 40
0.0
  0
ENDTAB
  0
TABLE
  2
LAYER
  5
4B9
100
AcDbSymbolTable
 70
    32
  0
LAYER
  5
4BA
100
AcDbSymbolTableRecord
100
AcDbLayerTableRecord
  2
Standard
 70
     0
 62
     7
  6
CONTINUOUS
370
    -3
  0
LAYER
  5
4BB
100
AcDbSymbolTableRecord
100
AcDbLayerTableRecord
  2
Ech.1_1
 70
     0
 62
     7
  6
CONTINUOUS
370
    -3
  0
LAYER
  5
4BC
100
AcDbSymbolTableRecord
100
AcDbLayerTableRecord
  2
Ech.1_2
 70
     0
 62
     7
  6
CONTINUOUS
370
    -3
  0
LAYER
  5
4BD
100
AcDbSymbolTableRecord
100
AcDbLayerTableRecord
  2
Ech.1_5
 70
     0
 62
     7
  6
CONTINUOUS
370
    -3
  0
LAYER
  5
4BE
100
AcDbSymbolTableRecord
100
AcDbLayerTableRecord
  2
Ech.1_10
 70
     0
 62
     7
  6
CONTINUOUS
370
    -3
  0
LAYER
  5
4BF
100
AcDbSymbolTableRecord
100
AcDbLayerTableRecord
  2
Ech.1_20
 70
     0
 62
     7
  6
CONTINUOUS
370
    -3
  0
LAYER
  5
4C0
100
AcDbSymbolTableRecord
100
AcDbLayerTableRecord
  2
Ech.1_25
 70
     0
 62
     7
  6
CONTINUOUS
370
    -3
  0
LAYER
  5
4C1
100
AcDbSymbolTableRecord
100
AcDbLayerTableRecord
  2
Ech.1_33
 70
     0
 62
     7
  6
CONTINUOUS
370
    -3
  0
LAYER
  5
4C2
100
AcDbSymbolTableRecord
100
AcDbLayerTableRecord
  2
Ech.1_50
 70
     0
 62
     7
  6
CONTINUOUS
370
    -3
  0
LAYER
  5
4C3
100
AcDbSymbolTableRecord
100
AcDbLayerTableRecord
  2
Ech.1_75
 70
     0
 62
     7
  6
CONTINUOUS
370
    -3
  0
LAYER
  5
4C4
100
AcDbSymbolTableRecord
100
AcDbLayerTableRecord
  2
Ech.1_100
 70
     0
 62
     7
  6
CONTINUOUS
370
    -3
  0
LAYER
  5
4C5
100
AcDbSymbolTableRecord
100
AcDbLayerTableRecord
  2
Ech.1_200
 70
     0
 62
     7
  6
CONTINUOUS
370
    -3
  0
LAYER
  5
4C6
100
AcDbSymbolTableRecord
100
AcDbLayerTableRecord
  2
Ech.1_500
 70
     0
 62
     7
  6
CONTINUOUS
370
    -3
  0
LAYER
  5
4C7
100
AcDbSymbolTableRecord
100
AcDbLayerTableRecord
  2
Ech.1_1000
 70
     0
 62
     7
  6
CONTINUOUS
370
    -3
  0
LAYER
  5
4C8
100
AcDbSymbolTableRecord
100
AcDbLayerTableRecord
  2
Cadres traceur
 70
     0
 62
     7
  6
CONTINUOUS
370
    18
  0
LAYER
  5
4C9
100
AcDbSymbolTableRecord
100
AcDbLayerTableRecord
  2
Cadres laser
 70
     0
 62
     7
  6
CONTINUOUS
370
    18
  0
LAYER
  5
4CA
100
AcDbSymbolTableRecord
100
AcDbLayerTableRecord
  2
Légende d_aide
 70
     0
 62
     7
  6
CONTINUOUS
370
    18
  0
LAYER
  5
4CB
100
AcDbSymbolTableRecord
100
AcDbLayerTableRecord
  2
hachures ok
 70
     0
 62
     7
  6
CONTINUOUS
370
    18
  0
LAYER
  5
4CC
100
AcDbSymbolTableRecord
100
AcDbLayerTableRecord
  2
ossature bois
 70
     0
 62
     7
  6
CONTINUOUS
370
    18
  0
LAYER
  5
4CD
100
AcDbSymbolTableRecord
100
AcDbLayerTableRecord
  2
VR
 70
     0
 62
     7
  6
CONTINUOUS
370
    25
  0
LAYER
  5
4CE
100
AcDbSymbolTableRecord
100
AcDbLayerTableRecord
  2
Calque1
 70
     0
 62
     7
  6
CONTINUOUS
370
     9
  0
LAYER
  5
4CF
100
AcDbSymbolTableRecord
100
AcDbLayerTableRecord
  2
0
 70
     0
 62
     7
  6
CONTINUOUS
370
    -3
  0
LAYER
  5
4D0
100
AcDbSymbolTableRecord
100
AcDbLayerTableRecord
  2
menuiserie
 70
     0
 62
     7
  6
CONTINUOUS
370
    -3
  0
LAYER
  5
4D1
100
AcDbSymbolTableRecord
100
AcDbLayerTableRecord
  2
cotation
 70
     0
 62
   250
  6
CONTINUOUS
370
     9
  0
LAYER
  5
4D2
100
AcDbSymbolTableRecord
100
AcDbLayerTableRecord
  2
Defpoints
 70
     0
 62
    10
  6
CONTINUOUS
370
    -3
  0
LAYER
  5
4D3
100
AcDbSymbolTableRecord
100
AcDbLayerTableRecord
  2
HACHURE
 70
     0
 62
   254
  6
CONTINUOUS
370
    25
  0
LAYER
  5
4D4
100
AcDbSymbolTableRecord
100
AcDbLayerTableRecord
  2
mat1
 70
     0
 62
     7
  6
CONTINUOUS
370
    30
  0
LAYER
  5
4D5
100
AcDbSymbolTableRecord
100
AcDbLayerTableRecord
  2
mat2
 70
     0
 62
     7
  6
CONTINUOUS
370
     5
  0
LAYER
  5
4D6
100
AcDbSymbolTableRecord
100
AcDbLayerTableRecord
  2
hach
 70
     0
 62
     8
  6
CONTINUOUS
370
     5
  0
LAYER
  5
4D7
100
AcDbSymbolTableRecord
100
AcDbLayerTableRecord
  2
menuiseries
 70
     0
 62
     7
  6
CONTINUOUS
370
     9
  0
LAYER
  5
4D8
100
AcDbSymbolTableRecord
100
AcDbLayerTableRecord
  2
BétonMétal
 70
     0
 62
     7
  6
CONTINUOUS
370
    80
  0
LAYER
  5
4D9
100
AcDbSymbolTableRecord
100
AcDbLayerTableRecord
  2
bois
 70
     0
 62
     7
  6
CONTINUOUS
370
    60
  0
ENDTAB
  0
TABLE
  2
VIEW
  5
4DA
100
AcDbSymbolTable
 70
     0
  0
ENDTAB
  0
TABLE
  2
UCS
  5
4DB
100
AcDbSymbolTable
 70
     0
  0
ENDTAB
  0
TABLE
  2
APPID
  5
4DC
100
AcDbSymbolTable
 70
     1
  0
APPID
  5
4DD
100
AcDbSymbolTableRecord
100
AcDbRegAppTableRecord
  2
ACAD
 70
     0
  0
ENDTAB
  0
TABLE
  2
DIMSTYLE
  5
4DE
100
AcDbSymbolTable
 70
     0
  0
ENDTAB
  0
TABLE
  2
BLOCK_RECORD
  5
4DF
100
AcDbSymbolTable
 70
     0
  0
BLOCK_RECORD
  5
4E0
100
AcDbSymbolTableRecord
100
AcDbBlockTableRecord
  2
*MODEL_SPACE
  0
BLOCK_RECORD
  5
4E1
100
AcDbSymbolTableRecord
100
AcDbBlockTableRecord
  2
*PAPER_SPACE
  0
BLOCK_RECORD
  5
4E2
100
AcDbSymbolTableRecord
100
AcDbBlockTableRecord
  2
CDWK_EXTR_0
  0
BLOCK_RECORD
  5
4E3
100
AcDbSymbolTableRecord
100
AcDbBlockTableRecord
  2
CDWK_EXTR_1D
  0
BLOCK_RECORD
  5
4E4
100
AcDbSymbolTableRecord
100
AcDbBlockTableRecord
  2
CDWK_EXTR_1G
  0
BLOCK_RECORD
  5
4E5
100
AcDbSymbolTableRecord
100
AcDbBlockTableRecord
  2
CDWK_EXTR_2
  0
BLOCK_RECORD
  5
4E6
100
AcDbSymbolTableRecord
100
AcDbBlockTableRecord
  2
CDWK_EXTR_3
  0
BLOCK_RECORD
  5
4E7
100
AcDbSymbolTableRecord
100
AcDbBlockTableRecord
  2
CDWK_EXTR_4
  0
BLOCK_RECORD
  5
4E8
100
AcDbSymbolTableRecord
100
AcDbBlockTableRecord
  2
CDWK_PTTYP0
  0
BLOCK_RECORD
  5
4E9
100
AcDbSymbolTableRecord
100
AcDbBlockTableRecord
  2
CDWK_PTTYP1
  0
BLOCK_RECORD
  5
4EA
100
AcDbSymbolTableRecord
100
AcDbBlockTableRecord
  2
CDWK_PTTYP2
  0
BLOCK_RECORD
  5
4EB
100
AcDbSymbolTableRecord
100
AcDbBlockTableRecord
  2
CDWK_PTTYP3
  0
BLOCK_RECORD
  5
4EC
100
AcDbSymbolTableRecord
100
AcDbBlockTableRecord
  2
CDWK_PTTYP4
  0
BLOCK_RECORD
  5
4ED
100
AcDbSymbolTableRecord
100
AcDbBlockTableRecord
  2
CDWK_PTTYP5
  0
BLOCK_RECORD
  5
4EE
100
AcDbSymbolTableRecord
100
AcDbBlockTableRecord
  2
CDWK_PTTYP6
  0
BLOCK_RECORD
  5
4EF
100
AcDbSymbolTableRecord
100
AcDbBlockTableRecord
  2
CDWK_PTTYP7
  0
BLOCK_RECORD
  5
4F0
100
AcDbSymbolTableRecord
100
AcDbBlockTableRecord
  2
CDWK_PTTYP8
  0
BLOCK_RECORD
  5
4F1
100
AcDbSymbolTableRecord
100
AcDbBlockTableRecord
  2
CDWK_PTTYP9
  0
BLOCK_RECORD
  5
4F2
100
AcDbSymbolTableRecord
100
AcDbBlockTableRecord
  2
CDWK_PTTYP10
  0
BLOCK_RECORD
  5
4F3
100
AcDbSymbolTableRecord
100
AcDbBlockTableRecord
  2
CDWK_PTTYP11
  0
BLOCK_RECORD
  5
4F4
100
AcDbSymbolTableRecord
100
AcDbBlockTableRecord
  2
CDWK_PTTYP12
  0
BLOCK_RECORD
  5
4F5
100
AcDbSymbolTableRecord
100
AcDbBlockTableRecord
  2
CDWK_PTTYP13
  0
BLOCK_RECORD
  5
4F6
100
AcDbSymbolTableRecord
100
AcDbBlockTableRecord
  2
CDWK_PTTYP14
  0
BLOCK_RECORD
  5
4F7
100
AcDbSymbolTableRecord
100
AcDbBlockTableRecord
  2
CDWK_PTTYP15
  0
BLOCK_RECORD
  5
4F8
100
AcDbSymbolTableRecord
100
AcDbBlockTableRecord
  2
CDWK_PTTYP16
  0
BLOCK_RECORD
  5
4F9
100
AcDbSymbolTableRecord
100
AcDbBlockTableRecord
  2
CDWK_PTTYP17
  0
BLOCK_RECORD
  5
4FA
100
AcDbSymbolTableRecord
100
AcDbBlockTableRecord
  2
CDWK_PTTYP18
  0
BLOCK_RECORD
  5
4FB
100
AcDbSymbolTableRecord
100
AcDbBlockTableRecord
  2
CDWK_PTTYP19
  0
BLOCK_RECORD
  5
4FC
100
AcDbSymbolTableRecord
100
AcDbBlockTableRecord
  2
CDWK_PTTYP20
  0
BLOCK_RECORD
  5
4FD
100
AcDbSymbolTableRecord
100
AcDbBlockTableRecord
  2
CDWK_PTTYP21
  0
BLOCK_RECORD
  5
4FE
100
AcDbSymbolTableRecord
100
AcDbBlockTableRecord
  2
CDWK_PTTYP22
  0
BLOCK_RECORD
  5
4FF
100
AcDbSymbolTableRecord
100
AcDbBlockTableRecord
  2
CDWK_PTTYP23
  0
BLOCK_RECORD
  5
500
100
AcDbSymbolTableRecord
100
AcDbBlockTableRecord
  2
CDWK_PTTYP24
  0
BLOCK_RECORD
  5
501
100
AcDbSymbolTableRecord
100
AcDbBlockTableRecord
  2
CDWK_PTTYP25
  0
BLOCK_RECORD
  5
502
100
AcDbSymbolTableRecord
100
AcDbBlockTableRecord
  2
CDWK_PTTYP26
  0
BLOCK_RECORD
  5
503
100
AcDbSymbolTableRecord
100
AcDbBlockTableRecord
  2
CDWK_PTTYP27
  0
BLOCK_RECORD
  5
504
100
AcDbSymbolTableRecord
100
AcDbBlockTableRecord
  2
CDWK_PTTYP28
  0
BLOCK_RECORD
  5
505
100
AcDbSymbolTableRecord
100
AcDbBlockTableRecord
  2
CDWK_PTTYP29
  0
BLOCK_RECORD
  5
506
100
AcDbSymbolTableRecord
100
AcDbBlockTableRecord
  2
CDWK_PTTYP30
  0
BLOCK_RECORD
  5
507
100
AcDbSymbolTableRecord
100
AcDbBlockTableRecord
  2
CDWK_PTTYP31
  0
BLOCK_RECORD
  5
508
100
AcDbSymbolTableRecord
100
AcDbBlockTableRecord
  2
CDWK_PTTYP32
  0
BLOCK_RECORD
  5
509
100
AcDbSymbolTableRecord
100
AcDbBlockTableRecord
  2
CDWK_PTTYP33
  0
BLOCK_RECORD
  5
50A
100
AcDbSymbolTableRecord
100
AcDbBlockTableRecord
  2
CDWK_PTTYP34
  0
BLOCK_RECORD
  5
50B
100
AcDbSymbolTableRecord
100
AcDbBlockTableRecord
  2
CDWK_PTTYP35
  0
BLOCK_RECORD
  5
50C
100
AcDbSymbolTableRecord
100
AcDbBlockTableRecord
  2
CDWK_PTTYP36
  0
BLOCK_RECORD
  5
50D
100
AcDbSymbolTableRecord
100
AcDbBlockTableRecord
  2
CDWK_PTTYP37
  0
BLOCK_RECORD
  5
50E
100
AcDbSymbolTableRecord
100
AcDbBlockTableRecord
  2
CDWK_PTTYP38
  0
ENDTAB
  0
ENDSEC
  0
SECTION
  2
BLOCKS
  0
BLOCK
  5
50F
100
AcDbEntity
  8
0
100
AcDbBlockBegin
  2
*MODEL_SPACE
 70
     0
 10
0.0
 20
0.0
 30
0.0
  3
*MODEL_SPACE
  1

  0
ENDBLK
  5
510
100
AcDbEntity
100
AcDbBlockEnd
  0
BLOCK
  5
511
100
AcDbEntity
  8
0
100
AcDbBlockBegin
  2
*PAPER_SPACE
 70
     0
 10
0.0
 20
0.0
 30
0.0
  3
*PAPER_SPACE
  1

  0
ENDBLK
  5
512
100
AcDbEntity
100
AcDbBlockEnd
  0
BLOCK
  5
513
100
AcDbEntity
  8
0
100
AcDbBlockBegin
  2
CDWK_EXTR_0
 70
     0
 10
0.0
 20
0.0
 30
0.0
  3
CDWK_EXTR_0
  1

  4
Cadwork line-extremity
  0
LINE
  5
514
100
AcDbEntity
  8
0
 62
     0
370
    -2
100
AcDbLine
 10
0.0
 20
0.0
 30
0.0
 11
2.0
 21
0.5
 31
0.0
  0
LINE
  5
515
100
AcDbEntity
  8
0
 62
     0
370
    -2
100
AcDbLine
 10
0.0
 20
0.0
 30
0.0
 11
2.0
 21
-0.5
 31
0.0
  0
LINE
  5
516
100
AcDbEntity
  8
0
 62
     0
370
    -2
100
AcDbLine
 10
2.0
 20
0.5
 30
0.0
 11
2.0
 21
-0.5
 31
0.0
  0
ENDBLK
  5
517
100
AcDbEntity
100
AcDbBlockEnd
  0
BLOCK
  5
518
100
AcDbEntity
  8
0
100
AcDbBlockBegin
  2
CDWK_EXTR_1D
 70
     0
 10
0.0
 20
0.0
 30
0.0
  3
CDWK_EXTR_1D
  1

  4
Cadwork line-extremity
  0
LINE
  5
519
100
AcDbEntity
  8
0
 62
     0
370
    -2
100
AcDbLine
 10
0.0
 20
0.0
 30
0.0
 11
0.0
 21
1.0
 31
0.0
  0
LINE
  5
51A
100
AcDbEntity
  8
0
 62
     0
370
    -2
100
AcDbLine
 10
0.0
 20
1.0
 30
0.0
 11
0.5
 21
1.5
 31
0.0
  0
LINE
  5
51B
100
AcDbEntity
  8
0
 62
     0
370
    -2
100
AcDbLine
 10
0.5
 20
1.5
 30
0.0
 11
1.5
 21
1.5
 31
0.0
  0
ENDBLK
  5
51C
100
AcDbEntity
100
AcDbBlockEnd
  0
BLOCK
  5
51D
100
AcDbEntity
  8
0
100
AcDbBlockBegin
  2
CDWK_EXTR_1G
 70
     0
 10
0.0
 20
0.0
 30
0.0
  3
CDWK_EXTR_1G
  1

  4
Cadwork line-extremity
  0
LINE
  5
51E
100
AcDbEntity
  8
0
 62
     0
370
    -2
100
AcDbLine
 10
0.0
 20
0.0
 30
0.0
 11
0.0
 21
-1.0
 31
0.0
  0
LINE
  5
51F
100
AcDbEntity
  8
0
 62
     0
370
    -2
100
AcDbLine
 10
0.0
 20
-1.0
 30
0.0
 11
0.5
 21
-1.5
 31
0.0
  0
LINE
  5
520
100
AcDbEntity
  8
0
 62
     0
370
    -2
100
AcDbLine
 10
0.5
 20
-1.5
 30
0.0
 11
1.5
 21
-1.5
 31
0.0
  0
ENDBLK
  5
521
100
AcDbEntity
100
AcDbBlockEnd
  0
BLOCK
  5
522
100
AcDbEntity
  8
0
100
AcDbBlockBegin
  2
CDWK_EXTR_2
 70
     0
 10
0.0
 20
0.0
 30
0.0
  3
CDWK_EXTR_2
  1

  4
Cadwork line-extremity
  0
SOLID
  5
523
100
AcDbEntity
  8
0
 62
     0
100
AcDbTrace
 10
0.0
 20
0.0
 11
2.0
 21
0.5
 12
2.0
 22
-0.5
 13
2.0
 23
-0.5
  0
ENDBLK
  5
524
100
AcDbEntity
100
AcDbBlockEnd
  0
BLOCK
  5
525
100
AcDbEntity
  8
0
100
AcDbBlockBegin
  2
CDWK_EXTR_3
 70
     0
 10
0.0
 20
0.0
 30
0.0
  3
CDWK_EXTR_3
  1

  4
Cadwork line-extremity
  0
SOLID
  5
526
100
AcDbEntity
  8
0
 62
     0
100
AcDbTrace
 10
0.0
 20
0.0
 11
2.0
 21
0.5
 12
2.0
 22
-0.5
 13
2.0
 23
-0.5
  0
LINE
  5
527
100
AcDbEntity
  8
0
 62
     0
370
    -2
100
AcDbLine
 10
0.0
 20
1.0
 30
0.0
 11
0.0
 21
-1.0
 31
0.0
  0
ENDBLK
  5
528
100
AcDbEntity
100
AcDbBlockEnd
  0
BLOCK
  5
529
100
AcDbEntity
  8
0
100
AcDbBlockBegin
  2
CDWK_EXTR_4
 70
     0
 10
0.0
 20
0.0
 30
0.0
  3
CDWK_EXTR_4
  1

  4
Cadwork line-extremity
  0
HATCH
  5
52A
100
AcDbEntity
  8
0
 62
     0
370
    -2
100
AcDbHatch
 10
0.0
 20
0.0
 30
0.0
210
0.0
220
0.0
230
1.0
  2
SOLID
 70
     1
 71
     0
 91
        1
 92
        1
 93
        1
 72
     2
 10
0.0
 20
0.0
 40
0.5
 50
0.0
 51
360.0
 73
     1
 97
        0
 75
     0
 76
     1
 98
        1
 10
0.0
 20
0.0
  0
ENDBLK
  5
52B
100
AcDbEntity
100
AcDbBlockEnd
  0
BLOCK
  5
52C
100
AcDbEntity
  8
0
100
AcDbBlockBegin
  2
CDWK_PTTYP0
 70
     0
 10
0.0
 20
0.0
 30
0.0
  3
CDWK_PTTYP0
  1

  4
Cadwork point
  0
POINT
  5
52D
100
AcDbEntity
  8
0
 62
     0
100
AcDbPoint
 10
0.0
 20
0.0
 30
0.0
  0
ENDBLK
  5
52E
100
AcDbEntity
100
AcDbBlockEnd
  0
BLOCK
  5
52F
100
AcDbEntity
  8
0
100
AcDbBlockBegin
  2
CDWK_PTTYP1
 70
     0
 10
0.0
 20
0.0
 30
0.0
  3
CDWK_PTTYP1
  1

  4
Cadwork node
  0
LINE
  5
530
100
AcDbEntity
  8
0
 62
     0
370
    -2
100
AcDbLine
 10
-0.5
 20
0.5
 30
0.0
 11
0.5
 21
0.5
 31
0.0
  0
LINE
  5
531
100
AcDbEntity
  8
0
 62
     0
370
    -2
100
AcDbLine
 10
0.5
 20
0.5
 30
0.0
 11
0.5
 21
-0.5
 31
0.0
  0
LINE
  5
532
100
AcDbEntity
  8
0
 62
     0
370
    -2
100
AcDbLine
 10
0.5
 20
-0.5
 30
0.0
 11
-0.5
 21
-0.5
 31
0.0
  0
LINE
  5
533
100
AcDbEntity
  8
0
 62
     0
370
    -2
100
AcDbLine
 10
-0.5
 20
-0.5
 30
0.0
 11
-0.5
 21
0.5
 31
0.0
  0
ENDBLK
  5
534
100
AcDbEntity
100
AcDbBlockEnd
  0
BLOCK
  5
535
100
AcDbEntity
  8
0
100
AcDbBlockBegin
  2
CDWK_PTTYP2
 70
     0
 10
0.0
 20
0.0
 30
0.0
  3
CDWK_PTTYP2
  1

  4
Cadwork node
  0
LINE
  5
536
100
AcDbEntity
  8
0
 62
     0
370
    -2
100
AcDbLine
 10
0.0
 20
0.5
 30
0.0
 11
0.0
 21
-0.5
 31
0.0
  0
LINE
  5
537
100
AcDbEntity
  8
0
 62
     0
370
    -2
100
AcDbLine
 10
-0.5
 20
0.0
 30
0.0
 11
0.5
 21
0.0
 31
0.0
  0
ENDBLK
  5
538
100
AcDbEntity
100
AcDbBlockEnd
  0
BLOCK
  5
539
100
AcDbEntity
  8
0
100
AcDbBlockBegin
  2
CDWK_PTTYP3
 70
     0
 10
0.0
 20
0.0
 30
0.0
  3
CDWK_PTTYP3
  1

  4
Cadwork node
  0
CIRCLE
  5
53A
100
AcDbEntity
  8
0
 62
     0
370
    -2
100
AcDbCircle
 10
0.0
 20
0.0
 30
0.0
 40
0.5
  0
ENDBLK
  5
53B
100
AcDbEntity
100
AcDbBlockEnd
  0
BLOCK
  5
53C
100
AcDbEntity
  8
0
100
AcDbBlockBegin
  2
CDWK_PTTYP4
 70
     0
 10
0.0
 20
0.0
 30
0.0
  3
CDWK_PTTYP4
  1

  4
Cadwork node
  0
HATCH
  5
53D
100
AcDbEntity
  8
0
 62
     0
370
    -2
100
AcDbHatch
 10
0.0
 20
0.0
 30
0.0
210
0.0
220
0.0
230
1.0
  2
SOLID
 70
     1
 71
     0
 91
        1
 92
        1
 93
        1
 72
     2
 10
0.0
 20
0.0
 40
0.5
 50
0.0
 51
360.0
 73
     1
 97
        0
 75
     0
 76
     1
 98
        1
 10
0.0
 20
0.0
  0
ENDBLK
  5
53E
100
AcDbEntity
100
AcDbBlockEnd
  0
BLOCK
  5
53F
100
AcDbEntity
  8
0
100
AcDbBlockBegin
  2
CDWK_PTTYP5
 70
     0
 10
0.0
 20
0.0
 30
0.0
  3
CDWK_PTTYP5
  1

  4
Cadwork node
  0
LINE
  5
540
100
AcDbEntity
  8
0
 62
     0
370
    -2
100
AcDbLine
 10
-0.5
 20
0.5
 30
0.0
 11
0.5
 21
0.5
 31
0.0
  0
LINE
  5
541
100
AcDbEntity
  8
0
 62
     0
370
    -2
100
AcDbLine
 10
0.5
 20
0.5
 30
0.0
 11
0.5
 21
-0.5
 31
0.0
  0
LINE
  5
542
100
AcDbEntity
  8
0
 62
     0
370
    -2
100
AcDbLine
 10
0.5
 20
-0.5
 30
0.0
 11
-0.5
 21
-0.5
 31
0.0
  0
LINE
  5
543
100
AcDbEntity
  8
0
 62
     0
370
    -2
100
AcDbLine
 10
-0.5
 20
-0.5
 30
0.0
 11
-0.5
 21
0.5
 31
0.0
  0
SOLID
  5
544
100
AcDbEntity
  8
0
 62
     0
100
AcDbTrace
 10
-0.5
 20
-0.5
 11
-0.5
 21
0.0
 12
0.0
 22
-0.5
 13
0.0
 23
0.0
  0
SOLID
  5
545
100
AcDbEntity
  8
0
 62
     0
100
AcDbTrace
 10
0.0
 20
0.0
 11
0.0
 21
0.5
 12
0.5
 22
0.0
 13
0.5
 23
0.5
  0
ENDBLK
  5
546
100
AcDbEntity
100
AcDbBlockEnd
  0
BLOCK
  5
547
100
AcDbEntity
  8
0
100
AcDbBlockBegin
  2
CDWK_PTTYP6
 70
     0
 10
0.0
 20
0.0
 30
0.0
  3
CDWK_PTTYP6
  1

  4
Cadwork node
  0
LINE
  5
548
100
AcDbEntity
  8
0
 62
     0
370
    -2
100
AcDbLine
 10
-0.5
 20
0.5
 30
0.0
 11
0.5
 21
0.5
 31
0.0
  0
LINE
  5
549
100
AcDbEntity
  8
0
 62
     0
370
    -2
100
AcDbLine
 10
0.5
 20
0.5
 30
0.0
 11
0.5
 21
-0.5
 31
0.0
  0
LINE
  5
54A
100
AcDbEntity
  8
0
 62
     0
370
    -2
100
AcDbLine
 10
0.5
 20
-0.5
 30
0.0
 11
-0.5
 21
-0.5
 31
0.0
  0
LINE
  5
54B
100
AcDbEntity
  8
0
 62
     0
370
    -2
100
AcDbLine
 10
-0.5
 20
-0.5
 30
0.0
 11
-0.5
 21
0.5
 31
0.0
  0
SOLID
  5
54C
100
AcDbEntity
  8
0
 62
     0
100
AcDbTrace
 10
-0.5
 20
-0.5
 11
-0.5
 21
0.5
 12
0.5
 22
0.5
 13
0.5
 23
0.5
  0
ENDBLK
  5
54D
100
AcDbEntity
100
AcDbBlockEnd
  0
BLOCK
  5
54E
100
AcDbEntity
  8
0
100
AcDbBlockBegin
  2
CDWK_PTTYP7
 70
     0
 10
0.0
 20
0.0
 30
0.0
  3
CDWK_PTTYP7
  1

  4
Cadwork node
  0
LINE
  5
54F
100
AcDbEntity
  8
0
 62
     0
370
    -2
100
AcDbLine
 10
-0.5
 20
0.5
 30
0.0
 11
0.5
 21
0.5
 31
0.0
  0
LINE
  5
550
100
AcDbEntity
  8
0
 62
     0
370
    -2
100
AcDbLine
 10
0.5
 20
0.5
 30
0.0
 11
0.5
 21
-0.5
 31
0.0
  0
LINE
  5
551
100
AcDbEntity
  8
0
 62
     0
370
    -2
100
AcDbLine
 10
0.5
 20
-0.5
 30
0.0
 11
-0.5
 21
-0.5
 31
0.0
  0
LINE
  5
552
100
AcDbEntity
  8
0
 62
     0
370
    -2
100
AcDbLine
 10
-0.5
 20
-0.5
 30
0.0
 11
-0.5
 21
0.5
 31
0.0
  0
LINE
  5
553
100
AcDbEntity
  8
0
 62
     0
370
    -2
100
AcDbLine
 10
0.0
 20
0.5
 30
0.0
 11
0.0
 21
-0.5
 31
0.0
  0
LINE
  5
554
100
AcDbEntity
  8
0
 62
     0
370
    -2
100
AcDbLine
 10
-0.5
 20
0.0
 30
0.0
 11
0.5
 21
0.0
 31
0.0
  0
ENDBLK
  5
555
100
AcDbEntity
100
AcDbBlockEnd
  0
BLOCK
  5
556
100
AcDbEntity
  8
0
100
AcDbBlockBegin
  2
CDWK_PTTYP8
 70
     0
 10
0.0
 20
0.0
 30
0.0
  3
CDWK_PTTYP8
  1

  4
Cadwork node
  0
SOLID
  5
557
100
AcDbEntity
  8
0
 62
     0
100
AcDbTrace
 10
-0.5
 20
0.5
 11
0.5
 21
0.5
 12
-0.5
 22
-0.5
 13
0.5
 23
-0.5
  0
ENDBLK
  5
558
100
AcDbEntity
100
AcDbBlockEnd
  0
BLOCK
  5
559
100
AcDbEntity
  8
0
100
AcDbBlockBegin
  2
CDWK_PTTYP9
 70
     0
 10
0.0
 20
0.0
 30
0.0
  3
CDWK_PTTYP9
  1

  4
Cadwork node
  0
CIRCLE
  5
55A
100
AcDbEntity
  8
0
 62
     0
370
    -2
100
AcDbCircle
 10
0.0
 20
0.0
 30
0.0
 40
0.5
  0
CIRCLE
  5
55B
100
AcDbEntity
  8
0
 62
     0
370
    -2
100
AcDbCircle
 10
0.0
 20
0.0
 30
0.0
 40
0.16666667
  0
ENDBLK
  5
55C
100
AcDbEntity
100
AcDbBlockEnd
  0
BLOCK
  5
55D
100
AcDbEntity
  8
0
100
AcDbBlockBegin
  2
CDWK_PTTYP10
 70
     0
 10
0.0
 20
0.0
 30
0.0
  3
CDWK_PTTYP10
  1

  4
Cadwork node
  0
CIRCLE
  5
55E
100
AcDbEntity
  8
0
 62
     0
370
    -2
100
AcDbCircle
 10
0.0
 20
0.0
 30
0.0
 40
0.5
  0
ENDBLK
  5
55F
100
AcDbEntity
100
AcDbBlockEnd
  0
BLOCK
  5
560
100
AcDbEntity
  8
0
100
AcDbBlockBegin
  2
CDWK_PTTYP11
 70
     0
 10
0.0
 20
0.0
 30
0.0
  3
CDWK_PTTYP11
  1

  4
Cadwork node
  0
CIRCLE
  5
561
100
AcDbEntity
  8
0
 62
     0
370
    -2
100
AcDbCircle
 10
0.0
 20
0.0
 30
0.0
 40
0.5
  0
CIRCLE
  5
562
100
AcDbEntity
  8
0
 62
     0
370
    -2
100
AcDbCircle
 10
0.0
 20
0.0
 30
0.0
 40
0.25
  0
ENDBLK
  5
563
100
AcDbEntity
100
AcDbBlockEnd
  0
BLOCK
  5
564
100
AcDbEntity
  8
0
100
AcDbBlockBegin
  2
CDWK_PTTYP12
 70
     0
 10
0.0
 20
0.0
 30
0.0
  3
CDWK_PTTYP12
  1

  4
Cadwork node
  0
CIRCLE
  5
565
100
AcDbEntity
  8
0
 62
     0
370
    -2
100
AcDbCircle
 10
0.0
 20
0.0
 30
0.0
 40
0.5
  0
CIRCLE
  5
566
100
AcDbEntity
  8
0
 62
     0
370
    -2
100
AcDbCircle
 10
0.25
 20
0.0
 30
0.0
 40
0.25
  0
ENDBLK
  5
567
100
AcDbEntity
100
AcDbBlockEnd
  0
BLOCK
  5
568
100
AcDbEntity
  8
0
100
AcDbBlockBegin
  2
CDWK_PTTYP13
 70
     0
 10
0.0
 20
0.0
 30
0.0
  3
CDWK_PTTYP13
  1

  4
Cadwork node
  0
CIRCLE
  5
569
100
AcDbEntity
  8
0
 62
     0
370
    -2
100
AcDbCircle
 10
0.0
 20
0.0
 30
0.0
 40
0.5
  0
CIRCLE
  5
56A
100
AcDbEntity
  8
0
 62
     0
370
    -2
100
AcDbCircle
 10
0.25
 20
0.0
 30
0.0
 40
0.25
  0
CIRCLE
  5
56B
100
AcDbEntity
  8
0
 62
     0
370
    -2
100
AcDbCircle
 10
-0.25
 20
0.0
 30
0.0
 40
0.25
  0
ENDBLK
  5
56C
100
AcDbEntity
100
AcDbBlockEnd
  0
BLOCK
  5
56D
100
AcDbEntity
  8
0
100
AcDbBlockBegin
  2
CDWK_PTTYP14
 70
     0
 10
0.0
 20
0.0
 30
0.0
  3
CDWK_PTTYP14
  1

  4
Cadwork node
  0
POINT
  5
56E
100
AcDbEntity
  8
0
 62
     0
100
AcDbPoint
 10
0.0
 20
0.0
 30
0.0
  0
ENDBLK
  5
56F
100
AcDbEntity
100
AcDbBlockEnd
  0
BLOCK
  5
570
100
AcDbEntity
  8
0
100
AcDbBlockBegin
  2
CDWK_PTTYP15
 70
     0
 10
0.0
 20
0.0
 30
0.0
  3
CDWK_PTTYP15
  1

  4
Cadwork node
  0
POINT
  5
571
100
AcDbEntity
  8
0
 62
     0
100
AcDbPoint
 10
0.0
 20
0.0
 30
0.0
  0
ENDBLK
  5
572
100
AcDbEntity
100
AcDbBlockEnd
  0
BLOCK
  5
573
100
AcDbEntity
  8
0
100
AcDbBlockBegin
  2
CDWK_PTTYP16
 70
     0
 10
0.0
 20
0.0
 30
0.0
  3
CDWK_PTTYP16
  1

  4
Cadwork node
  0
LINE
  5
574
100
AcDbEntity
  8
0
 62
     0
370
    -2
100
AcDbLine
 10
-0.5
 20
-0.28867513
 30
0.0
 11
0.5
 21
-0.28867513
 31
0.0
  0
LINE
  5
575
100
AcDbEntity
  8
0
 62
     0
370
    -2
100
AcDbLine
 10
0.5
 20
-0.28867513
 30
0.0
 11
0.0
 21
0.57735027
 31
0.0
  0
LINE
  5
576
100
AcDbEntity
  8
0
 62
     0
370
    -2
100
AcDbLine
 10
0.0
 20
0.57735027
 30
0.0
 11
-0.5
 21
-0.28867513
 31
0.0
  0
CIRCLE
  5
577
100
AcDbEntity
  8
0
 62
     0
370
    -2
100
AcDbCircle
 10
0.0
 20
0.0
 30
0.0
 40
0.28867513
  0
ENDBLK
  5
578
100
AcDbEntity
100
AcDbBlockEnd
  0
BLOCK
  5
579
100
AcDbEntity
  8
0
100
AcDbBlockBegin
  2
CDWK_PTTYP17
 70
     0
 10
0.0
 20
0.0
 30
0.0
  3
CDWK_PTTYP17
  1

  4
Cadwork node
  0
CIRCLE
  5
57A
100
AcDbEntity
  8
0
 62
     0
370
    -2
100
AcDbCircle
 10
0.0
 20
0.0
 30
0.0
 40
0.5
  0
HATCH
  5
57B
100
AcDbEntity
  8
0
 62
     0
370
    -2
100
AcDbHatch
 10
0.0
 20
0.0
 30
0.0
210
0.0
220
0.0
230
1.0
  2
SOLID
 70
     1
 71
     0
 91
        1
 92
        1
 93
        1
 72
     2
 10
0.0
 20
0.0
 40
0.25
 50
0.0
 51
360.0
 73
     1
 97
        0
 75
     0
 76
     1
 98
        1
 10
0.0
 20
0.0
  0
ENDBLK
  5
57C
100
AcDbEntity
100
AcDbBlockEnd
  0
BLOCK
  5
57D
100
AcDbEntity
  8
0
100
AcDbBlockBegin
  2
CDWK_PTTYP18
 70
     0
 10
0.0
 20
0.0
 30
0.0
  3
CDWK_PTTYP18
  1

  4
Cadwork node
  0
CIRCLE
  5
57E
100
AcDbEntity
  8
0
 62
     0
370
    -2
100
AcDbCircle
 10
0.0
 20
0.0
 30
0.0
 40
0.5
  0
CIRCLE
  5
57F
100
AcDbEntity
  8
0
 62
     0
370
    -2
100
AcDbCircle
 10
0.0
 20
0.0
 30
0.0
 40
0.2
  0
ENDBLK
  5
580
100
AcDbEntity
100
AcDbBlockEnd
  0
BLOCK
  5
581
100
AcDbEntity
  8
0
100
AcDbBlockBegin
  2
CDWK_PTTYP19
 70
     0
 10
0.0
 20
0.0
 30
0.0
  3
CDWK_PTTYP19
  1

  4
Cadwork node
  0
CIRCLE
  5
582
100
AcDbEntity
  8
0
 62
     0
370
    -2
100
AcDbCircle
 10
0.0
 20
0.0
 30
0.0
 40
0.4
  0
CIRCLE
  5
583
100
AcDbEntity
  8
0
 62
     0
370
    -2
100
AcDbCircle
 10
0.0
 20
0.0
 30
0.0
 40
0.25
  0
LINE
  5
584
100
AcDbEntity
  8
0
 62
     0
370
    -2
100
AcDbLine
 10
-0.25
 20
0.0
 30
0.0
 11
0.25
 21
0.0
 31
0.0
  0
ENDBLK
  5
585
100
AcDbEntity
100
AcDbBlockEnd
  0
BLOCK
  5
586
100
AcDbEntity
  8
0
100
AcDbBlockBegin
  2
CDWK_PTTYP20
 70
     0
 10
0.0
 20
0.0
 30
0.0
  3
CDWK_PTTYP20
  1

  4
Cadwork node
  0
CIRCLE
  5
587
100
AcDbEntity
  8
0
 62
     0
370
    -2
100
AcDbCircle
 10
0.0
 20
0.0
 30
0.0
 40
0.5
  0
CIRCLE
  5
588
100
AcDbEntity
  8
0
 62
     0
370
    -2
100
AcDbCircle
 10
0.0
 20
0.0
 30
0.0
 40
0.3
  0
ENDBLK
  5
589
100
AcDbEntity
100
AcDbBlockEnd
  0
BLOCK
  5
58A
100
AcDbEntity
  8
0
100
AcDbBlockBegin
  2
CDWK_PTTYP21
 70
     0
 10
0.0
 20
0.0
 30
0.0
  3
CDWK_PTTYP21
  1

  4
Cadwork node
  0
CIRCLE
  5
58B
100
AcDbEntity
  8
0
 62
     0
370
    -2
100
AcDbCircle
 10
0.0
 20
0.0
 30
0.0
 40
0.5
  0
LINE
  5
58C
100
AcDbEntity
  8
0
 62
     0
370
    -2
100
AcDbLine
 10
-0.5
 20
0.0
 30
0.0
 11
0.5
 21
0.0
 31
0.0
  0
ENDBLK
  5
58D
100
AcDbEntity
100
AcDbBlockEnd
  0
BLOCK
  5
58E
100
AcDbEntity
  8
0
100
AcDbBlockBegin
  2
CDWK_PTTYP22
 70
     0
 10
0.0
 20
0.0
 30
0.0
  3
CDWK_PTTYP22
  1

  4
Cadwork node
  0
POINT
  5
58F
100
AcDbEntity
  8
0
 62
     0
100
AcDbPoint
 10
0.0
 20
0.0
 30
0.0
  0
ENDBLK
  5
590
100
AcDbEntity
100
AcDbBlockEnd
  0
BLOCK
  5
591
100
AcDbEntity
  8
0
100
AcDbBlockBegin
  2
CDWK_PTTYP23
 70
     0
 10
0.0
 20
0.0
 30
0.0
  3
CDWK_PTTYP23
  1

  4
Cadwork node
  0
POINT
  5
592
100
AcDbEntity
  8
0
 62
     0
100
AcDbPoint
 10
0.0
 20
0.0
 30
0.0
  0
ENDBLK
  5
593
100
AcDbEntity
100
AcDbBlockEnd
  0
BLOCK
  5
594
100
AcDbEntity
  8
0
100
AcDbBlockBegin
  2
CDWK_PTTYP24
 70
     0
 10
0.0
 20
0.0
 30
0.0
  3
CDWK_PTTYP24
  1

  4
Cadwork node
  0
POINT
  5
595
100
AcDbEntity
  8
0
 62
     0
100
AcDbPoint
 10
0.0
 20
0.0
 30
0.0
  0
ENDBLK
  5
596
100
AcDbEntity
100
AcDbBlockEnd
  0
BLOCK
  5
597
100
AcDbEntity
  8
0
100
AcDbBlockBegin
  2
CDWK_PTTYP25
 70
     0
 10
0.0
 20
0.0
 30
0.0
  3
CDWK_PTTYP25
  1

  4
Cadwork node
  0
LINE
  5
598
100
AcDbEntity
  8
0
 62
     0
370
    -2
100
AcDbLine
 10
-0.43290044
 20
-0.25
 30
0.0
 11
0.43290044
 21
-0.25
 31
0.0
  0
LINE
  5
599
100
AcDbEntity
  8
0
 62
     0
370
    -2
100
AcDbLine
 10
-0.43290044
 20
-0.25
 30
0.0
 11
0.0
 21
0.5
 31
0.0
  0
LINE
  5
59A
100
AcDbEntity
  8
0
 62
     0
370
    -2
100
AcDbLine
 10
0.43290044
 20
-0.25
 30
0.0
 11
0.0
 21
0.5
 31
0.0
  0
CIRCLE
  5
59B
100
AcDbEntity
  8
0
 62
     0
370
    -2
100
AcDbCircle
 10
0.0
 20
0.0
 30
0.0
 40
0.5
  0
ENDBLK
  5
59C
100
AcDbEntity
100
AcDbBlockEnd
  0
BLOCK
  5
59D
100
AcDbEntity
  8
0
100
AcDbBlockBegin
  2
CDWK_PTTYP26
 70
     0
 10
0.0
 20
0.0
 30
0.0
  3
CDWK_PTTYP26
  1

  4
Cadwork node
  0
LINE
  5
59E
100
AcDbEntity
  8
0
 62
     0
370
    -2
100
AcDbLine
 10
-0.5
 20
-0.28850001
 30
0.0
 11
0.5
 21
-0.28850001
 31
0.0
  0
LINE
  5
59F
100
AcDbEntity
  8
0
 62
     0
370
    -2
100
AcDbLine
 10
-0.5
 20
-0.28850001
 30
0.0
 11
0.0
 21
0.57736721
 31
0.0
  0
LINE
  5
5A0
100
AcDbEntity
  8
0
 62
     0
370
    -2
100
AcDbLine
 10
0.5
 20
-0.28850001
 30
0.0
 11
0.0
 21
0.57736721
 31
0.0
  0
CIRCLE
  5
5A1
100
AcDbEntity
  8
0
 62
     0
370
    -2
100
AcDbCircle
 10
0.0
 20
0.0
 30
0.0
 40
0.1312336
  0
ENDBLK
  5
5A2
100
AcDbEntity
100
AcDbBlockEnd
  0
BLOCK
  5
5A3
100
AcDbEntity
  8
0
100
AcDbBlockBegin
  2
CDWK_PTTYP27
 70
     0
 10
0.0
 20
0.0
 30
0.0
  3
CDWK_PTTYP27
  1

  4
Cadwork node
  0
LINE
  5
5A4
100
AcDbEntity
  8
0
 62
     0
370
    -2
100
AcDbLine
 10
-0.43290044
 20
-0.25
 30
0.0
 11
0.43290044
 21
-0.25
 31
0.0
  0
LINE
  5
5A5
100
AcDbEntity
  8
0
 62
     0
370
    -2
100
AcDbLine
 10
-0.43290044
 20
-0.25
 30
0.0
 11
0.0
 21
0.5
 31
0.0
  0
LINE
  5
5A6
100
AcDbEntity
  8
0
 62
     0
370
    -2
100
AcDbLine
 10
0.43290044
 20
-0.25
 30
0.0
 11
0.0
 21
0.5
 31
0.0
  0
CIRCLE
  5
5A7
100
AcDbEntity
  8
0
 62
     0
370
    -2
100
AcDbCircle
 10
0.0
 20
0.0
 30
0.0
 40
0.5
  0
CIRCLE
  5
5A8
100
AcDbEntity
  8
0
 62
     0
370
    -2
100
AcDbCircle
 10
0.0
 20
0.0
 30
0.0
 40
0.1312336
  0
ENDBLK
  5
5A9
100
AcDbEntity
100
AcDbBlockEnd
  0
BLOCK
  5
5AA
100
AcDbEntity
  8
0
100
AcDbBlockBegin
  2
CDWK_PTTYP28
 70
     0
 10
0.0
 20
0.0
 30
0.0
  3
CDWK_PTTYP28
  1

  4
Cadwork node
  0
POINT
  5
5AB
100
AcDbEntity
  8
0
 62
     0
100
AcDbPoint
 10
0.0
 20
0.0
 30
0.0
  0
ENDBLK
  5
5AC
100
AcDbEntity
100
AcDbBlockEnd
  0
BLOCK
  5
5AD
100
AcDbEntity
  8
0
100
AcDbBlockBegin
  2
CDWK_PTTYP29
 70
     0
 10
0.0
 20
0.0
 30
0.0
  3
CDWK_PTTYP29
  1

  4
Cadwork node
  0
CIRCLE
  5
5AE
100
AcDbEntity
  8
0
 62
     0
370
    -2
100
AcDbCircle
 10
0.0
 20
0.0
 30
0.0
 40
0.5
  0
CIRCLE
  5
5AF
100
AcDbEntity
  8
0
 62
     0
370
    -2
100
AcDbCircle
 10
0.0
 20
0.0
 30
0.0
 40
0.375
  0
CIRCLE
  5
5B0
100
AcDbEntity
  8
0
 62
     0
370
    -2
100
AcDbCircle
 10
0.0
 20
0.0
 30
0.0
 40
0.21875
  0
ENDBLK
  5
5B1
100
AcDbEntity
100
AcDbBlockEnd
  0
BLOCK
  5
5B2
100
AcDbEntity
  8
0
100
AcDbBlockBegin
  2
CDWK_PTTYP30
 70
     0
 10
0.0
 20
0.0
 30
0.0
  3
CDWK_PTTYP30
  1

  4
Cadwork node
  0
LINE
  5
5B3
100
AcDbEntity
  8
0
 62
     0
370
    -2
100
AcDbLine
 10
0.17680339
 20
0.17680339
 30
0.0
 11
0.5
 21
0.5
 31
0.0
  0
LINE
  5
5B4
100
AcDbEntity
  8
0
 62
     0
370
    -2
100
AcDbLine
 10
-0.17680339
 20
0.17680339
 30
0.0
 11
-0.5
 21
0.5
 31
0.0
  0
LINE
  5
5B5
100
AcDbEntity
  8
0
 62
     0
370
    -2
100
AcDbLine
 10
0.17680339
 20
-0.17680339
 30
0.0
 11
0.5
 21
-0.5
 31
0.0
  0
LINE
  5
5B6
100
AcDbEntity
  8
0
 62
     0
370
    -2
100
AcDbLine
 10
-0.17680339
 20
-0.17680339
 30
0.0
 11
-0.5
 21
-0.5
 31
0.0
  0
ENDBLK
  5
5B7
100
AcDbEntity
100
AcDbBlockEnd
  0
BLOCK
  5
5B8
100
AcDbEntity
  8
0
100
AcDbBlockBegin
  2
CDWK_PTTYP31
 70
     0
 10
0.0
 20
0.0
 30
0.0
  3
CDWK_PTTYP31
  1

  4
Cadwork node
  0
CIRCLE
  5
5B9
100
AcDbEntity
  8
0
 62
     0
370
    -2
100
AcDbCircle
 10
0.0
 20
0.0
 30
0.0
 40
0.075
  0
LINE
  5
5BA
100
AcDbEntity
  8
0
 62
     0
370
    -2
100
AcDbLine
 10
0.075
 20
0.0
 30
0.0
 11
0.5
 21
0.0
 31
0.0
  0
LINE
  5
5BB
100
AcDbEntity
  8
0
 62
     0
370
    -2
100
AcDbLine
 10
-0.075
 20
0.0
 30
0.0
 11
-0.5
 21
0.0
 31
0.0
  0
LINE
  5
5BC
100
AcDbEntity
  8
0
 62
     0
370
    -2
100
AcDbLine
 10
0.0
 20
0.075
 30
0.0
 11
0.0
 21
0.5
 31
0.0
  0
LINE
  5
5BD
100
AcDbEntity
  8
0
 62
     0
370
    -2
100
AcDbLine
 10
0.0
 20
-0.075
 30
0.0
 11
0.0
 21
-0.5
 31
0.0
  0
ENDBLK
  5
5BE
100
AcDbEntity
100
AcDbBlockEnd
  0
BLOCK
  5
5BF
100
AcDbEntity
  8
0
100
AcDbBlockBegin
  2
CDWK_PTTYP32
 70
     0
 10
0.0
 20
0.0
 30
0.0
  3
CDWK_PTTYP32
  1

  4
Cadwork node
  0
CIRCLE
  5
5C0
100
AcDbEntity
  8
0
 62
     0
370
    -2
100
AcDbCircle
 10
0.0
 20
0.0
 30
0.0
 40
0.5
  0
CIRCLE
  5
5C1
100
AcDbEntity
  8
0
 62
     0
370
    -2
100
AcDbCircle
 10
0.0
 20
0.0
 30
0.0
 40
0.16666667
  0
LINE
  5
5C2
100
AcDbEntity
  8
0
 62
     0
370
    -2
100
AcDbLine
 10
0.11786893
 20
0.11786893
 30
0.0
 11
0.35360678
 21
0.35360678
 31
0.0
  0
LINE
  5
5C3
100
AcDbEntity
  8
0
 62
     0
370
    -2
100
AcDbLine
 10
-0.11786893
 20
0.11786893
 30
0.0
 11
-0.35360678
 21
0.35360678
 31
0.0
  0
LINE
  5
5C4
100
AcDbEntity
  8
0
 62
     0
370
    -2
100
AcDbLine
 10
0.11786893
 20
-0.11786893
 30
0.0
 11
0.35360678
 21
-0.35360678
 31
0.0
  0
LINE
  5
5C5
100
AcDbEntity
  8
0
 62
     0
370
    -2
100
AcDbLine
 10
-0.11786893
 20
-0.11786893
 30
0.0
 11
-0.35360678
 21
-0.35360678
 31
0.0
  0
ENDBLK
  5
5C6
100
AcDbEntity
100
AcDbBlockEnd
  0
BLOCK
  5
5C7
100
AcDbEntity
  8
0
100
AcDbBlockBegin
  2
CDWK_PTTYP33
 70
     0
 10
0.0
 20
0.0
 30
0.0
  3
CDWK_PTTYP33
  1

  4
Cadwork node
  0
CIRCLE
  5
5C8
100
AcDbEntity
  8
0
 62
     0
370
    -2
100
AcDbCircle
 10
0.0
 20
0.0
 30
0.0
 40
0.5
  0
LINE
  5
5C9
100
AcDbEntity
  8
0
 62
     0
370
    -2
100
AcDbLine
 10
0.0
 20
0.5
 30
0.0
 11
0.0
 21
-0.5
 31
0.0
  0
LINE
  5
5CA
100
AcDbEntity
  8
0
 62
     0
370
    -2
100
AcDbLine
 10
-0.5
 20
0.0
 30
0.0
 11
0.5
 21
0.0
 31
0.0
  0
ENDBLK
  5
5CB
100
AcDbEntity
100
AcDbBlockEnd
  0
BLOCK
  5
5CC
100
AcDbEntity
  8
0
100
AcDbBlockBegin
  2
CDWK_PTTYP34
 70
     0
 10
0.0
 20
0.0
 30
0.0
  3
CDWK_PTTYP34
  1

  4
Cadwork node
  0
CIRCLE
  5
5CD
100
AcDbEntity
  8
0
 62
     0
370
    -2
100
AcDbCircle
 10
0.0
 20
0.0
 30
0.0
 40
0.5
  0
LINE
  5
5CE
100
AcDbEntity
  8
0
 62
     0
370
    -2
100
AcDbLine
 10
-0.30360678
 20
-0.40360678
 30
0.0
 11
0.40360678
 21
0.30360678
 31
0.0
  0
LINE
  5
5CF
100
AcDbEntity
  8
0
 62
     0
370
    -2
100
AcDbLine
 10
-0.40360678
 20
-0.30360678
 30
0.0
 11
0.30360678
 21
0.40360678
 31
0.0
  0
ENDBLK
  5
5D0
100
AcDbEntity
100
AcDbBlockEnd
  0
BLOCK
  5
5D1
100
AcDbEntity
  8
0
100
AcDbBlockBegin
  2
CDWK_PTTYP35
 70
     0
 10
0.0
 20
0.0
 30
0.0
  3
CDWK_PTTYP35
  1

  4
Cadwork node
  0
CIRCLE
  5
5D2
100
AcDbEntity
  8
0
 62
     0
370
    -2
100
AcDbCircle
 10
0.0
 20
0.0
 30
0.0
 40
0.21431634
  0
LINE
  5
5D3
100
AcDbEntity
  8
0
 62
     0
370
    -2
100
AcDbLine
 10
0.0
 20
0.21431634
 30
0.0
 11
0.0
 21
0.5
 31
0.0
  0
LINE
  5
5D4
100
AcDbEntity
  8
0
 62
     0
370
    -2
100
AcDbLine
 10
0.0
 20
-0.21431634
 30
0.0
 11
0.0
 21
-0.5
 31
0.0
  0
ENDBLK
  5
5D5
100
AcDbEntity
100
AcDbBlockEnd
  0
BLOCK
  5
5D6
100
AcDbEntity
  8
0
100
AcDbBlockBegin
  2
CDWK_PTTYP36
 70
     0
 10
0.0
 20
0.0
 30
0.0
  3
CDWK_PTTYP36
  1

  4
Cadwork node
  0
LINE
  5
5D7
100
AcDbEntity
  8
0
 62
     0
370
    -2
100
AcDbLine
 10
-0.5
 20
-0.16666667
 30
0.0
 11
0.5
 21
-0.16666667
 31
0.0
  0
LINE
  5
5D8
100
AcDbEntity
  8
0
 62
     0
370
    -2
100
AcDbLine
 10
0.5
 20
-0.16666667
 30
0.0
 11
0.5
 21
0.16666667
 31
0.0
  0
LINE
  5
5D9
100
AcDbEntity
  8
0
 62
     0
370
    -2
100
AcDbLine
 10
0.5
 20
0.16666667
 30
0.0
 11
-0.5
 21
0.16666667
 31
0.0
  0
LINE
  5
5DA
100
AcDbEntity
  8
0
 62
     0
370
    -2
100
AcDbLine
 10
-0.5
 20
0.16666667
 30
0.0
 11
-0.5
 21
-0.16666667
 31
0.0
  0
SOLID
  5
5DB
100
AcDbEntity
  8
0
 62
     0
100
AcDbTrace
 10
-0.5
 20
-0.16666667
 11
0.5
 21
0.16666667
 12
0.5
 22
-0.16666667
 13
0.5
 23
-0.16666667
  0
ENDBLK
  5
5DC
100
AcDbEntity
100
AcDbBlockEnd
  0
BLOCK
  5
5DD
100
AcDbEntity
  8
0
100
AcDbBlockBegin
  2
CDWK_PTTYP37
 70
     0
 10
0.0
 20
0.0
 30
0.0
  3
CDWK_PTTYP37
  1

  4
Cadwork node
  0
CIRCLE
  5
5DE
100
AcDbEntity
  8
0
 62
     0
370
    -2
100
AcDbCircle
 10
0.0
 20
0.0
 30
0.0
 40
0.5
  0
SOLID
  5
5DF
100
AcDbEntity
  8
0
 62
     0
100
AcDbTrace
 10
0.0
 20
0.0
 11
0.35350001
 21
0.35350001
 12
0.5
 22
0.0
 13
0.46200001
 23
0.19149999
  0
SOLID
  5
5E0
100
AcDbEntity
  8
0
 62
     0
100
AcDbTrace
 10
0.0
 20
0.0
 11
0.35350001
 21
-0.35350001
 12
0.5
 22
0.0
 13
0.46200001
 23
-0.19149999
  0
SOLID
  5
5E1
100
AcDbEntity
  8
0
 62
     0
100
AcDbTrace
 10
0.0
 20
0.0
 11
0.0
 21
-0.5
 12
0.35350001
 22
-0.35350001
 13
0.19149999
 23
-0.46200001
  0
SOLID
  5
5E2
100
AcDbEntity
  8
0
 62
     0
100
AcDbTrace
 10
0.0
 20
0.0
 11
0.0
 21
-0.5
 12
-0.35350001
 22
-0.35350001
 13
-0.19149999
 23
-0.46200001
  0
ENDBLK
  5
5E3
100
AcDbEntity
100
AcDbBlockEnd
  0
BLOCK
  5
5E4
100
AcDbEntity
  8
0
100
AcDbBlockBegin
  2
CDWK_PTTYP38
 70
     0
 10
0.0
 20
0.0
 30
0.0
  3
CDWK_PTTYP38
  1

  4
Cadwork node
  0
CIRCLE
  5
5E5
100
AcDbEntity
  8
0
 62
     0
370
    -2
100
AcDbCircle
 10
0.0
 20
0.0
 30
0.0
 40
0.5
  0
SOLID
  5
5E6
100
AcDbEntity
  8
0
 62
     0
100
AcDbTrace
 10
0.0
 20
0.0
 11
0.35350001
 21
0.35350001
 12
0.0
 22
0.5
 13
0.19149999
 23
0.46200001
  0
SOLID
  5
5E7
100
AcDbEntity
  8
0
 62
     0
100
AcDbTrace
 10
0.0
 20
0.0
 11
0.5
 21
0.0
 12
0.35350001
 22
0.35350001
 13
0.46200001
 23
0.19149999
  0
SOLID
  5
5E8
100
AcDbEntity
  8
0
 62
     0
100
AcDbTrace
 10
0.0
 20
0.0
 11
0.0
 21
-0.5
 12
-0.35350001
 22
-0.35350001
 13
-0.19149999
 23
-0.46200001
  0
SOLID
  5
5E9
100
AcDbEntity
  8
0
 62
     0
100
AcDbTrace
 10
0.0
 20
0.0
 11
-0.5
 21
0.0
 12
-0.35350001
 22
-0.35350001
 13
-0.46200001
 23
-0.19149999
  0
ENDBLK
  5
5EA
100
AcDbEntity
100
AcDbBlockEnd
  0
ENDSEC
  0
SECTION
  2
ENTITIES
  0
LWPOLYLINE
  5
5EB
100
AcDbEntity
  8
Ech.1_5
 62
   190
  6
CONTINUOUS
370
    -3
100
AcDbPolyline
 90
       10
 70
     1
 43
0.0
 10
35105.5203826
 20
-6063.41883547
 10
35105.48525885
 20
-5898.18571265
 10
35250.64626298
 20
-5898.19613249
 10
35250.68138877
 20
-6092.25005514
 10
35250.6814151
 20
-6463.13048537
 10
35223.8555953
 20
-6463.13048537
 10
35207.36924122
 20
-6481.10883696
 10
35221.47918124
 20
-6445.15313704
 10
35204.99367808
 20
-6463.13048537
 10
35105.52041097
 20
-6463.13048537
  0
LWPOLYLINE
  5
5EC
100
AcDbEntity
  8
Ech.1_5
 62
   190
  6
CONTINUOUS
370
    -3
100
AcDbPolyline
 90
        8
 70
     1
 43
0.0
 10
34641.43942165
 20
-5708.12715132
 10
35060.61243413
 20
-5708.12715132
 10
35060.61243413
 20
-5853.12715132
 10
34641.43942165
 20
-5853.12715132
 10
34641.43942165
 20
-5792.58709128
 10
34623.46207324
 20
-5776.10158808
 10
34659.41777326
 20
-5790.21152766
 10
34641.43942165
 20
-5773.72517378
  0
LWPOLYLINE
  5
5ED
100
AcDbEntity
  8
Ech.1_5
 62
   190
  6
CONTINUOUS
370
    -3
100
AcDbPolyline
 90
        4
 70
     1
 43
0.0
 10
35060.67877827
 20
-5808.18841059
 10
35060.67877827
 20
-5708.11943037
 10
35205.68141509
 20
-5708.11943037
 10
35205.68141509
 20
-5808.18841059
  0
LWPOLYLINE
  5
5EE
100
AcDbEntity
  8
Ech.1_5
 62
   190
  6
CONTINUOUS
370
    -3
100
AcDbPolyline
 90
       34
 70
     0
 43
0.0
 10
35060.61243413
 20
-5732.2938183
 42
1.14028181
 10
35013.10256377
 20
-5738.54862578
 10
35035.62230449
 20
-5822.70567686
 42
-1.30322619
 10
34988.9358971
 20
-5822.70567686
 10
35011.45563782
 20
-5738.54862578
 42
1.30322619
 10
34964.76923043
 20
-5738.54862578
 10
34987.28897116
 20
-5822.70567686
 42
-1.30322619
 10
34940.60256377
 20
-5822.70567686
 10
34963.12230449
 20
-5738.54862578
 42
1.30322619
 10
34916.4358971
 20
-5738.54862578
 10
34938.95563782
 20
-5822.70567686
 42
-1.30322619
 10
34892.26923043
 20
-5822.70567686
 10
34914.78897116
 20
-5738.54862578
 42
1.30322619
 10
34868.10256377
 20
-5738.54862578
 10
34890.62230449
 20
-5822.70567686
 42
-1.30322619
 10
34843.9358971
 20
-5822.70567686
 10
34866.45563782
 20
-5738.54862578
 42
1.30322619
 10
34819.76923043
 20
-5738.54862578
 10
34842.28897116
 20
-5822.70567686
 42
-1.30322619
 10
34795.60256377
 20
-5822.70567686
 10
34818.12230449
 20
-5738.54862578
 42
1.30322619
 10
34771.4358971
 20
-5738.54862578
 10
34793.95563782
 20
-5822.70567686
 42
-1.30322619
 10
34747.26923043
 20
-5822.70567686
 10
34769.78897116
 20
-5738.54862578
 42
1.30322619
 10
34723.10256377
 20
-5738.54862578
 10
34745.62230449
 20
-5822.70567686
 42
-1.30322619
 10
34698.9358971
 20
-5822.70567686
 10
34721.45563782
 20
-5738.54862578
 42
1.30322619
 10
34674.76923043
 20
-5738.54862578
 10
34697.28897116
 20
-5822.70567686
 42
-1.30322619
 10
34650.60256377
 20
-5822.70567686
 10
34673.12230449
 20
-5738.54862578
 42
0.60793384
 10
34641.43942165
 20
-5709.61172087
  0
LWPOLYLINE
  5
5EF
100
AcDbEntity
  8
Ech.1_5
 62
   190
  6
CONTINUOUS
370
    -3
100
AcDbPolyline
 90
       16
 70
     0
 43
0.0
 10
35060.67877827
 20
-5791.51024706
 42
1.14028181
 10
35093.46680802
 20
-5787.19361098
 10
35077.92523901
 20
-5729.11422999
 42
-1.30322619
 10
35110.14497151
 20
-5729.11422999
 10
35094.6034025
 20
-5787.19361098
 42
1.30322619
 10
35126.823135
 20
-5787.19361098
 10
35111.281566
 20
-5729.11422999
 42
-1.30322619
 10
35143.5012985
 20
-5729.11422999
 10
35127.95972949
 20
-5787.19361098
 42
1.30322619
 10
35160.17946199
 20
-5787.19361098
 10
35144.63789299
 20
-5729.11422999
 42
-1.30322619
 10
35176.85762549
 20
-5729.11422999
 10
35161.31605648
 20
-5787.19361098
 42
1.30322619
 10
35193.53578898
 20
-5787.19361098
 10
35177.99421998
 20
-5729.11422999
 42
-0.76005852
 10
35205.67877827
 20
-5712.78977759
  0
LINE
  5
5F0
100
AcDbEntity
  8
Ech.1_5
 62
     7
  6
CONTINUOUS
100
AcDbLine
 10
34641.43942165
 20
-5853.12715132
 30
0.0
 11
34867.57680677
 21
-5853.12715132
 31
0.0
  0
LWPOLYLINE
  5
5F1
100
AcDbEntity
  8
Ech.1_5
 62
     5
  6
CONTINUOUS
370
    -3
100
AcDbPolyline
 90
        5
 70
     0
 43
0.0
 10
34844.11244546
 20
-5853.12715132
 10
34844.11244546
 20
-5708.12715132
 10
34799.11244546
 20
-5708.12715132
 10
34799.11244546
 20
-5853.12715132
 10
34844.11244546
 20
-5853.12715132
  0
LWPOLYLINE
  5
5F2
100
AcDbEntity
  8
Ech.1_5
 62
   190
  6
CONTINUOUS
370
    -3
100
AcDbPolyline
 90
        4
 70
     0
 43
0.0
 10
34799.11244546
 20
-5708.12715132
 10
34844.11244546
 20
-5853.12715132
 10
34799.11244546
 20
-5853.12715132
 10
34844.11244546
 20
-5708.12715132
  0
LWPOLYLINE
  5
5F3
100
AcDbEntity
  8
Ech.1_5
 62
     9
  6
CONTINUOUS
370
    40
100
AcDbPolyline
 90
        5
 70
     0
 43
0.0
 10
34846.61244546
 20
-5699.12715132
 10
34846.61244546
 20
-5674.12451346
 10
34796.61244546
 20
-5674.12451346
 10
34796.61244546
 20
-5699.12715132
 10
34846.61244546
 20
-5699.12715132
  0
LWPOLYLINE
  5
5F4
100
AcDbEntity
  8
Ech.1_5
 62
     9
  6
CONTINUOUS
370
    -3
100
AcDbPolyline
 90
        4
 70
     0
 43
0.0
 10
34796.61244546
 20
-5674.12451346
 10
34846.61244546
 20
-5699.12715132
 10
34846.61244546
 20
-5674.12451346
 10
34796.61244546
 20
-5699.12715132
  0
LWPOLYLINE
  5
5F5
100
AcDbEntity
  8
Ech.1_5
 62
     5
  6
CONTINUOUS
370
    -3
100
AcDbPolyline
 90
        5
 70
     0
 43
0.0
 10
35250.68141509
 20
-5853.19613249
 10
35105.68141509
 20
-5853.19613249
 10
35105.68141509
 20
-5898.19613249
 10
35250.68141509
 20
-5898.19613249
 10
35250.68141509
 20
-5853.19613249
  0
LWPOLYLINE
  5
5F6
100
AcDbEntity
  8
Ech.1_5
 62
   190
  6
CONTINUOUS
370
    -3
100
AcDbPolyline
 90
        4
 70
     0
 43
0.0
 10
35105.68141509
 20
-5898.19613249
 10
35250.68141509
 20
-5853.19613249
 10
35250.68141509
 20
-5898.19613249
 10
35105.68141509
 20
-5853.19613249
  0
LWPOLYLINE
  5
5F7
100
AcDbEntity
  8
Ech.1_5
 62
     9
  6
CONTINUOUS
370
    40
100
AcDbPolyline
 90
        5
 70
     0
 43
0.0
 10
35184.60715934
 20
-5699.12715132
 10
35184.60715934
 20
-5674.12451346
 10
35259.61243413
 20
-5674.12451346
 10
35259.61243413
 20
-5699.12715132
 10
35184.60715934
 20
-5699.12715132
  0
LWPOLYLINE
  5
5F8
100
AcDbEntity
  8
Ech.1_5
 62
     9
  6
CONTINUOUS
370
    -3
100
AcDbPolyline
 90
        4
 70
     0
 43
0.0
 10
35259.61243413
 20
-5674.12451346
 10
35184.60715934
 20
-5699.12715132
 10
35184.60715934
 20
-5674.12451346
 10
35259.61243413
 20
-5699.12715132
  0
LWPOLYLINE
  5
5F9
100
AcDbEntity
  8
Ech.1_5
 62
     9
  6
CONTINUOUS
370
    40
100
AcDbPolyline
 90
        5
 70
     0
 43
0.0
 10
35259.61155487
 20
-5674.12715132
 10
35284.61419255
 20
-5674.12715132
 10
35284.61419255
 20
-5749.13242609
 10
35259.61155487
 20
-5749.13242609
 10
35259.61155487
 20
-5674.12715132
  0
LWPOLYLINE
  5
5FA
100
AcDbEntity
  8
Ech.1_5
 62
     9
  6
CONTINUOUS
370
    -3
100
AcDbPolyline
 90
        4
 70
     0
 43
0.0
 10
35284.61419255
 20
-5749.13242609
 10
35259.61155487
 20
-5674.12715132
 10
35284.61419255
 20
-5674.12715132
 10
35259.61155487
 20
-5749.13242609
  0
LWPOLYLINE
  5
5FB
100
AcDbEntity
  8
Ech.1_5
 62
     5
  6
CONTINUOUS
370
    -3
100
AcDbPolyline
 90
        5
 70
     0
 43
0.0
 10
35205.67877827
 20
-5808.18841059
 10
35060.67877827
 20
-5808.18841059
 10
35060.67877827
 20
-5853.18841059
 10
35205.67877827
 20
-5853.18841059
 10
35205.67877827
 20
-5808.18841059
  0
LWPOLYLINE
  5
5FC
100
AcDbEntity
  8
Ech.1_5
 62
   190
  6
CONTINUOUS
370
    -3
100
AcDbPolyline
 90
        4
 70
     0
 43
0.0
 10
35060.67877827
 20
-5853.18841059
 10
35205.67877827
 20
-5808.18841059
 10
35205.67877827
 20
-5853.18841059
 10
35060.67877827
 20
-5808.18841059
  0
LWPOLYLINE
  5
5FD
100
AcDbEntity
  8
Ech.1_5
 62
     5
  6
CONTINUOUS
370
    -3
100
AcDbPolyline
 90
        5
 70
     0
 43
0.0
 10
35250.68141509
 20
-5853.19613249
 10
35250.68141509
 20
-5708.12715132
 10
35205.68141509
 20
-5708.12715132
 10
35205.68141509
 20
-5853.19613249
 10
35250.68141509
 20
-5853.19613249
  0
LWPOLYLINE
  5
5FE
100
AcDbEntity
  8
Ech.1_5
 62
   190
  6
CONTINUOUS
370
    -3
100
AcDbPolyline
 90
        4
 70
     0
 43
0.0
 10
35205.68141509
 20
-5708.12715132
 10
35250.68141509
 20
-5853.19613249
 10
35205.68141509
 20
-5853.19613249
 10
35250.68141509
 20
-5708.12715132
  0
LWPOLYLINE
  5
5FF
100
AcDbEntity
  8
Ech.1_5
 62
     9
  6
CONTINUOUS
370
    40
100
AcDbPolyline
 90
        5
 70
     0
 43
0.0
 10
35259.61243413
 20
-6398.03389151
 10
35284.6150718
 20
-6398.03389151
 10
35284.6150718
 20
-6348.03389151
 10
35259.61243413
 20
-6348.03389151
 10
35259.61243413
 20
-6398.03389151
  0
LWPOLYLINE
  5
600
100
AcDbEntity
  8
Ech.1_5
 62
     9
  6
CONTINUOUS
370
    -3
100
AcDbPolyline
 90
        4
 70
     0
 43
0.0
 10
35284.6150718
 20
-6348.03389151
 10
35259.61243413
 20
-6398.03389151
 10
35284.6150718
 20
-6398.03389151
 10
35259.61243413
 20
-6348.03389151
  0
LWPOLYLINE
  5
601
100
AcDbEntity
  8
Ech.1_5
 62
     9
  6
CONTINUOUS
370
    40
100
AcDbPolyline
 90
        5
 70
     0
 43
0.0
 10
35259.61243413
 20
-5903.19613249
 10
35284.6150718
 20
-5903.19613249
 10
35284.6150718
 20
-5853.19613249
 10
35259.61243413
 20
-5853.19613249
 10
35259.61243413
 20
-5903.19613249
  0
LWPOLYLINE
  5
602
100
AcDbEntity
  8
Ech.1_5
 62
     9
  6
CONTINUOUS
370
    40
100
AcDbPolyline
 90
        4
 70
     0
 43
0.0
 10
35284.6150718
 20
-5853.19613249
 10
35259.61243413
 20
-5903.19613249
 10
35284.6150718
 20
-5903.19613249
 10
35259.61243413
 20
-5853.19613249
  0
LINE
  5
603
100
AcDbEntity
  8
Ech.1_5
 62
     7
  6
CONTINUOUS
370
     9
100
AcDbLine
 10
35195.60455014
 20
-6087.35976107
 30
0.0
 11
35195.60455118
 21
-6086.43125803
 31
0.0
  0
LINE
  5
604
100
AcDbEntity
  8
Ech.1_5
 62
   190
  6
CONTINUOUS
370
    -3
100
AcDbLine
 10
35143.20310328
 20
-5858.62451346
 30
0.0
 11
35136.20310298
 21
-5851.62451441
 31
0.0
  0
LINE
  5
605
100
AcDbEntity
  8
Ech.1_5
 62
   190
  6
CONTINUOUS
370
    -3
100
AcDbLine
 10
35136.20310309
 20
-5951.62451441
 30
0.0
 11
35143.20310317
 21
-5958.62451346
 31
0.0
  0
LWPOLYLINE
  5
606
100
AcDbEntity
  8
Ech.1_5
 62
     3
370
    90
100
AcDbPolyline
 90
        4
 70
     0
 43
0.0
 10
35101.66230505
 20
-6377.89700682
 10
35101.66230505
 20
-6364.90787298
 10
35095.98169209
 20
-6360.97314055
 10
35095.98169209
 20
-6347.49471075
  0
LWPOLYLINE
  5
607
100
AcDbEntity
  8
Ech.1_5
 62
     9
  6
CONTINUOUS
370
    -3
100
AcDbPolyline
 90
        5
 70
     0
 43
0.0
 10
34641.43942165
 20
-5654.12451346
 10
34641.43942165
 20
-5674.12451346
 10
35301.90352257
 20
-5674.12451346
 10
35301.90352257
 20
-5654.12451346
 10
34641.43942165
 20
-5654.12451346
  0
LWPOLYLINE
  5
608
100
AcDbEntity
  8
Ech.1_5
 62
     9
  6
CONTINUOUS
370
    -3
100
AcDbPolyline
 90
        5
 70
     0
 43
0.0
 10
35324.61243413
 20
-5634.12451346
 10
35324.61243413
 20
-5654.12451346
 10
35254.67227722
 20
-5654.12451346
 10
35254.67227722
 20
-5634.12451346
 10
35324.61243413
 20
-5634.12451346
  0
LWPOLYLINE
  5
609
100
AcDbEntity
  8
Ech.1_5
 62
     9
  6
CONTINUOUS
370
    -3
100
AcDbPolyline
 90
        5
 70
     0
 43
0.0
 10
35324.61243413
 20
-5724.04864771
 10
35304.61243413
 20
-5724.04864771
 10
35304.61243413
 20
-5654.12322123
 10
35324.61243413
 20
-5654.12322123
 10
35324.61243413
 20
-5724.04864771
  0
LWPOLYLINE
  5
60A
102
{ACAD_REACTORS
330
60B
102
}
100
AcDbEntity
  8
Ech.1_5
 62
     9
  6
CONTINUOUS
370
    -3
100
AcDbPolyline
 90
        4
 70
     1
 43
0.0
 10
35075.68141509
 20
-5883.19613249
 10
34875.68141509
 20
-5883.19613249
 10
34875.68141509
 20
-6083.19613249
 10
35075.68141509
 20
-6083.19613249
  0
HATCH
  5
60B
100
AcDbEntity
  8
Ech.1_5
 62
     9
  6
CONTINUOUS
100
AcDbHatch
 10
0.0
 20
0.0
 30
0.0
210
0.0
220
0.0
230
1.0
  2
AR-CONC
 70
     0
 71
     1
 91
        1
 92
        7
 72
     0
 73
     1
 93
        4
 10
35075.68141509
 20
-5883.19613249
 10
34875.68141509
 20
-5883.19613249
 10
34875.68141509
 20
-6083.19613249
 10
35075.68141509
 20
-6083.19613249
 97
        1
330
60A
 75
     0
 76
     2
 52
0.0
 41
0.11811097
 77
     0
 78
    13
 53
50.0
 43
0.0
 44
0.0
 45
-18.84283637
 46
1.64853443
 79
     2
 49
1.97029307
 49
-21.67322338
 53
355.0
 43
0.0
 44
0.0
 45
-3.64507756
 46
19.76051824
 79
     2
 49
1.57623377
 49
-17.3385787
 53
100.45140076
 43
1.57023568
 44
-0.13737749
 45
-15.19777228
 46
-18.11197244
 79
     2
 49
1.67449124
 49
-18.41940522
 53
46.18420029
 43
0.0
 44
5.25411576
 45
-28.03703353
 46
4.34827878
 79
     2
 49
2.95543872
 49
-32.50983238
 53
96.63559723
 43
2.33641885
 44
4.89175692
 45
-24.55412615
 46
-25.59063404
 79
     2
 49
2.51173697
 49
-27.62910426
 53
351.1842041
 43
0.0
 44
5.25411576
 45
24.55410288
 46
25.59065715
 79
     2
 49
2.36435249
 49
-26.00786805
 53
21.0
 43
2.62705699
 44
3.94058615
 45
-15.68109068
 46
10.57702905
 79
     2
 49
1.97029307
 49
-21.67322338
 53
326.0
 43
2.62705699
 44
3.94058615
 45
6.39203268
 46
19.05010734
 79
     2
 49
1.57623377
 49
-17.3385787
 53
71.45140076
 43
3.93381357
 44
3.05916555
 45
-22.07312962
 46
-8.47306182
 79
     2
 49
1.67449124
 49
-18.41940522
 53
37.5
 43
0.0
 44
0.0
 45
0.31944534
 46
8.74531245
 79
     6
 49
0.01875
 49
-17.12841332
 49
0.01875
 49
-17.60128498
 49
0.01875
 49
-17.40425348
 53
7.5
 43
0.0
 44
0.0
 45
6.91098818
 46
10.3614222
 79
     6
 49
0.01875
 49
-10.03535807
 49
0.01875
 49
-16.7343539
 49
0.01875
 49
-6.6333206
 53
-32.5
 43
-5.85833833
 44
0.0
 45
14.02382061
 46
-0.59253003
 79
     6
 49
0.01875
 49
-6.56764314
 49
0.01875
 49
-20.49104869
 49
0.01875
 49
-27.19004452
 53
-42.5
 43
-8.48539531
 44
0.0
 45
15.32063571
 46
2.62981542
 79
     6
 49
0.01875
 49
-8.53793621
 49
0.01875
 49
-13.60815793
 49
0.01875
 49
-19.30887222
 47
0.775229
 98
        1
 10
0.0
 20
0.0
  0
LWPOLYLINE
  5
60C
100
AcDbEntity
  8
Ech.1_5
 62
    41
  6
CONTINUOUS
370
    15
100
AcDbPolyline
 90
        4
 70
     1
 43
0.0
 10
34875.68141509
 20
-5853.19613249
 10
35075.68141509
 20
-5853.19613249
 10
35075.68141509
 20
-5883.19613249
 10
34875.68141509
 20
-5883.19613249
  0
LWPOLYLINE
  5
60D
100
AcDbEntity
  8
Ech.1_5
 62
    41
  6
CONTINUOUS
370
    15
100
AcDbPolyline
 90
        4
 70
     1
 43
0.0
 10
35075.68141509
 20
-5853.19613249
 10
35075.68141509
 20
-6083.19613249
 10
35105.68141509
 20
-6083.19613249
 10
35105.68141509
 20
-5853.19613249
  0
LWPOLYLINE
  5
60E
100
AcDbEntity
  8
Ech.1_5
 62
     9
  6
CONTINUOUS
370
    -3
100
AcDbPolyline
 90
        5
 70
     0
 43
0.0
 10
35284.61243413
 20
-6463.13048537
 10
35304.61243413
 20
-6463.13048537
 10
35304.61243413
 20
-5677.8895405
 10
35284.61243413
 20
-5677.8895405
 10
35284.61243413
 20
-6463.13048537
  0
LWPOLYLINE
  5
60F
100
AcDbEntity
  8
Ech.1_5
 62
   190
  6
CONTINUOUS
370
    -3
100
AcDbPolyline
 90
       46
 70
     0
 43
0.0
 10
35226.50912666
 20
-6463.13198931
 42
1.14028182
 10
35220.24990705
 20
-6415.6114567
 10
35136.07468027
 20
-6438.14167387
 42
-1.30322617
 10
35136.07177461
 20
-6391.44440539
 10
35220.24980455
 20
-6413.9641474
 42
1.30322619
 10
35220.24689888
 20
-6367.26687987
 10
35136.07167211
 20
-6389.79709704
 42
-1.30322617
 10
35136.06876645
 20
-6343.09982855
 10
35220.24679638
 20
-6365.61957056
 42
1.30322619
 10
35220.24389072
 20
-6318.92230303
 10
35136.06866395
 20
-6341.4525202
 42
-1.30322617
 10
35136.06575829
 20
-6294.75525172
 10
35220.24378822
 20
-6317.27499373
 42
1.30322619
 10
35220.24088256
 20
-6270.57772619
 10
35136.06565578
 20
-6293.10794337
 42
-1.30322617
 10
35136.06275012
 20
-6246.41067488
 10
35220.24078006
 20
-6268.93041689
 42
1.30322619
 10
35220.2378744
 20
-6222.23314936
 10
35136.06264762
 20
-6244.76336653
 42
-1.30322617
 10
35136.05974196
 20
-6198.06609804
 10
35220.2377719
 20
-6220.58584006
 42
1.30322619
 10
35220.23486623
 20
-6173.88857252
 10
35136.05963946
 20
-6196.41878969
 42
-1.30322617
 10
35136.0567338
 20
-6149.72152121
 10
35220.23476373
 20
-6172.24126322
 42
1.30322619
 10
35220.23185807
 20
-6125.54399569
 10
35136.0566313
 20
-6148.07421191
 42
-1.30322619
 10
35136.05372564
 20
-6101.37694437
 10
35220.23175557
 20
-6123.89668638
 42
1.30322617
 10
35220.22884991
 20
-6077.1994179
 10
35136.05362313
 20
-6099.72963507
 42
-1.30322619
 10
35136.05071747
 20
-6053.03236754
 10
35220.22874741
 20
-6075.55210955
 42
1.30322617
 10
35220.22584175
 20
-6028.85484106
 10
35136.05061497
 20
-6051.38505823
 42
-1.30322619
 10
35136.04770931
 20
-6004.6877907
 10
35220.22573925
 20
-6027.20753271
 42
1.30322617
 10
35220.22283358
 20
-5980.51026423
 10
35136.04760681
 20
-6003.0404814
 42
-1.30322619
 10
35136.04470115
 20
-5956.34321387
 10
35220.22273108
 20
-5978.86295588
 42
1.30322617
 10
35220.21982542
 20
-5932.16568739
 10
35136.04459865
 20
-5954.69590456
 42
-1.30322619
 10
35136.04169299
 20
-5907.99863703
 10
35220.21972292
 20
-5930.51837904
 42
0.61753445
 10
35248.91963758
 20
-5898.19624026
  0
LWPOLYLINE
  5
610
102
{ACAD_REACTORS
330
611
102
}
100
AcDbEntity
  8
Ech.1_5
 62
     7
  6
CONTINUOUS
370
     5
100
AcDbPolyline
 90
        4
 70
     1
 43
0.0
 10
35125.65817172
 20
-5857.27541907
 10
35151.48270281
 20
-5857.27541907
 10
35151.48270281
 20
-5847.84275896
 10
35125.65817172
 20
-5847.84275896
  0
HATCH
  5
611
100
AcDbEntity
  8
Ech.1_5
 62
     2
  6
CONTINUOUS
100
AcDbHatch
 10
0.0
 20
0.0
 30
0.0
210
0.0
220
0.0
230
1.0
  2
SOLID
 70
     1
 71
     1
 91
        1
 92
        7
 72
     0
 73
     1
 93
        4
 10
35125.65817172
 20
-5857.27541907
 10
35151.48270281
 20
-5857.27541907
 10
35151.48270281
 20
-5847.84275896
 10
35125.65817172
 20
-5847.84275896
 97
        1
330
610
 75
     0
 76
     2
 47
0.775229
 98
        1
 10
0.0
 20
0.0
  0
HATCH
  5
612
100
AcDbEntity
  8
Ech.1_5
 62
     7
100
AcDbHatch
 10
0.0
 20
0.0
 30
0.0
210
0.0
220
0.0
230
1.0
  2
ANSI37
 70
     0
 71
     0
 91
        1
 92
        7
 72
     0
 73
     1
 93
        4
 10
35125.65817172
 20
-5857.27541907
 10
35151.48270281
 20
-5857.27541907
 10
35151.48270281
 20
-5847.84275896
 10
35125.65817172
 20
-5847.84275896
 97
        0
 75
     0
 76
     2
 52
0.0
 41
1.87498831
 77
     0
 78
     2
 53
45.0
 43
0.0
 44
0.0
 45
4.20946876
 46
-4.20946876
 79
     0
 53
-45.0
 43
0.0
 44
0.0
 45
4.20946876
 46
4.20946876
 79
     0
 47
0.775229
 98
        1
 10
0.0
 20
0.0
  0
LWPOLYLINE
  5
613
102
{ACAD_REACTORS
330
614
102
}
100
AcDbEntity
  8
Ech.1_5
 62
     7
  6
CONTINUOUS
370
     5
100
AcDbPolyline
 90
        4
 70
     1
 43
0.0
 10
35203.53914714
 20
-5857.27541907
 10
35229.36367823
 20
-5857.27541907
 10
35229.36367823
 20
-5847.84275896
 10
35203.53914714
 20
-5847.84275896
  0
HATCH
  5
614
100
AcDbEntity
  8
Ech.1_5
 62
     2
  6
CONTINUOUS
100
AcDbHatch
 10
0.0
 20
0.0
 30
0.0
210
0.0
220
0.0
230
1.0
  2
SOLID
 70
     1
 71
     1
 91
        1
 92
        7
 72
     0
 73
     1
 93
        4
 10
35203.53914714
 20
-5857.27541907
 10
35229.36367823
 20
-5857.27541907
 10
35229.36367823
 20
-5847.84275896
 10
35203.53914714
 20
-5847.84275896
 97
        1
330
613
 75
     0
 76
     2
 47
0.775229
 98
        1
 10
0.0
 20
0.0
  0
HATCH
  5
615
100
AcDbEntity
  8
Ech.1_5
 62
     7
100
AcDbHatch
 10
0.0
 20
0.0
 30
0.0
210
0.0
220
0.0
230
1.0
  2
ANSI37
 70
     0
 71
     0
 91
        1
 92
        7
 72
     0
 73
     1
 93
        4
 10
35203.53914714
 20
-5857.27541907
 10
35229.36367823
 20
-5857.27541907
 10
35229.36367823
 20
-5847.84275896
 10
35203.53914714
 20
-5847.84275896
 97
        0
 75
     0
 76
     2
 52
0.0
 41
1.87498831
 77
     0
 78
     2
 53
45.0
 43
0.0
 44
0.0
 45
4.20946876
 46
-4.20946876
 79
     0
 53
-45.0
 43
0.0
 44
0.0
 45
4.20946876
 46
4.20946876
 79
     0
 47
0.775229
 98
        1
 10
0.0
 20
0.0
  0
LWPOLYLINE
  5
616
100
AcDbEntity
  8
Ech.1_5
 62
   190
  6
CONTINUOUS
370
    -3
100
AcDbPolyline
 90
        4
 70
     0
 43
0.0
 10
35250.63886683
 20
-6350.02021391
 10
35105.56988586
 20
-6395.02021391
 10
35105.56988586
 20
-6350.02021391
 10
35250.63886683
 20
-6395.02021391
  0
LWPOLYLINE
  5
617
100
AcDbEntity
  8
Ech.1_5
 62
     5
  6
CONTINUOUS
370
    -3
100
AcDbPolyline
 90
        5
 70
     0
 43
0.0
 10
35105.56988586
 20
-6395.02021391
 10
35250.63886683
 20
-6395.02021391
 10
35250.63886683
 20
-6350.02021391
 10
35105.56988586
 20
-6350.02021391
 10
35105.56988586
 20
-6395.02021391
  0
LWPOLYLINE
  5
618
102
{ACAD_REACTORS
330
619
102
}
100
AcDbEntity
  8
Ech.1_5
 62
     7
  6
CONTINUOUS
370
     5
100
AcDbPolyline
 90
        4
 70
     1
 43
0.0
 10
34601.49924365
 20
-6342.38177283
 10
34627.32377473
 20
-6342.38177283
 10
34627.32377473
 20
-6332.94911272
 10
34601.49924365
 20
-6332.94911272
  0
HATCH
  5
619
100
AcDbEntity
  8
Ech.1_5
 62
     2
  6
CONTINUOUS
100
AcDbHatch
 10
0.0
 20
0.0
 30
0.0
210
0.0
220
0.0
230
1.0
  2
SOLID
 70
     1
 71
     1
 91
        1
 92
        7
 72
     0
 73
     1
 93
        4
 10
34601.49924365
 20
-6342.38177283
 10
34627.32377473
 20
-6342.38177283
 10
34627.32377473
 20
-6332.94911272
 10
34601.49924365
 20
-6332.94911272
 97
        1
330
618
 75
     0
 76
     2
 47
0.775229
 98
        1
 10
0.0
 20
0.0
  0
HATCH
  5
61A
100
AcDbEntity
  8
Ech.1_5
 62
     7
100
AcDbHatch
 10
0.0
 20
0.0
 30
0.0
210
0.0
220
0.0
230
1.0
  2
ANSI37
 70
     0
 71
     0
 91
        1
 92
        7
 72
     0
 73
     1
 93
        4
 10
34601.49924365
 20
-6342.38177283
 10
34627.32377473
 20
-6342.38177283
 10
34627.32377473
 20
-6332.94911272
 10
34601.49924365
 20
-6332.94911272
 97
        0
 75
     0
 76
     2
 52
0.0
 41
1.87498831
 77
     0
 78
     2
 53
45.0
 43
0.0
 44
0.0
 45
4.20946876
 46
-4.20946876
 79
     0
 53
-45.0
 43
0.0
 44
0.0
 45
4.20946876
 46
4.20946876
 79
     0
 47
0.775229
 98
        1
 10
0.0
 20
0.0
  0
LWPOLYLINE
  5
61B
100
AcDbEntity
  8
Ech.1_5
 62
     3
370
    90
100
AcDbPolyline
 90
        4
 70
     0
 43
0.0
 10
34631.87332481
 20
-6366.20649524
 10
34618.88419139
 20
-6366.20649524
 10
34614.94945925
 20
-6360.52588267
 10
34601.47102925
 20
-6360.52588267
  0
LWPOLYLINE
  5
61C
100
AcDbEntity
  8
Ech.1_5
 62
   254
  6
CONTINUOUS
370
    -3
100
AcDbPolyline
 90
        4
 70
     1
 43
0.0
 10
34875.68141509
 20
-5923.12715132
 10
34641.43942165
 20
-5923.12715132
 10
34641.43942165
 20
-5873.12715132
 10
34875.68141509
 20
-5873.12715132
  0
LWPOLYLINE
  5
61D
102
{ACAD_REACTORS
330
61E
102
}
100
AcDbEntity
  8
Ech.1_5
 62
     9
  6
CONTINUOUS
370
    -3
100
AcDbPolyline
 90
        4
 70
     1
 43
0.0
 10
34875.68141509
 20
-5923.12715132
 10
34875.68141509
 20
-5936.12715132
 10
34641.43942165
 20
-5936.12715132
 10
34641.43942165
 20
-5923.12715132
  0
HATCH
  5
61E
100
AcDbEntity
  8
Ech.1_5
 62
     9
  6
CONTINUOUS
100
AcDbHatch
 10
0.0
 20
0.0
 30
0.0
210
0.0
220
0.0
230
1.0
  2
DOTS2
 70
     0
 71
     1
 91
        1
 92
        7
 72
     0
 73
     1
 93
        4
 10
34875.68141509
 20
-5923.12715132
 10
34875.68141509
 20
-5936.12715132
 10
34641.43942165
 20
-5936.12715132
 10
34641.43942165
 20
-5923.12715132
 97
        1
330
61D
 75
     0
 76
     2
 52
0.0
 41
4.72440952
 77
     0
 78
     1
 53
0.0
 43
0.0
 44
0.0
 45
3.75
 46
3.535
 79
     2
 49
0.0
 49
-3.535
 47
0.775229
 98
        1
 10
0.0
 20
0.0
  0
LWPOLYLINE
  5
61F
100
AcDbEntity
  8
Ech.1_5
 62
   254
  6
CONTINUOUS
370
    -3
100
AcDbPolyline
 90
        4
 70
     1
 43
0.0
 10
35035.520384
 20
-6083.19613249
 10
35035.520384
 20
-6463.13048537
 10
35085.520384
 20
-6463.13048537
 10
35085.520384
 20
-6083.19613249
  0
LWPOLYLINE
  5
620
102
{ACAD_REACTORS
330
621
102
}
100
AcDbEntity
  8
Ech.1_5
 62
     9
  6
CONTINUOUS
370
    -3
100
AcDbPolyline
 90
       12
 70
     1
 43
0.0
 10
35077.520384
 20
-6113.19613249
 10
35083.51627271
 20
-6113.19613249
 10
35083.520384
 20
-6083.19613249
 10
35035.520384
 20
-6083.19613249
 10
35035.520384
 20
-6113.19613249
 10
35041.520384
 20
-6113.19613249
 10
35041.520384
 20
-6111.19613249
 10
35037.520384
 20
-6111.19613249
 10
35037.520384
 20
-6085.19613249
 10
35081.520384
 20
-6085.19613249
 10
35081.520384
 20
-6111.19613249
 10
35077.520384
 20
-6111.19613249
  0
HATCH
  5
621
100
AcDbEntity
  8
Ech.1_5
 62
     9
  6
CONTINUOUS
100
AcDbHatch
 10
0.0
 20
0.0
 30
0.0
210
0.0
220
0.0
230
1.0
  2
SOLID
 70
     1
 71
     1
 91
        1
 92
        7
 72
     0
 73
     1
 93
       12
 10
35077.520384
 20
-6113.19613249
 10
35083.51627271
 20
-6113.19613249
 10
35083.520384
 20
-6083.19613249
 10
35035.520384
 20
-6083.19613249
 10
35035.520384
 20
-6113.19613249
 10
35041.520384
 20
-6113.19613249
 10
35041.520384
 20
-6111.19613249
 10
35037.520384
 20
-6111.19613249
 10
35037.520384
 20
-6085.19613249
 10
35081.520384
 20
-6085.19613249
 10
35081.520384
 20
-6111.19613249
 10
35077.520384
 20
-6111.19613249
 97
        1
330
620
 75
     0
 76
     2
 47
0.775229
 98
        1
 10
0.0
 20
0.0
  0
LWPOLYLINE
  5
622
102
{ACAD_REACTORS
330
623
102
}
100
AcDbEntity
  8
Ech.1_5
 62
     9
  6
CONTINUOUS
370
    -3
100
AcDbPolyline
 90
        4
 70
     1
 43
0.0
 10
35035.520384
 20
-6083.19613249
 10
35022.520384
 20
-6083.19613249
 10
35022.520384
 20
-6463.13048537
 10
35035.520384
 20
-6463.13048537
  0
HATCH
  5
623
100
AcDbEntity
  8
Ech.1_5
 62
     9
  6
CONTINUOUS
100
AcDbHatch
 10
0.0
 20
0.0
 30
0.0
210
0.0
220
0.0
230
1.0
  2
DOTS2
 70
     0
 71
     1
 91
        1
 92
        7
 72
     0
 73
     1
 93
        4
 10
35035.520384
 20
-6083.19613249
 10
35022.520384
 20
-6083.19613249
 10
35022.520384
 20
-6463.13048537
 10
35035.520384
 20
-6463.13048537
 97
        1
330
622
 75
     0
 76
     2
 52
0.0
 41
4.72440952
 77
     0
 78
     1
 53
0.0
 43
0.0
 44
0.0
 45
3.75
 46
3.535
 79
     2
 49
0.0
 49
-3.535
 47
0.775229
 98
        1
 10
0.0
 20
0.0
  0
LWPOLYLINE
  5
624
100
AcDbEntity
  8
Ech.1_5
 62
   150
  6
CADWORK_22
370
    35
100
AcDbPolyline
 90
        3
 70
     0
 43
0.0
 38
2500.0
 10
35259.6814151
 20
-6463.13048537
 10
35259.61243413
 20
-5699.12715132
 10
35184.60715934
 20
-5699.12715132
  0
LWPOLYLINE
  5
625
100
AcDbEntity
  8
Ech.1_5
 62
   150
  6
CADWORK_22
370
    35
100
AcDbPolyline
 90
        5
 70
     0
 43
0.0
 38
2500.0
 10
34641.43942165
 20
-5699.12715132
 10
35177.6679241
 20
-5699.12715132
 10
35187.58514238
 20
-5694.71697027
 10
35264.93941491
 20
-5694.71697027
 10
35264.93941491
 20
-5908.35404761
  0
LWPOLYLINE
  5
626
100
AcDbEntity
  8
Ech.1_5
 62
   190
  6
CONTINUOUS
370
    -3
100
AcDbPolyline
 90
        5
 70
     0
 43
0.0
 10
34452.53544254
 20
-6880.17682778
 10
35437.53544254
 20
-6880.17682778
 10
35437.53544254
 20
-5525.17682778
 10
34452.53544254
 20
-5525.17682778
 10
34452.53544254
 20
-6880.17682778
  0
LWPOLYLINE
  5
627
102
{ACAD_REACTORS
330
628
102
}
100
AcDbEntity
  8
Ech.1_5
 62
     9
  6
CONTINUOUS
370
    -3
100
AcDbPolyline
 90
       12
 70
     1
 43
0.0
 10
34845.68141509
 20
-5881.12715132
 10
34845.68141509
 20
-5875.13126261
 10
34875.68141509
 20
-5875.12715132
 10
34875.68141509
 20
-5923.12715132
 10
34845.68141509
 20
-5923.12715132
 10
34845.68141509
 20
-5917.12715132
 10
34847.68141509
 20
-5917.12715132
 10
34847.68141509
 20
-5921.12715132
 10
34873.68141509
 20
-5921.12715132
 10
34873.68141509
 20
-5877.12715132
 10
34847.68141509
 20
-5877.12715132
 10
34847.68141509
 20
-5881.12715132
  0
HATCH
  5
628
100
AcDbEntity
  8
Ech.1_5
 62
     9
  6
CONTINUOUS
100
AcDbHatch
 10
0.0
 20
0.0
 30
0.0
210
0.0
220
0.0
230
1.0
  2
SOLID
 70
     1
 71
     1
 91
        1
 92
        7
 72
     0
 73
     1
 93
       12
 10
34845.68141509
 20
-5881.12715132
 10
34845.68141509
 20
-5875.13126261
 10
34875.68141509
 20
-5875.12715132
 10
34875.68141509
 20
-5923.12715132
 10
34845.68141509
 20
-5923.12715132
 10
34845.68141509
 20
-5917.12715132
 10
34847.68141509
 20
-5917.12715132
 10
34847.68141509
 20
-5921.12715132
 10
34873.68141509
 20
-5921.12715132
 10
34873.68141509
 20
-5877.12715132
 10
34847.68141509
 20
-5877.12715132
 10
34847.68141509
 20
-5881.12715132
 97
        1
330
627
 75
     0
 76
     2
 47
0.775229
 98
        1
 10
0.0
 20
0.0
  0
LWPOLYLINE
  5
629
100
AcDbEntity
  8
Ech.1_5
 62
     9
  6
CONTINUOUS
370
    -3
100
AcDbPolyline
 90
       56
 70
     0
 43
0.0
 10
34641.43942165
 20
-5914.79381799
 42
1.14028181
 10
34657.82213557
 20
-5912.63698775
 10
34650.05670773
 20
-5883.61731489
 42
-1.30322619
 10
34666.1554689
 20
-5883.61731489
 10
34658.39004107
 20
-5912.63698775
 42
1.30322619
 10
34674.48880224
 20
-5912.63698775
 10
34666.7233744
 20
-5883.61731489
 42
-1.30322619
 10
34682.82213557
 20
-5883.61731489
 10
34675.05670773
 20
-5912.63698775
 42
1.30322619
 10
34691.1554689
 20
-5912.63698775
 10
34683.39004107
 20
-5883.61731489
 42
-1.30322619
 10
34699.48880224
 20
-5883.61731489
 10
34691.7233744
 20
-5912.63698775
 42
1.30322619
 10
34707.82213557
 20
-5912.63698775
 10
34700.05670773
 20
-5883.61731489
 42
-1.30322619
 10
34716.1554689
 20
-5883.61731489
 10
34708.39004107
 20
-5912.63698775
 42
1.30322619
 10
34724.48880224
 20
-5912.63698775
 10
34716.7233744
 20
-5883.61731489
 42
-1.30322619
 10
34732.82213557
 20
-5883.61731489
 10
34725.05670773
 20
-5912.63698775
 42
1.30322619
 10
34741.1554689
 20
-5912.63698775
 10
34733.39004107
 20
-5883.61731489
 42
-1.30322619
 10
34749.48880224
 20
-5883.61731489
 10
34741.7233744
 20
-5912.63698775
 42
1.30322619
 10
34757.82213557
 20
-5912.63698775
 10
34750.05670773
 20
-5883.61731489
 42
-1.30322619
 10
34766.1554689
 20
-5883.61731489
 10
34758.39004107
 20
-5912.63698775
 42
1.30322619
 10
34774.48880224
 20
-5912.63698775
 10
34766.7233744
 20
-5883.61731489
 42
-1.30322619
 10
34782.82213557
 20
-5883.61731489
 10
34775.05670773
 20
-5912.63698775
 42
1.30322619
 10
34791.1554689
 20
-5912.63698775
 10
34783.39004107
 20
-5883.61731489
 42
-1.30322619
 10
34799.48880224
 20
-5883.61731489
 10
34791.7233744
 20
-5912.63698775
 42
1.30322619
 10
34807.82213557
 20
-5912.63698775
 10
34800.05670773
 20
-5883.61731489
 42
-1.30322619
 10
34816.1554689
 20
-5883.61731489
 10
34808.39004107
 20
-5912.63698775
 42
1.30322619
 10
34824.48880224
 20
-5912.63698775
 10
34816.7233744
 20
-5883.61731489
 42
-1.30322619
 10
34832.82213557
 20
-5883.61731489
 10
34825.05670773
 20
-5912.63698775
 42
1.30322619
 10
34841.1554689
 20
-5912.63698775
 10
34833.39004107
 20
-5883.61731489
 42
-1.30322619
 10
34849.48880224
 20
-5883.61731489
 10
34841.7233744
 20
-5912.63698775
 42
1.30322619
 10
34857.82213557
 20
-5912.63698775
 10
34850.05670773
 20
-5883.61731489
 42
-1.30322619
 10
34866.1554689
 20
-5883.61731489
 10
34858.39004107
 20
-5912.63698775
 42
1.30322619
 10
34874.48880224
 20
-5912.63698775
 10
34866.7233744
 20
-5883.61731489
 42
-0.52757463
 10
34875.68141509
 20
-5873.17683925
  0
LWPOLYLINE
  5
62A
100
AcDbEntity
  8
Ech.1_5
 62
   190
  6
CONTINUOUS
370
    -3
100
AcDbPolyline
 90
       80
 70
     0
 43
0.0
 10
34875.68141509
 20
-5878.19613249
 42
1.14028181
 10
34885.51104345
 20
-5876.90203435
 10
34880.85178674
 20
-5859.49023063
 42
-1.30322619
 10
34890.51104345
 20
-5859.49023063
 10
34885.85178674
 20
-5876.90203435
 42
1.30322619
 10
34895.51104345
 20
-5876.90203435
 10
34890.85178674
 20
-5859.49023063
 42
-1.30322619
 10
34900.51104345
 20
-5859.49023063
 10
34895.85178674
 20
-5876.90203435
 42
1.30322619
 10
34905.51104345
 20
-5876.90203435
 10
34900.85178674
 20
-5859.49023063
 42
-1.30322619
 10
34910.51104345
 20
-5859.49023063
 10
34905.85178674
 20
-5876.90203435
 42
1.30322619
 10
34915.51104345
 20
-5876.90203435
 10
34910.85178674
 20
-5859.49023063
 42
-1.30322619
 10
34920.51104345
 20
-5859.49023063
 10
34915.85178674
 20
-5876.90203435
 42
1.30322619
 10
34925.51104345
 20
-5876.90203435
 10
34920.85178674
 20
-5859.49023063
 42
-1.30322619
 10
34930.51104345
 20
-5859.49023063
 10
34925.85178674
 20
-5876.90203435
 42
1.30322619
 10
34935.51104345
 20
-5876.90203435
 10
34930.85178674
 20
-5859.49023063
 42
-1.30322619
 10
34940.51104345
 20
-5859.49023063
 10
34935.85178674
 20
-5876.90203435
 42
1.30322619
 10
34945.51104345
 20
-5876.90203435
 10
34940.85178674
 20
-5859.49023063
 42
-1.30322619
 10
34950.51104345
 20
-5859.49023063
 10
34945.85178674
 20
-5876.90203435
 42
1.30322619
 10
34955.51104345
 20
-5876.90203435
 10
34950.85178674
 20
-5859.49023063
 42
-1.30322619
 10
34960.51104345
 20
-5859.49023063
 10
34955.85178674
 20
-5876.90203435
 42
1.30322619
 10
34965.51104345
 20
-5876.90203435
 10
34960.85178674
 20
-5859.49023063
 42
-1.30322619
 10
34970.51104345
 20
-5859.49023063
 10
34965.85178674
 20
-5876.90203435
 42
1.30322619
 10
34975.51104345
 20
-5876.90203435
 10
34970.85178674
 20
-5859.49023063
 42
-1.30322619
 10
34980.51104345
 20
-5859.49023063
 10
34975.85178674
 20
-5876.90203435
 42
1.30322619
 10
34985.51104345
 20
-5876.90203435
 10
34980.85178674
 20
-5859.49023063
 42
-1.30322619
 10
34990.51104345
 20
-5859.49023063
 10
34985.85178674
 20
-5876.90203435
 42
1.30322619
 10
34995.51104345
 20
-5876.90203435
 10
34990.85178674
 20
-5859.49023063
 42
-1.30322619
 10
35000.51104345
 20
-5859.49023063
 10
34995.85178674
 20
-5876.90203435
 42
1.30322619
 10
35005.51104345
 20
-5876.90203435
 10
35000.85178674
 20
-5859.49023063
 42
-1.30322619
 10
35010.51104345
 20
-5859.49023063
 10
35005.85178674
 20
-5876.90203435
 42
1.30322619
 10
35015.51104345
 20
-5876.90203435
 10
35010.85178674
 20
-5859.49023063
 42
-1.30322619
 10
35020.51104345
 20
-5859.49023063
 10
35015.85178674
 20
-5876.90203435
 42
1.30322619
 10
35025.51104345
 20
-5876.90203435
 10
35020.85178674
 20
-5859.49023063
 42
-1.30322619
 10
35030.51104345
 20
-5859.49023063
 10
35025.85178674
 20
-5876.90203435
 42
1.30322619
 10
35035.51104345
 20
-5876.90203435
 10
35030.85178674
 20
-5859.49023063
 42
-1.30322619
 10
35040.51104345
 20
-5859.49023063
 10
35035.85178674
 20
-5876.90203435
 42
1.30322619
 10
35045.51104345
 20
-5876.90203435
 10
35040.85178674
 20
-5859.49023063
 42
-1.30322619
 10
35050.51104345
 20
-5859.49023063
 10
35045.85178674
 20
-5876.90203435
 42
1.30322619
 10
35055.51104345
 20
-5876.90203435
 10
35050.85178674
 20
-5859.49023063
 42
-1.30322619
 10
35060.51104345
 20
-5859.49023063
 10
35055.85178674
 20
-5876.90203435
 42
1.30322619
 10
35065.51104345
 20
-5876.90203435
 10
35060.85178674
 20
-5859.49023063
 42
-1.30322619
 10
35070.51104345
 20
-5859.49023063
 10
35065.85178674
 20
-5876.90203435
 42
1.30322619
 10
35075.51104345
 20
-5876.90203435
 10
35070.85178674
 20
-5859.49023063
 42
-0.52586277
 10
35075.68141509
 20
-5853.19613249
  0
LWPOLYLINE
  5
62B
100
AcDbEntity
  8
Ech.1_5
 62
   190
  6
CONTINUOUS
370
    -3
100
AcDbPolyline
 90
       92
 70
     0
 43
0.0
 10
35100.68141509
 20
-6083.19613249
 42
1.14028181
 10
35099.38731696
 20
-6073.36650414
 10
35081.97551323
 20
-6078.02576084
 42
-1.30322619
 10
35081.97551323
 20
-6068.36650414
 10
35099.38731696
 20
-6073.02576084
 42
1.30322619
 10
35099.38731696
 20
-6063.36650414
 10
35081.97551323
 20
-6068.02576084
 42
-1.30322619
 10
35081.97551323
 20
-6058.36650414
 10
35099.38731696
 20
-6063.02576084
 42
1.30322619
 10
35099.38731696
 20
-6053.36650414
 10
35081.97551323
 20
-6058.02576084
 42
-1.30322619
 10
35081.97551323
 20
-6048.36650414
 10
35099.38731696
 20
-6053.02576084
 42
1.30322619
 10
35099.38731696
 20
-6043.36650414
 10
35081.97551323
 20
-6048.02576084
 42
-1.30322619
 10
35081.97551323
 20
-6038.36650414
 10
35099.38731696
 20
-6043.02576084
 42
1.30322619
 10
35099.38731696
 20
-6033.36650414
 10
35081.97551323
 20
-6038.02576084
 42
-1.30322619
 10
35081.97551323
 20
-6028.36650414
 10
35099.38731696
 20
-6033.02576084
 42
1.30322619
 10
35099.38731696
 20
-6023.36650414
 10
35081.97551323
 20
-6028.02576084
 42
-1.30322619
 10
35081.97551323
 20
-6018.36650414
 10
35099.38731696
 20
-6023.02576084
 42
1.30322619
 10
35099.38731696
 20
-6013.36650414
 10
35081.97551323
 20
-6018.02576084
 42
-1.30322619
 10
35081.97551323
 20
-6008.36650414
 10
35099.38731696
 20
-6013.02576084
 42
1.30322619
 10
35099.38731696
 20
-6003.36650414
 10
35081.97551323
 20
-6008.02576084
 42
-1.30322619
 10
35081.97551323
 20
-5998.36650414
 10
35099.38731696
 20
-6003.02576084
 42
1.30322619
 10
35099.38731696
 20
-5993.36650414
 10
35081.97551323
 20
-5998.02576084
 42
-1.30322619
 10
35081.97551323
 20
-5988.36650414
 10
35099.38731696
 20
-5993.02576084
 42
1.30322619
 10
35099.38731696
 20
-5983.36650414
 10
35081.97551323
 20
-5988.02576084
 42
-1.30322619
 10
35081.97551323
 20
-5978.36650414
 10
35099.38731696
 20
-5983.02576084
 42
1.30322619
 10
35099.38731696
 20
-5973.36650414
 10
35081.97551323
 20
-5978.02576084
 42
-1.30322619
 10
35081.97551323
 20
-5968.36650414
 10
35099.38731696
 20
-5973.02576084
 42
1.30322619
 10
35099.38731696
 20
-5963.36650414
 10
35081.97551323
 20
-5968.02576084
 42
-1.30322619
 10
35081.97551323
 20
-5958.36650414
 10
35099.38731696
 20
-5963.02576084
 42
1.30322619
 10
35099.38731696
 20
-5953.36650414
 10
35081.97551323
 20
-5958.02576084
 42
-1.30322619
 10
35081.97551323
 20
-5948.36650414
 10
35099.38731696
 20
-5953.02576084
 42
1.30322619
 10
35099.38731696
 20
-5943.36650414
 10
35081.97551323
 20
-5948.02576084
 42
-1.30322619
 10
35081.97551323
 20
-5938.36650414
 10
35099.38731696
 20
-5943.02576084
 42
1.30322619
 10
35099.38731696
 20
-5933.36650414
 10
35081.97551323
 20
-5938.02576084
 42
-1.30322619
 10
35081.97551323
 20
-5928.36650414
 10
35099.38731696
 20
-5933.02576084
 42
1.30322619
 10
35099.38731696
 20
-5923.36650414
 10
35081.97551323
 20
-5928.02576084
 42
-1.30322619
 10
35081.97551323
 20
-5918.36650414
 10
35099.38731696
 20
-5923.02576084
 42
1.30322619
 10
35099.38731696
 20
-5913.36650414
 10
35081.97551323
 20
-5918.02576084
 42
-1.30322619
 10
35081.97551323
 20
-5908.36650414
 10
35099.38731696
 20
-5913.02576084
 42
1.30322619
 10
35099.38731696
 20
-5903.36650414
 10
35081.97551323
 20
-5908.02576084
 42
-1.30322619
 10
35081.97551323
 20
-5898.36650414
 10
35099.38731696
 20
-5903.02576084
 42
1.30322619
 10
35099.38731696
 20
-5893.36650414
 10
35081.97551323
 20
-5898.02576084
 42
-1.30322619
 10
35081.97551323
 20
-5888.36650414
 10
35099.38731696
 20
-5893.02576084
 42
1.30322619
 10
35099.38731696
 20
-5883.36650414
 10
35081.97551323
 20
-5888.02576084
 42
-1.30322619
 10
35081.97551323
 20
-5878.36650414
 10
35099.38731696
 20
-5883.02576084
 42
1.30322619
 10
35099.38731696
 20
-5873.36650414
 10
35081.97551323
 20
-5878.02576084
 42
-1.30322619
 10
35081.97551323
 20
-5868.36650414
 10
35099.38731696
 20
-5873.02576084
 42
1.30322619
 10
35099.38731696
 20
-5863.36650414
 10
35081.97551323
 20
-5868.02576084
 42
-1.30322619
 10
35081.97551323
 20
-5858.36650414
 10
35099.38731696
 20
-5863.02576084
 42
1.30322619
 10
35099.38731696
 20
-5853.36650414
 10
35081.97551323
 20
-5858.02576084
 42
-0.52586277
 10
35075.68141509
 20
-5853.19613249
  0
LWPOLYLINE
  5
62C
100
AcDbEntity
  8
Ech.1_5
 62
     9
  6
CONTINUOUS
370
    -3
100
AcDbPolyline
 90
       90
 70
     0
 43
0.0
 10
35043.85371734
 20
-6083.19613249
 42
1.14028181
 10
35046.01054757
 20
-6099.57884641
 10
35075.03022044
 20
-6091.81341857
 42
-1.30322619
 10
35075.03022044
 20
-6107.91217974
 10
35046.01054757
 20
-6100.14675191
 42
1.30322619
 10
35046.01054757
 20
-6116.24551308
 10
35075.03022044
 20
-6108.48008524
 42
-1.30322619
 10
35075.03022044
 20
-6124.57884641
 10
35046.01054757
 20
-6116.81341857
 42
1.30322619
 10
35046.01054757
 20
-6132.91217974
 10
35075.03022044
 20
-6125.14675191
 42
-1.30322619
 10
35075.03022044
 20
-6141.24551308
 10
35046.01054757
 20
-6133.48008524
 42
1.30322619
 10
35046.01054757
 20
-6149.57884641
 10
35075.03022044
 20
-6141.81341857
 42
-1.30322619
 10
35075.03022044
 20
-6157.91217974
 10
35046.01054757
 20
-6150.14675191
 42
1.30322619
 10
35046.01054757
 20
-6166.24551308
 10
35075.03022044
 20
-6158.48008524
 42
-1.30322619
 10
35075.03022044
 20
-6174.57884641
 10
35046.01054757
 20
-6166.81341857
 42
1.30322619
 10
35046.01054757
 20
-6182.91217974
 10
35075.03022044
 20
-6175.14675191
 42
-1.30322619
 10
35075.03022044
 20
-6191.24551308
 10
35046.01054757
 20
-6183.48008524
 42
1.30322619
 10
35046.01054757
 20
-6199.57884641
 10
35075.03022044
 20
-6191.81341857
 42
-1.30322619
 10
35075.03022044
 20
-6207.91217974
 10
35046.01054757
 20
-6200.14675191
 42
1.30322619
 10
35046.01054757
 20
-6216.24551308
 10
35075.03022044
 20
-6208.48008524
 42
-1.30322619
 10
35075.03022044
 20
-6224.57884641
 10
35046.01054757
 20
-6216.81341857
 42
1.30322619
 10
35046.01054757
 20
-6232.91217974
 10
35075.03022044
 20
-6225.14675191
 42
-1.30322619
 10
35075.03022044
 20
-6241.24551308
 10
35046.01054757
 20
-6233.48008524
 42
1.30322619
 10
35046.01054757
 20
-6249.57884641
 10
35075.03022044
 20
-6241.81341857
 42
-1.30322619
 10
35075.03022044
 20
-6257.91217974
 10
35046.01054757
 20
-6250.14675191
 42
1.30322619
 10
35046.01054757
 20
-6266.24551308
 10
35075.03022044
 20
-6258.48008524
 42
-1.30322619
 10
35075.03022044
 20
-6274.57884641
 10
35046.01054757
 20
-6266.81341857
 42
1.30322619
 10
35046.01054757
 20
-6282.91217974
 10
35075.03022044
 20
-6275.14675191
 42
-1.30322619
 10
35075.03022044
 20
-6291.24551308
 10
35046.01054757
 20
-6283.48008524
 42
1.30322619
 10
35046.01054757
 20
-6299.57884641
 10
35075.03022044
 20
-6291.81341857
 42
-1.30322619
 10
35075.03022044
 20
-6307.91217974
 10
35046.01054757
 20
-6300.14675191
 42
1.30322619
 10
35046.01054757
 20
-6316.24551308
 10
35075.03022044
 20
-6308.48008524
 42
-1.30322619
 10
35075.03022044
 20
-6324.57884641
 10
35046.01054757
 20
-6316.81341857
 42
1.30322619
 10
35046.01054757
 20
-6332.91217974
 10
35075.03022044
 20
-6325.14675191
 42
-1.30322619
 10
35075.03022044
 20
-6341.24551308
 10
35046.01054757
 20
-6333.48008524
 42
1.30322619
 10
35046.01054757
 20
-6349.57884641
 10
35075.03022044
 20
-6341.81341857
 42
-1.30322619
 10
35075.03022044
 20
-6357.91217974
 10
35046.01054757
 20
-6350.14675191
 42
1.30322619
 10
35046.01054757
 20
-6366.24551308
 10
35075.03022044
 20
-6358.48008524
 42
-1.30322619
 10
35075.03022044
 20
-6374.57884641
 10
35046.01054757
 20
-6366.81341857
 42
1.30322619
 10
35046.01054757
 20
-6382.91217974
 10
35075.03022044
 20
-6375.14675191
 42
-1.30322619
 10
35075.03022044
 20
-6391.24551308
 10
35046.01054757
 20
-6383.48008524
 42
1.30322619
 10
35046.01054757
 20
-6399.57884641
 10
35075.03022044
 20
-6391.81341857
 42
-1.30322619
 10
35075.03022044
 20
-6407.91217974
 10
35046.01054757
 20
-6400.14675191
 42
1.30322619
 10
35046.01054757
 20
-6416.24551308
 10
35075.03022044
 20
-6408.48008524
 42
-1.30322619
 10
35075.03022044
 20
-6424.57884641
 10
35046.01054757
 20
-6416.81341857
 42
1.30322619
 10
35046.01054757
 20
-6432.91217974
 10
35075.03022044
 20
-6425.14675191
 42
-1.30322619
 10
35075.03022044
 20
-6441.24551308
 10
35046.01054757
 20
-6433.48008524
 42
1.30322619
 10
35046.01054757
 20
-6449.57884641
 10
35075.03022044
 20
-6441.81341857
 42
-1.30322619
 10
35075.03022044
 20
-6457.91217974
 10
35046.01054757
 20
-6450.14675191
 42
0.70874585
 10
35037.13831667
 20
-6463.13048537
  0
LINE
  5
62D
100
AcDbEntity
  8
Ech.1_5
 62
     1
  6
CADWORK_22
 48
-5.0
370
    35
100
AcDbLine
 10
35105.52041097
 20
-6463.13048537
 30
0.0
 11
35105.52041097
 21
-5853.19613249
 31
0.0
  0
LWPOLYLINE
  5
62E
100
AcDbEntity
  8
Ech.1_5
 62
     1
  6
CADWORK_22
 48
-5.0
370
    35
100
AcDbPolyline
 90
        4
 70
     0
 43
0.0
 10
34641.43942165
 20
-5853.12715132
 10
35105.52041097
 20
-5853.19613249
 10
35099.33385335
 20
-5859.29120524
 10
35099.33385335
 20
-6359.75277025
  0
LWPOLYLINE
  5
62F
100
AcDbEntity
  8
Ech.1_5
 62
   190
  6
CONTINUOUS
370
    -3
100
AcDbPolyline
 90
        6
 70
     0
 43
0.0
 10
34641.43942165
 20
-5953.32954771
 10
34641.43942165
 20
-5792.58709128
 10
34623.46207324
 20
-5776.10158808
 10
34659.41777326
 20
-5790.21152766
 10
34641.43942165
 20
-5773.72517378
 10
34641.43942165
 20
-5626.34069807
  0
LWPOLYLINE
  5
630
100
AcDbEntity
  8
Ech.1_5
 62
   190
  6
CONTINUOUS
370
    -3
100
AcDbPolyline
 90
        6
 70
     0
 43
0.0
 10
35012.99367808
 20
-6463.13048537
 10
35204.99367808
 20
-6463.13048537
 10
35221.47918124
 20
-6445.15313704
 10
35207.36924122
 20
-6481.10883696
 10
35223.8555953
 20
-6463.13048537
 10
35329.19978911
 20
-6463.13048537
  0
LWPOLYLINE
  5
631
100
AcDbEntity
  8
Ech.1_5
 62
   190
100
AcDbPolyline
 90
        5
 70
     0
 43
0.0
 10
34618.80773565
 20
-6393.76479749
 10
34753.23651463
 20
-6393.76479749
 10
34753.23651463
 20
-6450.4877563
 10
34618.80773565
 20
-6450.4877563
 10
34618.80773565
 20
-6393.76479749
  0
HATCH
  5
632
100
AcDbEntity
  8
Ech.1_5
 62
   190
100
AcDbHatch
 10
0.0
 20
0.0
 30
0.0
210
0.0
220
0.0
230
1.0
  2
SOLID
 70
     1
 71
     0
 91
        1
 92
        7
 72
     0
 73
     1
 93
        4
 10
34637.08778143
 20
-6427.42160861
 10
34687.08778143
 20
-6427.42160861
 10
34687.08778143
 20
-6420.00647108
 10
34637.08778143
 20
-6420.00647108
 97
        0
 75
     0
 76
     2
 47
0.775229
 98
        1
 10
0.0
 20
0.0
  0
LWPOLYLINE
  5
633
100
AcDbEntity
  8
Ech.1_5
 62
   190
100
AcDbPolyline
 90
        5
 70
     0
 43
0.0
 10
34637.08778143
 20
-6427.42160861
 10
34687.08778143
 20
-6427.42160861
 10
34687.08778143
 20
-6420.00647108
 10
34637.08778143
 20
-6420.00647108
 10
34637.08778143
 20
-6427.42160861
  0
LWPOLYLINE
  5
634
100
AcDbEntity
  8
Ech.1_5
 62
   190
100
AcDbPolyline
 90
        5
 70
     0
 43
0.0
 10
34687.08778143
 20
-6427.42160861
 10
34737.08778143
 20
-6427.42160861
 10
34737.08778143
 20
-6420.00647108
 10
34687.08778143
 20
-6420.00647108
 10
34687.08778143
 20
-6427.42160861
  0
TEXT
  5
635
100
AcDbEntity
  8
Ech.1_5
 62
   190
100
AcDbText
 10
34648.38207406
 20
-6410.420468
 30
0.0
 40
8.00000012
  1
Echelle en mm
  7
ARIAL
 50
0.0
 41
1.0
 51
0.0
100
AcDbText
  0
TEXT
  5
636
100
AcDbEntity
  8
Ech.1_5
 62
   190
100
AcDbText
 10
34634.40148931
 20
-6438.63030353
 30
0.0
 40
8.00000012
  1
0
  7
ARIAL
 50
0.0
 41
1.0
 51
0.0
100
AcDbText
  0
TEXT
  5
637
100
AcDbEntity
  8
Ech.1_5
 62
   190
100
AcDbText
 10
34720.9985472
 20
-6438.63030353
 30
0.0
 40
8.00000012
  1
100
  7
ARIAL
 50
0.0
 41
1.0
 51
0.0
100
AcDbText
  0
TEXT
  5
638
100
AcDbEntity
  8
Ech.1_5
 62
   190
100
AcDbText
 10
34682.25811564
 20
-6438.63030353
 30
0.0
 40
8.00000012
  1
50
  7
ARIAL
 50
0.0
 41
1.0
 51
0.0
100
AcDbText
  0
ENDSEC
  0
SECTION
  2
OBJECTS
  0
DICTIONARY
  5
1
100
AcDbDictionary
  3
ACAD_GROUP
350
2
  3
ACAD_MLINESTYLE
350
3
  0
DICTIONARY
  5
2
102
{CDWK_REACTORS
330
1
102
}
100
AcDbDictionary
  0
DICTIONARY
  5
3
102
{CDWK_REACTORS
330
1
102
}
100
AcDbDictionary
  3
STANDARD
350
4
  0
MLINESTYLE
  5
4
102
{CDWK_REACTORS
330
3
102
}
100
AcDbMlineStyle
  2
STANDARD
 70
     0
  3

 62
     0
 51
90.0
 52
90.0
 71
     2
 49
0.5
 62
   256
  6
BYLAYER
 49
-0.5
 62
   256
  6
BYLAYER
  0
ENDSEC
  0
EOF
