  0
SECTION
  2
HEADER
  9
$ACADVER
  1
AC1014
  9
$DWGCODEPAGE
  3
ANSI_1252
  9
$INSBASE
 10
0.0
 20
0.0
 30
0.0
  9
$EXTMIN
 10
1033.98771282
 20
-21718.34332712
  9
$EXTMAX
 10
122326.07664696
 20
2240.3362527
  9
$LIMMIN
 10
1033.98771282
 20
-21718.34332712
  9
$LIMMAX
 10
122326.07664696
 20
2240.3362527
  9
$ORTHOMODE
 70
     0
  9
$REGENMODE
 70
     1
  9
$FILLMODE
 70
     1
  9
$QTEXTMODE
 70
     0
  9
$MIRRTEXT
 70
     1
  9
$DRAGMODE
 70
     2
  9
$LTSCALE
 40
5.0
  9
$OSMODE
 70
     0
  9
$ATTMODE
 70
     1
  9
$TEXTSIZE
 40
3.5
  9
$TRACEWID
 40
1.0
  9
$TEXTSTYLE
  7
STANDARD
  9
$CLAYER
  8
0
  9
$CELTYPE
  6
BYLAYER
  9
$CECOLOR
 62
   256
  9
$DIMSCALE
 40
1.0
  9
$DIMASZ
 40
2.0
  9
$DIMEXO
 40
5.0
  9
$DIMDLI
 40
10.0
  9
$DIMRND
 40
0.0
  9
$DIMDLE
 40
2.0
  9
$DIMEXE
 40
2.0
  9
$DIMTP
 40
0.0
  9
$DIMTM
 40
0.0
  9
$DIMTXT
 40
2.5
  9
$DIMCEN
 40
1.5
  9
$DIMTSZ
 40
0.0
  9
$DIMTOL
 70
     0
  9
$DIMLIM
 70
     0
  9
$DIMTIH
 70
     1
  9
$DIMTOH
 70
     0
  9
$DIMSE1
 70
     0
  9
$DIMSE2
 70
     0
  9
$DIMTAD
 70
     1
  9
$DIMZIN
 70
     8
  9
$DIMBLK
  1

  9
$DIMASO
 70
     1
  9
$DIMSHO
 70
     1
  9
$DIMPOST
  1

  9
$DIMAPOST
  1

  9
$DIMALT
 70
     0
  9
$DIMALTD
 70
     2
  9
$DIMALTF
 40
25.4
  9
$DIMLFAC
 40
1.0
  9
$DIMTOFL
 70
     0
  9
$DIMTVP
 40
0.0
  9
$DIMTIX
 70
     0
  9
$DIMSOXD
 70
     0
  9
$DIMSAH
 70
     0
  9
$DIMBLK1
  1

  9
$DIMBLK2
  1

  9
$DIMSTYLE
  2
*UNNAMED
  9
$DIMCLRD
 70
   190
  9
$DIMCLRE
 70
   190
  9
$DIMCLRT
 70
   190
  9
$DIMTFAC
 40
1.0
  9
$DIMGAP
 40
0.09
  9
$DIMUNIT
 70
     2
  9
$LUNITS
 70
     2
  9
$LUPREC
 70
     6
  9
$AXISMODE
 70
     0
  9
$AXISUNIT
 10
0.0
 20
0.0
  9
$SKETCHINC
 40
0.1
  9
$FILLETRAD
 40
0.0
  9
$AUNITS
 70
     0
  9
$AUPREC
 70
     0
  9
$MENU
  1
ACAD
  9
$ELEVATION
 40
0.0
  9
$PELEVATION
 40
0.0
  9
$THICKNESS
 40
0.0
  9
$LIMCHECK
 70
     0
  9
$BLIPMODE
 70
     1
  9
$CHAMFERA
 40
0.0
  9
$CHAMFERB
 40
0.0
  9
$SKPOLY
 70
     1
  9
$TDCREATE
 40
2457808.0000000000
  9
$TDUPDATE
 40
2457808.0000000000
  9
$TDINDWG
 40
0.0
  9
$TDUSRTIMER
 40
0.0
  9
$USRTIMER
 70
     1
  9
$ANGBASE
 50
0.0
  9
$ANGDIR
 70
     0
  9
$PDMODE
 70
     0
  9
$PDSIZE
 40
0.0
  9
$PLINEWID
 40
0.0
  9
$COORDS
 70
     2
  9
$SPLFRAME
 70
     0
  9
$SPLINETYPE
 70
     6
  9
$SPLINESEGS
 70
     8
  9
$ATTDIA
 70
     1
  9
$ATTREQ
 70
     1
  9
$HANDLING
 70
     1
  9
$HANDSEED
  5
     67D
  9
$SURFTAB1
 70
     6
  9
$SURFTAB2
 70
     6
  9
$SURFTYPE
 70
     6
  9
$SURFU
 70
     6
  9
$SURFV
 70
     6
  9
$UCSNAME
  2

  9
$UCSORG
 10
0.0
 20
0.0
 30
0.0
  9
$UCSXDIR
 10
1.0
 20
0.0
 30
0.0
  9
$UCSYDIR
 10
0.0
 20
1.0
 30
0.0
  9
$PUCSNAME
  2

  9
$PUCSORG
 10
0.0
 20
0.0
 30
0.0
  9
$PUCSXDIR
 10
1.0
 20
0.0
 30
0.0
  9
$PUCSYDIR
 10
0.0
 20
1.0
 30
0.0
  9
$USERI1
 70
     0
  9
$USERI2
 70
     0
  9
$USERI3
 70
     0
  9
$USERI4
 70
     0
  9
$USERI5
 70
     0
  9
$USERR1
 40
0.0
  9
$USERR2
 40
0.0
  9
$USERR3
 40
0.0
  9
$USERR4
 40
0.0
  9
$USERR5
 40
0.0
  9
$WORLDVIEW
 70
     1
  9
$SHADEDGE
 70
     3
  9
$SHADEDIF
 70
    70
  9
$TILEMODE
 70
     1
  9
$MAXACTVP
 70
    16
  9
$PINSBASE
 10
0.0
 20
0.0
 30
0.0
  9
$PLIMCHECK
 70
     0
  9
$PEXTMIN
 10
1.0000000000000E+20
 20
1.0000000000000E+20
 30
1.0000000000000E+20
  9
$PEXTMAX
 10
-1.0000000000000E+20
 20
-1.0000000000000E+20
 30
-1.0000000000000E+20
  9
$PLIMMIN
 10
0.0
 20
0.0
  9
$UNITMODE
 70
     0
  9
$VISRETAIN
 70
     0
  9
$MEASUREMENT
 70
     1
  0
ENDSEC
  0
SECTION
  2
TABLES
  0
TABLE
  2
VPORT
  5
4A2
100
AcDbSymbolTable
 70
     1
  0
ENDTAB
  0
TABLE
  2
STYLE
  5
4A3
100
AcDbSymbolTable
 70
     3
  0
STYLE
  5
4A4
100
AcDbSymbolTableRecord
100
AcDbTextStyleTableRecord
  2
STANDARD
 70
     0
 40
0.0
 41
1.0
 50
0.0
 71
     0
 42
3.5
  3
MONOTXT
  4

  0
STYLE
  5
4A5
100
AcDbSymbolTableRecord
100
AcDbTextStyleTableRecord
  2
SYMAP
 70
     0
 40
0.0
 41
1.0
 50
0.0
 71
     0
 42
3.5
  3
SYMAP
  4

  0
STYLE
  5
4A6
100
AcDbSymbolTableRecord
100
AcDbTextStyleTableRecord
  2
CADWORK1
 70
     0
 40
0.0
 41
1.0
 50
0.0
 71
     0
 42
3.5
  3
MONOTXT
  4

  0
STYLE
  5
4A7
100
AcDbSymbolTableRecord
100
AcDbTextStyleTableRecord
  2
MONOTXT
 70
     0
 40
0.0
 41
1.0
 50
0.0
 71
     0
 42
3.5
  3
MONOTXT
  4

  0
STYLE
  5
4A8
100
AcDbSymbolTableRecord
100
AcDbTextStyleTableRecord
  2
ARIAL
 70
     0
 40
0.0
 41
1.0
 50
0.0
 71
     0
 42
3.5
  3

  4

1001
ACAD
1000
Arial
1071
        0
  0
ENDTAB
  0
TABLE
  2
LTYPE
  5
4A9
100
AcDbSymbolTable
 70
    15
  0
LTYPE
  5
4AA
100
AcDbSymbolTableRecord
100
AcDbLinetypeTableRecord
  2
BYBLOCK
 70
    64
  3

 72
    65
 73
     0
 40
0.0
  0
LTYPE
  5
4AB
100
AcDbSymbolTableRecord
100
AcDbLinetypeTableRecord
  2
BYLAYER
 70
    64
  3

 72
    65
 73
     0
 40
0.0
  0
LTYPE
  5
4AC
100
AcDbSymbolTableRecord
100
AcDbLinetypeTableRecord
  2
CONTINUOUS
 70
    64
  3
Solid line
 72
    65
 73
     0
 40
0.0
  0
LTYPE
  5
4AD
100
AcDbSymbolTableRecord
100
AcDbLinetypeTableRecord
  2
DOT2
 70
    64
  3
...............................................
 72
    65
 73
     2
 40
1.25
 49
0.0
 74
     0
 49
-1.25
 74
     0
  0
LTYPE
  5
4AE
100
AcDbSymbolTableRecord
100
AcDbLinetypeTableRecord
  2
CADWORK_13
 70
    64
  3
13 =======================================
 72
    65
 73
     2
 40
4.0
 49
2.0
 74
     0
 49
-2.0
 74
     0
  0
LTYPE
  5
4AF
100
AcDbSymbolTableRecord
100
AcDbLinetypeTableRecord
  2
DASHDOT
 70
    64
  3
 __ . __ . __ . __ . __ . __ . __ . __ . __ . __
 72
    65
 73
     4
 40
10.0
 49
5.0
 74
     0
 49
-2.5
 74
     0
 49
0.0
 74
     0
 49
-2.5
 74
     0
  0
LTYPE
  5
4B0
100
AcDbSymbolTableRecord
100
AcDbLinetypeTableRecord
  2
CENTER
 70
    64
  3
 ____ _ ____ _ ____ _ ____ _ ____ _ ____ _ ____
 72
    65
 73
     4
 40
20.0
 49
12.5
 74
     0
 49
-2.5
 74
     0
 49
2.5
 74
     0
 49
-2.5
 74
     0
  0
LTYPE
  5
4B1
100
AcDbSymbolTableRecord
100
AcDbLinetypeTableRecord
  2
DASHEDX2
 70
    64
  3
____  ____  ____  ____  ____  ____  ____  ____
 72
    65
 73
     2
 40
3.75
 49
2.5
 74
     0
 49
-1.25
 74
     0
  0
LTYPE
  5
4B2
100
AcDbSymbolTableRecord
100
AcDbLinetypeTableRecord
  2
CADWORK_22
 70
    64
  3
22 =======================================
 72
    65
 73
     0
 40
0.0
  0
LTYPE
  5
4B3
100
AcDbSymbolTableRecord
100
AcDbLinetypeTableRecord
  2
DAL
 70
    64
  3
Solid line (for MAPS)
 72
    65
 73
     0
 40
0.0
  0
LTYPE
  5
4B4
100
AcDbSymbolTableRecord
100
AcDbLinetypeTableRecord
  2
MUR
 70
    64
  3
Solid line (for MAPS)
 72
    65
 73
     0
 40
0.0
  0
LTYPE
  5
4B5
100
AcDbSymbolTableRecord
100
AcDbLinetypeTableRecord
  2
SOM
 70
    64
  3
Solid line (for MAPS)
 72
    65
 73
     0
 40
0.0
  0
LTYPE
  5
4B6
100
AcDbSymbolTableRecord
100
AcDbLinetypeTableRecord
  2
COL
 70
    64
  3
Solid line (for MAPS)
 72
    65
 73
     0
 40
0.0
  0
LTYPE
  5
4B7
100
AcDbSymbolTableRecord
100
AcDbLinetypeTableRecord
  2
LGN
 70
    64
  3
Solid line (for MAPS)
 72
    65
 73
     0
 40
0.0
  0
LTYPE
  5
4B8
100
AcDbSymbolTableRecord
100
AcDbLinetypeTableRecord
  2
PNT
 70
    64
  3
Solid line (for MAPS)
 72
    65
 73
     0
 40
0.0
  0
ENDTAB
  0
TABLE
  2
LAYER
  5
4B9
100
AcDbSymbolTable
 70
    32
  0
LAYER
  5
4BA
100
AcDbSymbolTableRecord
100
AcDbLayerTableRecord
  2
Standard
 70
     0
 62
     7
  6
CONTINUOUS
370
    -3
  0
LAYER
  5
4BB
100
AcDbSymbolTableRecord
100
AcDbLayerTableRecord
  2
Ech.1_1
 70
     0
 62
     7
  6
CONTINUOUS
370
    -3
  0
LAYER
  5
4BC
100
AcDbSymbolTableRecord
100
AcDbLayerTableRecord
  2
Ech.1_2
 70
     0
 62
     7
  6
CONTINUOUS
370
    -3
  0
LAYER
  5
4BD
100
AcDbSymbolTableRecord
100
AcDbLayerTableRecord
  2
Ech.1_5
 70
     0
 62
     7
  6
CONTINUOUS
370
    -3
  0
LAYER
  5
4BE
100
AcDbSymbolTableRecord
100
AcDbLayerTableRecord
  2
Ech.1_10
 70
     0
 62
     7
  6
CONTINUOUS
370
    -3
  0
LAYER
  5
4BF
100
AcDbSymbolTableRecord
100
AcDbLayerTableRecord
  2
Ech.1_20
 70
     0
 62
     7
  6
CONTINUOUS
370
    -3
  0
LAYER
  5
4C0
100
AcDbSymbolTableRecord
100
AcDbLayerTableRecord
  2
Ech.1_25
 70
     0
 62
     7
  6
CONTINUOUS
370
    -3
  0
LAYER
  5
4C1
100
AcDbSymbolTableRecord
100
AcDbLayerTableRecord
  2
Ech.1_33
 70
     0
 62
     7
  6
CONTINUOUS
370
    -3
  0
LAYER
  5
4C2
100
AcDbSymbolTableRecord
100
AcDbLayerTableRecord
  2
Ech.1_50
 70
     0
 62
     7
  6
CONTINUOUS
370
    -3
  0
LAYER
  5
4C3
100
AcDbSymbolTableRecord
100
AcDbLayerTableRecord
  2
Ech.1_75
 70
     0
 62
     7
  6
CONTINUOUS
370
    -3
  0
LAYER
  5
4C4
100
AcDbSymbolTableRecord
100
AcDbLayerTableRecord
  2
Ech.1_100
 70
     0
 62
     7
  6
CONTINUOUS
370
    -3
  0
LAYER
  5
4C5
100
AcDbSymbolTableRecord
100
AcDbLayerTableRecord
  2
Ech.1_200
 70
     0
 62
     7
  6
CONTINUOUS
370
    -3
  0
LAYER
  5
4C6
100
AcDbSymbolTableRecord
100
AcDbLayerTableRecord
  2
Ech.1_500
 70
     0
 62
     7
  6
CONTINUOUS
370
    -3
  0
LAYER
  5
4C7
100
AcDbSymbolTableRecord
100
AcDbLayerTableRecord
  2
Ech.1_1000
 70
     0
 62
     7
  6
CONTINUOUS
370
    -3
  0
LAYER
  5
4C8
100
AcDbSymbolTableRecord
100
AcDbLayerTableRecord
  2
Cadres traceur
 70
     0
 62
     7
  6
CONTINUOUS
370
    18
  0
LAYER
  5
4C9
100
AcDbSymbolTableRecord
100
AcDbLayerTableRecord
  2
Cadres laser
 70
     0
 62
     7
  6
CONTINUOUS
370
    18
  0
LAYER
  5
4CA
100
AcDbSymbolTableRecord
100
AcDbLayerTableRecord
  2
Légende d_aide
 70
     0
 62
     7
  6
CONTINUOUS
370
    18
  0
LAYER
  5
4CB
100
AcDbSymbolTableRecord
100
AcDbLayerTableRecord
  2
hachures ok
 70
     0
 62
     7
  6
CONTINUOUS
370
    18
  0
LAYER
  5
4CC
100
AcDbSymbolTableRecord
100
AcDbLayerTableRecord
  2
ossature bois
 70
     0
 62
     7
  6
CONTINUOUS
370
    18
  0
LAYER
  5
4CD
100
AcDbSymbolTableRecord
100
AcDbLayerTableRecord
  2
VR
 70
     0
 62
     7
  6
CONTINUOUS
370
    25
  0
LAYER
  5
4CE
100
AcDbSymbolTableRecord
100
AcDbLayerTableRecord
  2
Calque1
 70
     0
 62
     7
  6
CONTINUOUS
370
     9
  0
LAYER
  5
4CF
100
AcDbSymbolTableRecord
100
AcDbLayerTableRecord
  2
0
 70
     0
 62
     7
  6
CONTINUOUS
370
    -3
  0
LAYER
  5
4D0
100
AcDbSymbolTableRecord
100
AcDbLayerTableRecord
  2
menuiserie
 70
     0
 62
     7
  6
CONTINUOUS
370
    -3
  0
LAYER
  5
4D1
100
AcDbSymbolTableRecord
100
AcDbLayerTableRecord
  2
cotation
 70
     0
 62
   250
  6
CONTINUOUS
370
     9
  0
LAYER
  5
4D2
100
AcDbSymbolTableRecord
100
AcDbLayerTableRecord
  2
Defpoints
 70
     0
 62
    10
  6
CONTINUOUS
370
    -3
  0
LAYER
  5
4D3
100
AcDbSymbolTableRecord
100
AcDbLayerTableRecord
  2
HACHURE
 70
     0
 62
   254
  6
CONTINUOUS
370
    25
  0
LAYER
  5
4D4
100
AcDbSymbolTableRecord
100
AcDbLayerTableRecord
  2
mat1
 70
     0
 62
     7
  6
CONTINUOUS
370
    30
  0
LAYER
  5
4D5
100
AcDbSymbolTableRecord
100
AcDbLayerTableRecord
  2
mat2
 70
     0
 62
     7
  6
CONTINUOUS
370
     5
  0
LAYER
  5
4D6
100
AcDbSymbolTableRecord
100
AcDbLayerTableRecord
  2
hach
 70
     0
 62
     8
  6
CONTINUOUS
370
     5
  0
LAYER
  5
4D7
100
AcDbSymbolTableRecord
100
AcDbLayerTableRecord
  2
menuiseries
 70
     0
 62
     7
  6
CONTINUOUS
370
     9
  0
LAYER
  5
4D8
100
AcDbSymbolTableRecord
100
AcDbLayerTableRecord
  2
BétonMétal
 70
     0
 62
     7
  6
CONTINUOUS
370
    80
  0
LAYER
  5
4D9
100
AcDbSymbolTableRecord
100
AcDbLayerTableRecord
  2
bois
 70
     0
 62
     7
  6
CONTINUOUS
370
    60
  0
ENDTAB
  0
TABLE
  2
VIEW
  5
4DA
100
AcDbSymbolTable
 70
     0
  0
ENDTAB
  0
TABLE
  2
UCS
  5
4DB
100
AcDbSymbolTable
 70
     0
  0
ENDTAB
  0
TABLE
  2
APPID
  5
4DC
100
AcDbSymbolTable
 70
     1
  0
APPID
  5
4DD
100
AcDbSymbolTableRecord
100
AcDbRegAppTableRecord
  2
ACAD
 70
     0
  0
ENDTAB
  0
TABLE
  2
DIMSTYLE
  5
4DE
100
AcDbSymbolTable
 70
     0
  0
ENDTAB
  0
TABLE
  2
BLOCK_RECORD
  5
4DF
100
AcDbSymbolTable
 70
     0
  0
BLOCK_RECORD
  5
4E0
100
AcDbSymbolTableRecord
100
AcDbBlockTableRecord
  2
*MODEL_SPACE
  0
BLOCK_RECORD
  5
4E1
100
AcDbSymbolTableRecord
100
AcDbBlockTableRecord
  2
*PAPER_SPACE
  0
BLOCK_RECORD
  5
4E2
100
AcDbSymbolTableRecord
100
AcDbBlockTableRecord
  2
CDWK_EXTR_0
  0
BLOCK_RECORD
  5
4E3
100
AcDbSymbolTableRecord
100
AcDbBlockTableRecord
  2
CDWK_EXTR_1D
  0
BLOCK_RECORD
  5
4E4
100
AcDbSymbolTableRecord
100
AcDbBlockTableRecord
  2
CDWK_EXTR_1G
  0
BLOCK_RECORD
  5
4E5
100
AcDbSymbolTableRecord
100
AcDbBlockTableRecord
  2
CDWK_EXTR_2
  0
BLOCK_RECORD
  5
4E6
100
AcDbSymbolTableRecord
100
AcDbBlockTableRecord
  2
CDWK_EXTR_3
  0
BLOCK_RECORD
  5
4E7
100
AcDbSymbolTableRecord
100
AcDbBlockTableRecord
  2
CDWK_EXTR_4
  0
BLOCK_RECORD
  5
4E8
100
AcDbSymbolTableRecord
100
AcDbBlockTableRecord
  2
CDWK_PTTYP0
  0
BLOCK_RECORD
  5
4E9
100
AcDbSymbolTableRecord
100
AcDbBlockTableRecord
  2
CDWK_PTTYP1
  0
BLOCK_RECORD
  5
4EA
100
AcDbSymbolTableRecord
100
AcDbBlockTableRecord
  2
CDWK_PTTYP2
  0
BLOCK_RECORD
  5
4EB
100
AcDbSymbolTableRecord
100
AcDbBlockTableRecord
  2
CDWK_PTTYP3
  0
BLOCK_RECORD
  5
4EC
100
AcDbSymbolTableRecord
100
AcDbBlockTableRecord
  2
CDWK_PTTYP4
  0
BLOCK_RECORD
  5
4ED
100
AcDbSymbolTableRecord
100
AcDbBlockTableRecord
  2
CDWK_PTTYP5
  0
BLOCK_RECORD
  5
4EE
100
AcDbSymbolTableRecord
100
AcDbBlockTableRecord
  2
CDWK_PTTYP6
  0
BLOCK_RECORD
  5
4EF
100
AcDbSymbolTableRecord
100
AcDbBlockTableRecord
  2
CDWK_PTTYP7
  0
BLOCK_RECORD
  5
4F0
100
AcDbSymbolTableRecord
100
AcDbBlockTableRecord
  2
CDWK_PTTYP8
  0
BLOCK_RECORD
  5
4F1
100
AcDbSymbolTableRecord
100
AcDbBlockTableRecord
  2
CDWK_PTTYP9
  0
BLOCK_RECORD
  5
4F2
100
AcDbSymbolTableRecord
100
AcDbBlockTableRecord
  2
CDWK_PTTYP10
  0
BLOCK_RECORD
  5
4F3
100
AcDbSymbolTableRecord
100
AcDbBlockTableRecord
  2
CDWK_PTTYP11
  0
BLOCK_RECORD
  5
4F4
100
AcDbSymbolTableRecord
100
AcDbBlockTableRecord
  2
CDWK_PTTYP12
  0
BLOCK_RECORD
  5
4F5
100
AcDbSymbolTableRecord
100
AcDbBlockTableRecord
  2
CDWK_PTTYP13
  0
BLOCK_RECORD
  5
4F6
100
AcDbSymbolTableRecord
100
AcDbBlockTableRecord
  2
CDWK_PTTYP14
  0
BLOCK_RECORD
  5
4F7
100
AcDbSymbolTableRecord
100
AcDbBlockTableRecord
  2
CDWK_PTTYP15
  0
BLOCK_RECORD
  5
4F8
100
AcDbSymbolTableRecord
100
AcDbBlockTableRecord
  2
CDWK_PTTYP16
  0
BLOCK_RECORD
  5
4F9
100
AcDbSymbolTableRecord
100
AcDbBlockTableRecord
  2
CDWK_PTTYP17
  0
BLOCK_RECORD
  5
4FA
100
AcDbSymbolTableRecord
100
AcDbBlockTableRecord
  2
CDWK_PTTYP18
  0
BLOCK_RECORD
  5
4FB
100
AcDbSymbolTableRecord
100
AcDbBlockTableRecord
  2
CDWK_PTTYP19
  0
BLOCK_RECORD
  5
4FC
100
AcDbSymbolTableRecord
100
AcDbBlockTableRecord
  2
CDWK_PTTYP20
  0
BLOCK_RECORD
  5
4FD
100
AcDbSymbolTableRecord
100
AcDbBlockTableRecord
  2
CDWK_PTTYP21
  0
BLOCK_RECORD
  5
4FE
100
AcDbSymbolTableRecord
100
AcDbBlockTableRecord
  2
CDWK_PTTYP22
  0
BLOCK_RECORD
  5
4FF
100
AcDbSymbolTableRecord
100
AcDbBlockTableRecord
  2
CDWK_PTTYP23
  0
BLOCK_RECORD
  5
500
100
AcDbSymbolTableRecord
100
AcDbBlockTableRecord
  2
CDWK_PTTYP24
  0
BLOCK_RECORD
  5
501
100
AcDbSymbolTableRecord
100
AcDbBlockTableRecord
  2
CDWK_PTTYP25
  0
BLOCK_RECORD
  5
502
100
AcDbSymbolTableRecord
100
AcDbBlockTableRecord
  2
CDWK_PTTYP26
  0
BLOCK_RECORD
  5
503
100
AcDbSymbolTableRecord
100
AcDbBlockTableRecord
  2
CDWK_PTTYP27
  0
BLOCK_RECORD
  5
504
100
AcDbSymbolTableRecord
100
AcDbBlockTableRecord
  2
CDWK_PTTYP28
  0
BLOCK_RECORD
  5
505
100
AcDbSymbolTableRecord
100
AcDbBlockTableRecord
  2
CDWK_PTTYP29
  0
BLOCK_RECORD
  5
506
100
AcDbSymbolTableRecord
100
AcDbBlockTableRecord
  2
CDWK_PTTYP30
  0
BLOCK_RECORD
  5
507
100
AcDbSymbolTableRecord
100
AcDbBlockTableRecord
  2
CDWK_PTTYP31
  0
BLOCK_RECORD
  5
508
100
AcDbSymbolTableRecord
100
AcDbBlockTableRecord
  2
CDWK_PTTYP32
  0
BLOCK_RECORD
  5
509
100
AcDbSymbolTableRecord
100
AcDbBlockTableRecord
  2
CDWK_PTTYP33
  0
BLOCK_RECORD
  5
50A
100
AcDbSymbolTableRecord
100
AcDbBlockTableRecord
  2
CDWK_PTTYP34
  0
BLOCK_RECORD
  5
50B
100
AcDbSymbolTableRecord
100
AcDbBlockTableRecord
  2
CDWK_PTTYP35
  0
BLOCK_RECORD
  5
50C
100
AcDbSymbolTableRecord
100
AcDbBlockTableRecord
  2
CDWK_PTTYP36
  0
BLOCK_RECORD
  5
50D
100
AcDbSymbolTableRecord
100
AcDbBlockTableRecord
  2
CDWK_PTTYP37
  0
BLOCK_RECORD
  5
50E
100
AcDbSymbolTableRecord
100
AcDbBlockTableRecord
  2
CDWK_PTTYP38
  0
BLOCK_RECORD
  5
50F
100
AcDbSymbolTableRecord
100
AcDbBlockTableRecord
  2
*X1
  0
ENDTAB
  0
ENDSEC
  0
SECTION
  2
BLOCKS
  0
BLOCK
  5
510
100
AcDbEntity
  8
0
100
AcDbBlockBegin
  2
*MODEL_SPACE
 70
     0
 10
0.0
 20
0.0
 30
0.0
  3
*MODEL_SPACE
  1

  0
ENDBLK
  5
511
100
AcDbEntity
100
AcDbBlockEnd
  0
BLOCK
  5
512
100
AcDbEntity
  8
0
100
AcDbBlockBegin
  2
*PAPER_SPACE
 70
     0
 10
0.0
 20
0.0
 30
0.0
  3
*PAPER_SPACE
  1

  0
ENDBLK
  5
513
100
AcDbEntity
100
AcDbBlockEnd
  0
BLOCK
  5
514
100
AcDbEntity
  8
0
100
AcDbBlockBegin
  2
CDWK_EXTR_0
 70
     0
 10
0.0
 20
0.0
 30
0.0
  3
CDWK_EXTR_0
  1

  4
Cadwork line-extremity
  0
LINE
  5
515
100
AcDbEntity
  8
0
 62
     0
370
    -2
100
AcDbLine
 10
0.0
 20
0.0
 30
0.0
 11
2.0
 21
0.5
 31
0.0
  0
LINE
  5
516
100
AcDbEntity
  8
0
 62
     0
370
    -2
100
AcDbLine
 10
0.0
 20
0.0
 30
0.0
 11
2.0
 21
-0.5
 31
0.0
  0
LINE
  5
517
100
AcDbEntity
  8
0
 62
     0
370
    -2
100
AcDbLine
 10
2.0
 20
0.5
 30
0.0
 11
2.0
 21
-0.5
 31
0.0
  0
ENDBLK
  5
518
100
AcDbEntity
100
AcDbBlockEnd
  0
BLOCK
  5
519
100
AcDbEntity
  8
0
100
AcDbBlockBegin
  2
CDWK_EXTR_1D
 70
     0
 10
0.0
 20
0.0
 30
0.0
  3
CDWK_EXTR_1D
  1

  4
Cadwork line-extremity
  0
LINE
  5
51A
100
AcDbEntity
  8
0
 62
     0
370
    -2
100
AcDbLine
 10
0.0
 20
0.0
 30
0.0
 11
0.0
 21
1.0
 31
0.0
  0
LINE
  5
51B
100
AcDbEntity
  8
0
 62
     0
370
    -2
100
AcDbLine
 10
0.0
 20
1.0
 30
0.0
 11
0.5
 21
1.5
 31
0.0
  0
LINE
  5
51C
100
AcDbEntity
  8
0
 62
     0
370
    -2
100
AcDbLine
 10
0.5
 20
1.5
 30
0.0
 11
1.5
 21
1.5
 31
0.0
  0
ENDBLK
  5
51D
100
AcDbEntity
100
AcDbBlockEnd
  0
BLOCK
  5
51E
100
AcDbEntity
  8
0
100
AcDbBlockBegin
  2
CDWK_EXTR_1G
 70
     0
 10
0.0
 20
0.0
 30
0.0
  3
CDWK_EXTR_1G
  1

  4
Cadwork line-extremity
  0
LINE
  5
51F
100
AcDbEntity
  8
0
 62
     0
370
    -2
100
AcDbLine
 10
0.0
 20
0.0
 30
0.0
 11
0.0
 21
-1.0
 31
0.0
  0
LINE
  5
520
100
AcDbEntity
  8
0
 62
     0
370
    -2
100
AcDbLine
 10
0.0
 20
-1.0
 30
0.0
 11
0.5
 21
-1.5
 31
0.0
  0
LINE
  5
521
100
AcDbEntity
  8
0
 62
     0
370
    -2
100
AcDbLine
 10
0.5
 20
-1.5
 30
0.0
 11
1.5
 21
-1.5
 31
0.0
  0
ENDBLK
  5
522
100
AcDbEntity
100
AcDbBlockEnd
  0
BLOCK
  5
523
100
AcDbEntity
  8
0
100
AcDbBlockBegin
  2
CDWK_EXTR_2
 70
     0
 10
0.0
 20
0.0
 30
0.0
  3
CDWK_EXTR_2
  1

  4
Cadwork line-extremity
  0
SOLID
  5
524
100
AcDbEntity
  8
0
 62
     0
100
AcDbTrace
 10
0.0
 20
0.0
 11
2.0
 21
0.5
 12
2.0
 22
-0.5
 13
2.0
 23
-0.5
  0
ENDBLK
  5
525
100
AcDbEntity
100
AcDbBlockEnd
  0
BLOCK
  5
526
100
AcDbEntity
  8
0
100
AcDbBlockBegin
  2
CDWK_EXTR_3
 70
     0
 10
0.0
 20
0.0
 30
0.0
  3
CDWK_EXTR_3
  1

  4
Cadwork line-extremity
  0
SOLID
  5
527
100
AcDbEntity
  8
0
 62
     0
100
AcDbTrace
 10
0.0
 20
0.0
 11
2.0
 21
0.5
 12
2.0
 22
-0.5
 13
2.0
 23
-0.5
  0
LINE
  5
528
100
AcDbEntity
  8
0
 62
     0
370
    -2
100
AcDbLine
 10
0.0
 20
1.0
 30
0.0
 11
0.0
 21
-1.0
 31
0.0
  0
ENDBLK
  5
529
100
AcDbEntity
100
AcDbBlockEnd
  0
BLOCK
  5
52A
100
AcDbEntity
  8
0
100
AcDbBlockBegin
  2
CDWK_EXTR_4
 70
     0
 10
0.0
 20
0.0
 30
0.0
  3
CDWK_EXTR_4
  1

  4
Cadwork line-extremity
  0
HATCH
  5
52B
100
AcDbEntity
  8
0
 62
     0
370
    -2
100
AcDbHatch
 10
0.0
 20
0.0
 30
0.0
210
0.0
220
0.0
230
1.0
  2
SOLID
 70
     1
 71
     0
 91
        1
 92
        1
 93
        1
 72
     2
 10
0.0
 20
0.0
 40
0.5
 50
0.0
 51
360.0
 73
     1
 97
        0
 75
     0
 76
     1
 98
        1
 10
0.0
 20
0.0
  0
ENDBLK
  5
52C
100
AcDbEntity
100
AcDbBlockEnd
  0
BLOCK
  5
52D
100
AcDbEntity
  8
0
100
AcDbBlockBegin
  2
CDWK_PTTYP0
 70
     0
 10
0.0
 20
0.0
 30
0.0
  3
CDWK_PTTYP0
  1

  4
Cadwork point
  0
POINT
  5
52E
100
AcDbEntity
  8
0
 62
     0
100
AcDbPoint
 10
0.0
 20
0.0
 30
0.0
  0
ENDBLK
  5
52F
100
AcDbEntity
100
AcDbBlockEnd
  0
BLOCK
  5
530
100
AcDbEntity
  8
0
100
AcDbBlockBegin
  2
CDWK_PTTYP1
 70
     0
 10
0.0
 20
0.0
 30
0.0
  3
CDWK_PTTYP1
  1

  4
Cadwork node
  0
LINE
  5
531
100
AcDbEntity
  8
0
 62
     0
370
    -2
100
AcDbLine
 10
-0.5
 20
0.5
 30
0.0
 11
0.5
 21
0.5
 31
0.0
  0
LINE
  5
532
100
AcDbEntity
  8
0
 62
     0
370
    -2
100
AcDbLine
 10
0.5
 20
0.5
 30
0.0
 11
0.5
 21
-0.5
 31
0.0
  0
LINE
  5
533
100
AcDbEntity
  8
0
 62
     0
370
    -2
100
AcDbLine
 10
0.5
 20
-0.5
 30
0.0
 11
-0.5
 21
-0.5
 31
0.0
  0
LINE
  5
534
100
AcDbEntity
  8
0
 62
     0
370
    -2
100
AcDbLine
 10
-0.5
 20
-0.5
 30
0.0
 11
-0.5
 21
0.5
 31
0.0
  0
ENDBLK
  5
535
100
AcDbEntity
100
AcDbBlockEnd
  0
BLOCK
  5
536
100
AcDbEntity
  8
0
100
AcDbBlockBegin
  2
CDWK_PTTYP2
 70
     0
 10
0.0
 20
0.0
 30
0.0
  3
CDWK_PTTYP2
  1

  4
Cadwork node
  0
LINE
  5
537
100
AcDbEntity
  8
0
 62
     0
370
    -2
100
AcDbLine
 10
0.0
 20
0.5
 30
0.0
 11
0.0
 21
-0.5
 31
0.0
  0
LINE
  5
538
100
AcDbEntity
  8
0
 62
     0
370
    -2
100
AcDbLine
 10
-0.5
 20
0.0
 30
0.0
 11
0.5
 21
0.0
 31
0.0
  0
ENDBLK
  5
539
100
AcDbEntity
100
AcDbBlockEnd
  0
BLOCK
  5
53A
100
AcDbEntity
  8
0
100
AcDbBlockBegin
  2
CDWK_PTTYP3
 70
     0
 10
0.0
 20
0.0
 30
0.0
  3
CDWK_PTTYP3
  1

  4
Cadwork node
  0
CIRCLE
  5
53B
100
AcDbEntity
  8
0
 62
     0
370
    -2
100
AcDbCircle
 10
0.0
 20
0.0
 30
0.0
 40
0.5
  0
ENDBLK
  5
53C
100
AcDbEntity
100
AcDbBlockEnd
  0
BLOCK
  5
53D
100
AcDbEntity
  8
0
100
AcDbBlockBegin
  2
CDWK_PTTYP4
 70
     0
 10
0.0
 20
0.0
 30
0.0
  3
CDWK_PTTYP4
  1

  4
Cadwork node
  0
HATCH
  5
53E
100
AcDbEntity
  8
0
 62
     0
370
    -2
100
AcDbHatch
 10
0.0
 20
0.0
 30
0.0
210
0.0
220
0.0
230
1.0
  2
SOLID
 70
     1
 71
     0
 91
        1
 92
        1
 93
        1
 72
     2
 10
0.0
 20
0.0
 40
0.5
 50
0.0
 51
360.0
 73
     1
 97
        0
 75
     0
 76
     1
 98
        1
 10
0.0
 20
0.0
  0
ENDBLK
  5
53F
100
AcDbEntity
100
AcDbBlockEnd
  0
BLOCK
  5
540
100
AcDbEntity
  8
0
100
AcDbBlockBegin
  2
CDWK_PTTYP5
 70
     0
 10
0.0
 20
0.0
 30
0.0
  3
CDWK_PTTYP5
  1

  4
Cadwork node
  0
LINE
  5
541
100
AcDbEntity
  8
0
 62
     0
370
    -2
100
AcDbLine
 10
-0.5
 20
0.5
 30
0.0
 11
0.5
 21
0.5
 31
0.0
  0
LINE
  5
542
100
AcDbEntity
  8
0
 62
     0
370
    -2
100
AcDbLine
 10
0.5
 20
0.5
 30
0.0
 11
0.5
 21
-0.5
 31
0.0
  0
LINE
  5
543
100
AcDbEntity
  8
0
 62
     0
370
    -2
100
AcDbLine
 10
0.5
 20
-0.5
 30
0.0
 11
-0.5
 21
-0.5
 31
0.0
  0
LINE
  5
544
100
AcDbEntity
  8
0
 62
     0
370
    -2
100
AcDbLine
 10
-0.5
 20
-0.5
 30
0.0
 11
-0.5
 21
0.5
 31
0.0
  0
SOLID
  5
545
100
AcDbEntity
  8
0
 62
     0
100
AcDbTrace
 10
-0.5
 20
-0.5
 11
-0.5
 21
0.0
 12
0.0
 22
-0.5
 13
0.0
 23
0.0
  0
SOLID
  5
546
100
AcDbEntity
  8
0
 62
     0
100
AcDbTrace
 10
0.0
 20
0.0
 11
0.0
 21
0.5
 12
0.5
 22
0.0
 13
0.5
 23
0.5
  0
ENDBLK
  5
547
100
AcDbEntity
100
AcDbBlockEnd
  0
BLOCK
  5
548
100
AcDbEntity
  8
0
100
AcDbBlockBegin
  2
CDWK_PTTYP6
 70
     0
 10
0.0
 20
0.0
 30
0.0
  3
CDWK_PTTYP6
  1

  4
Cadwork node
  0
LINE
  5
549
100
AcDbEntity
  8
0
 62
     0
370
    -2
100
AcDbLine
 10
-0.5
 20
0.5
 30
0.0
 11
0.5
 21
0.5
 31
0.0
  0
LINE
  5
54A
100
AcDbEntity
  8
0
 62
     0
370
    -2
100
AcDbLine
 10
0.5
 20
0.5
 30
0.0
 11
0.5
 21
-0.5
 31
0.0
  0
LINE
  5
54B
100
AcDbEntity
  8
0
 62
     0
370
    -2
100
AcDbLine
 10
0.5
 20
-0.5
 30
0.0
 11
-0.5
 21
-0.5
 31
0.0
  0
LINE
  5
54C
100
AcDbEntity
  8
0
 62
     0
370
    -2
100
AcDbLine
 10
-0.5
 20
-0.5
 30
0.0
 11
-0.5
 21
0.5
 31
0.0
  0
SOLID
  5
54D
100
AcDbEntity
  8
0
 62
     0
100
AcDbTrace
 10
-0.5
 20
-0.5
 11
-0.5
 21
0.5
 12
0.5
 22
0.5
 13
0.5
 23
0.5
  0
ENDBLK
  5
54E
100
AcDbEntity
100
AcDbBlockEnd
  0
BLOCK
  5
54F
100
AcDbEntity
  8
0
100
AcDbBlockBegin
  2
CDWK_PTTYP7
 70
     0
 10
0.0
 20
0.0
 30
0.0
  3
CDWK_PTTYP7
  1

  4
Cadwork node
  0
LINE
  5
550
100
AcDbEntity
  8
0
 62
     0
370
    -2
100
AcDbLine
 10
-0.5
 20
0.5
 30
0.0
 11
0.5
 21
0.5
 31
0.0
  0
LINE
  5
551
100
AcDbEntity
  8
0
 62
     0
370
    -2
100
AcDbLine
 10
0.5
 20
0.5
 30
0.0
 11
0.5
 21
-0.5
 31
0.0
  0
LINE
  5
552
100
AcDbEntity
  8
0
 62
     0
370
    -2
100
AcDbLine
 10
0.5
 20
-0.5
 30
0.0
 11
-0.5
 21
-0.5
 31
0.0
  0
LINE
  5
553
100
AcDbEntity
  8
0
 62
     0
370
    -2
100
AcDbLine
 10
-0.5
 20
-0.5
 30
0.0
 11
-0.5
 21
0.5
 31
0.0
  0
LINE
  5
554
100
AcDbEntity
  8
0
 62
     0
370
    -2
100
AcDbLine
 10
0.0
 20
0.5
 30
0.0
 11
0.0
 21
-0.5
 31
0.0
  0
LINE
  5
555
100
AcDbEntity
  8
0
 62
     0
370
    -2
100
AcDbLine
 10
-0.5
 20
0.0
 30
0.0
 11
0.5
 21
0.0
 31
0.0
  0
ENDBLK
  5
556
100
AcDbEntity
100
AcDbBlockEnd
  0
BLOCK
  5
557
100
AcDbEntity
  8
0
100
AcDbBlockBegin
  2
CDWK_PTTYP8
 70
     0
 10
0.0
 20
0.0
 30
0.0
  3
CDWK_PTTYP8
  1

  4
Cadwork node
  0
SOLID
  5
558
100
AcDbEntity
  8
0
 62
     0
100
AcDbTrace
 10
-0.5
 20
0.5
 11
0.5
 21
0.5
 12
-0.5
 22
-0.5
 13
0.5
 23
-0.5
  0
ENDBLK
  5
559
100
AcDbEntity
100
AcDbBlockEnd
  0
BLOCK
  5
55A
100
AcDbEntity
  8
0
100
AcDbBlockBegin
  2
CDWK_PTTYP9
 70
     0
 10
0.0
 20
0.0
 30
0.0
  3
CDWK_PTTYP9
  1

  4
Cadwork node
  0
CIRCLE
  5
55B
100
AcDbEntity
  8
0
 62
     0
370
    -2
100
AcDbCircle
 10
0.0
 20
0.0
 30
0.0
 40
0.5
  0
CIRCLE
  5
55C
100
AcDbEntity
  8
0
 62
     0
370
    -2
100
AcDbCircle
 10
0.0
 20
0.0
 30
0.0
 40
0.16666667
  0
ENDBLK
  5
55D
100
AcDbEntity
100
AcDbBlockEnd
  0
BLOCK
  5
55E
100
AcDbEntity
  8
0
100
AcDbBlockBegin
  2
CDWK_PTTYP10
 70
     0
 10
0.0
 20
0.0
 30
0.0
  3
CDWK_PTTYP10
  1

  4
Cadwork node
  0
CIRCLE
  5
55F
100
AcDbEntity
  8
0
 62
     0
370
    -2
100
AcDbCircle
 10
0.0
 20
0.0
 30
0.0
 40
0.5
  0
ENDBLK
  5
560
100
AcDbEntity
100
AcDbBlockEnd
  0
BLOCK
  5
561
100
AcDbEntity
  8
0
100
AcDbBlockBegin
  2
CDWK_PTTYP11
 70
     0
 10
0.0
 20
0.0
 30
0.0
  3
CDWK_PTTYP11
  1

  4
Cadwork node
  0
CIRCLE
  5
562
100
AcDbEntity
  8
0
 62
     0
370
    -2
100
AcDbCircle
 10
0.0
 20
0.0
 30
0.0
 40
0.5
  0
CIRCLE
  5
563
100
AcDbEntity
  8
0
 62
     0
370
    -2
100
AcDbCircle
 10
0.0
 20
0.0
 30
0.0
 40
0.25
  0
ENDBLK
  5
564
100
AcDbEntity
100
AcDbBlockEnd
  0
BLOCK
  5
565
100
AcDbEntity
  8
0
100
AcDbBlockBegin
  2
CDWK_PTTYP12
 70
     0
 10
0.0
 20
0.0
 30
0.0
  3
CDWK_PTTYP12
  1

  4
Cadwork node
  0
CIRCLE
  5
566
100
AcDbEntity
  8
0
 62
     0
370
    -2
100
AcDbCircle
 10
0.0
 20
0.0
 30
0.0
 40
0.5
  0
CIRCLE
  5
567
100
AcDbEntity
  8
0
 62
     0
370
    -2
100
AcDbCircle
 10
0.25
 20
0.0
 30
0.0
 40
0.25
  0
ENDBLK
  5
568
100
AcDbEntity
100
AcDbBlockEnd
  0
BLOCK
  5
569
100
AcDbEntity
  8
0
100
AcDbBlockBegin
  2
CDWK_PTTYP13
 70
     0
 10
0.0
 20
0.0
 30
0.0
  3
CDWK_PTTYP13
  1

  4
Cadwork node
  0
CIRCLE
  5
56A
100
AcDbEntity
  8
0
 62
     0
370
    -2
100
AcDbCircle
 10
0.0
 20
0.0
 30
0.0
 40
0.5
  0
CIRCLE
  5
56B
100
AcDbEntity
  8
0
 62
     0
370
    -2
100
AcDbCircle
 10
0.25
 20
0.0
 30
0.0
 40
0.25
  0
CIRCLE
  5
56C
100
AcDbEntity
  8
0
 62
     0
370
    -2
100
AcDbCircle
 10
-0.25
 20
0.0
 30
0.0
 40
0.25
  0
ENDBLK
  5
56D
100
AcDbEntity
100
AcDbBlockEnd
  0
BLOCK
  5
56E
100
AcDbEntity
  8
0
100
AcDbBlockBegin
  2
CDWK_PTTYP14
 70
     0
 10
0.0
 20
0.0
 30
0.0
  3
CDWK_PTTYP14
  1

  4
Cadwork node
  0
POINT
  5
56F
100
AcDbEntity
  8
0
 62
     0
100
AcDbPoint
 10
0.0
 20
0.0
 30
0.0
  0
ENDBLK
  5
570
100
AcDbEntity
100
AcDbBlockEnd
  0
BLOCK
  5
571
100
AcDbEntity
  8
0
100
AcDbBlockBegin
  2
CDWK_PTTYP15
 70
     0
 10
0.0
 20
0.0
 30
0.0
  3
CDWK_PTTYP15
  1

  4
Cadwork node
  0
POINT
  5
572
100
AcDbEntity
  8
0
 62
     0
100
AcDbPoint
 10
0.0
 20
0.0
 30
0.0
  0
ENDBLK
  5
573
100
AcDbEntity
100
AcDbBlockEnd
  0
BLOCK
  5
574
100
AcDbEntity
  8
0
100
AcDbBlockBegin
  2
CDWK_PTTYP16
 70
     0
 10
0.0
 20
0.0
 30
0.0
  3
CDWK_PTTYP16
  1

  4
Cadwork node
  0
LINE
  5
575
100
AcDbEntity
  8
0
 62
     0
370
    -2
100
AcDbLine
 10
-0.5
 20
-0.28867513
 30
0.0
 11
0.5
 21
-0.28867513
 31
0.0
  0
LINE
  5
576
100
AcDbEntity
  8
0
 62
     0
370
    -2
100
AcDbLine
 10
0.5
 20
-0.28867513
 30
0.0
 11
0.0
 21
0.57735027
 31
0.0
  0
LINE
  5
577
100
AcDbEntity
  8
0
 62
     0
370
    -2
100
AcDbLine
 10
0.0
 20
0.57735027
 30
0.0
 11
-0.5
 21
-0.28867513
 31
0.0
  0
CIRCLE
  5
578
100
AcDbEntity
  8
0
 62
     0
370
    -2
100
AcDbCircle
 10
0.0
 20
0.0
 30
0.0
 40
0.28867513
  0
ENDBLK
  5
579
100
AcDbEntity
100
AcDbBlockEnd
  0
BLOCK
  5
57A
100
AcDbEntity
  8
0
100
AcDbBlockBegin
  2
CDWK_PTTYP17
 70
     0
 10
0.0
 20
0.0
 30
0.0
  3
CDWK_PTTYP17
  1

  4
Cadwork node
  0
CIRCLE
  5
57B
100
AcDbEntity
  8
0
 62
     0
370
    -2
100
AcDbCircle
 10
0.0
 20
0.0
 30
0.0
 40
0.5
  0
HATCH
  5
57C
100
AcDbEntity
  8
0
 62
     0
370
    -2
100
AcDbHatch
 10
0.0
 20
0.0
 30
0.0
210
0.0
220
0.0
230
1.0
  2
SOLID
 70
     1
 71
     0
 91
        1
 92
        1
 93
        1
 72
     2
 10
0.0
 20
0.0
 40
0.25
 50
0.0
 51
360.0
 73
     1
 97
        0
 75
     0
 76
     1
 98
        1
 10
0.0
 20
0.0
  0
ENDBLK
  5
57D
100
AcDbEntity
100
AcDbBlockEnd
  0
BLOCK
  5
57E
100
AcDbEntity
  8
0
100
AcDbBlockBegin
  2
CDWK_PTTYP18
 70
     0
 10
0.0
 20
0.0
 30
0.0
  3
CDWK_PTTYP18
  1

  4
Cadwork node
  0
CIRCLE
  5
57F
100
AcDbEntity
  8
0
 62
     0
370
    -2
100
AcDbCircle
 10
0.0
 20
0.0
 30
0.0
 40
0.5
  0
CIRCLE
  5
580
100
AcDbEntity
  8
0
 62
     0
370
    -2
100
AcDbCircle
 10
0.0
 20
0.0
 30
0.0
 40
0.2
  0
ENDBLK
  5
581
100
AcDbEntity
100
AcDbBlockEnd
  0
BLOCK
  5
582
100
AcDbEntity
  8
0
100
AcDbBlockBegin
  2
CDWK_PTTYP19
 70
     0
 10
0.0
 20
0.0
 30
0.0
  3
CDWK_PTTYP19
  1

  4
Cadwork node
  0
CIRCLE
  5
583
100
AcDbEntity
  8
0
 62
     0
370
    -2
100
AcDbCircle
 10
0.0
 20
0.0
 30
0.0
 40
0.4
  0
CIRCLE
  5
584
100
AcDbEntity
  8
0
 62
     0
370
    -2
100
AcDbCircle
 10
0.0
 20
0.0
 30
0.0
 40
0.25
  0
LINE
  5
585
100
AcDbEntity
  8
0
 62
     0
370
    -2
100
AcDbLine
 10
-0.25
 20
0.0
 30
0.0
 11
0.25
 21
0.0
 31
0.0
  0
ENDBLK
  5
586
100
AcDbEntity
100
AcDbBlockEnd
  0
BLOCK
  5
587
100
AcDbEntity
  8
0
100
AcDbBlockBegin
  2
CDWK_PTTYP20
 70
     0
 10
0.0
 20
0.0
 30
0.0
  3
CDWK_PTTYP20
  1

  4
Cadwork node
  0
CIRCLE
  5
588
100
AcDbEntity
  8
0
 62
     0
370
    -2
100
AcDbCircle
 10
0.0
 20
0.0
 30
0.0
 40
0.5
  0
CIRCLE
  5
589
100
AcDbEntity
  8
0
 62
     0
370
    -2
100
AcDbCircle
 10
0.0
 20
0.0
 30
0.0
 40
0.3
  0
ENDBLK
  5
58A
100
AcDbEntity
100
AcDbBlockEnd
  0
BLOCK
  5
58B
100
AcDbEntity
  8
0
100
AcDbBlockBegin
  2
CDWK_PTTYP21
 70
     0
 10
0.0
 20
0.0
 30
0.0
  3
CDWK_PTTYP21
  1

  4
Cadwork node
  0
CIRCLE
  5
58C
100
AcDbEntity
  8
0
 62
     0
370
    -2
100
AcDbCircle
 10
0.0
 20
0.0
 30
0.0
 40
0.5
  0
LINE
  5
58D
100
AcDbEntity
  8
0
 62
     0
370
    -2
100
AcDbLine
 10
-0.5
 20
0.0
 30
0.0
 11
0.5
 21
0.0
 31
0.0
  0
ENDBLK
  5
58E
100
AcDbEntity
100
AcDbBlockEnd
  0
BLOCK
  5
58F
100
AcDbEntity
  8
0
100
AcDbBlockBegin
  2
CDWK_PTTYP22
 70
     0
 10
0.0
 20
0.0
 30
0.0
  3
CDWK_PTTYP22
  1

  4
Cadwork node
  0
POINT
  5
590
100
AcDbEntity
  8
0
 62
     0
100
AcDbPoint
 10
0.0
 20
0.0
 30
0.0
  0
ENDBLK
  5
591
100
AcDbEntity
100
AcDbBlockEnd
  0
BLOCK
  5
592
100
AcDbEntity
  8
0
100
AcDbBlockBegin
  2
CDWK_PTTYP23
 70
     0
 10
0.0
 20
0.0
 30
0.0
  3
CDWK_PTTYP23
  1

  4
Cadwork node
  0
POINT
  5
593
100
AcDbEntity
  8
0
 62
     0
100
AcDbPoint
 10
0.0
 20
0.0
 30
0.0
  0
ENDBLK
  5
594
100
AcDbEntity
100
AcDbBlockEnd
  0
BLOCK
  5
595
100
AcDbEntity
  8
0
100
AcDbBlockBegin
  2
CDWK_PTTYP24
 70
     0
 10
0.0
 20
0.0
 30
0.0
  3
CDWK_PTTYP24
  1

  4
Cadwork node
  0
POINT
  5
596
100
AcDbEntity
  8
0
 62
     0
100
AcDbPoint
 10
0.0
 20
0.0
 30
0.0
  0
ENDBLK
  5
597
100
AcDbEntity
100
AcDbBlockEnd
  0
BLOCK
  5
598
100
AcDbEntity
  8
0
100
AcDbBlockBegin
  2
CDWK_PTTYP25
 70
     0
 10
0.0
 20
0.0
 30
0.0
  3
CDWK_PTTYP25
  1

  4
Cadwork node
  0
LINE
  5
599
100
AcDbEntity
  8
0
 62
     0
370
    -2
100
AcDbLine
 10
-0.43290044
 20
-0.25
 30
0.0
 11
0.43290044
 21
-0.25
 31
0.0
  0
LINE
  5
59A
100
AcDbEntity
  8
0
 62
     0
370
    -2
100
AcDbLine
 10
-0.43290044
 20
-0.25
 30
0.0
 11
0.0
 21
0.5
 31
0.0
  0
LINE
  5
59B
100
AcDbEntity
  8
0
 62
     0
370
    -2
100
AcDbLine
 10
0.43290044
 20
-0.25
 30
0.0
 11
0.0
 21
0.5
 31
0.0
  0
CIRCLE
  5
59C
100
AcDbEntity
  8
0
 62
     0
370
    -2
100
AcDbCircle
 10
0.0
 20
0.0
 30
0.0
 40
0.5
  0
ENDBLK
  5
59D
100
AcDbEntity
100
AcDbBlockEnd
  0
BLOCK
  5
59E
100
AcDbEntity
  8
0
100
AcDbBlockBegin
  2
CDWK_PTTYP26
 70
     0
 10
0.0
 20
0.0
 30
0.0
  3
CDWK_PTTYP26
  1

  4
Cadwork node
  0
LINE
  5
59F
100
AcDbEntity
  8
0
 62
     0
370
    -2
100
AcDbLine
 10
-0.5
 20
-0.28850001
 30
0.0
 11
0.5
 21
-0.28850001
 31
0.0
  0
LINE
  5
5A0
100
AcDbEntity
  8
0
 62
     0
370
    -2
100
AcDbLine
 10
-0.5
 20
-0.28850001
 30
0.0
 11
0.0
 21
0.57736721
 31
0.0
  0
LINE
  5
5A1
100
AcDbEntity
  8
0
 62
     0
370
    -2
100
AcDbLine
 10
0.5
 20
-0.28850001
 30
0.0
 11
0.0
 21
0.57736721
 31
0.0
  0
CIRCLE
  5
5A2
100
AcDbEntity
  8
0
 62
     0
370
    -2
100
AcDbCircle
 10
0.0
 20
0.0
 30
0.0
 40
0.1312336
  0
ENDBLK
  5
5A3
100
AcDbEntity
100
AcDbBlockEnd
  0
BLOCK
  5
5A4
100
AcDbEntity
  8
0
100
AcDbBlockBegin
  2
CDWK_PTTYP27
 70
     0
 10
0.0
 20
0.0
 30
0.0
  3
CDWK_PTTYP27
  1

  4
Cadwork node
  0
LINE
  5
5A5
100
AcDbEntity
  8
0
 62
     0
370
    -2
100
AcDbLine
 10
-0.43290044
 20
-0.25
 30
0.0
 11
0.43290044
 21
-0.25
 31
0.0
  0
LINE
  5
5A6
100
AcDbEntity
  8
0
 62
     0
370
    -2
100
AcDbLine
 10
-0.43290044
 20
-0.25
 30
0.0
 11
0.0
 21
0.5
 31
0.0
  0
LINE
  5
5A7
100
AcDbEntity
  8
0
 62
     0
370
    -2
100
AcDbLine
 10
0.43290044
 20
-0.25
 30
0.0
 11
0.0
 21
0.5
 31
0.0
  0
CIRCLE
  5
5A8
100
AcDbEntity
  8
0
 62
     0
370
    -2
100
AcDbCircle
 10
0.0
 20
0.0
 30
0.0
 40
0.5
  0
CIRCLE
  5
5A9
100
AcDbEntity
  8
0
 62
     0
370
    -2
100
AcDbCircle
 10
0.0
 20
0.0
 30
0.0
 40
0.1312336
  0
ENDBLK
  5
5AA
100
AcDbEntity
100
AcDbBlockEnd
  0
BLOCK
  5
5AB
100
AcDbEntity
  8
0
100
AcDbBlockBegin
  2
CDWK_PTTYP28
 70
     0
 10
0.0
 20
0.0
 30
0.0
  3
CDWK_PTTYP28
  1

  4
Cadwork node
  0
POINT
  5
5AC
100
AcDbEntity
  8
0
 62
     0
100
AcDbPoint
 10
0.0
 20
0.0
 30
0.0
  0
ENDBLK
  5
5AD
100
AcDbEntity
100
AcDbBlockEnd
  0
BLOCK
  5
5AE
100
AcDbEntity
  8
0
100
AcDbBlockBegin
  2
CDWK_PTTYP29
 70
     0
 10
0.0
 20
0.0
 30
0.0
  3
CDWK_PTTYP29
  1

  4
Cadwork node
  0
CIRCLE
  5
5AF
100
AcDbEntity
  8
0
 62
     0
370
    -2
100
AcDbCircle
 10
0.0
 20
0.0
 30
0.0
 40
0.5
  0
CIRCLE
  5
5B0
100
AcDbEntity
  8
0
 62
     0
370
    -2
100
AcDbCircle
 10
0.0
 20
0.0
 30
0.0
 40
0.375
  0
CIRCLE
  5
5B1
100
AcDbEntity
  8
0
 62
     0
370
    -2
100
AcDbCircle
 10
0.0
 20
0.0
 30
0.0
 40
0.21875
  0
ENDBLK
  5
5B2
100
AcDbEntity
100
AcDbBlockEnd
  0
BLOCK
  5
5B3
100
AcDbEntity
  8
0
100
AcDbBlockBegin
  2
CDWK_PTTYP30
 70
     0
 10
0.0
 20
0.0
 30
0.0
  3
CDWK_PTTYP30
  1

  4
Cadwork node
  0
LINE
  5
5B4
100
AcDbEntity
  8
0
 62
     0
370
    -2
100
AcDbLine
 10
0.17680339
 20
0.17680339
 30
0.0
 11
0.5
 21
0.5
 31
0.0
  0
LINE
  5
5B5
100
AcDbEntity
  8
0
 62
     0
370
    -2
100
AcDbLine
 10
-0.17680339
 20
0.17680339
 30
0.0
 11
-0.5
 21
0.5
 31
0.0
  0
LINE
  5
5B6
100
AcDbEntity
  8
0
 62
     0
370
    -2
100
AcDbLine
 10
0.17680339
 20
-0.17680339
 30
0.0
 11
0.5
 21
-0.5
 31
0.0
  0
LINE
  5
5B7
100
AcDbEntity
  8
0
 62
     0
370
    -2
100
AcDbLine
 10
-0.17680339
 20
-0.17680339
 30
0.0
 11
-0.5
 21
-0.5
 31
0.0
  0
ENDBLK
  5
5B8
100
AcDbEntity
100
AcDbBlockEnd
  0
BLOCK
  5
5B9
100
AcDbEntity
  8
0
100
AcDbBlockBegin
  2
CDWK_PTTYP31
 70
     0
 10
0.0
 20
0.0
 30
0.0
  3
CDWK_PTTYP31
  1

  4
Cadwork node
  0
CIRCLE
  5
5BA
100
AcDbEntity
  8
0
 62
     0
370
    -2
100
AcDbCircle
 10
0.0
 20
0.0
 30
0.0
 40
0.075
  0
LINE
  5
5BB
100
AcDbEntity
  8
0
 62
     0
370
    -2
100
AcDbLine
 10
0.075
 20
0.0
 30
0.0
 11
0.5
 21
0.0
 31
0.0
  0
LINE
  5
5BC
100
AcDbEntity
  8
0
 62
     0
370
    -2
100
AcDbLine
 10
-0.075
 20
0.0
 30
0.0
 11
-0.5
 21
0.0
 31
0.0
  0
LINE
  5
5BD
100
AcDbEntity
  8
0
 62
     0
370
    -2
100
AcDbLine
 10
0.0
 20
0.075
 30
0.0
 11
0.0
 21
0.5
 31
0.0
  0
LINE
  5
5BE
100
AcDbEntity
  8
0
 62
     0
370
    -2
100
AcDbLine
 10
0.0
 20
-0.075
 30
0.0
 11
0.0
 21
-0.5
 31
0.0
  0
ENDBLK
  5
5BF
100
AcDbEntity
100
AcDbBlockEnd
  0
BLOCK
  5
5C0
100
AcDbEntity
  8
0
100
AcDbBlockBegin
  2
CDWK_PTTYP32
 70
     0
 10
0.0
 20
0.0
 30
0.0
  3
CDWK_PTTYP32
  1

  4
Cadwork node
  0
CIRCLE
  5
5C1
100
AcDbEntity
  8
0
 62
     0
370
    -2
100
AcDbCircle
 10
0.0
 20
0.0
 30
0.0
 40
0.5
  0
CIRCLE
  5
5C2
100
AcDbEntity
  8
0
 62
     0
370
    -2
100
AcDbCircle
 10
0.0
 20
0.0
 30
0.0
 40
0.16666667
  0
LINE
  5
5C3
100
AcDbEntity
  8
0
 62
     0
370
    -2
100
AcDbLine
 10
0.11786893
 20
0.11786893
 30
0.0
 11
0.35360678
 21
0.35360678
 31
0.0
  0
LINE
  5
5C4
100
AcDbEntity
  8
0
 62
     0
370
    -2
100
AcDbLine
 10
-0.11786893
 20
0.11786893
 30
0.0
 11
-0.35360678
 21
0.35360678
 31
0.0
  0
LINE
  5
5C5
100
AcDbEntity
  8
0
 62
     0
370
    -2
100
AcDbLine
 10
0.11786893
 20
-0.11786893
 30
0.0
 11
0.35360678
 21
-0.35360678
 31
0.0
  0
LINE
  5
5C6
100
AcDbEntity
  8
0
 62
     0
370
    -2
100
AcDbLine
 10
-0.11786893
 20
-0.11786893
 30
0.0
 11
-0.35360678
 21
-0.35360678
 31
0.0
  0
ENDBLK
  5
5C7
100
AcDbEntity
100
AcDbBlockEnd
  0
BLOCK
  5
5C8
100
AcDbEntity
  8
0
100
AcDbBlockBegin
  2
CDWK_PTTYP33
 70
     0
 10
0.0
 20
0.0
 30
0.0
  3
CDWK_PTTYP33
  1

  4
Cadwork node
  0
CIRCLE
  5
5C9
100
AcDbEntity
  8
0
 62
     0
370
    -2
100
AcDbCircle
 10
0.0
 20
0.0
 30
0.0
 40
0.5
  0
LINE
  5
5CA
100
AcDbEntity
  8
0
 62
     0
370
    -2
100
AcDbLine
 10
0.0
 20
0.5
 30
0.0
 11
0.0
 21
-0.5
 31
0.0
  0
LINE
  5
5CB
100
AcDbEntity
  8
0
 62
     0
370
    -2
100
AcDbLine
 10
-0.5
 20
0.0
 30
0.0
 11
0.5
 21
0.0
 31
0.0
  0
ENDBLK
  5
5CC
100
AcDbEntity
100
AcDbBlockEnd
  0
BLOCK
  5
5CD
100
AcDbEntity
  8
0
100
AcDbBlockBegin
  2
CDWK_PTTYP34
 70
     0
 10
0.0
 20
0.0
 30
0.0
  3
CDWK_PTTYP34
  1

  4
Cadwork node
  0
CIRCLE
  5
5CE
100
AcDbEntity
  8
0
 62
     0
370
    -2
100
AcDbCircle
 10
0.0
 20
0.0
 30
0.0
 40
0.5
  0
LINE
  5
5CF
100
AcDbEntity
  8
0
 62
     0
370
    -2
100
AcDbLine
 10
-0.30360678
 20
-0.40360678
 30
0.0
 11
0.40360678
 21
0.30360678
 31
0.0
  0
LINE
  5
5D0
100
AcDbEntity
  8
0
 62
     0
370
    -2
100
AcDbLine
 10
-0.40360678
 20
-0.30360678
 30
0.0
 11
0.30360678
 21
0.40360678
 31
0.0
  0
ENDBLK
  5
5D1
100
AcDbEntity
100
AcDbBlockEnd
  0
BLOCK
  5
5D2
100
AcDbEntity
  8
0
100
AcDbBlockBegin
  2
CDWK_PTTYP35
 70
     0
 10
0.0
 20
0.0
 30
0.0
  3
CDWK_PTTYP35
  1

  4
Cadwork node
  0
CIRCLE
  5
5D3
100
AcDbEntity
  8
0
 62
     0
370
    -2
100
AcDbCircle
 10
0.0
 20
0.0
 30
0.0
 40
0.21431634
  0
LINE
  5
5D4
100
AcDbEntity
  8
0
 62
     0
370
    -2
100
AcDbLine
 10
0.0
 20
0.21431634
 30
0.0
 11
0.0
 21
0.5
 31
0.0
  0
LINE
  5
5D5
100
AcDbEntity
  8
0
 62
     0
370
    -2
100
AcDbLine
 10
0.0
 20
-0.21431634
 30
0.0
 11
0.0
 21
-0.5
 31
0.0
  0
ENDBLK
  5
5D6
100
AcDbEntity
100
AcDbBlockEnd
  0
BLOCK
  5
5D7
100
AcDbEntity
  8
0
100
AcDbBlockBegin
  2
CDWK_PTTYP36
 70
     0
 10
0.0
 20
0.0
 30
0.0
  3
CDWK_PTTYP36
  1

  4
Cadwork node
  0
LINE
  5
5D8
100
AcDbEntity
  8
0
 62
     0
370
    -2
100
AcDbLine
 10
-0.5
 20
-0.16666667
 30
0.0
 11
0.5
 21
-0.16666667
 31
0.0
  0
LINE
  5
5D9
100
AcDbEntity
  8
0
 62
     0
370
    -2
100
AcDbLine
 10
0.5
 20
-0.16666667
 30
0.0
 11
0.5
 21
0.16666667
 31
0.0
  0
LINE
  5
5DA
100
AcDbEntity
  8
0
 62
     0
370
    -2
100
AcDbLine
 10
0.5
 20
0.16666667
 30
0.0
 11
-0.5
 21
0.16666667
 31
0.0
  0
LINE
  5
5DB
100
AcDbEntity
  8
0
 62
     0
370
    -2
100
AcDbLine
 10
-0.5
 20
0.16666667
 30
0.0
 11
-0.5
 21
-0.16666667
 31
0.0
  0
SOLID
  5
5DC
100
AcDbEntity
  8
0
 62
     0
100
AcDbTrace
 10
-0.5
 20
-0.16666667
 11
0.5
 21
0.16666667
 12
0.5
 22
-0.16666667
 13
0.5
 23
-0.16666667
  0
ENDBLK
  5
5DD
100
AcDbEntity
100
AcDbBlockEnd
  0
BLOCK
  5
5DE
100
AcDbEntity
  8
0
100
AcDbBlockBegin
  2
CDWK_PTTYP37
 70
     0
 10
0.0
 20
0.0
 30
0.0
  3
CDWK_PTTYP37
  1

  4
Cadwork node
  0
CIRCLE
  5
5DF
100
AcDbEntity
  8
0
 62
     0
370
    -2
100
AcDbCircle
 10
0.0
 20
0.0
 30
0.0
 40
0.5
  0
SOLID
  5
5E0
100
AcDbEntity
  8
0
 62
     0
100
AcDbTrace
 10
0.0
 20
0.0
 11
0.35350001
 21
0.35350001
 12
0.5
 22
0.0
 13
0.46200001
 23
0.19149999
  0
SOLID
  5
5E1
100
AcDbEntity
  8
0
 62
     0
100
AcDbTrace
 10
0.0
 20
0.0
 11
0.35350001
 21
-0.35350001
 12
0.5
 22
0.0
 13
0.46200001
 23
-0.19149999
  0
SOLID
  5
5E2
100
AcDbEntity
  8
0
 62
     0
100
AcDbTrace
 10
0.0
 20
0.0
 11
0.0
 21
-0.5
 12
0.35350001
 22
-0.35350001
 13
0.19149999
 23
-0.46200001
  0
SOLID
  5
5E3
100
AcDbEntity
  8
0
 62
     0
100
AcDbTrace
 10
0.0
 20
0.0
 11
0.0
 21
-0.5
 12
-0.35350001
 22
-0.35350001
 13
-0.19149999
 23
-0.46200001
  0
ENDBLK
  5
5E4
100
AcDbEntity
100
AcDbBlockEnd
  0
BLOCK
  5
5E5
100
AcDbEntity
  8
0
100
AcDbBlockBegin
  2
CDWK_PTTYP38
 70
     0
 10
0.0
 20
0.0
 30
0.0
  3
CDWK_PTTYP38
  1

  4
Cadwork node
  0
CIRCLE
  5
5E6
100
AcDbEntity
  8
0
 62
     0
370
    -2
100
AcDbCircle
 10
0.0
 20
0.0
 30
0.0
 40
0.5
  0
SOLID
  5
5E7
100
AcDbEntity
  8
0
 62
     0
100
AcDbTrace
 10
0.0
 20
0.0
 11
0.35350001
 21
0.35350001
 12
0.0
 22
0.5
 13
0.19149999
 23
0.46200001
  0
SOLID
  5
5E8
100
AcDbEntity
  8
0
 62
     0
100
AcDbTrace
 10
0.0
 20
0.0
 11
0.5
 21
0.0
 12
0.35350001
 22
0.35350001
 13
0.46200001
 23
0.19149999
  0
SOLID
  5
5E9
100
AcDbEntity
  8
0
 62
     0
100
AcDbTrace
 10
0.0
 20
0.0
 11
0.0
 21
-0.5
 12
-0.35350001
 22
-0.35350001
 13
-0.19149999
 23
-0.46200001
  0
SOLID
  5
5EA
100
AcDbEntity
  8
0
 62
     0
100
AcDbTrace
 10
0.0
 20
0.0
 11
-0.5
 21
0.0
 12
-0.35350001
 22
-0.35350001
 13
-0.46200001
 23
-0.19149999
  0
ENDBLK
  5
5EB
100
AcDbEntity
100
AcDbBlockEnd
  0
BLOCK
  5
5EC
100
AcDbEntity
  8
Ech.1_5
100
AcDbBlockBegin
  2
*X1
 70
     1
 10
0.0
 20
0.0
 30
0.0
  3
*X1
  1

  4
Cadwork hatch
  0
LINE
  5
5ED
100
AcDbEntity
  8
Ech.1_5
 62
   190
  6
CONTINUOUS
370
    -2
100
AcDbLine
 10
33622.42950271
 20
-6177.99737296
 30
0.0
 11
33442.42943787
 21
-6132.99676145
 31
0.0
  0
LINE
  5
5EE
100
AcDbEntity
  8
Ech.1_5
 62
   190
  6
CONTINUOUS
370
    -2
100
AcDbLine
 10
33622.42950271
 20
-6132.99676145
 30
0.0
 11
33442.42943787
 21
-6177.99737296
 31
0.0
  0
ENDBLK
  5
5EF
100
AcDbEntity
100
AcDbBlockEnd
  0
ENDSEC
  0
SECTION
  2
ENTITIES
  0
INSERT
  5
5F0
100
AcDbEntity
  8
Ech.1_5
 62
     0
100
AcDbBlockReference
  2
*X1
 10
0.0
 20
0.0
 30
0.0
  0
3DFACE
  5
5F1
102
{ACAD_REACTORS
330
5F2
102
}
100
AcDbEntity
  8
Ech.1_5
 62
     9
  6
CONTINUOUS
370
    -3
100
AcDbFace
 70
     0
 10
33601.68002687
 20
-6177.99657465
 30
2500.0
 11
33601.68002687
 21
-6407.99657465
 31
2500.0
 12
33642.42822237
 22
-6407.99657465
 32
2500.0
 13
33642.42822237
 23
-6177.99657465
 33
2500.0
  0
HATCH
  5
5F2
100
AcDbEntity
  8
Ech.1_5
 62
     9
  6
CONTINUOUS
100
AcDbHatch
 10
0.0
 20
0.0
 30
0.0
210
0.0
220
0.0
230
1.0
  2
HONEY
 70
     0
 71
     1
 91
        1
 92
        7
 72
     0
 73
     1
 93
        4
 10
33601.68002687
 20
-6177.99657465
 10
33601.68002687
 20
-6407.99657465
 10
33642.42822237
 20
-6407.99657465
 10
33642.42822237
 20
-6177.99657465
 97
        1
330
5F1
 75
     0
 76
     2
 52
0.0
 41
1.0
 77
     0
 78
     3
 53
0.0
 43
0.0
 44
0.0
 45
13.85639974
 46
8.00000012
 79
     2
 49
9.23760046
 49
-18.47520093
 53
120.0
 43
0.0
 44
0.0
 45
-13.8564032
 46
7.99999412
 79
     2
 49
9.23760046
 49
-18.47520093
 53
60.0
 43
0.0
 44
0.0
 45
-3.4622091523373E-06
 46
15.99999424
 79
     4
 49
0.0
 49
-18.47520093
 49
9.23760046
 49
0.0
 47
0.775229
 98
        1
 10
0.0
 20
0.0
  0
LWPOLYLINE
  5
5F3
100
AcDbEntity
  8
Ech.1_5
 62
     9
  6
CONTINUOUS
370
    -3
100
AcDbPolyline
 90
        6
 70
     0
 43
0.0
 10
34064.16279359
 20
-5978.82452582
 10
34064.16426941
 20
-6279.10407186
 10
34082.14161781
 20
-6295.58957506
 10
34046.1859178
 20
-6281.47963453
 10
34064.16426941
 20
-6297.96598936
 10
34064.16344712
 20
-6474.99648595
  0
LINE
  5
5F4
100
AcDbEntity
  8
Ech.1_5
 62
   190
  6
CONTINUOUS
370
    -3
100
AcDbLine
 10
33622.42818854
 20
-6132.99657178
 30
0.0
 11
33622.42818854
 21
-5899.59467054
 31
0.0
  0
LWPOLYLINE
  5
5F5
100
AcDbEntity
  8
Ech.1_5
 62
   190
  6
CONTINUOUS
370
    -3
100
AcDbPolyline
 90
        8
 70
     1
 43
0.0
 10
33442.42818854
 20
-5678.87884247
 10
33442.42818854
 20
-6177.99657465
 10
33622.42818854
 20
-6177.99657465
 10
33622.42818854
 20
-5678.8789922
 10
33523.72360926
 20
-5678.87859166
 10
33507.23725517
 20
-5696.85694325
 10
33521.34719519
 20
-5660.90124333
 10
33504.86169204
 20
-5678.87859166
  0
LWPOLYLINE
  5
5F6
100
AcDbEntity
  8
Ech.1_5
 62
   190
  6
CONTINUOUS
370
    -3
100
AcDbPolyline
 90
        3
 70
     0
 43
0.0
 10
33557.0835785
 20
-6177.99657465
 10
33584.66359971
 20
-6170.6163857
 42
-0.26305507
 10
33613.24991953
 20
-6177.99657465
  0
LWPOLYLINE
  5
5F7
102
{ACAD_REACTORS
330
5F8
102
}
100
AcDbEntity
  8
Ech.1_5
 62
     9
  6
CONTINUOUS
370
    -3
100
AcDbPolyline
 90
        8
 70
     1
 43
0.0
 10
34064.16316498
 20
-6177.99657465
 10
33642.42818854
 20
-6177.99657465
 10
33642.42818854
 20
-6397.99657465
 10
34064.16380478
 20
-6397.99657465
 10
34064.16426941
 20
-6297.96598936
 10
34046.1859178
 20
-6281.47963453
 10
34082.14161781
 20
-6295.58957506
 10
34064.16426941
 20
-6279.10407186
  0
HATCH
  5
5F8
100
AcDbEntity
  8
Ech.1_5
 62
     9
  6
CONTINUOUS
100
AcDbHatch
 10
0.0
 20
0.0
 30
0.0
210
0.0
220
0.0
230
1.0
  2
AR-CONC
 70
     0
 71
     1
 91
        1
 92
        7
 72
     0
 73
     1
 93
        8
 10
34064.16316498
 20
-6177.99657465
 10
33642.42818854
 20
-6177.99657465
 10
33642.42818854
 20
-6397.99657465
 10
34064.16380478
 20
-6397.99657465
 10
34064.16426941
 20
-6297.96598936
 10
34046.1859178
 20
-6281.47963453
 10
34082.14161781
 20
-6295.58957506
 10
34064.16426941
 20
-6279.10407186
 97
        1
330
5F7
 75
     0
 76
     2
 52
0.0
 41
0.11811097
 77
     0
 78
    13
 53
50.0
 43
0.0
 44
0.0
 45
-18.84283637
 46
1.64853443
 79
     2
 49
1.97029307
 49
-21.67322338
 53
355.0
 43
0.0
 44
0.0
 45
-3.64507756
 46
19.76051824
 79
     2
 49
1.57623377
 49
-17.3385787
 53
100.45140076
 43
1.57023568
 44
-0.13737749
 45
-15.19777228
 46
-18.11197244
 79
     2
 49
1.67449124
 49
-18.41940522
 53
46.18420029
 43
0.0
 44
5.25411576
 45
-28.03703353
 46
4.34827878
 79
     2
 49
2.95543872
 49
-32.50983238
 53
96.63559723
 43
2.33641885
 44
4.89175692
 45
-24.55412615
 46
-25.59063404
 79
     2
 49
2.51173697
 49
-27.62910426
 53
351.1842041
 43
0.0
 44
5.25411576
 45
24.55410288
 46
25.59065715
 79
     2
 49
2.36435249
 49
-26.00786805
 53
21.0
 43
2.62705699
 44
3.94058615
 45
-15.68109068
 46
10.57702905
 79
     2
 49
1.97029307
 49
-21.67322338
 53
326.0
 43
2.62705699
 44
3.94058615
 45
6.39203268
 46
19.05010734
 79
     2
 49
1.57623377
 49
-17.3385787
 53
71.45140076
 43
3.93381357
 44
3.05916555
 45
-22.07312962
 46
-8.47306182
 79
     2
 49
1.67449124
 49
-18.41940522
 53
37.5
 43
0.0
 44
0.0
 45
0.31944534
 46
8.74531245
 79
     6
 49
0.01875
 49
-17.12841332
 49
0.01875
 49
-17.60128498
 49
0.01875
 49
-17.40425348
 53
7.5
 43
0.0
 44
0.0
 45
6.91098818
 46
10.3614222
 79
     6
 49
0.01875
 49
-10.03535807
 49
0.01875
 49
-16.7343539
 49
0.01875
 49
-6.6333206
 53
-32.5
 43
-5.85833833
 44
0.0
 45
14.02382061
 46
-0.59253003
 79
     6
 49
0.01875
 49
-6.56764314
 49
0.01875
 49
-20.49104869
 49
0.01875
 49
-27.19004452
 53
-42.5
 43
-8.48539531
 44
0.0
 45
15.32063571
 46
2.62981542
 79
     6
 49
0.01875
 49
-8.53793621
 49
0.01875
 49
-13.60815793
 49
0.01875
 49
-19.30887222
 47
0.775229
 98
        1
 10
0.0
 20
0.0
  0
LWPOLYLINE
  5
5F9
100
AcDbEntity
  8
Ech.1_5
 62
   190
  6
CONTINUOUS
370
    -3
100
AcDbPolyline
 90
        4
 70
     1
 43
0.0
 10
33622.42818854
 20
-6177.99657465
 10
33622.42818854
 20
-6132.99657465
 10
33442.42818854
 20
-6132.99657465
 10
33442.42818854
 20
-6177.99657465
  0
LWPOLYLINE
  5
5FA
100
AcDbEntity
  8
Ech.1_5
 62
     5
  6
CONTINUOUS
370
    -3
100
AcDbPolyline
 90
        5
 70
     0
 43
0.0
 10
33442.42818854
 20
-6177.99657465
 10
33442.42818854
 20
-6132.99657465
 10
33622.42818854
 20
-6132.99657465
 10
33622.42818854
 20
-6177.99657465
 10
33442.42818854
 20
-6177.99657465
  0
LWPOLYLINE
  5
5FB
100
AcDbEntity
  8
Ech.1_5
 62
   190
  6
CONTINUOUS
370
    -3
100
AcDbPolyline
 90
        3
 70
     0
 43
0.0
 10
33637.89673688
 20
-6352.99657465
 42
-0.17090242
 10
33635.90799386
 20
-6353.11654592
 10
33635.48753463
 20
-6352.99657465
  0
LWPOLYLINE
  5
5FC
100
AcDbEntity
  8
Ech.1_5
 62
   254
  6
CONTINUOUS
370
    -3
100
AcDbPolyline
 90
        5
 70
     1
 43
0.0
 10
33644.19549452
 20
-5678.87916768
 10
33643.92818854
 20
-5678.87917531
 10
33643.92818854
 20
-6177.9950707
 10
33693.92818854
 20
-6177.9950707
 10
33693.92818854
 20
-5678.87916768
  0
LWPOLYLINE
  5
5FD
102
{ACAD_REACTORS
330
5FE
102
}
100
AcDbEntity
  8
Ech.1_5
 62
     9
  6
CONTINUOUS
370
    -3
100
AcDbPolyline
 90
        4
 70
     1
 43
0.0
 10
33693.92818854
 20
-5678.87917531
 10
33706.92818854
 20
-5678.87917531
 10
33706.92818854
 20
-6167.99464632
 10
33693.92818854
 20
-6167.99464632
  0
HATCH
  5
5FE
100
AcDbEntity
  8
Ech.1_5
 62
     9
  6
CONTINUOUS
100
AcDbHatch
 10
0.0
 20
0.0
 30
0.0
210
0.0
220
0.0
230
1.0
  2
DOTS2
 70
     0
 71
     1
 91
        1
 92
        7
 72
     0
 73
     1
 93
        4
 10
33693.92818854
 20
-5678.87917531
 10
33706.92818854
 20
-5678.87917531
 10
33706.92818854
 20
-6167.99464632
 10
33693.92818854
 20
-6167.99464632
 97
        1
330
5FD
 75
     0
 76
     2
 52
0.0
 41
4.72440952
 77
     0
 78
     1
 53
0.0
 43
0.0
 44
0.0
 45
3.75
 46
3.535
 79
     2
 49
0.0
 49
-3.535
 47
0.775229
 98
        1
 10
0.0
 20
0.0
  0
LWPOLYLINE
  5
5FF
102
{ACAD_REACTORS
330
600
102
}
100
AcDbEntity
  8
Ech.1_5
 62
     9
  6
CONTINUOUS
370
    -3
100
AcDbPolyline
 90
       12
 70
     1
 43
0.0
 10
33645.92688285
 20
-6147.9950707
 10
33643.92818854
 20
-6147.9950707
 10
33643.92818854
 20
-6177.9950707
 10
33693.82597886
 20
-6177.9950707
 10
33693.82597886
 20
-6147.9950707
 10
33691.82597886
 20
-6147.9950707
 10
33691.82597886
 20
-6149.9950707
 10
33691.82597886
 20
-6149.9950707
 10
33691.82597886
 20
-6175.9950707
 10
33645.92688285
 20
-6175.9950707
 10
33645.92688285
 20
-6149.9950707
 10
33645.92688285
 20
-6149.9950707
  0
HATCH
  5
600
100
AcDbEntity
  8
Ech.1_5
 62
     9
  6
CONTINUOUS
100
AcDbHatch
 10
0.0
 20
0.0
 30
0.0
210
0.0
220
0.0
230
1.0
  2
SOLID
 70
     1
 71
     1
 91
        1
 92
        7
 72
     0
 73
     1
 93
       10
 10
33645.92688285
 20
-6147.9950707
 10
33643.92818854
 20
-6147.9950707
 10
33643.92818854
 20
-6177.9950707
 10
33693.82597886
 20
-6177.9950707
 10
33693.82597886
 20
-6147.9950707
 10
33691.82597886
 20
-6147.9950707
 10
33691.82597886
 20
-6149.9950707
 10
33691.82597886
 20
-6175.9950707
 10
33645.92688285
 20
-6175.9950707
 10
33645.92688285
 20
-6149.9950707
 97
        1
330
5FF
 75
     0
 76
     2
 47
0.775229
 98
        1
 10
0.0
 20
0.0
  0
LINE
  5
601
100
AcDbEntity
  8
Ech.1_5
 62
     1
  6
CADWORK_22
 48
-5.0
370
    35
100
AcDbLine
 10
33532.42818854
 20
-6179.99657465
 30
0.0
 11
33541.99058868
 21
-6179.99657465
 31
0.0
  0
LINE
  5
602
100
AcDbEntity
  8
Ech.1_5
 62
     1
  6
CADWORK_22
 48
-5.0
370
    35
100
AcDbLine
 10
33536.42818882
 20
-6179.99657465
 30
0.0
 11
33536.42818882
 21
-6162.83729768
 31
0.0
  0
LINE
  5
603
100
AcDbEntity
  8
Ech.1_5
 62
     1
  6
CADWORK_22
 48
-5.0
370
    35
100
AcDbLine
 10
33536.4089696
 20
-6156.26816774
 30
0.0
 11
33534.80576628
 21
-6157.20662618
 31
0.0
  0
LINE
  5
604
100
AcDbEntity
  8
Ech.1_5
 62
     1
  6
CADWORK_22
 48
-5.0
370
    35
100
AcDbLine
 10
33534.80576628
 20
-6157.20662618
 30
0.0
 11
33530.01217236
 21
-6158.14508463
 31
0.0
  0
LINE
  5
605
100
AcDbEntity
  8
Ech.1_5
 62
     1
  6
CADWORK_22
 48
-5.0
370
    35
100
AcDbLine
 10
33530.01217236
 20
-6158.14508463
 30
0.0
 11
33528.40896905
 21
-6158.14508463
 31
0.0
  0
LINE
  5
606
100
AcDbEntity
  8
Ech.1_5
 62
     1
  6
CADWORK_22
 48
-5.0
370
    35
100
AcDbLine
 10
33528.40896905
 20
-6158.14508463
 30
0.0
 11
33529.99295314
 21
-6157.20662618
 31
0.0
  0
LINE
  5
607
100
AcDbEntity
  8
Ech.1_5
 62
     1
  6
CADWORK_22
 48
-5.0
370
    35
100
AcDbLine
 10
33529.99295314
 20
-6157.20662618
 30
0.0
 11
33534.80576628
 21
-6155.95537496
 31
0.0
  0
LINE
  5
608
100
AcDbEntity
  8
Ech.1_5
 62
     1
  6
CADWORK_22
 48
-5.0
370
    35
100
AcDbLine
 10
33534.80576628
 20
-6155.95537496
 30
0.0
 11
33536.4089696
 21
-6156.26816774
 31
0.0
  0
LINE
  5
609
100
AcDbEntity
  8
Ech.1_5
 62
     1
  6
CADWORK_22
 48
-5.0
370
    35
100
AcDbLine
 10
33536.4089696
 20
-6156.26816774
 30
0.0
 11
33528.40896905
 21
-6158.14508463
 31
0.0
  0
LINE
  5
60A
100
AcDbEntity
  8
Ech.1_5
 62
     1
  6
CADWORK_22
 48
-5.0
370
    35
100
AcDbLine
 10
33536.4089696
 20
-6150.01191068
 30
0.0
 11
33534.80576628
 21
-6150.95036913
 31
0.0
  0
LINE
  5
60B
100
AcDbEntity
  8
Ech.1_5
 62
     1
  6
CADWORK_22
 48
-5.0
370
    35
100
AcDbLine
 10
33534.80576628
 20
-6150.95036913
 30
0.0
 11
33530.01217236
 21
-6151.88882757
 31
0.0
  0
LINE
  5
60C
100
AcDbEntity
  8
Ech.1_5
 62
     1
  6
CADWORK_22
 48
-5.0
370
    35
100
AcDbLine
 10
33530.01217236
 20
-6151.88882757
 30
0.0
 11
33528.40896905
 21
-6151.88882757
 31
0.0
  0
LINE
  5
60D
100
AcDbEntity
  8
Ech.1_5
 62
     1
  6
CADWORK_22
 48
-5.0
370
    35
100
AcDbLine
 10
33528.40896905
 20
-6151.88882757
 30
0.0
 11
33529.99295314
 21
-6150.95036913
 31
0.0
  0
LINE
  5
60E
100
AcDbEntity
  8
Ech.1_5
 62
     1
  6
CADWORK_22
 48
-5.0
370
    35
100
AcDbLine
 10
33529.99295314
 20
-6150.95036913
 30
0.0
 11
33534.80576628
 21
-6149.6991179
 31
0.0
  0
LINE
  5
60F
100
AcDbEntity
  8
Ech.1_5
 62
     1
  6
CADWORK_22
 48
-5.0
370
    35
100
AcDbLine
 10
33534.80576628
 20
-6149.6991179
 30
0.0
 11
33536.4089696
 21
-6150.01191068
 31
0.0
  0
LINE
  5
610
100
AcDbEntity
  8
Ech.1_5
 62
     1
  6
CADWORK_22
 48
-5.0
370
    35
100
AcDbLine
 10
33536.4089696
 20
-6150.01191068
 30
0.0
 11
33528.40896905
 21
-6151.88882757
 31
0.0
  0
LINE
  5
611
100
AcDbEntity
  8
Ech.1_5
 62
     1
  6
CADWORK_22
 48
-5.0
370
    35
100
AcDbLine
 10
33536.4089696
 20
-6143.75565458
 30
0.0
 11
33534.80576628
 21
-6144.69411302
 31
0.0
  0
LINE
  5
612
100
AcDbEntity
  8
Ech.1_5
 62
     1
  6
CADWORK_22
 48
-5.0
370
    35
100
AcDbLine
 10
33534.80576628
 20
-6144.69411302
 30
0.0
 11
33530.01217236
 21
-6145.63257146
 31
0.0
  0
LINE
  5
613
100
AcDbEntity
  8
Ech.1_5
 62
     1
  6
CADWORK_22
 48
-5.0
370
    35
100
AcDbLine
 10
33530.01217236
 20
-6145.63257146
 30
0.0
 11
33528.40896905
 21
-6145.63257146
 31
0.0
  0
LINE
  5
614
100
AcDbEntity
  8
Ech.1_5
 62
     1
  6
CADWORK_22
 48
-5.0
370
    35
100
AcDbLine
 10
33528.40896905
 20
-6145.63257146
 30
0.0
 11
33529.99295314
 21
-6144.69411302
 31
0.0
  0
LINE
  5
615
100
AcDbEntity
  8
Ech.1_5
 62
     1
  6
CADWORK_22
 48
-5.0
370
    35
100
AcDbLine
 10
33529.99295314
 20
-6144.69411302
 30
0.0
 11
33534.80576628
 21
-6143.4428618
 31
0.0
  0
LINE
  5
616
100
AcDbEntity
  8
Ech.1_5
 62
     1
  6
CADWORK_22
 48
-5.0
370
    35
100
AcDbLine
 10
33534.80576628
 20
-6143.4428618
 30
0.0
 11
33536.4089696
 21
-6143.75565458
 31
0.0
  0
LINE
  5
617
100
AcDbEntity
  8
Ech.1_5
 62
     1
  6
CADWORK_22
 48
-5.0
370
    35
100
AcDbLine
 10
33536.4089696
 20
-6143.75565458
 30
0.0
 11
33528.40896905
 21
-6145.63257146
 31
0.0
  0
LINE
  5
618
100
AcDbEntity
  8
Ech.1_5
 62
     1
  6
CADWORK_22
 48
-5.0
370
    35
100
AcDbLine
 10
33528.42818827
 20
-6164.40134168
 30
0.0
 11
33530.01217236
 21
-6163.46288324
 31
0.0
  0
LINE
  5
619
100
AcDbEntity
  8
Ech.1_5
 62
     1
  6
CADWORK_22
 48
-5.0
370
    35
100
AcDbLine
 10
33530.01217236
 20
-6163.46288324
 30
0.0
 11
33534.8249855
 21
-6162.52442384
 31
0.0
  0
LINE
  5
61A
100
AcDbEntity
  8
Ech.1_5
 62
     1
  6
CADWORK_22
 48
-5.0
370
    35
100
AcDbLine
 10
33534.8249855
 20
-6162.52442384
 30
0.0
 11
33536.42818882
 21
-6162.83729768
 31
0.0
  0
LINE
  5
61B
100
AcDbEntity
  8
Ech.1_5
 62
     1
  6
CADWORK_22
 48
-5.0
370
    35
100
AcDbLine
 10
33536.42818882
 20
-6162.83729768
 30
0.0
 11
33528.42818827
 21
-6164.40134168
 31
0.0
  0
LINE
  5
61C
100
AcDbEntity
  8
Ech.1_5
 62
     1
  6
CADWORK_22
 48
-5.0
370
    35
100
AcDbLine
 10
33528.42818827
 20
-6179.99657465
 30
0.0
 11
33528.42818827
 21
-6164.40134168
 31
0.0
  0
LINE
  5
61D
100
AcDbEntity
  8
Ech.1_5
 62
     1
  6
CADWORK_22
 48
-5.0
370
    35
100
AcDbLine
 10
33530.01217236
 20
-6158.14508463
 30
0.0
 11
33534.80576628
 21
-6157.20662618
 31
0.0
  0
LINE
  5
61E
100
AcDbEntity
  8
Ech.1_5
 62
     1
  6
CADWORK_22
 48
-5.0
370
    35
100
AcDbLine
 10
33530.01217236
 20
-6157.20662618
 30
0.0
 11
33530.01217236
 21
-6151.88882757
 31
0.0
  0
LINE
  5
61F
100
AcDbEntity
  8
Ech.1_5
 62
     1
  6
CADWORK_22
 48
-5.0
370
    35
100
AcDbLine
 10
33534.80576628
 20
-6150.95036913
 30
0.0
 11
33534.80576628
 21
-6155.95537496
 31
0.0
  0
LINE
  5
620
100
AcDbEntity
  8
Ech.1_5
 62
     1
  6
CADWORK_22
 48
-5.0
370
    35
100
AcDbLine
 10
33530.01217236
 20
-6150.95036913
 30
0.0
 11
33530.01217236
 21
-6145.63257146
 31
0.0
  0
LINE
  5
621
100
AcDbEntity
  8
Ech.1_5
 62
     1
  6
CADWORK_22
 48
-5.0
370
    35
100
AcDbLine
 10
33534.80576628
 20
-6149.6991179
 30
0.0
 11
33534.80576628
 21
-6144.69411302
 31
0.0
  0
LINE
  5
622
100
AcDbEntity
  8
Ech.1_5
 62
     1
  6
CADWORK_22
 48
-5.0
370
    35
100
AcDbLine
 10
33535.60736794
 20
-6139.37615419
 30
0.0
 11
33534.33649698
 21
-6140.00157953
 31
0.0
  0
LINE
  5
623
100
AcDbEntity
  8
Ech.1_5
 62
     1
  6
CADWORK_22
 48
-5.0
370
    35
100
AcDbLine
 10
33534.33649698
 20
-6140.00157953
 30
0.0
 11
33530.48144166
 21
-6140.62780595
 31
0.0
  0
LINE
  5
624
100
AcDbEntity
  8
Ech.1_5
 62
     1
  6
CADWORK_22
 48
-5.0
370
    35
100
AcDbLine
 10
33530.48144166
 20
-6140.62780595
 30
0.0
 11
33529.2105707
 21
-6140.62780595
 31
0.0
  0
LINE
  5
625
100
AcDbEntity
  8
Ech.1_5
 62
     1
  6
CADWORK_22
 48
-5.0
370
    35
100
AcDbLine
 10
33529.2105707
 20
-6140.62780595
 30
0.0
 11
33530.48144166
 21
-6140.00157953
 31
0.0
  0
LINE
  5
626
100
AcDbEntity
  8
Ech.1_5
 62
     1
  6
CADWORK_22
 48
-5.0
370
    35
100
AcDbLine
 10
33530.48144166
 20
-6140.00157953
 30
0.0
 11
33534.33649698
 21
-6139.06384206
 31
0.0
  0
LINE
  5
627
100
AcDbEntity
  8
Ech.1_5
 62
     1
  6
CADWORK_22
 48
-5.0
370
    35
100
AcDbLine
 10
33534.33649698
 20
-6139.06384206
 30
0.0
 11
33535.60736794
 21
-6139.37615419
 31
0.0
  0
LINE
  5
628
100
AcDbEntity
  8
Ech.1_5
 62
     1
  6
CADWORK_22
 48
-5.0
370
    35
100
AcDbLine
 10
33535.60736794
 20
-6139.37615419
 30
0.0
 11
33529.2105707
 21
-6140.62780595
 31
0.0
  0
LINE
  5
629
100
AcDbEntity
  8
Ech.1_5
 62
     1
  6
CADWORK_22
 48
-5.0
370
    35
100
AcDbLine
 10
33530.48144166
 20
-6140.00157953
 30
0.0
 11
33532.39935971
 21
-6134.99657465
 31
0.0
  0
LINE
  5
62A
100
AcDbEntity
  8
Ech.1_5
 62
     1
  6
CADWORK_22
 48
-5.0
370
    35
100
AcDbLine
 10
33530.01217236
 20
-6144.69411302
 30
0.0
 11
33530.48144166
 21
-6140.62780595
 31
0.0
  0
LINE
  5
62B
100
AcDbEntity
  8
Ech.1_5
 62
     1
  6
CADWORK_22
 48
-5.0
370
    35
100
AcDbLine
 10
33534.33649698
 20
-6140.00157953
 30
0.0
 11
33534.80576628
 21
-6143.4428618
 31
0.0
  0
LINE
  5
62C
100
AcDbEntity
  8
Ech.1_5
 62
     1
  6
CADWORK_22
 48
-5.0
370
    35
100
AcDbLine
 10
33534.33649698
 20
-6139.06384206
 30
0.0
 11
33532.39935971
 21
-6134.99657465
 31
0.0
  0
LINE
  5
62D
100
AcDbEntity
  8
Ech.1_5
 62
     1
  6
CADWORK_22
 48
-5.0
370
    35
100
AcDbLine
 10
33540.64738866
 20
-6184.99657465
 30
0.0
 11
33541.99058868
 21
-6184.05905462
 31
0.0
  0
LINE
  5
62E
100
AcDbEntity
  8
Ech.1_5
 62
     1
  6
CADWORK_22
 48
-5.0
370
    35
100
AcDbLine
 10
33537.30338862
 20
-6184.05905462
 30
0.0
 11
33538.64738864
 21
-6184.99657465
 31
0.0
  0
LINE
  5
62F
100
AcDbEntity
  8
Ech.1_5
 62
     1
  6
CADWORK_22
 48
-5.0
370
    35
100
AcDbLine
 10
33535.9593886
 20
-6184.99657465
 30
0.0
 11
33537.30338862
 21
-6184.05905462
 31
0.0
  0
LINE
  5
630
100
AcDbEntity
  8
Ech.1_5
 62
     1
  6
CADWORK_22
 48
-5.0
370
    35
100
AcDbLine
 10
33537.30338862
 20
-6179.99657465
 30
0.0
 11
33537.30338862
 21
-6184.05905462
 31
0.0
  0
LINE
  5
631
100
AcDbEntity
  8
Ech.1_5
 62
     1
  6
CADWORK_22
 48
-5.0
370
    35
100
AcDbLine
 10
33541.99058868
 20
-6184.05905462
 30
0.0
 11
33541.99058868
 21
-6179.99657465
 31
0.0
  0
LINE
  5
632
100
AcDbEntity
  8
Ech.1_5
 62
     1
  6
CADWORK_22
 48
-5.0
370
    35
100
AcDbLine
 10
33540.64738866
 20
-6184.99657465
 30
0.0
 11
33532.42818854
 21
-6184.99657465
 31
0.0
  0
LINE
  5
633
100
AcDbEntity
  8
Ech.1_5
 62
     1
  6
CADWORK_22
 48
-5.0
370
    35
100
AcDbLine
 10
33524.20978842
 20
-6184.99657465
 30
0.0
 11
33522.8657884
 21
-6184.05905462
 31
0.0
  0
LINE
  5
634
100
AcDbEntity
  8
Ech.1_5
 62
     1
  6
CADWORK_22
 48
-5.0
370
    35
100
AcDbLine
 10
33527.55378847
 20
-6184.05905462
 30
0.0
 11
33526.20978845
 21
-6184.99657465
 31
0.0
  0
LINE
  5
635
100
AcDbEntity
  8
Ech.1_5
 62
     1
  6
CADWORK_22
 48
-5.0
370
    35
100
AcDbLine
 10
33528.89698849
 20
-6184.99657465
 30
0.0
 11
33527.55378847
 21
-6184.05905462
 31
0.0
  0
LINE
  5
636
100
AcDbEntity
  8
Ech.1_5
 62
     1
  6
CADWORK_22
 48
-5.0
370
    35
100
AcDbLine
 10
33527.55378847
 20
-6179.99657465
 30
0.0
 11
33527.55378847
 21
-6184.05905462
 31
0.0
  0
LINE
  5
637
100
AcDbEntity
  8
Ech.1_5
 62
     1
  6
CADWORK_22
 48
-5.0
370
    35
100
AcDbLine
 10
33522.8657884
 20
-6184.05905462
 30
0.0
 11
33522.8657884
 21
-6179.99657465
 31
0.0
  0
LINE
  5
638
100
AcDbEntity
  8
Ech.1_5
 62
     1
  6
CADWORK_22
 48
-5.0
370
    35
100
AcDbLine
 10
33524.20978842
 20
-6184.99657465
 30
0.0
 11
33532.42818854
 21
-6184.99657465
 31
0.0
  0
LINE
  5
639
100
AcDbEntity
  8
Ech.1_5
 62
     1
  6
CADWORK_22
 48
-5.0
370
    35
100
AcDbLine
 10
33532.42818854
 20
-6179.99657465
 30
0.0
 11
33522.8657884
 21
-6179.99657465
 31
0.0
  0
LINE
  5
63A
100
AcDbEntity
  8
Ech.1_5
 62
     1
  6
CADWORK_22
 48
-5.0
370
    35
100
AcDbLine
 10
33530.01217236
 20
-6159.86552549
 30
0.0
 11
33530.01217236
 21
-6158.14508463
 31
0.0
  0
LINE
  5
63B
100
AcDbEntity
  8
Ech.1_5
 62
     1
  6
CADWORK_22
 48
-5.0
370
    35
100
AcDbLine
 10
33534.80576628
 20
-6157.20662618
 30
0.0
 11
33534.80576628
 21
-6159.86552549
 31
0.0
  0
LINE
  5
63C
100
AcDbEntity
  8
Ech.1_5
 62
     1
  6
CADWORK_22
 48
-5.0
370
    35
100
AcDbLine
 10
33530.01217236
 20
-6163.46288324
 30
0.0
 11
33530.01217236
 21
-6159.86552549
 31
0.0
  0
LINE
  5
63D
100
AcDbEntity
  8
Ech.1_5
 62
     1
  6
CADWORK_22
 48
-5.0
370
    35
100
AcDbLine
 10
33534.80576628
 20
-6162.52442384
 30
0.0
 11
33534.80576628
 21
-6159.86552549
 31
0.0
  0
LWPOLYLINE
  5
63E
100
AcDbEntity
  8
Ech.1_5
 62
     7
  6
DASHDOT
370
     5
100
AcDbPolyline
 90
        4
 70
     1
 43
0.0
 10
33905.8099724
 20
-5882.86804219
 10
34062.57579229
 20
-5882.86804219
 10
34062.57579229
 20
-5684.49418755
 10
33905.8099724
 20
-5684.49418755
  0
LWPOLYLINE
  5
63F
100
AcDbEntity
  8
Ech.1_5
 62
   190
  6
CONTINUOUS
370
    -3
100
AcDbPolyline
 90
        3
 70
     0
 43
0.0
 10
33989.42854003
 20
-5836.76957054
 10
33892.8786804
 20
-5792.76328823
 10
33879.18616484
 20
-5792.76328823
  0
INSERT
  5
640
100
AcDbEntity
  8
Ech.1_5
 62
   190
  6
CONTINUOUS
370
    -3
100
AcDbBlockReference
  2
CDWK_EXTR_4
 10
33989.42854003
 20
-5836.76957054
 30
0.0
 41
5.0
 42
5.0
 43
5.0
 50
155.49706343
  0
3DFACE
  5
641
102
{ACAD_REACTORS
330
642
102
}
100
AcDbEntity
  8
Ech.1_5
 62
     9
  6
CONTINUOUS
370
    -3
100
AcDbFace
 70
     0
 10
33642.42818854
 20
-6397.99657465
 30
2500.0
 11
33642.4287196
 21
-6635.64421212
 31
2500.0
 12
33851.42858535
 22
-6635.64421212
 32
2500.0
 13
33851.4288698
 23
-6397.99504972
 33
2500.0
  0
HATCH
  5
642
100
AcDbEntity
  8
Ech.1_5
 62
     9
  6
CONTINUOUS
100
AcDbHatch
 10
0.0
 20
0.0
 30
0.0
210
0.0
220
0.0
230
1.0
  2
AR-CONC
 70
     0
 71
     1
 91
        1
 92
        7
 72
     0
 73
     1
 93
        4
 10
33642.42818854
 20
-6397.99657465
 10
33642.4287196
 20
-6635.64421212
 10
33851.42858535
 20
-6635.64421212
 10
33851.4288698
 20
-6397.99504972
 97
        1
330
641
 75
     0
 76
     2
 52
45.0
 41
0.11811097
 77
     0
 78
    13
 53
50.0
 43
0.0
 44
0.0
 45
-18.84283637
 46
1.64853443
 79
     2
 49
1.97029307
 49
-21.67322338
 53
355.0
 43
0.0
 44
0.0
 45
-3.64507756
 46
19.76051824
 79
     2
 49
1.57623377
 49
-17.3385787
 53
100.45140076
 43
1.57023568
 44
-0.13737749
 45
-15.19777228
 46
-18.11197244
 79
     2
 49
1.67449124
 49
-18.41940522
 53
46.18420029
 43
0.0
 44
5.25411576
 45
-28.03703353
 46
4.34827878
 79
     2
 49
2.95543872
 49
-32.50983238
 53
96.63559723
 43
2.33641885
 44
4.89175692
 45
-24.55412615
 46
-25.59063404
 79
     2
 49
2.51173697
 49
-27.62910426
 53
351.1842041
 43
0.0
 44
5.25411576
 45
24.55410288
 46
25.59065715
 79
     2
 49
2.36435249
 49
-26.00786805
 53
21.0
 43
2.62705699
 44
3.94058615
 45
-15.68109068
 46
10.57702905
 79
     2
 49
1.97029307
 49
-21.67322338
 53
326.0
 43
2.62705699
 44
3.94058615
 45
6.39203268
 46
19.05010734
 79
     2
 49
1.57623377
 49
-17.3385787
 53
71.45140076
 43
3.93381357
 44
3.05916555
 45
-22.07312962
 46
-8.47306182
 79
     2
 49
1.67449124
 49
-18.41940522
 53
37.5
 43
0.0
 44
0.0
 45
0.31944534
 46
8.74531245
 79
     6
 49
0.01875
 49
-17.12841332
 49
0.01875
 49
-17.60128498
 49
0.01875
 49
-17.40425348
 53
7.5
 43
0.0
 44
0.0
 45
6.91098818
 46
10.3614222
 79
     6
 49
0.01875
 49
-10.03535807
 49
0.01875
 49
-16.7343539
 49
0.01875
 49
-6.6333206
 53
-32.5
 43
-5.85833833
 44
0.0
 45
14.02382061
 46
-0.59253003
 79
     6
 49
0.01875
 49
-6.56764314
 49
0.01875
 49
-20.49104869
 49
0.01875
 49
-27.19004452
 53
-42.5
 43
-8.48539531
 44
0.0
 45
15.32063571
 46
2.62981542
 79
     6
 49
0.01875
 49
-8.53793621
 49
0.01875
 49
-13.60815793
 49
0.01875
 49
-19.30887222
 47
0.775229
 98
        1
 10
0.0
 20
0.0
  0
LWPOLYLINE
  5
643
100
AcDbEntity
  8
Ech.1_5
 62
     9
  6
CONTINUOUS
100
AcDbPolyline
 90
       27
 70
     0
 43
0.0
 10
33395.30157142
 20
-6088.61108327
 10
33395.42818854
 20
-6088.27660966
 10
33395.42818854
 20
-6060.89314581
 10
33402.42818854
 20
-6060.89314581
 10
33402.42818854
 20
-6070.89314581
 10
33408.42818854
 20
-6070.89314581
 10
33408.42818854
 20
-6042.89314581
 10
33404.42818854
 20
-6038.89314581
 10
33408.42818854
 20
-6034.89314581
 10
33408.42818854
 20
-5970.89314581
 10
33404.42818854
 20
-5966.89314581
 10
33408.42818854
 20
-5962.89314581
 10
33408.42818854
 20
-5926.89314581
 10
33401.42818854
 20
-5926.89314581
 10
33401.42818854
 20
-5921.89314581
 10
33398.92818854
 20
-5916.89314581
 10
33396.42818854
 20
-5921.89314581
 10
33396.42818854
 20
-5952.822078
 10
33396.04758621
 20
-5954.73549486
 10
33389.89265464
 20
-5961.42867971
 10
33388.42818854
 20
-5964.96421362
 10
33388.42818854
 20
-6084.05095792
 10
33389.38851094
 20
-6085.68082643
 10
33394.1246318
 20
-6088.65217615
 10
33394.53663316
 20
-6088.89314581
 10
33394.85045065
 20
-6088.89314581
 10
33395.30157142
 20
-6088.61108327
  0
LWPOLYLINE
  5
644
100
AcDbEntity
  8
Ech.1_5
 62
     9
  6
BYBLOCK
100
AcDbPolyline
 90
       23
 70
     0
 43
0.0
 10
33388.42818854
 20
-6206.3747294
 10
33388.42818854
 20
-6109.96421362
 10
33389.89265464
 20
-6106.42867971
 10
33396.04758621
 20
-6099.73549486
 10
33396.42818854
 20
-6097.822078
 10
33396.42818854
 20
-6066.89314581
 10
33398.92818854
 20
-6061.89314581
 10
33401.42818854
 20
-6066.89314581
 10
33401.42818854
 20
-6071.89314581
 10
33408.42818854
 20
-6071.89314581
 10
33408.42818854
 20
-6107.89314581
 10
33404.42818854
 20
-6111.89314581
 10
33408.42818854
 20
-6115.89314581
 10
33408.42818854
 20
-6179.89314581
 10
33404.42818854
 20
-6183.89314581
 10
33408.42818854
 20
-6187.89314581
 10
33408.42818854
 20
-6187.89314581
 10
33396.18427494
 20
-6203.79041982
 10
33393.36747811
 20
-6207.44769788
 10
33392.27801806
 20
-6207.99657465
 10
33389.52263755
 20
-6207.99657465
 10
33388.42818854
 20
-6206.3747294
 10
33388.42818854
 20
-6201.06610132
  0
LINE
  5
645
100
AcDbEntity
  8
Ech.1_5
 62
   190
  6
CONTINUOUS
370
    -3
100
AcDbLine
 10
33392.36568854
 20
-6207.99657465
 30
0.0
 11
33371.01901945
 21
-6207.99657465
 31
0.0
  0
LINE
  5
646
100
AcDbEntity
  8
Ech.1_5
 62
   190
  6
CONTINUOUS
370
    -3
100
AcDbLine
 10
33371.19901945
 20
-6207.99657465
 30
0.0
 11
33371.19901945
 21
-6407.99657465
 31
0.0
  0
LINE
  5
647
100
AcDbEntity
  8
Ech.1_5
 62
   190
  6
CONTINUOUS
370
    -3
100
AcDbLine
 10
33390.9003278
 20
-6207.99657465
 30
0.0
 11
33371.08151945
 21
-6207.99657465
 31
0.0
  0
LINE
  5
648
100
AcDbEntity
  8
Ech.1_5
 62
   190
  6
CONTINUOUS
370
    -3
100
AcDbLine
 10
33437.92818854
 20
-6177.99657465
 30
0.0
 11
33371.08151945
 21
-6177.99657465
 31
0.0
  0
LINE
  5
649
100
AcDbEntity
  8
Ech.1_5
 62
   190
  6
CONTINUOUS
370
    -3
100
AcDbLine
 10
33371.26151945
 20
-6207.99657465
 30
0.0
 11
33371.26151945
 21
-6177.99657465
 31
0.0
  0
LINE
  5
64A
100
AcDbEntity
  8
Ech.1_5
 62
   190
  6
CONTINUOUS
370
    -3
100
AcDbLine
 10
33367.69901941
 20
-6404.49657465
 30
0.0
 11
33374.69901949
 21
-6411.49657465
 31
0.0
  0
LINE
  5
64B
100
AcDbEntity
  8
Ech.1_5
 62
   190
  6
CONTINUOUS
370
    -3
100
AcDbLine
 10
33367.51901941
 20
-6204.49657465
 30
0.0
 11
33374.51901949
 21
-6211.49657465
 31
0.0
  0
LINE
  5
64C
100
AcDbEntity
  8
Ech.1_5
 62
   190
  6
CONTINUOUS
370
    -3
100
AcDbLine
 10
33374.7615196
 20
-6181.49657465
 30
0.0
 11
33367.7615193
 21
-6174.49657465
 31
0.0
  0
LINE
  5
64D
100
AcDbEntity
  8
Ech.1_5
 62
   150
  6
CADWORK_22
370
    35
100
AcDbLine
 10
33431.92818854
 20
-5678.88006794
 30
2500.0
 11
33431.92818854
 21
-6177.99657465
 31
2500.0
  0
LWPOLYLINE
  5
64E
100
AcDbEntity
  8
Ech.1_5
 62
     4
  6
CONTINUOUS
370
    70
100
AcDbPolyline
 90
        3
 70
     0
 43
0.0
 10
33411.3239062
 20
-6178.69836736
 10
33429.81871501
 20
-6178.69836736
 10
33429.81871501
 20
-6140.45060659
  0
LWPOLYLINE
  5
64F
100
AcDbEntity
  8
Ech.1_5
 62
     9
  6
CONTINUOUS
370
    -3
100
AcDbPolyline
 90
        5
 70
     0
 43
0.0
 10
33433.42818854
 20
-5678.88006794
 10
33408.42818854
 20
-5678.88006794
 10
33408.42818854
 20
-6163.40202356
 10
33433.42818854
 20
-6163.40202356
 10
33433.42818854
 20
-5678.88006794
  0
LWPOLYLINE
  5
650
102
{ACAD_REACTORS
330
651
102
}
100
AcDbEntity
  8
Ech.1_5
 62
     9
  6
CONTINUOUS
370
    -3
100
AcDbPolyline
 90
        5
 70
     1
 43
0.0
 38
2500.0
 39
-2500.0
 10
33289.29760052
 20
-6635.64420258
 10
33488.09329494
 20
-6635.64420258
 10
33642.42847904
 20
-6635.64421212
 10
33642.42822237
 20
-6407.99657465
 10
33289.29760052
 20
-6407.99657465
  0
HATCH
  5
651
100
AcDbEntity
  8
Ech.1_5
 62
     9
  6
CONTINUOUS
100
AcDbHatch
 10
0.0
 20
0.0
 30
0.0
210
0.0
220
0.0
230
1.0
  2
ANSI31
 70
     0
 71
     1
 91
        1
 92
        7
 72
     0
 73
     1
 93
        5
 10
33289.29760052
 20
-6635.64420258
 10
33488.09329494
 20
-6635.64420258
 10
33642.42847904
 20
-6635.64421212
 10
33642.42822237
 20
-6407.99657465
 10
33289.29760052
 20
-6407.99657465
 97
        1
330
650
 75
     0
 76
     2
 52
0.0
 41
6.2992521
 77
     0
 78
     1
 53
45.0
 43
0.0
 44
0.0
 45
14.14213562
 46
-14.14213562
 79
     0
 47
0.775229
 98
        1
 10
0.0
 20
0.0
  0
LWPOLYLINE
  5
652
100
AcDbEntity
  8
Ech.1_5
 62
     9
  6
CONTINUOUS
100
AcDbPolyline
 90
       13
 70
     0
 43
0.0
 10
33388.42818854
 20
-5899.59490228
 10
33388.42818854
 20
-5939.05095792
 10
33389.38851094
 20
-5940.68082643
 10
33394.1246318
 20
-5943.65217615
 10
33394.53663316
 20
-5943.89314581
 10
33394.85045065
 20
-5943.89314581
 10
33395.30157142
 20
-5943.61108327
 10
33395.42818854
 20
-5943.27660966
 10
33395.42818854
 20
-5915.89314581
 10
33402.42818854
 20
-5915.89314581
 10
33402.42818854
 20
-5925.89314581
 10
33408.42818854
 20
-5925.89314581
 10
33408.42818854
 20
-5899.59490228
  0
CIRCLE
  5
653
100
AcDbEntity
  8
Ech.1_5
 62
     7
  6
CONTINUOUS
100
AcDbCircle
 10
33665.40737274
 20
-6175.35578014
 30
0.0
 40
6.16444121
  0
LWPOLYLINE
  5
654
100
AcDbEntity
  8
Ech.1_5
 62
     1
  6
CADWORK_22
 48
-5.0
370
    35
100
AcDbPolyline
 90
        6
 70
     0
 43
0.0
 10
33623.92818854
 20
-5678.87941372
 10
33623.92818854
 20
-6177.99657465
 10
33658.62831743
 20
-6177.99657465
 10
33666.83607976
 20
-6169.89638145
 10
33673.41543718
 20
-6177.99639557
 10
33702.20646792
 20
-6177.99639557
  0
LWPOLYLINE
  5
655
100
AcDbEntity
  8
Ech.1_5
 62
     9
  6
CONTINUOUS
100
AcDbPolyline
 90
       27
 70
     0
 43
0.0
 10
33395.30157142
 20
-5943.61108327
 10
33395.42818854
 20
-5943.27660966
 10
33395.42818854
 20
-5915.89314581
 10
33402.42818854
 20
-5915.89314581
 10
33402.42818854
 20
-5925.89314581
 10
33408.42818854
 20
-5925.89314581
 10
33408.42818854
 20
-5897.89314581
 10
33404.42818854
 20
-5893.89314581
 10
33408.42818854
 20
-5889.89314581
 10
33408.42818854
 20
-5825.89314581
 10
33404.42818854
 20
-5821.89314581
 10
33408.42818854
 20
-5817.89314581
 10
33408.42818854
 20
-5781.89314581
 10
33401.42818854
 20
-5781.89314581
 10
33401.42818854
 20
-5776.89314581
 10
33398.92818854
 20
-5771.89314581
 10
33396.42818854
 20
-5776.89314581
 10
33396.42818854
 20
-5807.822078
 10
33396.04758621
 20
-5809.73549486
 10
33389.89265464
 20
-5816.42867971
 10
33388.42818854
 20
-5819.96421362
 10
33388.42818854
 20
-5939.05095792
 10
33389.38851094
 20
-5940.68082643
 10
33394.1246318
 20
-5943.65217615
 10
33394.53663316
 20
-5943.89314581
 10
33394.85045065
 20
-5943.89314581
 10
33395.30157142
 20
-5943.61108327
  0
LWPOLYLINE
  5
656
100
AcDbEntity
  8
Ech.1_5
 62
     9
  6
CONTINUOUS
100
AcDbPolyline
 90
       17
 70
     0
 43
0.0
 10
33388.42818854
 20
-5678.88006794
 10
33388.42818854
 20
-5794.05095792
 10
33389.38851094
 20
-5795.68082643
 10
33394.1246318
 20
-5798.65217615
 10
33394.53663316
 20
-5798.89314581
 10
33394.85045065
 20
-5798.89314581
 10
33395.30157142
 20
-5798.61108327
 10
33395.42818854
 20
-5798.27660966
 10
33395.42818854
 20
-5770.89314581
 10
33402.42818854
 20
-5770.89314581
 10
33402.42818854
 20
-5780.89314581
 10
33408.42818854
 20
-5780.89314581
 10
33408.42818854
 20
-5752.89314581
 10
33404.42818854
 20
-5748.89314581
 10
33408.42818854
 20
-5744.89314581
 10
33408.42818854
 20
-5680.89314581
 10
33406.41511068
 20
-5678.88006794
  0
LWPOLYLINE
  5
657
100
AcDbEntity
  8
Ech.1_5
 62
   190
  6
CONTINUOUS
370
    -3
100
AcDbPolyline
 90
       30
 70
     0
 43
0.0
 10
33472.42818854
 20
-5678.87884247
 42
1.14028181
 10
33480.19277738
 20
-5737.85661258
 10
33584.66359971
 20
-5709.90107237
 42
-1.30322619
 10
33584.66359971
 20
-5767.85661258
 10
33480.19277738
 20
-5739.90107237
 42
1.30322619
 10
33480.19277738
 20
-5797.85661258
 10
33584.66359971
 20
-5769.90107237
 42
-1.30322619
 10
33584.66359971
 20
-5827.85661258
 10
33480.19277738
 20
-5799.90107237
 42
1.30322619
 10
33480.19277738
 20
-5857.85661258
 10
33584.66359971
 20
-5829.90107237
 42
-1.30322619
 10
33584.66359971
 20
-5887.85661258
 10
33480.19277738
 20
-5859.90107237
 42
1.30322619
 10
33480.19277738
 20
-5917.85661258
 10
33584.66359971
 20
-5889.90107237
 42
-1.30322619
 10
33584.66359971
 20
-5947.85661258
 10
33480.19277738
 20
-5919.90107237
 42
1.30322619
 10
33480.19277738
 20
-5977.85661258
 10
33584.66359971
 20
-5949.90107237
 42
-1.30322619
 10
33584.66359971
 20
-6007.85661258
 10
33480.19277738
 20
-5979.90107237
 42
1.30322619
 10
33480.19277738
 20
-6037.85661258
 10
33584.66359971
 20
-6009.90107237
 42
-1.30322619
 10
33584.66359971
 20
-6067.85661258
 10
33480.19277738
 20
-6039.90107237
 42
1.30322619
 10
33480.19277738
 20
-6097.85661258
 10
33584.66359971
 20
-6069.90107237
 42
-1.30322619
 10
33584.66359971
 20
-6127.85661258
 10
33480.19277738
 20
-6099.90107237
 42
0.53669667
 10
33442.71212754
 20
-6132.99657465
  0
LWPOLYLINE
  5
658
100
AcDbEntity
  8
Ech.1_5
 62
     9
  6
CONTINUOUS
370
    -3
100
AcDbPolyline
 90
      118
 70
     0
 43
0.0
 10
33652.26152188
 20
-5678.87917531
 42
1.14028181
 10
33654.41835211
 20
-5695.26188922
 10
33683.43802498
 20
-5687.49646139
 42
-1.30322619
 10
33683.43802498
 20
-5703.59522256
 10
33654.41835211
 20
-5695.82979472
 42
1.30322619
 10
33654.41835211
 20
-5711.92855589
 10
33683.43802498
 20
-5704.16312805
 42
-1.30322619
 10
33683.43802498
 20
-5720.26188922
 10
33654.41835211
 20
-5712.49646139
 42
1.30322619
 10
33654.41835211
 20
-5728.59522256
 10
33683.43802498
 20
-5720.82979472
 42
-1.30322619
 10
33683.43802498
 20
-5736.92855589
 10
33654.41835211
 20
-5729.16312805
 42
1.30322619
 10
33654.41835211
 20
-5745.26188922
 10
33683.43802498
 20
-5737.49646139
 42
-1.30322619
 10
33683.43802498
 20
-5753.59522256
 10
33654.41835211
 20
-5745.82979472
 42
1.30322619
 10
33654.41835211
 20
-5761.92855589
 10
33683.43802498
 20
-5754.16312805
 42
-1.30322619
 10
33683.43802498
 20
-5770.26188922
 10
33654.41835211
 20
-5762.49646139
 42
1.30322619
 10
33654.41835211
 20
-5778.59522256
 10
33683.43802498
 20
-5770.82979472
 42
-1.30322619
 10
33683.43802498
 20
-5786.92855589
 10
33654.41835211
 20
-5779.16312805
 42
1.30322619
 10
33654.41835211
 20
-5795.26188922
 10
33683.43802498
 20
-5787.49646139
 42
-1.30322619
 10
33683.43802498
 20
-5803.59522256
 10
33654.41835211
 20
-5795.82979472
 42
1.30322619
 10
33654.41835211
 20
-5811.92855589
 10
33683.43802498
 20
-5804.16312805
 42
-1.30322619
 10
33683.43802498
 20
-5820.26188922
 10
33654.41835211
 20
-5812.49646139
 42
1.30322619
 10
33654.41835211
 20
-5828.59522256
 10
33683.43802498
 20
-5820.82979472
 42
-1.30322619
 10
33683.43802498
 20
-5836.92855589
 10
33654.41835211
 20
-5829.16312805
 42
1.30322619
 10
33654.41835211
 20
-5845.26188922
 10
33683.43802498
 20
-5837.49646139
 42
-1.30322619
 10
33683.43802498
 20
-5853.59522256
 10
33654.41835211
 20
-5845.82979472
 42
1.30322619
 10
33654.41835211
 20
-5861.92855589
 10
33683.43802498
 20
-5854.16312805
 42
-1.30322619
 10
33683.43802498
 20
-5870.26188922
 10
33654.41835211
 20
-5862.49646139
 42
1.30322619
 10
33654.41835211
 20
-5878.59522256
 10
33683.43802498
 20
-5870.82979472
 42
-1.30322619
 10
33683.43802498
 20
-5886.92855589
 10
33654.41835211
 20
-5879.16312805
 42
1.30322619
 10
33654.41835211
 20
-5895.26188922
 10
33683.43802498
 20
-5887.49646139
 42
-1.30322619
 10
33683.43802498
 20
-5903.59522256
 10
33654.41835211
 20
-5895.82979472
 42
1.30322619
 10
33654.41835211
 20
-5911.92855589
 10
33683.43802498
 20
-5904.16312805
 42
-1.30322619
 10
33683.43802498
 20
-5920.26188922
 10
33654.41835211
 20
-5912.49646139
 42
1.30322619
 10
33654.41835211
 20
-5928.59522256
 10
33683.43802498
 20
-5920.82979472
 42
-1.30322619
 10
33683.43802498
 20
-5936.92855589
 10
33654.41835211
 20
-5929.16312805
 42
1.30322619
 10
33654.41835211
 20
-5945.26188922
 10
33683.43802498
 20
-5937.49646139
 42
-1.30322619
 10
33683.43802498
 20
-5953.59522256
 10
33654.41835211
 20
-5945.82979472
 42
1.30322619
 10
33654.41835211
 20
-5961.92855589
 10
33683.43802498
 20
-5954.16312805
 42
-1.30322619
 10
33683.43802498
 20
-5970.26188922
 10
33654.41835211
 20
-5962.49646139
 42
1.30322619
 10
33654.41835211
 20
-5978.59522256
 10
33683.43802498
 20
-5970.82979472
 42
-1.30322619
 10
33683.43802498
 20
-5986.92855589
 10
33654.41835211
 20
-5979.16312805
 42
1.30322619
 10
33654.41835211
 20
-5995.26188922
 10
33683.43802498
 20
-5987.49646139
 42
-1.30322619
 10
33683.43802498
 20
-6003.59522256
 10
33654.41835211
 20
-5995.82979472
 42
1.30322619
 10
33654.41835211
 20
-6011.92855589
 10
33683.43802498
 20
-6004.16312805
 42
-1.30322619
 10
33683.43802498
 20
-6020.26188922
 10
33654.41835211
 20
-6012.49646139
 42
1.30322619
 10
33654.41835211
 20
-6028.59522256
 10
33683.43802498
 20
-6020.82979472
 42
-1.30322619
 10
33683.43802498
 20
-6036.92855589
 10
33654.41835211
 20
-6029.16312805
 42
1.30322619
 10
33654.41835211
 20
-6045.26188922
 10
33683.43802498
 20
-6037.49646139
 42
-1.30322619
 10
33683.43802498
 20
-6053.59522256
 10
33654.41835211
 20
-6045.82979472
 42
1.30322619
 10
33654.41835211
 20
-6061.92855589
 10
33683.43802498
 20
-6054.16312805
 42
-1.30322619
 10
33683.43802498
 20
-6070.26188922
 10
33654.41835211
 20
-6062.49646139
 42
1.30322619
 10
33654.41835211
 20
-6078.59522256
 10
33683.43802498
 20
-6070.82979472
 42
-1.30322619
 10
33683.43802498
 20
-6086.92855589
 10
33654.41835211
 20
-6079.16312805
 42
1.30322619
 10
33654.41835211
 20
-6095.26188922
 10
33683.43802498
 20
-6087.49646139
 42
-1.30322619
 10
33683.43802498
 20
-6103.59522256
 10
33654.41835211
 20
-6095.82979472
 42
1.30322619
 10
33654.41835211
 20
-6111.92855589
 10
33683.43802498
 20
-6104.16312805
 42
-1.30322619
 10
33683.43802498
 20
-6120.26188922
 10
33654.41835211
 20
-6112.49646139
 42
1.30322619
 10
33654.41835211
 20
-6128.59522256
 10
33683.43802498
 20
-6120.82979472
 42
-1.30322619
 10
33683.43802498
 20
-6136.92855589
 10
33654.41835211
 20
-6129.16312805
 42
1.30322619
 10
33654.41835211
 20
-6145.26188922
 10
33683.43802498
 20
-6137.49646139
 42
-1.30322619
 10
33683.43802498
 20
-6153.59522256
 10
33654.41835211
 20
-6145.82979472
 42
1.30322619
 10
33654.41835211
 20
-6161.92855589
 10
33683.43802498
 20
-6154.16312805
 42
-1.30322619
 10
33683.43802498
 20
-6170.26188922
 10
33654.41835211
 20
-6162.49646139
 42
0.90331949
 10
33648.52609208
 20
-6177.9950707
  0
LWPOLYLINE
  5
659
102
{ACAD_REACTORS
330
65A
102
}
100
AcDbEntity
  8
Ech.1_5
 62
     9
  6
CONTINUOUS
370
    -3
100
AcDbPolyline
 90
        4
 70
     1
 43
0.0
 10
34064.16344712
 20
-6027.99657465
 10
34064.16344712
 20
-6013.99657373
 10
33713.34652315
 20
-6013.99657465
 10
33713.34652315
 20
-6027.99657465
  0
HATCH
  5
65A
100
AcDbEntity
  8
Ech.1_5
 62
     9
  6
CONTINUOUS
100
AcDbHatch
 10
0.0
 20
0.0
 30
0.0
210
0.0
220
0.0
230
1.0
  2
ANSI31
 70
     0
 71
     1
 91
        1
 92
        7
 72
     0
 73
     1
 93
        4
 10
34064.16344712
 20
-6027.99657465
 10
34064.16344712
 20
-6013.99657373
 10
33713.34652315
 20
-6013.99657465
 10
33713.34652315
 20
-6027.99657465
 97
        1
330
659
 75
     0
 76
     2
 52
90.0
 41
3.14962605
 77
     0
 78
     1
 53
-45.0
 43
0.0
 44
0.0
 45
7.07106781
 46
7.07106781
 79
     0
 47
0.775229
 98
        1
 10
0.0
 20
0.0
  0
LWPOLYLINE
  5
65B
100
AcDbEntity
  8
Ech.1_5
 62
     9
  6
CONTINUOUS
100
AcDbPolyline
 90
        6
 70
     0
 43
0.0
 10
33706.92960373
 20
-5948.3298018
 10
33709.92818853
 20
-5948.32987047
 42
-0.41421356
 10
33719.92818853
 20
-5958.32987047
 10
33719.92818853
 20
-6013.99464441
 10
33706.92818854
 20
-6013.99464632
 10
33706.92818854
 20
-5948.32987333
  0
LWPOLYLINE
  5
65C
102
{ACAD_REACTORS
330
65D
102
}
100
AcDbEntity
  8
Ech.1_5
 62
     9
  6
CONTINUOUS
370
    -3
100
AcDbPolyline
 90
        4
 70
     1
 43
0.0
 10
33706.92818854
 20
-6027.99657465
 10
33706.92818854
 20
-6077.99657465
 10
34064.16344712
 20
-6077.99657465
 10
34064.16344712
 20
-6027.99657465
  0
HATCH
  5
65D
100
AcDbEntity
  8
Ech.1_5
 62
     9
  6
CONTINUOUS
100
AcDbHatch
 10
0.0
 20
0.0
 30
0.0
210
0.0
220
0.0
230
1.0
  2
AR-CONC
 70
     0
 71
     1
 91
        1
 92
        7
 72
     0
 73
     1
 93
        4
 10
33706.92818854
 20
-6027.99657465
 10
33706.92818854
 20
-6077.99657465
 10
34064.16344712
 20
-6077.99657465
 10
34064.16344712
 20
-6027.99657465
 97
        1
330
65C
 75
     0
 76
     2
 52
0.0
 41
0.06299252
 77
     0
 78
    13
 53
50.0
 43
0.0
 44
0.0
 45
-10.04951288
 46
0.87921838
 79
     2
 49
1.05082299
 49
-11.55905264
 53
355.0
 43
0.0
 44
0.0
 45
-1.94404139
 46
10.53894322
 79
     2
 49
0.84065802
 49
-9.24724211
 53
100.45140076
 43
0.83745904
 44
-0.073268
 45
-8.10547867
 46
-9.65971878
 79
     2
 49
0.89306201
 49
-9.82368293
 53
46.18420029
 43
0.0
 44
2.80219511
 45
-14.95308477
 46
2.31908205
 79
     2
 49
1.57623401
 49
-17.33857753
 53
96.63559723
 43
1.24609007
 44
2.60893706
 45
-13.09553414
 46
-13.64833836
 79
     2
 49
1.33959307
 49
-14.73552249
 53
351.1842041
 43
0.0
 44
2.80219511
 45
13.09552173
 46
13.64835069
 79
     2
 49
1.26098802
 49
-13.87086317
 53
21.0
 43
1.40109708
 44
2.10164598
 45
-8.36324849
 46
5.64108224
 79
     2
 49
1.05082299
 49
-11.55905264
 53
326.0
 43
1.40109708
 44
2.10164598
 45
3.40908414
 46
10.1600574
 79
     2
 49
0.84065802
 49
-9.24724211
 53
71.45140076
 43
2.09803394
 44
1.63155499
 45
-11.77233597
 46
-4.51896637
 79
     2
 49
0.89306201
 49
-9.82368293
 53
37.5
 43
0.0
 44
0.0
 45
0.17037085
 46
4.66416671
 79
     6
 49
0.01
 49
-9.13515391
 49
0.01
 49
-9.38735213
 49
0.01
 49
-9.28226866
 53
7.5
 43
0.0
 44
0.0
 45
3.68586042
 46
5.52609192
 79
     6
 49
0.01
 49
-5.35219105
 49
0.01
 49
-8.92498888
 49
0.01
 49
-3.53777104
 53
-32.5
 43
-3.12444715
 44
0.0
 45
7.4793711
 46
-0.31601602
 79
     6
 49
0.01
 49
-3.50274306
 49
0.01
 49
-10.92855947
 49
0.01
 49
-14.50135729
 53
-42.5
 43
-4.52554423
 44
0.0
 45
8.17100583
 46
1.40256824
 79
     6
 49
0.01
 49
-4.55356605
 49
0.01
 49
-7.25768434
 49
0.01
 49
-10.29806534
 47
0.775229
 98
        1
 10
0.0
 20
0.0
  0
LWPOLYLINE
  5
65E
100
AcDbEntity
  8
Ech.1_5
 62
     9
  6
CONTINUOUS
370
    -3
100
AcDbPolyline
 90
       44
 70
     0
 43
0.0
 38
2500.0
 10
34064.16344712
 20
-6078.40482636
 42
0.56409068
 10
34044.39839068
 20
-6098.97690178
 10
34059.92924635
 20
-6157.01624751
 42
-1.30322619
 10
34027.73172401
 20
-6157.01624751
 10
34043.26257968
 20
-6098.97690178
 42
1.30322619
 10
34011.06505734
 20
-6098.97690178
 10
34026.59591302
 20
-6157.01624751
 42
-1.30322619
 10
33994.39839068
 20
-6157.01624751
 10
34009.92924635
 20
-6098.97690178
 42
1.30322619
 10
33977.73172401
 20
-6098.97690178
 10
33993.26257968
 20
-6157.01624751
 42
-1.30322619
 10
33961.06505734
 20
-6157.01624751
 10
33976.59591302
 20
-6098.97690178
 42
1.30322619
 10
33944.39839068
 20
-6098.97690178
 10
33959.92924635
 20
-6157.01624751
 42
-1.30322619
 10
33927.73172401
 20
-6157.01624751
 10
33943.26257968
 20
-6098.97690178
 42
1.30322619
 10
33911.06505734
 20
-6098.97690178
 10
33926.59591302
 20
-6157.01624751
 42
-1.30322619
 10
33894.39839068
 20
-6157.01624751
 10
33909.92924635
 20
-6098.97690178
 42
1.30322619
 10
33877.73172401
 20
-6098.97690178
 10
33893.26257968
 20
-6157.01624751
 42
-1.30322619
 10
33861.06505734
 20
-6157.01624751
 10
33876.59591302
 20
-6098.97690178
 42
1.30322619
 10
33844.39839068
 20
-6098.97690178
 10
33859.92924635
 20
-6157.01624751
 42
-1.30322619
 10
33827.73172401
 20
-6157.01624751
 10
33843.26257968
 20
-6098.97690178
 42
1.30322619
 10
33811.06505734
 20
-6098.97690178
 10
33826.59591302
 20
-6157.01624751
 42
-1.30322619
 10
33794.39839068
 20
-6157.01624751
 10
33809.92924635
 20
-6098.97690178
 42
1.30322619
 10
33777.73172401
 20
-6098.97690178
 10
33793.26257968
 20
-6157.01624751
 42
-1.30322619
 10
33761.06505734
 20
-6157.01624751
 10
33776.59591302
 20
-6098.97690178
 42
1.30322619
 10
33744.39839068
 20
-6098.97690178
 10
33759.92924635
 20
-6157.01624751
 42
-1.30322619
 10
33727.73172401
 20
-6157.01624751
 10
33743.26257968
 20
-6098.97690178
 42
1.30322619
 10
33711.06505734
 20
-6098.97690178
 10
33726.59591302
 20
-6157.01624751
 42
-0.56212079
 10
33706.92818854
 20
-6177.60996568
  0
LWPOLYLINE
  5
65F
100
AcDbEntity
  8
Ech.1_5
 62
     9
  6
CONTINUOUS
370
    25
100
AcDbPolyline
 90
        5
 70
     0
 43
0.0
 38
2500.0
 10
33730.52601368
 20
-6178.9701691
 10
33712.8177547
 20
-6178.9701691
 10
33712.8177547
 20
-6081.84528675
 10
33710.21295116
 20
-6078.89390959
 10
33710.21295116
 20
-6057.75632858
  0
LINE
  5
660
100
AcDbEntity
  8
Ech.1_5
 62
     9
  6
CONTINUOUS
370
    70
100
AcDbLine
 10
33709.11454151
 20
-6082.24484592
 30
2500.0
 11
33709.11454151
 21
-6179.17132024
 31
2500.0
  0
LWPOLYLINE
  5
661
100
AcDbEntity
  8
Ech.1_5
 62
     9
  6
CONTINUOUS
370
    -3
100
AcDbPolyline
 90
       61
 70
     0
 43
0.0
 10
33599.9515702
 20
-6407.94125059
 10
33599.92302396
 20
-6406.94168722
 10
33599.89452023
 20
-6405.94212233
 10
33599.86610151
 20
-6404.9425544
 10
33599.83781033
 20
-6403.9429819
 10
33599.80968919
 20
-6402.94340331
 10
33599.7817806
 20
-6401.94381711
 10
33599.75412707
 20
-6400.94422177
 10
33599.72677111
 20
-6399.94461578
 10
33599.69975523
 20
-6398.94499761
 10
33599.67312194
 20
-6397.94536574
 10
33599.64691375
 20
-6396.94571865
 10
33599.62117317
 20
-6395.94605481
 10
33599.59594271
 20
-6394.9463727
 10
33599.57126489
 20
-6393.94667081
 10
33599.5471822
 20
-6392.9469476
 10
33599.52373716
 20
-6391.94720156
 10
33599.50097228
 20
-6390.94743116
 10
33599.47893008
 20
-6389.94763488
 10
33599.45765305
 20
-6388.9478112
 10
33599.43718372
 20
-6387.9479586
 10
33599.41756458
 20
-6386.94807555
 10
33599.39883879
 20
-6385.94816063
 10
33599.38106544
 20
-6384.9482149
 10
33599.36432038
 20
-6383.948242
 10
33599.34868025
 20
-6382.94824572
 10
33599.33422167
 20
-6381.94822983
 10
33599.3210213
 20
-6380.94819811
 10
33599.30915576
 20
-6379.94815434
 10
33599.2987017
 20
-6378.94810229
 10
33599.28973576
 20
-6377.94804574
 10
33599.28233457
 20
-6376.94798847
 10
33599.27657477
 20
-6375.94793426
 10
33599.272533
 20
-6374.94788688
 10
33599.27028589
 20
-6373.9478501
 10
33599.26991009
 20
-6372.94782772
 10
33599.27148223
 20
-6371.9478235
 10
33599.27507895
 20
-6370.94784122
 10
33599.28077689
 20
-6369.94788466
 10
33599.28865269
 20
-6368.94795759
 10
33599.29878298
 20
-6367.9480638
 10
33599.31124441
 20
-6366.94820706
 10
33599.32611156
 20
-6365.94839109
 10
33599.34337304
 20
-6364.9486171
 10
33599.36290164
 20
-6363.94888296
 10
33599.384562
 20
-6362.94918629
 10
33599.40821879
 20
-6361.94952471
 10
33599.43373663
 20
-6360.94989584
 10
33599.46098019
 20
-6359.9502973
 10
33599.48981409
 20
-6358.95072671
 10
33599.52010299
 20
-6357.95118169
 10
33599.55171154
 20
-6356.95165987
 10
33599.58450438
 20
-6355.95215886
 10
33599.61834615
 20
-6354.95267629
 10
33599.6531015
 20
-6353.95320977
 10
33599.68863508
 20
-6352.95375693
 10
33599.72481154
 20
-6351.9543154
 10
33599.76149551
 20
-6350.95488278
 10
33599.79855164
 20
-6349.9554567
 10
33599.83584459
 20
-6348.95603478
 10
33599.8638716
 20
-6348.20691539
  0
LWPOLYLINE
  5
662
100
AcDbEntity
  8
Ech.1_5
 62
     9
  6
CONTINUOUS
370
    -3
100
AcDbPolyline
 90
       61
 70
     0
 43
0.0
 10
33599.8638716
 20
-6348.20691539
 10
33599.8381161
 20
-6347.20734057
 10
33599.81239962
 20
-6346.20776356
 10
33599.78676119
 20
-6345.20818213
 10
33599.76123983
 20
-6344.2085941
 10
33599.73587456
 20
-6343.20899724
 10
33599.71070441
 20
-6342.20938936
 10
33599.68576839
 20
-6341.20976825
 10
33599.66110553
 20
-6340.21013172
 10
33599.63675485
 20
-6339.21047754
 10
33599.61275537
 20
-6338.21080353
 10
33599.58914613
 20
-6337.21110747
 10
33599.56596613
 20
-6336.21138716
 10
33599.54325441
 20
-6335.2116404
 10
33599.52104998
 20
-6334.21186497
 10
33599.49939188
 20
-6333.21205869
 10
33599.47831911
 20
-6332.21221933
 10
33599.45787071
 20
-6331.21234471
 10
33599.43808569
 20
-6330.21243261
 10
33599.41900308
 20
-6329.21248082
 10
33599.40066191
 20
-6328.21248715
 10
33599.38310119
 20
-6327.21244939
 10
33599.36636929
 20
-6326.21236632
 10
33599.35057433
 20
-6325.21224297
 10
33599.33584802
 20
-6324.21208688
 10
33599.32232214
 20
-6323.21190557
 10
33599.31012843
 20
-6322.21170657
 10
33599.29939867
 20
-6321.2114974
 10
33599.29026461
 20
-6320.2112856
 10
33599.28285803
 20
-6319.21107868
 10
33599.27731068
 20
-6318.21088418
 10
33599.27375433
 20
-6317.21070962
 10
33599.27232074
 20
-6316.21056253
 10
33599.27314167
 20
-6315.21045043
 10
33599.27634889
 20
-6314.21038086
 10
33599.28207416
 20
-6313.21036134
 10
33599.29044925
 20
-6312.2103994
 10
33599.30160591
 20
-6311.21050257
 10
33599.31567591
 20
-6310.21067836
 10
33599.33279102
 20
-6309.21093431
 10
33599.353083
 20
-6308.21127795
 10
33599.3766836
 20
-6307.21171681
 10
33599.4037246
 20
-6306.2122584
 10
33599.43432092
 20
-6305.21290957
 10
33599.46838908
 20
-6304.213669
 10
33599.50571626
 20
-6303.21453009
 10
33599.54608745
 20
-6302.21548613
 10
33599.58928763
 20
-6301.2165304
 10
33599.63510179
 20
-6300.2176562
 10
33599.68331489
 20
-6299.21885683
 10
33599.73371192
 20
-6298.22012558
 10
33599.78607787
 20
-6297.22145574
 10
33599.84019771
 20
-6296.22284061
 10
33599.89585642
 20
-6295.22427348
 10
33599.95283899
 20
-6294.22574764
 10
33600.0109304
 20
-6293.22725638
 10
33600.06991562
 20
-6292.228793
 10
33600.12957964
 20
-6291.2303508
 10
33600.18970744
 20
-6290.23192306
 10
33600.250084
 20
-6289.23350308
 10
33600.25956667
 20
-6289.07683402
  0
LINE
  5
663
100
AcDbEntity
  8
Ech.1_5
 62
     7
  6
CONTINUOUS
370
    -3
100
AcDbLine
 10
33640.68002706
 20
-6177.99657465
 30
0.0
 11
33640.68002706
 21
-6397.99657465
 31
0.0
  0
LINE
  5
664
100
AcDbEntity
  8
Ech.1_5
 62
     7
  6
CONTINUOUS
370
    -3
100
AcDbLine
 10
33640.68002706
 20
-6397.99657465
 30
0.0
 11
33640.68002706
 21
-6398.99657465
 31
0.0
  0
LINE
  5
665
100
AcDbEntity
  8
Ech.1_5
 62
     7
  6
CONTINUOUS
370
    -3
100
AcDbLine
 10
33640.68002706
 20
-6177.99657465
 30
0.0
 11
33480.68002272
 21
-6177.99657465
 31
0.0
  0
LINE
  5
666
100
AcDbEntity
  8
Ech.1_5
 62
     7
  6
CONTINUOUS
370
    -3
100
AcDbLine
 10
33480.68002272
 20
-6181.99657465
 30
0.0
 11
33480.68002272
 21
-6177.99657465
 31
0.0
  0
LINE
  5
667
100
AcDbEntity
  8
Ech.1_5
 62
     7
  6
CONTINUOUS
370
    -3
100
AcDbLine
 10
33636.68002687
 20
-6181.99657465
 30
0.0
 11
33480.68002272
 21
-6181.99657465
 31
0.0
  0
LINE
  5
668
100
AcDbEntity
  8
Ech.1_5
 62
     7
  6
CONTINUOUS
370
    -3
100
AcDbLine
 10
33636.68002687
 20
-6181.99657465
 30
0.0
 11
33636.68002687
 21
-6372.31988
 31
0.0
  0
LINE
  5
669
100
AcDbEntity
  8
Ech.1_5
 62
     7
  6
CONTINUOUS
370
    -3
100
AcDbLine
 10
33636.68002687
 20
-6372.31988
 30
0.0
 11
33636.68002687
 21
-6373.31988
 31
0.0
  0
LINE
  5
66A
100
AcDbEntity
  8
Ech.1_5
 62
     7
  6
CONTINUOUS
370
    -3
100
AcDbLine
 10
33636.68002687
 20
-6327.99657274
 30
0.0
 11
33480.68002272
 21
-6181.99657465
 31
0.0
  0
LWPOLYLINE
  5
66B
102
{ACAD_REACTORS
330
66C
102
}
100
AcDbEntity
  8
Ech.1_5
 62
     7
  6
CONTINUOUS
370
    -3
100
AcDbPolyline
 90
        6
 70
     1
 43
0.0
 10
33480.68002272
 20
-6181.99657465
 10
33636.68002687
 20
-6181.99657465
 10
33636.68002687
 20
-6397.99657465
 10
33640.68002706
 20
-6397.99657465
 10
33640.68002706
 20
-6177.99657465
 10
33480.68002272
 20
-6177.99657465
  0
HATCH
  5
66C
100
AcDbEntity
  8
Ech.1_5
 62
     7
  6
CONTINUOUS
100
AcDbHatch
 10
0.0
 20
0.0
 30
0.0
210
0.0
220
0.0
230
1.0
  2
SOLID
 70
     1
 71
     1
 91
        1
 92
        7
 72
     0
 73
     1
 93
        6
 10
33480.68002272
 20
-6181.99657465
 10
33636.68002687
 20
-6181.99657465
 10
33636.68002687
 20
-6397.99657465
 10
33640.68002706
 20
-6397.99657465
 10
33640.68002706
 20
-6177.99657465
 10
33480.68002272
 20
-6177.99657465
 97
        1
330
66B
 75
     0
 76
     2
 47
0.775229
 98
        1
 10
0.0
 20
0.0
  0
LWPOLYLINE
  5
66D
102
{ACAD_REACTORS
330
66E
102
}
100
AcDbEntity
  8
Ech.1_5
 62
     7
  6
CONTINUOUS
370
    -3
100
AcDbPolyline
 90
        4
 70
     1
 43
0.0
 10
33636.68002687
 20
-6398.99657465
 10
33640.68002706
 20
-6398.99657465
 10
33640.68002706
 20
-6397.99657465
 10
33636.68002687
 20
-6397.99657465
  0
HATCH
  5
66E
100
AcDbEntity
  8
Ech.1_5
 62
     7
  6
CONTINUOUS
100
AcDbHatch
 10
0.0
 20
0.0
 30
0.0
210
0.0
220
0.0
230
1.0
  2
SOLID
 70
     1
 71
     1
 91
        1
 92
        7
 72
     0
 73
     1
 93
        4
 10
33636.68002687
 20
-6398.99657465
 10
33640.68002706
 20
-6398.99657465
 10
33640.68002706
 20
-6397.99657465
 10
33636.68002687
 20
-6397.99657465
 97
        1
330
66D
 75
     0
 76
     2
 47
0.775229
 98
        1
 10
0.0
 20
0.0
  0
LWPOLYLINE
  5
66F
100
AcDbEntity
  8
Ech.1_5
 62
   190
  6
CONTINUOUS
370
    -3
100
AcDbPolyline
 90
        5
 70
     0
 43
0.0
 10
33118.94598757
 20
-6880.17682778
 10
34103.94598757
 20
-6880.17682778
 10
34103.94598757
 20
-5525.17682778
 10
33118.94598757
 20
-5525.17682778
 10
33118.94598757
 20
-6880.17682778
  0
LWPOLYLINE
  5
670
100
AcDbEntity
  8
Ech.1_5
 62
     9
  6
CONTINUOUS
370
    -3
100
AcDbPolyline
 90
       61
 70
     0
 43
0.0
 10
33600.25956667
 20
-6289.07683402
 10
33600.23381117
 20
-6288.07725921
 10
33600.2080947
 20
-6287.07768219
 10
33600.18245627
 20
-6286.07810077
 10
33600.15693491
 20
-6285.07851273
 10
33600.13156964
 20
-6284.07891587
 10
33600.10639948
 20
-6283.079308
 10
33600.08146346
 20
-6282.07968689
 10
33600.0568006
 20
-6281.08005035
 10
33600.03244992
 20
-6280.08039618
 10
33600.00845045
 20
-6279.08072216
 10
33599.9848412
 20
-6278.0810261
 10
33599.96166121
 20
-6277.08130579
 10
33599.93894949
 20
-6276.08155903
 10
33599.91674506
 20
-6275.08178361
 10
33599.89508695
 20
-6274.08197732
 10
33599.87401419
 20
-6273.08213797
 10
33599.85356578
 20
-6272.08226334
 10
33599.83378077
 20
-6271.08235124
 10
33599.81469816
 20
-6270.08239946
 10
33599.79635699
 20
-6269.08240579
 10
33599.77879627
 20
-6268.08236803
 10
33599.76206436
 20
-6267.08228495
 10
33599.7462694
 20
-6266.08216161
 10
33599.7315431
 20
-6265.08200552
 10
33599.71801721
 20
-6264.08182421
 10
33599.70582351
 20
-6263.08162521
 10
33599.69509375
 20
-6262.08141604
 10
33599.68595969
 20
-6261.08120423
 10
33599.67855311
 20
-6260.08099731
 10
33599.67300576
 20
-6259.08080281
 10
33599.66944941
 20
-6258.08062825
 10
33599.66801581
 20
-6257.08048116
 10
33599.66883675
 20
-6256.08036907
 10
33599.67204397
 20
-6255.0802995
 10
33599.67776924
 20
-6254.08027998
 10
33599.68614432
 20
-6253.08031804
 10
33599.69730099
 20
-6252.0804212
 10
33599.71137099
 20
-6251.08059699
 10
33599.7284861
 20
-6250.08085295
 10
33599.74877807
 20
-6249.08119659
 10
33599.77237868
 20
-6248.08163544
 10
33599.79941968
 20
-6247.08217703
 10
33599.830016
 20
-6246.0828282
 10
33599.86408416
 20
-6245.08358764
 10
33599.90141134
 20
-6244.08444873
 10
33599.94178253
 20
-6243.08540476
 10
33599.98498271
 20
-6242.08644903
 10
33600.03079686
 20
-6241.08757484
 10
33600.07900996
 20
-6240.08877547
 10
33600.129407
 20
-6239.09004422
 10
33600.18177295
 20
-6238.09137438
 10
33600.23589279
 20
-6237.09275925
 10
33600.2915515
 20
-6236.09419211
 10
33600.34853407
 20
-6235.09566627
 10
33600.40662548
 20
-6234.09717501
 10
33600.4656107
 20
-6233.09871164
 10
33600.52527472
 20
-6232.10026943
 10
33600.58540252
 20
-6231.10184169
 10
33600.64577908
 20
-6230.10342171
 10
33600.65526175
 20
-6229.94675265
  0
LWPOLYLINE
  5
671
100
AcDbEntity
  8
Ech.1_5
 62
     9
  6
CONTINUOUS
370
    -3
100
AcDbPolyline
 90
       49
 70
     0
 43
0.0
 10
33600.65526175
 20
-6229.94675265
 10
33600.63475635
 20
-6228.94747178
 10
33600.61421943
 20
-6227.94818475
 10
33600.59361946
 20
-6226.94888541
 10
33600.57292492
 20
-6225.9495676
 10
33600.55210428
 20
-6224.95022519
 10
33600.53112603
 20
-6223.950852
 10
33600.50995863
 20
-6222.95144188
 10
33600.48857057
 20
-6221.95198869
 10
33600.46693032
 20
-6220.95248626
 10
33600.44500636
 20
-6219.95292845
 10
33600.42276716
 20
-6218.95330909
 10
33600.4001812
 20
-6217.95362204
 10
33600.37721695
 20
-6216.95386114
 10
33600.3538429
 20
-6215.95402023
 10
33600.33002752
 20
-6214.95409317
 10
33600.30573928
 20
-6213.95407379
 10
33600.28094667
 20
-6212.95395595
 10
33600.25561815
 20
-6211.95373349
 10
33600.2297222
 20
-6210.95340025
 10
33600.20322731
 20
-6209.95295008
 10
33600.17610194
 20
-6208.95237683
 10
33600.14836645
 20
-6207.95167771
 10
33600.12037338
 20
-6206.95087143
 10
33600.09260628
 20
-6205.94998524
 10
33600.06554898
 20
-6204.94904635
 10
33600.03968533
 20
-6203.94808202
 10
33600.0154992
 20
-6202.94711948
 10
33599.99347444
 20
-6201.94618597
 10
33599.97409488
 20
-6200.94530873
 10
33599.95784439
 20
-6199.944515
 10
33599.94520681
 20
-6198.94383201
 10
33599.936666
 20
-6197.94328701
 10
33599.93270581
 20
-6196.94290724
 10
33599.93381008
 20
-6195.94271994
 10
33599.94046268
 20
-6194.94275233
 10
33599.95314744
 20
-6193.94303168
 10
33599.97234823
 20
-6192.9435852
 10
33599.99854889
 20
-6191.94444015
 10
33600.03223328
 20
-6190.94562375
 10
33600.07388524
 20
-6189.94716326
 10
33600.12398862
 20
-6188.94908591
 10
33600.18302728
 20
-6187.95141893
 10
33600.25136916
 20
-6186.95418394
 10
33600.32801594
 20
-6185.95733617
 10
33600.41107889
 20
-6184.96078756
 10
33600.49865407
 20
-6183.96444935
 10
33600.58883748
 20
-6182.96823276
 10
33600.62247605
 20
-6182.59974574
  0
LWPOLYLINE
  5
672
100
AcDbEntity
  8
Ech.1_5
 62
   190
  6
CONTINUOUS
370
    -3
100
AcDbPolyline
 90
        6
 70
     0
 43
0.0
 10
33369.90176371
 20
-5678.88006794
 10
33504.86169204
 20
-5678.87859166
 10
33521.34719519
 20
-5660.90124333
 10
33507.23725517
 20
-5696.85694325
 10
33523.72360926
 20
-5678.87859166
 10
33746.84102524
 20
-5678.87941372
  0
LWPOLYLINE
  5
673
100
AcDbEntity
  8
Ech.1_5
 62
   190
100
AcDbPolyline
 90
        5
 70
     0
 43
0.0
 10
33154.07576213
 20
-5634.20913122
 10
33288.50454111
 20
-5634.20913122
 10
33288.50454111
 20
-5690.93209003
 10
33154.07576213
 20
-5690.93209003
 10
33154.07576213
 20
-5634.20913122
  0
HATCH
  5
674
100
AcDbEntity
  8
Ech.1_5
 62
   190
100
AcDbHatch
 10
0.0
 20
0.0
 30
0.0
210
0.0
220
0.0
230
1.0
  2
SOLID
 70
     1
 71
     0
 91
        1
 92
        7
 72
     0
 73
     1
 93
        4
 10
33172.35580791
 20
-5667.86594235
 10
33222.35580791
 20
-5667.86594235
 10
33222.35580791
 20
-5660.45080482
 10
33172.35580791
 20
-5660.45080482
 97
        0
 75
     0
 76
     2
 47
0.775229
 98
        1
 10
0.0
 20
0.0
  0
LWPOLYLINE
  5
675
100
AcDbEntity
  8
Ech.1_5
 62
   190
100
AcDbPolyline
 90
        5
 70
     0
 43
0.0
 10
33172.35580791
 20
-5667.86594235
 10
33222.35580791
 20
-5667.86594235
 10
33222.35580791
 20
-5660.45080482
 10
33172.35580791
 20
-5660.45080482
 10
33172.35580791
 20
-5667.86594235
  0
LWPOLYLINE
  5
676
100
AcDbEntity
  8
Ech.1_5
 62
   190
100
AcDbPolyline
 90
        5
 70
     0
 43
0.0
 10
33222.35580791
 20
-5667.86594235
 10
33272.35580791
 20
-5667.86594235
 10
33272.35580791
 20
-5660.45080482
 10
33222.35580791
 20
-5660.45080482
 10
33222.35580791
 20
-5667.86594235
  0
TEXT
  5
677
100
AcDbEntity
  8
Ech.1_5
 62
   190
370
    18
100
AcDbText
 10
33366.95107061
 20
-6325.43157411
 30
0.0
 40
13.50000024
  1
min 200
  7
ARIAL
 50
89.9999975
 41
1.0
 51
0.0
100
AcDbText
  0
TEXT
  5
678
100
AcDbEntity
  8
Ech.1_5
 62
   190
370
    18
100
AcDbText
 10
33367.00913678
 20
-6203.0325749
 30
0.0
 40
13.50000024
  1
30
  7
ARIAL
 50
89.9999975
 41
1.0
 51
0.0
100
AcDbText
  0
TEXT
  5
679
100
AcDbEntity
  8
Ech.1_5
 62
   190
100
AcDbText
 10
33183.65010054
 20
-5650.86480173
 30
0.0
 40
8.00000012
  1
Echelle en mm
  7
ARIAL
 50
0.0
 41
1.0
 51
0.0
100
AcDbText
  0
TEXT
  5
67A
100
AcDbEntity
  8
Ech.1_5
 62
   190
100
AcDbText
 10
33169.66951579
 20
-5679.07463726
 30
0.0
 40
8.00000012
  1
0
  7
ARIAL
 50
0.0
 41
1.0
 51
0.0
100
AcDbText
  0
TEXT
  5
67B
100
AcDbEntity
  8
Ech.1_5
 62
   190
100
AcDbText
 10
33256.26657368
 20
-5679.07463726
 30
0.0
 40
8.00000012
  1
100
  7
ARIAL
 50
0.0
 41
1.0
 51
0.0
100
AcDbText
  0
TEXT
  5
67C
100
AcDbEntity
  8
Ech.1_5
 62
   190
100
AcDbText
 10
33217.52614212
 20
-5679.07463726
 30
0.0
 40
8.00000012
  1
50
  7
ARIAL
 50
0.0
 41
1.0
 51
0.0
100
AcDbText
  0
ENDSEC
  0
SECTION
  2
OBJECTS
  0
DICTIONARY
  5
1
100
AcDbDictionary
  3
ACAD_GROUP
350
2
  3
ACAD_MLINESTYLE
350
3
  0
DICTIONARY
  5
2
102
{CDWK_REACTORS
330
1
102
}
100
AcDbDictionary
  0
DICTIONARY
  5
3
102
{CDWK_REACTORS
330
1
102
}
100
AcDbDictionary
  3
STANDARD
350
4
  0
MLINESTYLE
  5
4
102
{CDWK_REACTORS
330
3
102
}
100
AcDbMlineStyle
  2
STANDARD
 70
     0
  3

 62
     0
 51
90.0
 52
90.0
 71
     2
 49
0.5
 62
   256
  6
BYLAYER
 49
-0.5
 62
   256
  6
BYLAYER
  0
ENDSEC
  0
EOF
