  0
SECTION
  2
HEADER
  9
$ACADVER
  1
AC1014
  9
$DWGCODEPAGE
  3
ANSI_1252
  9
$INSBASE
 10
0.0
 20
0.0
 30
0.0
  9
$EXTMIN
 10
1033.98771282
 20
-21718.34332712
  9
$EXTMAX
 10
122326.07664696
 20
2240.3362527
  9
$LIMMIN
 10
1033.98771282
 20
-21718.34332712
  9
$LIMMAX
 10
122326.07664696
 20
2240.3362527
  9
$ORTHOMODE
 70
     0
  9
$REGENMODE
 70
     1
  9
$FILLMODE
 70
     1
  9
$QTEXTMODE
 70
     0
  9
$MIRRTEXT
 70
     1
  9
$DRAGMODE
 70
     2
  9
$LTSCALE
 40
5.0
  9
$OSMODE
 70
     0
  9
$ATTMODE
 70
     1
  9
$TEXTSIZE
 40
3.5
  9
$TRACEWID
 40
1.0
  9
$TEXTSTYLE
  7
STANDARD
  9
$CLAYER
  8
0
  9
$CELTYPE
  6
BYLAYER
  9
$CECOLOR
 62
   256
  9
$DIMSCALE
 40
1.0
  9
$DIMASZ
 40
2.0
  9
$DIMEXO
 40
5.0
  9
$DIMDLI
 40
10.0
  9
$DIMRND
 40
0.0
  9
$DIMDLE
 40
2.0
  9
$DIMEXE
 40
2.0
  9
$DIMTP
 40
0.0
  9
$DIMTM
 40
0.0
  9
$DIMTXT
 40
2.5
  9
$DIMCEN
 40
1.5
  9
$DIMTSZ
 40
0.0
  9
$DIMTOL
 70
     0
  9
$DIMLIM
 70
     0
  9
$DIMTIH
 70
     1
  9
$DIMTOH
 70
     0
  9
$DIMSE1
 70
     0
  9
$DIMSE2
 70
     0
  9
$DIMTAD
 70
     1
  9
$DIMZIN
 70
     8
  9
$DIMBLK
  1

  9
$DIMASO
 70
     1
  9
$DIMSHO
 70
     1
  9
$DIMPOST
  1

  9
$DIMAPOST
  1

  9
$DIMALT
 70
     0
  9
$DIMALTD
 70
     2
  9
$DIMALTF
 40
25.4
  9
$DIMLFAC
 40
1.0
  9
$DIMTOFL
 70
     0
  9
$DIMTVP
 40
0.0
  9
$DIMTIX
 70
     0
  9
$DIMSOXD
 70
     0
  9
$DIMSAH
 70
     0
  9
$DIMBLK1
  1

  9
$DIMBLK2
  1

  9
$DIMSTYLE
  2
*UNNAMED
  9
$DIMCLRD
 70
   190
  9
$DIMCLRE
 70
   190
  9
$DIMCLRT
 70
   190
  9
$DIMTFAC
 40
1.0
  9
$DIMGAP
 40
0.09
  9
$DIMUNIT
 70
     2
  9
$LUNITS
 70
     2
  9
$LUPREC
 70
     6
  9
$AXISMODE
 70
     0
  9
$AXISUNIT
 10
0.0
 20
0.0
  9
$SKETCHINC
 40
0.1
  9
$FILLETRAD
 40
0.0
  9
$AUNITS
 70
     0
  9
$AUPREC
 70
     0
  9
$MENU
  1
ACAD
  9
$ELEVATION
 40
0.0
  9
$PELEVATION
 40
0.0
  9
$THICKNESS
 40
0.0
  9
$LIMCHECK
 70
     0
  9
$BLIPMODE
 70
     1
  9
$CHAMFERA
 40
0.0
  9
$CHAMFERB
 40
0.0
  9
$SKPOLY
 70
     1
  9
$TDCREATE
 40
2457808.0000000000
  9
$TDUPDATE
 40
2457808.0000000000
  9
$TDINDWG
 40
0.0
  9
$TDUSRTIMER
 40
0.0
  9
$USRTIMER
 70
     1
  9
$ANGBASE
 50
0.0
  9
$ANGDIR
 70
     0
  9
$PDMODE
 70
     0
  9
$PDSIZE
 40
0.0
  9
$PLINEWID
 40
0.0
  9
$COORDS
 70
     2
  9
$SPLFRAME
 70
     0
  9
$SPLINETYPE
 70
     6
  9
$SPLINESEGS
 70
     8
  9
$ATTDIA
 70
     1
  9
$ATTREQ
 70
     1
  9
$HANDLING
 70
     1
  9
$HANDSEED
  5
     62B
  9
$SURFTAB1
 70
     6
  9
$SURFTAB2
 70
     6
  9
$SURFTYPE
 70
     6
  9
$SURFU
 70
     6
  9
$SURFV
 70
     6
  9
$UCSNAME
  2

  9
$UCSORG
 10
0.0
 20
0.0
 30
0.0
  9
$UCSXDIR
 10
1.0
 20
0.0
 30
0.0
  9
$UCSYDIR
 10
0.0
 20
1.0
 30
0.0
  9
$PUCSNAME
  2

  9
$PUCSORG
 10
0.0
 20
0.0
 30
0.0
  9
$PUCSXDIR
 10
1.0
 20
0.0
 30
0.0
  9
$PUCSYDIR
 10
0.0
 20
1.0
 30
0.0
  9
$USERI1
 70
     0
  9
$USERI2
 70
     0
  9
$USERI3
 70
     0
  9
$USERI4
 70
     0
  9
$USERI5
 70
     0
  9
$USERR1
 40
0.0
  9
$USERR2
 40
0.0
  9
$USERR3
 40
0.0
  9
$USERR4
 40
0.0
  9
$USERR5
 40
0.0
  9
$WORLDVIEW
 70
     1
  9
$SHADEDGE
 70
     3
  9
$SHADEDIF
 70
    70
  9
$TILEMODE
 70
     1
  9
$MAXACTVP
 70
    16
  9
$PINSBASE
 10
0.0
 20
0.0
 30
0.0
  9
$PLIMCHECK
 70
     0
  9
$PEXTMIN
 10
1.0000000000000E+20
 20
1.0000000000000E+20
 30
1.0000000000000E+20
  9
$PEXTMAX
 10
-1.0000000000000E+20
 20
-1.0000000000000E+20
 30
-1.0000000000000E+20
  9
$PLIMMIN
 10
0.0
 20
0.0
  9
$UNITMODE
 70
     0
  9
$VISRETAIN
 70
     0
  9
$MEASUREMENT
 70
     1
  0
ENDSEC
  0
SECTION
  2
TABLES
  0
TABLE
  2
VPORT
  5
4A2
100
AcDbSymbolTable
 70
     1
  0
ENDTAB
  0
TABLE
  2
STYLE
  5
4A3
100
AcDbSymbolTable
 70
     3
  0
STYLE
  5
4A4
100
AcDbSymbolTableRecord
100
AcDbTextStyleTableRecord
  2
STANDARD
 70
     0
 40
0.0
 41
1.0
 50
0.0
 71
     0
 42
3.5
  3
MONOTXT
  4

  0
STYLE
  5
4A5
100
AcDbSymbolTableRecord
100
AcDbTextStyleTableRecord
  2
SYMAP
 70
     0
 40
0.0
 41
1.0
 50
0.0
 71
     0
 42
3.5
  3
SYMAP
  4

  0
STYLE
  5
4A6
100
AcDbSymbolTableRecord
100
AcDbTextStyleTableRecord
  2
CADWORK1
 70
     0
 40
0.0
 41
1.0
 50
0.0
 71
     0
 42
3.5
  3
MONOTXT
  4

  0
STYLE
  5
4A7
100
AcDbSymbolTableRecord
100
AcDbTextStyleTableRecord
  2
MONOTXT
 70
     0
 40
0.0
 41
1.0
 50
0.0
 71
     0
 42
3.5
  3
MONOTXT
  4

  0
STYLE
  5
4A8
100
AcDbSymbolTableRecord
100
AcDbTextStyleTableRecord
  2
ARIAL
 70
     0
 40
0.0
 41
1.0
 50
0.0
 71
     0
 42
3.5
  3

  4

1001
ACAD
1000
Arial
1071
        0
  0
ENDTAB
  0
TABLE
  2
LTYPE
  5
4A9
100
AcDbSymbolTable
 70
    15
  0
LTYPE
  5
4AA
100
AcDbSymbolTableRecord
100
AcDbLinetypeTableRecord
  2
BYBLOCK
 70
    64
  3

 72
    65
 73
     0
 40
0.0
  0
LTYPE
  5
4AB
100
AcDbSymbolTableRecord
100
AcDbLinetypeTableRecord
  2
BYLAYER
 70
    64
  3

 72
    65
 73
     0
 40
0.0
  0
LTYPE
  5
4AC
100
AcDbSymbolTableRecord
100
AcDbLinetypeTableRecord
  2
CONTINUOUS
 70
    64
  3
Solid line
 72
    65
 73
     0
 40
0.0
  0
LTYPE
  5
4AD
100
AcDbSymbolTableRecord
100
AcDbLinetypeTableRecord
  2
DOT2
 70
    64
  3
...............................................
 72
    65
 73
     2
 40
1.25
 49
0.0
 74
     0
 49
-1.25
 74
     0
  0
LTYPE
  5
4AE
100
AcDbSymbolTableRecord
100
AcDbLinetypeTableRecord
  2
CADWORK_13
 70
    64
  3
13 =======================================
 72
    65
 73
     2
 40
4.0
 49
2.0
 74
     0
 49
-2.0
 74
     0
  0
LTYPE
  5
4AF
100
AcDbSymbolTableRecord
100
AcDbLinetypeTableRecord
  2
DASHDOT
 70
    64
  3
 __ . __ . __ . __ . __ . __ . __ . __ . __ . __
 72
    65
 73
     4
 40
10.0
 49
5.0
 74
     0
 49
-2.5
 74
     0
 49
0.0
 74
     0
 49
-2.5
 74
     0
  0
LTYPE
  5
4B0
100
AcDbSymbolTableRecord
100
AcDbLinetypeTableRecord
  2
CENTER
 70
    64
  3
 ____ _ ____ _ ____ _ ____ _ ____ _ ____ _ ____
 72
    65
 73
     4
 40
20.0
 49
12.5
 74
     0
 49
-2.5
 74
     0
 49
2.5
 74
     0
 49
-2.5
 74
     0
  0
LTYPE
  5
4B1
100
AcDbSymbolTableRecord
100
AcDbLinetypeTableRecord
  2
DASHEDX2
 70
    64
  3
____  ____  ____  ____  ____  ____  ____  ____
 72
    65
 73
     2
 40
3.75
 49
2.5
 74
     0
 49
-1.25
 74
     0
  0
LTYPE
  5
4B2
100
AcDbSymbolTableRecord
100
AcDbLinetypeTableRecord
  2
CADWORK_22
 70
    64
  3
22 =======================================
 72
    65
 73
     0
 40
0.0
  0
LTYPE
  5
4B3
100
AcDbSymbolTableRecord
100
AcDbLinetypeTableRecord
  2
DAL
 70
    64
  3
Solid line (for MAPS)
 72
    65
 73
     0
 40
0.0
  0
LTYPE
  5
4B4
100
AcDbSymbolTableRecord
100
AcDbLinetypeTableRecord
  2
MUR
 70
    64
  3
Solid line (for MAPS)
 72
    65
 73
     0
 40
0.0
  0
LTYPE
  5
4B5
100
AcDbSymbolTableRecord
100
AcDbLinetypeTableRecord
  2
SOM
 70
    64
  3
Solid line (for MAPS)
 72
    65
 73
     0
 40
0.0
  0
LTYPE
  5
4B6
100
AcDbSymbolTableRecord
100
AcDbLinetypeTableRecord
  2
COL
 70
    64
  3
Solid line (for MAPS)
 72
    65
 73
     0
 40
0.0
  0
LTYPE
  5
4B7
100
AcDbSymbolTableRecord
100
AcDbLinetypeTableRecord
  2
LGN
 70
    64
  3
Solid line (for MAPS)
 72
    65
 73
     0
 40
0.0
  0
LTYPE
  5
4B8
100
AcDbSymbolTableRecord
100
AcDbLinetypeTableRecord
  2
PNT
 70
    64
  3
Solid line (for MAPS)
 72
    65
 73
     0
 40
0.0
  0
ENDTAB
  0
TABLE
  2
LAYER
  5
4B9
100
AcDbSymbolTable
 70
    32
  0
LAYER
  5
4BA
100
AcDbSymbolTableRecord
100
AcDbLayerTableRecord
  2
Standard
 70
     0
 62
     7
  6
CONTINUOUS
370
    -3
  0
LAYER
  5
4BB
100
AcDbSymbolTableRecord
100
AcDbLayerTableRecord
  2
Ech.1_1
 70
     0
 62
     7
  6
CONTINUOUS
370
    -3
  0
LAYER
  5
4BC
100
AcDbSymbolTableRecord
100
AcDbLayerTableRecord
  2
Ech.1_2
 70
     0
 62
     7
  6
CONTINUOUS
370
    -3
  0
LAYER
  5
4BD
100
AcDbSymbolTableRecord
100
AcDbLayerTableRecord
  2
Ech.1_5
 70
     0
 62
     7
  6
CONTINUOUS
370
    -3
  0
LAYER
  5
4BE
100
AcDbSymbolTableRecord
100
AcDbLayerTableRecord
  2
Ech.1_10
 70
     0
 62
     7
  6
CONTINUOUS
370
    -3
  0
LAYER
  5
4BF
100
AcDbSymbolTableRecord
100
AcDbLayerTableRecord
  2
Ech.1_20
 70
     0
 62
     7
  6
CONTINUOUS
370
    -3
  0
LAYER
  5
4C0
100
AcDbSymbolTableRecord
100
AcDbLayerTableRecord
  2
Ech.1_25
 70
     0
 62
     7
  6
CONTINUOUS
370
    -3
  0
LAYER
  5
4C1
100
AcDbSymbolTableRecord
100
AcDbLayerTableRecord
  2
Ech.1_33
 70
     0
 62
     7
  6
CONTINUOUS
370
    -3
  0
LAYER
  5
4C2
100
AcDbSymbolTableRecord
100
AcDbLayerTableRecord
  2
Ech.1_50
 70
     0
 62
     7
  6
CONTINUOUS
370
    -3
  0
LAYER
  5
4C3
100
AcDbSymbolTableRecord
100
AcDbLayerTableRecord
  2
Ech.1_75
 70
     0
 62
     7
  6
CONTINUOUS
370
    -3
  0
LAYER
  5
4C4
100
AcDbSymbolTableRecord
100
AcDbLayerTableRecord
  2
Ech.1_100
 70
     0
 62
     7
  6
CONTINUOUS
370
    -3
  0
LAYER
  5
4C5
100
AcDbSymbolTableRecord
100
AcDbLayerTableRecord
  2
Ech.1_200
 70
     0
 62
     7
  6
CONTINUOUS
370
    -3
  0
LAYER
  5
4C6
100
AcDbSymbolTableRecord
100
AcDbLayerTableRecord
  2
Ech.1_500
 70
     0
 62
     7
  6
CONTINUOUS
370
    -3
  0
LAYER
  5
4C7
100
AcDbSymbolTableRecord
100
AcDbLayerTableRecord
  2
Ech.1_1000
 70
     0
 62
     7
  6
CONTINUOUS
370
    -3
  0
LAYER
  5
4C8
100
AcDbSymbolTableRecord
100
AcDbLayerTableRecord
  2
Cadres traceur
 70
     0
 62
     7
  6
CONTINUOUS
370
    18
  0
LAYER
  5
4C9
100
AcDbSymbolTableRecord
100
AcDbLayerTableRecord
  2
Cadres laser
 70
     0
 62
     7
  6
CONTINUOUS
370
    18
  0
LAYER
  5
4CA
100
AcDbSymbolTableRecord
100
AcDbLayerTableRecord
  2
Légende d_aide
 70
     0
 62
     7
  6
CONTINUOUS
370
    18
  0
LAYER
  5
4CB
100
AcDbSymbolTableRecord
100
AcDbLayerTableRecord
  2
hachures ok
 70
     0
 62
     7
  6
CONTINUOUS
370
    18
  0
LAYER
  5
4CC
100
AcDbSymbolTableRecord
100
AcDbLayerTableRecord
  2
ossature bois
 70
     0
 62
     7
  6
CONTINUOUS
370
    18
  0
LAYER
  5
4CD
100
AcDbSymbolTableRecord
100
AcDbLayerTableRecord
  2
VR
 70
     0
 62
     7
  6
CONTINUOUS
370
    25
  0
LAYER
  5
4CE
100
AcDbSymbolTableRecord
100
AcDbLayerTableRecord
  2
Calque1
 70
     0
 62
     7
  6
CONTINUOUS
370
     9
  0
LAYER
  5
4CF
100
AcDbSymbolTableRecord
100
AcDbLayerTableRecord
  2
0
 70
     0
 62
     7
  6
CONTINUOUS
370
    -3
  0
LAYER
  5
4D0
100
AcDbSymbolTableRecord
100
AcDbLayerTableRecord
  2
menuiserie
 70
     0
 62
     7
  6
CONTINUOUS
370
    -3
  0
LAYER
  5
4D1
100
AcDbSymbolTableRecord
100
AcDbLayerTableRecord
  2
cotation
 70
     0
 62
   250
  6
CONTINUOUS
370
     9
  0
LAYER
  5
4D2
100
AcDbSymbolTableRecord
100
AcDbLayerTableRecord
  2
Defpoints
 70
     0
 62
    10
  6
CONTINUOUS
370
    -3
  0
LAYER
  5
4D3
100
AcDbSymbolTableRecord
100
AcDbLayerTableRecord
  2
HACHURE
 70
     0
 62
   254
  6
CONTINUOUS
370
    25
  0
LAYER
  5
4D4
100
AcDbSymbolTableRecord
100
AcDbLayerTableRecord
  2
mat1
 70
     0
 62
     7
  6
CONTINUOUS
370
    30
  0
LAYER
  5
4D5
100
AcDbSymbolTableRecord
100
AcDbLayerTableRecord
  2
mat2
 70
     0
 62
     7
  6
CONTINUOUS
370
     5
  0
LAYER
  5
4D6
100
AcDbSymbolTableRecord
100
AcDbLayerTableRecord
  2
hach
 70
     0
 62
     8
  6
CONTINUOUS
370
     5
  0
LAYER
  5
4D7
100
AcDbSymbolTableRecord
100
AcDbLayerTableRecord
  2
menuiseries
 70
     0
 62
     7
  6
CONTINUOUS
370
     9
  0
LAYER
  5
4D8
100
AcDbSymbolTableRecord
100
AcDbLayerTableRecord
  2
BétonMétal
 70
     0
 62
     7
  6
CONTINUOUS
370
    80
  0
LAYER
  5
4D9
100
AcDbSymbolTableRecord
100
AcDbLayerTableRecord
  2
bois
 70
     0
 62
     7
  6
CONTINUOUS
370
    60
  0
ENDTAB
  0
TABLE
  2
VIEW
  5
4DA
100
AcDbSymbolTable
 70
     0
  0
ENDTAB
  0
TABLE
  2
UCS
  5
4DB
100
AcDbSymbolTable
 70
     0
  0
ENDTAB
  0
TABLE
  2
APPID
  5
4DC
100
AcDbSymbolTable
 70
     1
  0
APPID
  5
4DD
100
AcDbSymbolTableRecord
100
AcDbRegAppTableRecord
  2
ACAD
 70
     0
  0
ENDTAB
  0
TABLE
  2
DIMSTYLE
  5
4DE
100
AcDbSymbolTable
 70
     0
  0
ENDTAB
  0
TABLE
  2
BLOCK_RECORD
  5
4DF
100
AcDbSymbolTable
 70
     0
  0
BLOCK_RECORD
  5
4E0
100
AcDbSymbolTableRecord
100
AcDbBlockTableRecord
  2
*MODEL_SPACE
  0
BLOCK_RECORD
  5
4E1
100
AcDbSymbolTableRecord
100
AcDbBlockTableRecord
  2
*PAPER_SPACE
  0
BLOCK_RECORD
  5
4E2
100
AcDbSymbolTableRecord
100
AcDbBlockTableRecord
  2
CDWK_EXTR_0
  0
BLOCK_RECORD
  5
4E3
100
AcDbSymbolTableRecord
100
AcDbBlockTableRecord
  2
CDWK_EXTR_1D
  0
BLOCK_RECORD
  5
4E4
100
AcDbSymbolTableRecord
100
AcDbBlockTableRecord
  2
CDWK_EXTR_1G
  0
BLOCK_RECORD
  5
4E5
100
AcDbSymbolTableRecord
100
AcDbBlockTableRecord
  2
CDWK_EXTR_2
  0
BLOCK_RECORD
  5
4E6
100
AcDbSymbolTableRecord
100
AcDbBlockTableRecord
  2
CDWK_EXTR_3
  0
BLOCK_RECORD
  5
4E7
100
AcDbSymbolTableRecord
100
AcDbBlockTableRecord
  2
CDWK_EXTR_4
  0
BLOCK_RECORD
  5
4E8
100
AcDbSymbolTableRecord
100
AcDbBlockTableRecord
  2
CDWK_PTTYP0
  0
BLOCK_RECORD
  5
4E9
100
AcDbSymbolTableRecord
100
AcDbBlockTableRecord
  2
CDWK_PTTYP1
  0
BLOCK_RECORD
  5
4EA
100
AcDbSymbolTableRecord
100
AcDbBlockTableRecord
  2
CDWK_PTTYP2
  0
BLOCK_RECORD
  5
4EB
100
AcDbSymbolTableRecord
100
AcDbBlockTableRecord
  2
CDWK_PTTYP3
  0
BLOCK_RECORD
  5
4EC
100
AcDbSymbolTableRecord
100
AcDbBlockTableRecord
  2
CDWK_PTTYP4
  0
BLOCK_RECORD
  5
4ED
100
AcDbSymbolTableRecord
100
AcDbBlockTableRecord
  2
CDWK_PTTYP5
  0
BLOCK_RECORD
  5
4EE
100
AcDbSymbolTableRecord
100
AcDbBlockTableRecord
  2
CDWK_PTTYP6
  0
BLOCK_RECORD
  5
4EF
100
AcDbSymbolTableRecord
100
AcDbBlockTableRecord
  2
CDWK_PTTYP7
  0
BLOCK_RECORD
  5
4F0
100
AcDbSymbolTableRecord
100
AcDbBlockTableRecord
  2
CDWK_PTTYP8
  0
BLOCK_RECORD
  5
4F1
100
AcDbSymbolTableRecord
100
AcDbBlockTableRecord
  2
CDWK_PTTYP9
  0
BLOCK_RECORD
  5
4F2
100
AcDbSymbolTableRecord
100
AcDbBlockTableRecord
  2
CDWK_PTTYP10
  0
BLOCK_RECORD
  5
4F3
100
AcDbSymbolTableRecord
100
AcDbBlockTableRecord
  2
CDWK_PTTYP11
  0
BLOCK_RECORD
  5
4F4
100
AcDbSymbolTableRecord
100
AcDbBlockTableRecord
  2
CDWK_PTTYP12
  0
BLOCK_RECORD
  5
4F5
100
AcDbSymbolTableRecord
100
AcDbBlockTableRecord
  2
CDWK_PTTYP13
  0
BLOCK_RECORD
  5
4F6
100
AcDbSymbolTableRecord
100
AcDbBlockTableRecord
  2
CDWK_PTTYP14
  0
BLOCK_RECORD
  5
4F7
100
AcDbSymbolTableRecord
100
AcDbBlockTableRecord
  2
CDWK_PTTYP15
  0
BLOCK_RECORD
  5
4F8
100
AcDbSymbolTableRecord
100
AcDbBlockTableRecord
  2
CDWK_PTTYP16
  0
BLOCK_RECORD
  5
4F9
100
AcDbSymbolTableRecord
100
AcDbBlockTableRecord
  2
CDWK_PTTYP17
  0
BLOCK_RECORD
  5
4FA
100
AcDbSymbolTableRecord
100
AcDbBlockTableRecord
  2
CDWK_PTTYP18
  0
BLOCK_RECORD
  5
4FB
100
AcDbSymbolTableRecord
100
AcDbBlockTableRecord
  2
CDWK_PTTYP19
  0
BLOCK_RECORD
  5
4FC
100
AcDbSymbolTableRecord
100
AcDbBlockTableRecord
  2
CDWK_PTTYP20
  0
BLOCK_RECORD
  5
4FD
100
AcDbSymbolTableRecord
100
AcDbBlockTableRecord
  2
CDWK_PTTYP21
  0
BLOCK_RECORD
  5
4FE
100
AcDbSymbolTableRecord
100
AcDbBlockTableRecord
  2
CDWK_PTTYP22
  0
BLOCK_RECORD
  5
4FF
100
AcDbSymbolTableRecord
100
AcDbBlockTableRecord
  2
CDWK_PTTYP23
  0
BLOCK_RECORD
  5
500
100
AcDbSymbolTableRecord
100
AcDbBlockTableRecord
  2
CDWK_PTTYP24
  0
BLOCK_RECORD
  5
501
100
AcDbSymbolTableRecord
100
AcDbBlockTableRecord
  2
CDWK_PTTYP25
  0
BLOCK_RECORD
  5
502
100
AcDbSymbolTableRecord
100
AcDbBlockTableRecord
  2
CDWK_PTTYP26
  0
BLOCK_RECORD
  5
503
100
AcDbSymbolTableRecord
100
AcDbBlockTableRecord
  2
CDWK_PTTYP27
  0
BLOCK_RECORD
  5
504
100
AcDbSymbolTableRecord
100
AcDbBlockTableRecord
  2
CDWK_PTTYP28
  0
BLOCK_RECORD
  5
505
100
AcDbSymbolTableRecord
100
AcDbBlockTableRecord
  2
CDWK_PTTYP29
  0
BLOCK_RECORD
  5
506
100
AcDbSymbolTableRecord
100
AcDbBlockTableRecord
  2
CDWK_PTTYP30
  0
BLOCK_RECORD
  5
507
100
AcDbSymbolTableRecord
100
AcDbBlockTableRecord
  2
CDWK_PTTYP31
  0
BLOCK_RECORD
  5
508
100
AcDbSymbolTableRecord
100
AcDbBlockTableRecord
  2
CDWK_PTTYP32
  0
BLOCK_RECORD
  5
509
100
AcDbSymbolTableRecord
100
AcDbBlockTableRecord
  2
CDWK_PTTYP33
  0
BLOCK_RECORD
  5
50A
100
AcDbSymbolTableRecord
100
AcDbBlockTableRecord
  2
CDWK_PTTYP34
  0
BLOCK_RECORD
  5
50B
100
AcDbSymbolTableRecord
100
AcDbBlockTableRecord
  2
CDWK_PTTYP35
  0
BLOCK_RECORD
  5
50C
100
AcDbSymbolTableRecord
100
AcDbBlockTableRecord
  2
CDWK_PTTYP36
  0
BLOCK_RECORD
  5
50D
100
AcDbSymbolTableRecord
100
AcDbBlockTableRecord
  2
CDWK_PTTYP37
  0
BLOCK_RECORD
  5
50E
100
AcDbSymbolTableRecord
100
AcDbBlockTableRecord
  2
CDWK_PTTYP38
  0
ENDTAB
  0
ENDSEC
  0
SECTION
  2
BLOCKS
  0
BLOCK
  5
50F
100
AcDbEntity
  8
0
100
AcDbBlockBegin
  2
*MODEL_SPACE
 70
     0
 10
0.0
 20
0.0
 30
0.0
  3
*MODEL_SPACE
  1

  0
ENDBLK
  5
510
100
AcDbEntity
100
AcDbBlockEnd
  0
BLOCK
  5
511
100
AcDbEntity
  8
0
100
AcDbBlockBegin
  2
*PAPER_SPACE
 70
     0
 10
0.0
 20
0.0
 30
0.0
  3
*PAPER_SPACE
  1

  0
ENDBLK
  5
512
100
AcDbEntity
100
AcDbBlockEnd
  0
BLOCK
  5
513
100
AcDbEntity
  8
0
100
AcDbBlockBegin
  2
CDWK_EXTR_0
 70
     0
 10
0.0
 20
0.0
 30
0.0
  3
CDWK_EXTR_0
  1

  4
Cadwork line-extremity
  0
LINE
  5
514
100
AcDbEntity
  8
0
 62
     0
370
    -2
100
AcDbLine
 10
0.0
 20
0.0
 30
0.0
 11
2.0
 21
0.5
 31
0.0
  0
LINE
  5
515
100
AcDbEntity
  8
0
 62
     0
370
    -2
100
AcDbLine
 10
0.0
 20
0.0
 30
0.0
 11
2.0
 21
-0.5
 31
0.0
  0
LINE
  5
516
100
AcDbEntity
  8
0
 62
     0
370
    -2
100
AcDbLine
 10
2.0
 20
0.5
 30
0.0
 11
2.0
 21
-0.5
 31
0.0
  0
ENDBLK
  5
517
100
AcDbEntity
100
AcDbBlockEnd
  0
BLOCK
  5
518
100
AcDbEntity
  8
0
100
AcDbBlockBegin
  2
CDWK_EXTR_1D
 70
     0
 10
0.0
 20
0.0
 30
0.0
  3
CDWK_EXTR_1D
  1

  4
Cadwork line-extremity
  0
LINE
  5
519
100
AcDbEntity
  8
0
 62
     0
370
    -2
100
AcDbLine
 10
0.0
 20
0.0
 30
0.0
 11
0.0
 21
1.0
 31
0.0
  0
LINE
  5
51A
100
AcDbEntity
  8
0
 62
     0
370
    -2
100
AcDbLine
 10
0.0
 20
1.0
 30
0.0
 11
0.5
 21
1.5
 31
0.0
  0
LINE
  5
51B
100
AcDbEntity
  8
0
 62
     0
370
    -2
100
AcDbLine
 10
0.5
 20
1.5
 30
0.0
 11
1.5
 21
1.5
 31
0.0
  0
ENDBLK
  5
51C
100
AcDbEntity
100
AcDbBlockEnd
  0
BLOCK
  5
51D
100
AcDbEntity
  8
0
100
AcDbBlockBegin
  2
CDWK_EXTR_1G
 70
     0
 10
0.0
 20
0.0
 30
0.0
  3
CDWK_EXTR_1G
  1

  4
Cadwork line-extremity
  0
LINE
  5
51E
100
AcDbEntity
  8
0
 62
     0
370
    -2
100
AcDbLine
 10
0.0
 20
0.0
 30
0.0
 11
0.0
 21
-1.0
 31
0.0
  0
LINE
  5
51F
100
AcDbEntity
  8
0
 62
     0
370
    -2
100
AcDbLine
 10
0.0
 20
-1.0
 30
0.0
 11
0.5
 21
-1.5
 31
0.0
  0
LINE
  5
520
100
AcDbEntity
  8
0
 62
     0
370
    -2
100
AcDbLine
 10
0.5
 20
-1.5
 30
0.0
 11
1.5
 21
-1.5
 31
0.0
  0
ENDBLK
  5
521
100
AcDbEntity
100
AcDbBlockEnd
  0
BLOCK
  5
522
100
AcDbEntity
  8
0
100
AcDbBlockBegin
  2
CDWK_EXTR_2
 70
     0
 10
0.0
 20
0.0
 30
0.0
  3
CDWK_EXTR_2
  1

  4
Cadwork line-extremity
  0
SOLID
  5
523
100
AcDbEntity
  8
0
 62
     0
100
AcDbTrace
 10
0.0
 20
0.0
 11
2.0
 21
0.5
 12
2.0
 22
-0.5
 13
2.0
 23
-0.5
  0
ENDBLK
  5
524
100
AcDbEntity
100
AcDbBlockEnd
  0
BLOCK
  5
525
100
AcDbEntity
  8
0
100
AcDbBlockBegin
  2
CDWK_EXTR_3
 70
     0
 10
0.0
 20
0.0
 30
0.0
  3
CDWK_EXTR_3
  1

  4
Cadwork line-extremity
  0
SOLID
  5
526
100
AcDbEntity
  8
0
 62
     0
100
AcDbTrace
 10
0.0
 20
0.0
 11
2.0
 21
0.5
 12
2.0
 22
-0.5
 13
2.0
 23
-0.5
  0
LINE
  5
527
100
AcDbEntity
  8
0
 62
     0
370
    -2
100
AcDbLine
 10
0.0
 20
1.0
 30
0.0
 11
0.0
 21
-1.0
 31
0.0
  0
ENDBLK
  5
528
100
AcDbEntity
100
AcDbBlockEnd
  0
BLOCK
  5
529
100
AcDbEntity
  8
0
100
AcDbBlockBegin
  2
CDWK_EXTR_4
 70
     0
 10
0.0
 20
0.0
 30
0.0
  3
CDWK_EXTR_4
  1

  4
Cadwork line-extremity
  0
HATCH
  5
52A
100
AcDbEntity
  8
0
 62
     0
370
    -2
100
AcDbHatch
 10
0.0
 20
0.0
 30
0.0
210
0.0
220
0.0
230
1.0
  2
SOLID
 70
     1
 71
     0
 91
        1
 92
        1
 93
        1
 72
     2
 10
0.0
 20
0.0
 40
0.5
 50
0.0
 51
360.0
 73
     1
 97
        0
 75
     0
 76
     1
 98
        1
 10
0.0
 20
0.0
  0
ENDBLK
  5
52B
100
AcDbEntity
100
AcDbBlockEnd
  0
BLOCK
  5
52C
100
AcDbEntity
  8
0
100
AcDbBlockBegin
  2
CDWK_PTTYP0
 70
     0
 10
0.0
 20
0.0
 30
0.0
  3
CDWK_PTTYP0
  1

  4
Cadwork point
  0
POINT
  5
52D
100
AcDbEntity
  8
0
 62
     0
100
AcDbPoint
 10
0.0
 20
0.0
 30
0.0
  0
ENDBLK
  5
52E
100
AcDbEntity
100
AcDbBlockEnd
  0
BLOCK
  5
52F
100
AcDbEntity
  8
0
100
AcDbBlockBegin
  2
CDWK_PTTYP1
 70
     0
 10
0.0
 20
0.0
 30
0.0
  3
CDWK_PTTYP1
  1

  4
Cadwork node
  0
LINE
  5
530
100
AcDbEntity
  8
0
 62
     0
370
    -2
100
AcDbLine
 10
-0.5
 20
0.5
 30
0.0
 11
0.5
 21
0.5
 31
0.0
  0
LINE
  5
531
100
AcDbEntity
  8
0
 62
     0
370
    -2
100
AcDbLine
 10
0.5
 20
0.5
 30
0.0
 11
0.5
 21
-0.5
 31
0.0
  0
LINE
  5
532
100
AcDbEntity
  8
0
 62
     0
370
    -2
100
AcDbLine
 10
0.5
 20
-0.5
 30
0.0
 11
-0.5
 21
-0.5
 31
0.0
  0
LINE
  5
533
100
AcDbEntity
  8
0
 62
     0
370
    -2
100
AcDbLine
 10
-0.5
 20
-0.5
 30
0.0
 11
-0.5
 21
0.5
 31
0.0
  0
ENDBLK
  5
534
100
AcDbEntity
100
AcDbBlockEnd
  0
BLOCK
  5
535
100
AcDbEntity
  8
0
100
AcDbBlockBegin
  2
CDWK_PTTYP2
 70
     0
 10
0.0
 20
0.0
 30
0.0
  3
CDWK_PTTYP2
  1

  4
Cadwork node
  0
LINE
  5
536
100
AcDbEntity
  8
0
 62
     0
370
    -2
100
AcDbLine
 10
0.0
 20
0.5
 30
0.0
 11
0.0
 21
-0.5
 31
0.0
  0
LINE
  5
537
100
AcDbEntity
  8
0
 62
     0
370
    -2
100
AcDbLine
 10
-0.5
 20
0.0
 30
0.0
 11
0.5
 21
0.0
 31
0.0
  0
ENDBLK
  5
538
100
AcDbEntity
100
AcDbBlockEnd
  0
BLOCK
  5
539
100
AcDbEntity
  8
0
100
AcDbBlockBegin
  2
CDWK_PTTYP3
 70
     0
 10
0.0
 20
0.0
 30
0.0
  3
CDWK_PTTYP3
  1

  4
Cadwork node
  0
CIRCLE
  5
53A
100
AcDbEntity
  8
0
 62
     0
370
    -2
100
AcDbCircle
 10
0.0
 20
0.0
 30
0.0
 40
0.5
  0
ENDBLK
  5
53B
100
AcDbEntity
100
AcDbBlockEnd
  0
BLOCK
  5
53C
100
AcDbEntity
  8
0
100
AcDbBlockBegin
  2
CDWK_PTTYP4
 70
     0
 10
0.0
 20
0.0
 30
0.0
  3
CDWK_PTTYP4
  1

  4
Cadwork node
  0
HATCH
  5
53D
100
AcDbEntity
  8
0
 62
     0
370
    -2
100
AcDbHatch
 10
0.0
 20
0.0
 30
0.0
210
0.0
220
0.0
230
1.0
  2
SOLID
 70
     1
 71
     0
 91
        1
 92
        1
 93
        1
 72
     2
 10
0.0
 20
0.0
 40
0.5
 50
0.0
 51
360.0
 73
     1
 97
        0
 75
     0
 76
     1
 98
        1
 10
0.0
 20
0.0
  0
ENDBLK
  5
53E
100
AcDbEntity
100
AcDbBlockEnd
  0
BLOCK
  5
53F
100
AcDbEntity
  8
0
100
AcDbBlockBegin
  2
CDWK_PTTYP5
 70
     0
 10
0.0
 20
0.0
 30
0.0
  3
CDWK_PTTYP5
  1

  4
Cadwork node
  0
LINE
  5
540
100
AcDbEntity
  8
0
 62
     0
370
    -2
100
AcDbLine
 10
-0.5
 20
0.5
 30
0.0
 11
0.5
 21
0.5
 31
0.0
  0
LINE
  5
541
100
AcDbEntity
  8
0
 62
     0
370
    -2
100
AcDbLine
 10
0.5
 20
0.5
 30
0.0
 11
0.5
 21
-0.5
 31
0.0
  0
LINE
  5
542
100
AcDbEntity
  8
0
 62
     0
370
    -2
100
AcDbLine
 10
0.5
 20
-0.5
 30
0.0
 11
-0.5
 21
-0.5
 31
0.0
  0
LINE
  5
543
100
AcDbEntity
  8
0
 62
     0
370
    -2
100
AcDbLine
 10
-0.5
 20
-0.5
 30
0.0
 11
-0.5
 21
0.5
 31
0.0
  0
SOLID
  5
544
100
AcDbEntity
  8
0
 62
     0
100
AcDbTrace
 10
-0.5
 20
-0.5
 11
-0.5
 21
0.0
 12
0.0
 22
-0.5
 13
0.0
 23
0.0
  0
SOLID
  5
545
100
AcDbEntity
  8
0
 62
     0
100
AcDbTrace
 10
0.0
 20
0.0
 11
0.0
 21
0.5
 12
0.5
 22
0.0
 13
0.5
 23
0.5
  0
ENDBLK
  5
546
100
AcDbEntity
100
AcDbBlockEnd
  0
BLOCK
  5
547
100
AcDbEntity
  8
0
100
AcDbBlockBegin
  2
CDWK_PTTYP6
 70
     0
 10
0.0
 20
0.0
 30
0.0
  3
CDWK_PTTYP6
  1

  4
Cadwork node
  0
LINE
  5
548
100
AcDbEntity
  8
0
 62
     0
370
    -2
100
AcDbLine
 10
-0.5
 20
0.5
 30
0.0
 11
0.5
 21
0.5
 31
0.0
  0
LINE
  5
549
100
AcDbEntity
  8
0
 62
     0
370
    -2
100
AcDbLine
 10
0.5
 20
0.5
 30
0.0
 11
0.5
 21
-0.5
 31
0.0
  0
LINE
  5
54A
100
AcDbEntity
  8
0
 62
     0
370
    -2
100
AcDbLine
 10
0.5
 20
-0.5
 30
0.0
 11
-0.5
 21
-0.5
 31
0.0
  0
LINE
  5
54B
100
AcDbEntity
  8
0
 62
     0
370
    -2
100
AcDbLine
 10
-0.5
 20
-0.5
 30
0.0
 11
-0.5
 21
0.5
 31
0.0
  0
SOLID
  5
54C
100
AcDbEntity
  8
0
 62
     0
100
AcDbTrace
 10
-0.5
 20
-0.5
 11
-0.5
 21
0.5
 12
0.5
 22
0.5
 13
0.5
 23
0.5
  0
ENDBLK
  5
54D
100
AcDbEntity
100
AcDbBlockEnd
  0
BLOCK
  5
54E
100
AcDbEntity
  8
0
100
AcDbBlockBegin
  2
CDWK_PTTYP7
 70
     0
 10
0.0
 20
0.0
 30
0.0
  3
CDWK_PTTYP7
  1

  4
Cadwork node
  0
LINE
  5
54F
100
AcDbEntity
  8
0
 62
     0
370
    -2
100
AcDbLine
 10
-0.5
 20
0.5
 30
0.0
 11
0.5
 21
0.5
 31
0.0
  0
LINE
  5
550
100
AcDbEntity
  8
0
 62
     0
370
    -2
100
AcDbLine
 10
0.5
 20
0.5
 30
0.0
 11
0.5
 21
-0.5
 31
0.0
  0
LINE
  5
551
100
AcDbEntity
  8
0
 62
     0
370
    -2
100
AcDbLine
 10
0.5
 20
-0.5
 30
0.0
 11
-0.5
 21
-0.5
 31
0.0
  0
LINE
  5
552
100
AcDbEntity
  8
0
 62
     0
370
    -2
100
AcDbLine
 10
-0.5
 20
-0.5
 30
0.0
 11
-0.5
 21
0.5
 31
0.0
  0
LINE
  5
553
100
AcDbEntity
  8
0
 62
     0
370
    -2
100
AcDbLine
 10
0.0
 20
0.5
 30
0.0
 11
0.0
 21
-0.5
 31
0.0
  0
LINE
  5
554
100
AcDbEntity
  8
0
 62
     0
370
    -2
100
AcDbLine
 10
-0.5
 20
0.0
 30
0.0
 11
0.5
 21
0.0
 31
0.0
  0
ENDBLK
  5
555
100
AcDbEntity
100
AcDbBlockEnd
  0
BLOCK
  5
556
100
AcDbEntity
  8
0
100
AcDbBlockBegin
  2
CDWK_PTTYP8
 70
     0
 10
0.0
 20
0.0
 30
0.0
  3
CDWK_PTTYP8
  1

  4
Cadwork node
  0
SOLID
  5
557
100
AcDbEntity
  8
0
 62
     0
100
AcDbTrace
 10
-0.5
 20
0.5
 11
0.5
 21
0.5
 12
-0.5
 22
-0.5
 13
0.5
 23
-0.5
  0
ENDBLK
  5
558
100
AcDbEntity
100
AcDbBlockEnd
  0
BLOCK
  5
559
100
AcDbEntity
  8
0
100
AcDbBlockBegin
  2
CDWK_PTTYP9
 70
     0
 10
0.0
 20
0.0
 30
0.0
  3
CDWK_PTTYP9
  1

  4
Cadwork node
  0
CIRCLE
  5
55A
100
AcDbEntity
  8
0
 62
     0
370
    -2
100
AcDbCircle
 10
0.0
 20
0.0
 30
0.0
 40
0.5
  0
CIRCLE
  5
55B
100
AcDbEntity
  8
0
 62
     0
370
    -2
100
AcDbCircle
 10
0.0
 20
0.0
 30
0.0
 40
0.16666667
  0
ENDBLK
  5
55C
100
AcDbEntity
100
AcDbBlockEnd
  0
BLOCK
  5
55D
100
AcDbEntity
  8
0
100
AcDbBlockBegin
  2
CDWK_PTTYP10
 70
     0
 10
0.0
 20
0.0
 30
0.0
  3
CDWK_PTTYP10
  1

  4
Cadwork node
  0
CIRCLE
  5
55E
100
AcDbEntity
  8
0
 62
     0
370
    -2
100
AcDbCircle
 10
0.0
 20
0.0
 30
0.0
 40
0.5
  0
ENDBLK
  5
55F
100
AcDbEntity
100
AcDbBlockEnd
  0
BLOCK
  5
560
100
AcDbEntity
  8
0
100
AcDbBlockBegin
  2
CDWK_PTTYP11
 70
     0
 10
0.0
 20
0.0
 30
0.0
  3
CDWK_PTTYP11
  1

  4
Cadwork node
  0
CIRCLE
  5
561
100
AcDbEntity
  8
0
 62
     0
370
    -2
100
AcDbCircle
 10
0.0
 20
0.0
 30
0.0
 40
0.5
  0
CIRCLE
  5
562
100
AcDbEntity
  8
0
 62
     0
370
    -2
100
AcDbCircle
 10
0.0
 20
0.0
 30
0.0
 40
0.25
  0
ENDBLK
  5
563
100
AcDbEntity
100
AcDbBlockEnd
  0
BLOCK
  5
564
100
AcDbEntity
  8
0
100
AcDbBlockBegin
  2
CDWK_PTTYP12
 70
     0
 10
0.0
 20
0.0
 30
0.0
  3
CDWK_PTTYP12
  1

  4
Cadwork node
  0
CIRCLE
  5
565
100
AcDbEntity
  8
0
 62
     0
370
    -2
100
AcDbCircle
 10
0.0
 20
0.0
 30
0.0
 40
0.5
  0
CIRCLE
  5
566
100
AcDbEntity
  8
0
 62
     0
370
    -2
100
AcDbCircle
 10
0.25
 20
0.0
 30
0.0
 40
0.25
  0
ENDBLK
  5
567
100
AcDbEntity
100
AcDbBlockEnd
  0
BLOCK
  5
568
100
AcDbEntity
  8
0
100
AcDbBlockBegin
  2
CDWK_PTTYP13
 70
     0
 10
0.0
 20
0.0
 30
0.0
  3
CDWK_PTTYP13
  1

  4
Cadwork node
  0
CIRCLE
  5
569
100
AcDbEntity
  8
0
 62
     0
370
    -2
100
AcDbCircle
 10
0.0
 20
0.0
 30
0.0
 40
0.5
  0
CIRCLE
  5
56A
100
AcDbEntity
  8
0
 62
     0
370
    -2
100
AcDbCircle
 10
0.25
 20
0.0
 30
0.0
 40
0.25
  0
CIRCLE
  5
56B
100
AcDbEntity
  8
0
 62
     0
370
    -2
100
AcDbCircle
 10
-0.25
 20
0.0
 30
0.0
 40
0.25
  0
ENDBLK
  5
56C
100
AcDbEntity
100
AcDbBlockEnd
  0
BLOCK
  5
56D
100
AcDbEntity
  8
0
100
AcDbBlockBegin
  2
CDWK_PTTYP14
 70
     0
 10
0.0
 20
0.0
 30
0.0
  3
CDWK_PTTYP14
  1

  4
Cadwork node
  0
POINT
  5
56E
100
AcDbEntity
  8
0
 62
     0
100
AcDbPoint
 10
0.0
 20
0.0
 30
0.0
  0
ENDBLK
  5
56F
100
AcDbEntity
100
AcDbBlockEnd
  0
BLOCK
  5
570
100
AcDbEntity
  8
0
100
AcDbBlockBegin
  2
CDWK_PTTYP15
 70
     0
 10
0.0
 20
0.0
 30
0.0
  3
CDWK_PTTYP15
  1

  4
Cadwork node
  0
POINT
  5
571
100
AcDbEntity
  8
0
 62
     0
100
AcDbPoint
 10
0.0
 20
0.0
 30
0.0
  0
ENDBLK
  5
572
100
AcDbEntity
100
AcDbBlockEnd
  0
BLOCK
  5
573
100
AcDbEntity
  8
0
100
AcDbBlockBegin
  2
CDWK_PTTYP16
 70
     0
 10
0.0
 20
0.0
 30
0.0
  3
CDWK_PTTYP16
  1

  4
Cadwork node
  0
LINE
  5
574
100
AcDbEntity
  8
0
 62
     0
370
    -2
100
AcDbLine
 10
-0.5
 20
-0.28867513
 30
0.0
 11
0.5
 21
-0.28867513
 31
0.0
  0
LINE
  5
575
100
AcDbEntity
  8
0
 62
     0
370
    -2
100
AcDbLine
 10
0.5
 20
-0.28867513
 30
0.0
 11
0.0
 21
0.57735027
 31
0.0
  0
LINE
  5
576
100
AcDbEntity
  8
0
 62
     0
370
    -2
100
AcDbLine
 10
0.0
 20
0.57735027
 30
0.0
 11
-0.5
 21
-0.28867513
 31
0.0
  0
CIRCLE
  5
577
100
AcDbEntity
  8
0
 62
     0
370
    -2
100
AcDbCircle
 10
0.0
 20
0.0
 30
0.0
 40
0.28867513
  0
ENDBLK
  5
578
100
AcDbEntity
100
AcDbBlockEnd
  0
BLOCK
  5
579
100
AcDbEntity
  8
0
100
AcDbBlockBegin
  2
CDWK_PTTYP17
 70
     0
 10
0.0
 20
0.0
 30
0.0
  3
CDWK_PTTYP17
  1

  4
Cadwork node
  0
CIRCLE
  5
57A
100
AcDbEntity
  8
0
 62
     0
370
    -2
100
AcDbCircle
 10
0.0
 20
0.0
 30
0.0
 40
0.5
  0
HATCH
  5
57B
100
AcDbEntity
  8
0
 62
     0
370
    -2
100
AcDbHatch
 10
0.0
 20
0.0
 30
0.0
210
0.0
220
0.0
230
1.0
  2
SOLID
 70
     1
 71
     0
 91
        1
 92
        1
 93
        1
 72
     2
 10
0.0
 20
0.0
 40
0.25
 50
0.0
 51
360.0
 73
     1
 97
        0
 75
     0
 76
     1
 98
        1
 10
0.0
 20
0.0
  0
ENDBLK
  5
57C
100
AcDbEntity
100
AcDbBlockEnd
  0
BLOCK
  5
57D
100
AcDbEntity
  8
0
100
AcDbBlockBegin
  2
CDWK_PTTYP18
 70
     0
 10
0.0
 20
0.0
 30
0.0
  3
CDWK_PTTYP18
  1

  4
Cadwork node
  0
CIRCLE
  5
57E
100
AcDbEntity
  8
0
 62
     0
370
    -2
100
AcDbCircle
 10
0.0
 20
0.0
 30
0.0
 40
0.5
  0
CIRCLE
  5
57F
100
AcDbEntity
  8
0
 62
     0
370
    -2
100
AcDbCircle
 10
0.0
 20
0.0
 30
0.0
 40
0.2
  0
ENDBLK
  5
580
100
AcDbEntity
100
AcDbBlockEnd
  0
BLOCK
  5
581
100
AcDbEntity
  8
0
100
AcDbBlockBegin
  2
CDWK_PTTYP19
 70
     0
 10
0.0
 20
0.0
 30
0.0
  3
CDWK_PTTYP19
  1

  4
Cadwork node
  0
CIRCLE
  5
582
100
AcDbEntity
  8
0
 62
     0
370
    -2
100
AcDbCircle
 10
0.0
 20
0.0
 30
0.0
 40
0.4
  0
CIRCLE
  5
583
100
AcDbEntity
  8
0
 62
     0
370
    -2
100
AcDbCircle
 10
0.0
 20
0.0
 30
0.0
 40
0.25
  0
LINE
  5
584
100
AcDbEntity
  8
0
 62
     0
370
    -2
100
AcDbLine
 10
-0.25
 20
0.0
 30
0.0
 11
0.25
 21
0.0
 31
0.0
  0
ENDBLK
  5
585
100
AcDbEntity
100
AcDbBlockEnd
  0
BLOCK
  5
586
100
AcDbEntity
  8
0
100
AcDbBlockBegin
  2
CDWK_PTTYP20
 70
     0
 10
0.0
 20
0.0
 30
0.0
  3
CDWK_PTTYP20
  1

  4
Cadwork node
  0
CIRCLE
  5
587
100
AcDbEntity
  8
0
 62
     0
370
    -2
100
AcDbCircle
 10
0.0
 20
0.0
 30
0.0
 40
0.5
  0
CIRCLE
  5
588
100
AcDbEntity
  8
0
 62
     0
370
    -2
100
AcDbCircle
 10
0.0
 20
0.0
 30
0.0
 40
0.3
  0
ENDBLK
  5
589
100
AcDbEntity
100
AcDbBlockEnd
  0
BLOCK
  5
58A
100
AcDbEntity
  8
0
100
AcDbBlockBegin
  2
CDWK_PTTYP21
 70
     0
 10
0.0
 20
0.0
 30
0.0
  3
CDWK_PTTYP21
  1

  4
Cadwork node
  0
CIRCLE
  5
58B
100
AcDbEntity
  8
0
 62
     0
370
    -2
100
AcDbCircle
 10
0.0
 20
0.0
 30
0.0
 40
0.5
  0
LINE
  5
58C
100
AcDbEntity
  8
0
 62
     0
370
    -2
100
AcDbLine
 10
-0.5
 20
0.0
 30
0.0
 11
0.5
 21
0.0
 31
0.0
  0
ENDBLK
  5
58D
100
AcDbEntity
100
AcDbBlockEnd
  0
BLOCK
  5
58E
100
AcDbEntity
  8
0
100
AcDbBlockBegin
  2
CDWK_PTTYP22
 70
     0
 10
0.0
 20
0.0
 30
0.0
  3
CDWK_PTTYP22
  1

  4
Cadwork node
  0
POINT
  5
58F
100
AcDbEntity
  8
0
 62
     0
100
AcDbPoint
 10
0.0
 20
0.0
 30
0.0
  0
ENDBLK
  5
590
100
AcDbEntity
100
AcDbBlockEnd
  0
BLOCK
  5
591
100
AcDbEntity
  8
0
100
AcDbBlockBegin
  2
CDWK_PTTYP23
 70
     0
 10
0.0
 20
0.0
 30
0.0
  3
CDWK_PTTYP23
  1

  4
Cadwork node
  0
POINT
  5
592
100
AcDbEntity
  8
0
 62
     0
100
AcDbPoint
 10
0.0
 20
0.0
 30
0.0
  0
ENDBLK
  5
593
100
AcDbEntity
100
AcDbBlockEnd
  0
BLOCK
  5
594
100
AcDbEntity
  8
0
100
AcDbBlockBegin
  2
CDWK_PTTYP24
 70
     0
 10
0.0
 20
0.0
 30
0.0
  3
CDWK_PTTYP24
  1

  4
Cadwork node
  0
POINT
  5
595
100
AcDbEntity
  8
0
 62
     0
100
AcDbPoint
 10
0.0
 20
0.0
 30
0.0
  0
ENDBLK
  5
596
100
AcDbEntity
100
AcDbBlockEnd
  0
BLOCK
  5
597
100
AcDbEntity
  8
0
100
AcDbBlockBegin
  2
CDWK_PTTYP25
 70
     0
 10
0.0
 20
0.0
 30
0.0
  3
CDWK_PTTYP25
  1

  4
Cadwork node
  0
LINE
  5
598
100
AcDbEntity
  8
0
 62
     0
370
    -2
100
AcDbLine
 10
-0.43290044
 20
-0.25
 30
0.0
 11
0.43290044
 21
-0.25
 31
0.0
  0
LINE
  5
599
100
AcDbEntity
  8
0
 62
     0
370
    -2
100
AcDbLine
 10
-0.43290044
 20
-0.25
 30
0.0
 11
0.0
 21
0.5
 31
0.0
  0
LINE
  5
59A
100
AcDbEntity
  8
0
 62
     0
370
    -2
100
AcDbLine
 10
0.43290044
 20
-0.25
 30
0.0
 11
0.0
 21
0.5
 31
0.0
  0
CIRCLE
  5
59B
100
AcDbEntity
  8
0
 62
     0
370
    -2
100
AcDbCircle
 10
0.0
 20
0.0
 30
0.0
 40
0.5
  0
ENDBLK
  5
59C
100
AcDbEntity
100
AcDbBlockEnd
  0
BLOCK
  5
59D
100
AcDbEntity
  8
0
100
AcDbBlockBegin
  2
CDWK_PTTYP26
 70
     0
 10
0.0
 20
0.0
 30
0.0
  3
CDWK_PTTYP26
  1

  4
Cadwork node
  0
LINE
  5
59E
100
AcDbEntity
  8
0
 62
     0
370
    -2
100
AcDbLine
 10
-0.5
 20
-0.28850001
 30
0.0
 11
0.5
 21
-0.28850001
 31
0.0
  0
LINE
  5
59F
100
AcDbEntity
  8
0
 62
     0
370
    -2
100
AcDbLine
 10
-0.5
 20
-0.28850001
 30
0.0
 11
0.0
 21
0.57736721
 31
0.0
  0
LINE
  5
5A0
100
AcDbEntity
  8
0
 62
     0
370
    -2
100
AcDbLine
 10
0.5
 20
-0.28850001
 30
0.0
 11
0.0
 21
0.57736721
 31
0.0
  0
CIRCLE
  5
5A1
100
AcDbEntity
  8
0
 62
     0
370
    -2
100
AcDbCircle
 10
0.0
 20
0.0
 30
0.0
 40
0.1312336
  0
ENDBLK
  5
5A2
100
AcDbEntity
100
AcDbBlockEnd
  0
BLOCK
  5
5A3
100
AcDbEntity
  8
0
100
AcDbBlockBegin
  2
CDWK_PTTYP27
 70
     0
 10
0.0
 20
0.0
 30
0.0
  3
CDWK_PTTYP27
  1

  4
Cadwork node
  0
LINE
  5
5A4
100
AcDbEntity
  8
0
 62
     0
370
    -2
100
AcDbLine
 10
-0.43290044
 20
-0.25
 30
0.0
 11
0.43290044
 21
-0.25
 31
0.0
  0
LINE
  5
5A5
100
AcDbEntity
  8
0
 62
     0
370
    -2
100
AcDbLine
 10
-0.43290044
 20
-0.25
 30
0.0
 11
0.0
 21
0.5
 31
0.0
  0
LINE
  5
5A6
100
AcDbEntity
  8
0
 62
     0
370
    -2
100
AcDbLine
 10
0.43290044
 20
-0.25
 30
0.0
 11
0.0
 21
0.5
 31
0.0
  0
CIRCLE
  5
5A7
100
AcDbEntity
  8
0
 62
     0
370
    -2
100
AcDbCircle
 10
0.0
 20
0.0
 30
0.0
 40
0.5
  0
CIRCLE
  5
5A8
100
AcDbEntity
  8
0
 62
     0
370
    -2
100
AcDbCircle
 10
0.0
 20
0.0
 30
0.0
 40
0.1312336
  0
ENDBLK
  5
5A9
100
AcDbEntity
100
AcDbBlockEnd
  0
BLOCK
  5
5AA
100
AcDbEntity
  8
0
100
AcDbBlockBegin
  2
CDWK_PTTYP28
 70
     0
 10
0.0
 20
0.0
 30
0.0
  3
CDWK_PTTYP28
  1

  4
Cadwork node
  0
POINT
  5
5AB
100
AcDbEntity
  8
0
 62
     0
100
AcDbPoint
 10
0.0
 20
0.0
 30
0.0
  0
ENDBLK
  5
5AC
100
AcDbEntity
100
AcDbBlockEnd
  0
BLOCK
  5
5AD
100
AcDbEntity
  8
0
100
AcDbBlockBegin
  2
CDWK_PTTYP29
 70
     0
 10
0.0
 20
0.0
 30
0.0
  3
CDWK_PTTYP29
  1

  4
Cadwork node
  0
CIRCLE
  5
5AE
100
AcDbEntity
  8
0
 62
     0
370
    -2
100
AcDbCircle
 10
0.0
 20
0.0
 30
0.0
 40
0.5
  0
CIRCLE
  5
5AF
100
AcDbEntity
  8
0
 62
     0
370
    -2
100
AcDbCircle
 10
0.0
 20
0.0
 30
0.0
 40
0.375
  0
CIRCLE
  5
5B0
100
AcDbEntity
  8
0
 62
     0
370
    -2
100
AcDbCircle
 10
0.0
 20
0.0
 30
0.0
 40
0.21875
  0
ENDBLK
  5
5B1
100
AcDbEntity
100
AcDbBlockEnd
  0
BLOCK
  5
5B2
100
AcDbEntity
  8
0
100
AcDbBlockBegin
  2
CDWK_PTTYP30
 70
     0
 10
0.0
 20
0.0
 30
0.0
  3
CDWK_PTTYP30
  1

  4
Cadwork node
  0
LINE
  5
5B3
100
AcDbEntity
  8
0
 62
     0
370
    -2
100
AcDbLine
 10
0.17680339
 20
0.17680339
 30
0.0
 11
0.5
 21
0.5
 31
0.0
  0
LINE
  5
5B4
100
AcDbEntity
  8
0
 62
     0
370
    -2
100
AcDbLine
 10
-0.17680339
 20
0.17680339
 30
0.0
 11
-0.5
 21
0.5
 31
0.0
  0
LINE
  5
5B5
100
AcDbEntity
  8
0
 62
     0
370
    -2
100
AcDbLine
 10
0.17680339
 20
-0.17680339
 30
0.0
 11
0.5
 21
-0.5
 31
0.0
  0
LINE
  5
5B6
100
AcDbEntity
  8
0
 62
     0
370
    -2
100
AcDbLine
 10
-0.17680339
 20
-0.17680339
 30
0.0
 11
-0.5
 21
-0.5
 31
0.0
  0
ENDBLK
  5
5B7
100
AcDbEntity
100
AcDbBlockEnd
  0
BLOCK
  5
5B8
100
AcDbEntity
  8
0
100
AcDbBlockBegin
  2
CDWK_PTTYP31
 70
     0
 10
0.0
 20
0.0
 30
0.0
  3
CDWK_PTTYP31
  1

  4
Cadwork node
  0
CIRCLE
  5
5B9
100
AcDbEntity
  8
0
 62
     0
370
    -2
100
AcDbCircle
 10
0.0
 20
0.0
 30
0.0
 40
0.075
  0
LINE
  5
5BA
100
AcDbEntity
  8
0
 62
     0
370
    -2
100
AcDbLine
 10
0.075
 20
0.0
 30
0.0
 11
0.5
 21
0.0
 31
0.0
  0
LINE
  5
5BB
100
AcDbEntity
  8
0
 62
     0
370
    -2
100
AcDbLine
 10
-0.075
 20
0.0
 30
0.0
 11
-0.5
 21
0.0
 31
0.0
  0
LINE
  5
5BC
100
AcDbEntity
  8
0
 62
     0
370
    -2
100
AcDbLine
 10
0.0
 20
0.075
 30
0.0
 11
0.0
 21
0.5
 31
0.0
  0
LINE
  5
5BD
100
AcDbEntity
  8
0
 62
     0
370
    -2
100
AcDbLine
 10
0.0
 20
-0.075
 30
0.0
 11
0.0
 21
-0.5
 31
0.0
  0
ENDBLK
  5
5BE
100
AcDbEntity
100
AcDbBlockEnd
  0
BLOCK
  5
5BF
100
AcDbEntity
  8
0
100
AcDbBlockBegin
  2
CDWK_PTTYP32
 70
     0
 10
0.0
 20
0.0
 30
0.0
  3
CDWK_PTTYP32
  1

  4
Cadwork node
  0
CIRCLE
  5
5C0
100
AcDbEntity
  8
0
 62
     0
370
    -2
100
AcDbCircle
 10
0.0
 20
0.0
 30
0.0
 40
0.5
  0
CIRCLE
  5
5C1
100
AcDbEntity
  8
0
 62
     0
370
    -2
100
AcDbCircle
 10
0.0
 20
0.0
 30
0.0
 40
0.16666667
  0
LINE
  5
5C2
100
AcDbEntity
  8
0
 62
     0
370
    -2
100
AcDbLine
 10
0.11786893
 20
0.11786893
 30
0.0
 11
0.35360678
 21
0.35360678
 31
0.0
  0
LINE
  5
5C3
100
AcDbEntity
  8
0
 62
     0
370
    -2
100
AcDbLine
 10
-0.11786893
 20
0.11786893
 30
0.0
 11
-0.35360678
 21
0.35360678
 31
0.0
  0
LINE
  5
5C4
100
AcDbEntity
  8
0
 62
     0
370
    -2
100
AcDbLine
 10
0.11786893
 20
-0.11786893
 30
0.0
 11
0.35360678
 21
-0.35360678
 31
0.0
  0
LINE
  5
5C5
100
AcDbEntity
  8
0
 62
     0
370
    -2
100
AcDbLine
 10
-0.11786893
 20
-0.11786893
 30
0.0
 11
-0.35360678
 21
-0.35360678
 31
0.0
  0
ENDBLK
  5
5C6
100
AcDbEntity
100
AcDbBlockEnd
  0
BLOCK
  5
5C7
100
AcDbEntity
  8
0
100
AcDbBlockBegin
  2
CDWK_PTTYP33
 70
     0
 10
0.0
 20
0.0
 30
0.0
  3
CDWK_PTTYP33
  1

  4
Cadwork node
  0
CIRCLE
  5
5C8
100
AcDbEntity
  8
0
 62
     0
370
    -2
100
AcDbCircle
 10
0.0
 20
0.0
 30
0.0
 40
0.5
  0
LINE
  5
5C9
100
AcDbEntity
  8
0
 62
     0
370
    -2
100
AcDbLine
 10
0.0
 20
0.5
 30
0.0
 11
0.0
 21
-0.5
 31
0.0
  0
LINE
  5
5CA
100
AcDbEntity
  8
0
 62
     0
370
    -2
100
AcDbLine
 10
-0.5
 20
0.0
 30
0.0
 11
0.5
 21
0.0
 31
0.0
  0
ENDBLK
  5
5CB
100
AcDbEntity
100
AcDbBlockEnd
  0
BLOCK
  5
5CC
100
AcDbEntity
  8
0
100
AcDbBlockBegin
  2
CDWK_PTTYP34
 70
     0
 10
0.0
 20
0.0
 30
0.0
  3
CDWK_PTTYP34
  1

  4
Cadwork node
  0
CIRCLE
  5
5CD
100
AcDbEntity
  8
0
 62
     0
370
    -2
100
AcDbCircle
 10
0.0
 20
0.0
 30
0.0
 40
0.5
  0
LINE
  5
5CE
100
AcDbEntity
  8
0
 62
     0
370
    -2
100
AcDbLine
 10
-0.30360678
 20
-0.40360678
 30
0.0
 11
0.40360678
 21
0.30360678
 31
0.0
  0
LINE
  5
5CF
100
AcDbEntity
  8
0
 62
     0
370
    -2
100
AcDbLine
 10
-0.40360678
 20
-0.30360678
 30
0.0
 11
0.30360678
 21
0.40360678
 31
0.0
  0
ENDBLK
  5
5D0
100
AcDbEntity
100
AcDbBlockEnd
  0
BLOCK
  5
5D1
100
AcDbEntity
  8
0
100
AcDbBlockBegin
  2
CDWK_PTTYP35
 70
     0
 10
0.0
 20
0.0
 30
0.0
  3
CDWK_PTTYP35
  1

  4
Cadwork node
  0
CIRCLE
  5
5D2
100
AcDbEntity
  8
0
 62
     0
370
    -2
100
AcDbCircle
 10
0.0
 20
0.0
 30
0.0
 40
0.21431634
  0
LINE
  5
5D3
100
AcDbEntity
  8
0
 62
     0
370
    -2
100
AcDbLine
 10
0.0
 20
0.21431634
 30
0.0
 11
0.0
 21
0.5
 31
0.0
  0
LINE
  5
5D4
100
AcDbEntity
  8
0
 62
     0
370
    -2
100
AcDbLine
 10
0.0
 20
-0.21431634
 30
0.0
 11
0.0
 21
-0.5
 31
0.0
  0
ENDBLK
  5
5D5
100
AcDbEntity
100
AcDbBlockEnd
  0
BLOCK
  5
5D6
100
AcDbEntity
  8
0
100
AcDbBlockBegin
  2
CDWK_PTTYP36
 70
     0
 10
0.0
 20
0.0
 30
0.0
  3
CDWK_PTTYP36
  1

  4
Cadwork node
  0
LINE
  5
5D7
100
AcDbEntity
  8
0
 62
     0
370
    -2
100
AcDbLine
 10
-0.5
 20
-0.16666667
 30
0.0
 11
0.5
 21
-0.16666667
 31
0.0
  0
LINE
  5
5D8
100
AcDbEntity
  8
0
 62
     0
370
    -2
100
AcDbLine
 10
0.5
 20
-0.16666667
 30
0.0
 11
0.5
 21
0.16666667
 31
0.0
  0
LINE
  5
5D9
100
AcDbEntity
  8
0
 62
     0
370
    -2
100
AcDbLine
 10
0.5
 20
0.16666667
 30
0.0
 11
-0.5
 21
0.16666667
 31
0.0
  0
LINE
  5
5DA
100
AcDbEntity
  8
0
 62
     0
370
    -2
100
AcDbLine
 10
-0.5
 20
0.16666667
 30
0.0
 11
-0.5
 21
-0.16666667
 31
0.0
  0
SOLID
  5
5DB
100
AcDbEntity
  8
0
 62
     0
100
AcDbTrace
 10
-0.5
 20
-0.16666667
 11
0.5
 21
0.16666667
 12
0.5
 22
-0.16666667
 13
0.5
 23
-0.16666667
  0
ENDBLK
  5
5DC
100
AcDbEntity
100
AcDbBlockEnd
  0
BLOCK
  5
5DD
100
AcDbEntity
  8
0
100
AcDbBlockBegin
  2
CDWK_PTTYP37
 70
     0
 10
0.0
 20
0.0
 30
0.0
  3
CDWK_PTTYP37
  1

  4
Cadwork node
  0
CIRCLE
  5
5DE
100
AcDbEntity
  8
0
 62
     0
370
    -2
100
AcDbCircle
 10
0.0
 20
0.0
 30
0.0
 40
0.5
  0
SOLID
  5
5DF
100
AcDbEntity
  8
0
 62
     0
100
AcDbTrace
 10
0.0
 20
0.0
 11
0.35350001
 21
0.35350001
 12
0.5
 22
0.0
 13
0.46200001
 23
0.19149999
  0
SOLID
  5
5E0
100
AcDbEntity
  8
0
 62
     0
100
AcDbTrace
 10
0.0
 20
0.0
 11
0.35350001
 21
-0.35350001
 12
0.5
 22
0.0
 13
0.46200001
 23
-0.19149999
  0
SOLID
  5
5E1
100
AcDbEntity
  8
0
 62
     0
100
AcDbTrace
 10
0.0
 20
0.0
 11
0.0
 21
-0.5
 12
0.35350001
 22
-0.35350001
 13
0.19149999
 23
-0.46200001
  0
SOLID
  5
5E2
100
AcDbEntity
  8
0
 62
     0
100
AcDbTrace
 10
0.0
 20
0.0
 11
0.0
 21
-0.5
 12
-0.35350001
 22
-0.35350001
 13
-0.19149999
 23
-0.46200001
  0
ENDBLK
  5
5E3
100
AcDbEntity
100
AcDbBlockEnd
  0
BLOCK
  5
5E4
100
AcDbEntity
  8
0
100
AcDbBlockBegin
  2
CDWK_PTTYP38
 70
     0
 10
0.0
 20
0.0
 30
0.0
  3
CDWK_PTTYP38
  1

  4
Cadwork node
  0
CIRCLE
  5
5E5
100
AcDbEntity
  8
0
 62
     0
370
    -2
100
AcDbCircle
 10
0.0
 20
0.0
 30
0.0
 40
0.5
  0
SOLID
  5
5E6
100
AcDbEntity
  8
0
 62
     0
100
AcDbTrace
 10
0.0
 20
0.0
 11
0.35350001
 21
0.35350001
 12
0.0
 22
0.5
 13
0.19149999
 23
0.46200001
  0
SOLID
  5
5E7
100
AcDbEntity
  8
0
 62
     0
100
AcDbTrace
 10
0.0
 20
0.0
 11
0.5
 21
0.0
 12
0.35350001
 22
0.35350001
 13
0.46200001
 23
0.19149999
  0
SOLID
  5
5E8
100
AcDbEntity
  8
0
 62
     0
100
AcDbTrace
 10
0.0
 20
0.0
 11
0.0
 21
-0.5
 12
-0.35350001
 22
-0.35350001
 13
-0.19149999
 23
-0.46200001
  0
SOLID
  5
5E9
100
AcDbEntity
  8
0
 62
     0
100
AcDbTrace
 10
0.0
 20
0.0
 11
-0.5
 21
0.0
 12
-0.35350001
 22
-0.35350001
 13
-0.46200001
 23
-0.19149999
  0
ENDBLK
  5
5EA
100
AcDbEntity
100
AcDbBlockEnd
  0
ENDSEC
  0
SECTION
  2
ENTITIES
  0
LWPOLYLINE
  5
5EB
100
AcDbEntity
  8
Ech.1_5
 62
   190
  6
CONTINUOUS
370
    -3
100
AcDbPolyline
 90
        8
 70
     1
 43
0.0
 10
29420.475139
 20
-6444.33526087
 10
29438.45349061
 20
-6427.848907
 10
29402.49779059
 20
-6441.95884657
 10
29420.475139
 20
-6425.47334338
 10
29420.47308421
 20
-6363.45358134
 10
29653.12133649
 20
-6363.45528746
 10
29653.12133649
 20
-6543.45187522
 10
29420.47280259
 20
-6543.45358134
  0
LWPOLYLINE
  5
5EC
100
AcDbEntity
  8
Ech.1_5
 62
     9
  6
CONTINUOUS
370
    40
100
AcDbPolyline
 90
        5
 70
     0
 43
0.0
 10
29650.61777852
 20
-6577.4557786
 10
29700.61777852
 20
-6577.4557786
 10
29700.61777852
 20
-6552.4557786
 10
29650.61777852
 20
-6552.4557786
 10
29650.61777852
 20
-6577.4557786
  0
LWPOLYLINE
  5
5ED
100
AcDbEntity
  8
Ech.1_5
 62
     9
  6
CONTINUOUS
370
    -3
100
AcDbPolyline
 90
        4
 70
     0
 43
0.0
 10
29650.61777852
 20
-6552.51286555
 10
29700.61777852
 20
-6577.51286555
 10
29700.61777852
 20
-6552.51286555
 10
29650.61789183
 20
-6577.51286555
  0
LWPOLYLINE
  5
5EE
102
{ACAD_REACTORS
330
5EF
102
}
100
AcDbEntity
  8
Ech.1_5
 62
     9
  6
CONTINUOUS
370
    -3
100
AcDbPolyline
 90
        4
 70
     1
 43
0.0
 10
29575.62133649
 20
-6133.45358134
 10
29775.62133649
 20
-6133.45358134
 10
29775.62133649
 20
-6333.45670176
 10
29575.62133649
 20
-6333.45358134
  0
HATCH
  5
5EF
100
AcDbEntity
  8
Ech.1_5
 62
     9
  6
CONTINUOUS
100
AcDbHatch
 10
0.0
 20
0.0
 30
0.0
210
0.0
220
0.0
230
1.0
  2
AR-CONC
 70
     0
 71
     1
 91
        1
 92
        7
 72
     0
 73
     1
 93
        4
 10
29575.62133649
 20
-6133.45358134
 10
29775.62133649
 20
-6133.45358134
 10
29775.62133649
 20
-6333.45670176
 10
29575.62133649
 20
-6333.45358134
 97
        1
330
5EE
 75
     0
 76
     2
 52
0.0
 41
0.11811097
 77
     0
 78
    13
 53
50.0
 43
0.0
 44
0.0
 45
-18.84283637
 46
1.64853443
 79
     2
 49
1.97029307
 49
-21.67322338
 53
355.0
 43
0.0
 44
0.0
 45
-3.64507756
 46
19.76051824
 79
     2
 49
1.57623377
 49
-17.3385787
 53
100.45140076
 43
1.57023568
 44
-0.13737749
 45
-15.19777228
 46
-18.11197244
 79
     2
 49
1.67449124
 49
-18.41940522
 53
46.18420029
 43
0.0
 44
5.25411576
 45
-28.03703353
 46
4.34827878
 79
     2
 49
2.95543872
 49
-32.50983238
 53
96.63559723
 43
2.33641885
 44
4.89175692
 45
-24.55412615
 46
-25.59063404
 79
     2
 49
2.51173697
 49
-27.62910426
 53
351.1842041
 43
0.0
 44
5.25411576
 45
24.55410288
 46
25.59065715
 79
     2
 49
2.36435249
 49
-26.00786805
 53
21.0
 43
2.62705699
 44
3.94058615
 45
-15.68109068
 46
10.57702905
 79
     2
 49
1.97029307
 49
-21.67322338
 53
326.0
 43
2.62705699
 44
3.94058615
 45
6.39203268
 46
19.05010734
 79
     2
 49
1.57623377
 49
-17.3385787
 53
71.45140076
 43
3.93381357
 44
3.05916555
 45
-22.07312962
 46
-8.47306182
 79
     2
 49
1.67449124
 49
-18.41940522
 53
37.5
 43
0.0
 44
0.0
 45
0.31944534
 46
8.74531245
 79
     6
 49
0.01875
 49
-17.12841332
 49
0.01875
 49
-17.60128498
 49
0.01875
 49
-17.40425348
 53
7.5
 43
0.0
 44
0.0
 45
6.91098818
 46
10.3614222
 79
     6
 49
0.01875
 49
-10.03535807
 49
0.01875
 49
-16.7343539
 49
0.01875
 49
-6.6333206
 53
-32.5
 43
-5.85833833
 44
0.0
 45
14.02382061
 46
-0.59253003
 79
     6
 49
0.01875
 49
-6.56764314
 49
0.01875
 49
-20.49104869
 49
0.01875
 49
-27.19004452
 53
-42.5
 43
-8.48539531
 44
0.0
 45
15.32063571
 46
2.62981542
 79
     6
 49
0.01875
 49
-8.53793621
 49
0.01875
 49
-13.60815793
 49
0.01875
 49
-19.30887222
 47
0.775229
 98
        1
 10
0.0
 20
0.0
  0
LINE
  5
5F0
100
AcDbEntity
  8
Ech.1_5
 62
   150
  6
CADWORK_22
370
    35
100
AcDbLine
 10
29420.4765518
 20
-6553.95358134
 30
2500.0
 11
29931.55502769
 21
-6553.95358134
 31
2500.0
  0
LWPOLYLINE
  5
5F1
100
AcDbEntity
  8
Ech.1_5
 62
     9
  6
CONTINUOUS
370
    -3
100
AcDbPolyline
 90
        4
 70
     0
 43
0.0
 10
29931.55502769
 20
-6577.47156477
 10
29420.47702781
 20
-6577.51039362
 10
29420.47722053
 20
-6597.45358134
 10
29931.55502769
 20
-6597.45358134
  0
LWPOLYLINE
  5
5F2
100
AcDbEntity
  8
Ech.1_5
 62
   190
  6
CONTINUOUS
370
    -3
100
AcDbPolyline
 90
        4
 70
     1
 43
0.0
 10
29575.62354262
 20
-6363.45358134
 10
29575.62133649
 20
-6333.45358134
 10
29775.62133649
 20
-6333.45358134
 10
29775.6266629
 20
-6363.45358134
  0
LWPOLYLINE
  5
5F3
100
AcDbEntity
  8
Ech.1_5
 62
   190
  6
CONTINUOUS
370
    -3
100
AcDbPolyline
 90
       80
 70
     0
 43
0.0
 10
29575.62139164
 20
-6358.45174265
 42
1.14028188
 10
29585.45031141
 20
-6357.15784884
 10
29580.79158939
 20
-6339.74727393
 42
-1.30322611
 10
29590.45013577
 20
-6339.74737979
 10
29585.79102965
 20
-6357.1578517
 42
1.3032262
 10
29595.44957603
 20
-6357.15795851
 10
29590.79085401
 20
-6339.7473836
 42
-1.3032262
 10
29600.44940039
 20
-6339.74749041
 10
29595.79029427
 20
-6357.15796233
 42
1.3032262
 10
29605.44884065
 20
-6357.15806914
 10
29600.79011863
 20
-6339.74749423
 42
-1.3032262
 10
29610.44866501
 20
-6339.74760104
 10
29605.78955889
 20
-6357.15807295
 42
1.3032263
 10
29615.44810527
 20
-6357.15817881
 10
29610.78938325
 20
-6339.74760485
 42
-1.30322611
 10
29620.44792963
 20
-6339.74771071
 10
29615.78882351
 20
-6357.15818263
 42
1.3032262
 10
29625.44736989
 20
-6357.15828944
 10
29620.78864787
 20
-6339.74771452
 42
-1.3032262
 10
29630.44719425
 20
-6339.74782134
 10
29625.78808814
 20
-6357.15829325
 42
1.3032262
 10
29635.44663452
 20
-6357.15840006
 10
29630.78791249
 20
-6339.74782515
 42
-1.3032262
 10
29640.44645887
 20
-6339.74793196
 10
29635.78735276
 20
-6357.15840388
 42
1.30322611
 10
29645.44589914
 20
-6357.15850974
 10
29640.78717711
 20
-6339.74793578
 42
-1.30322611
 10
29650.44572349
 20
-6339.74804164
 10
29645.78661738
 20
-6357.15851355
 42
1.3032262
 10
29655.44516376
 20
-6357.15862036
 10
29650.78644173
 20
-6339.74804545
 42
-1.3032262
 10
29660.44498811
 20
-6339.74815226
 10
29655.785882
 20
-6357.15862418
 42
1.3032262
 10
29665.44442838
 20
-6357.15873099
 10
29660.78570635
 20
-6339.74815608
 42
-1.3032262
 10
29670.44425273
 20
-6339.74826289
 10
29665.78514662
 20
-6357.1587348
 42
1.30322611
 10
29675.443693
 20
-6357.15884066
 10
29670.78497097
 20
-6339.7482667
 42
-1.30322611
 10
29680.44351735
 20
-6339.74837256
 10
29675.78441124
 20
-6357.15884448
 42
1.3032262
 10
29685.44295762
 20
-6357.15895129
 10
29680.7842356
 20
-6339.74837637
 42
-1.3032262
 10
29690.44278198
 20
-6339.74848319
 10
29685.78367586
 20
-6357.1589551
 42
1.3032262
 10
29695.44222224
 20
-6357.15906191
 10
29690.78350022
 20
-6339.748487
 42
-1.3032262
 10
29700.4420466
 20
-6339.74859381
 10
29695.78294048
 20
-6357.15906573
 42
1.30322611
 10
29705.44148686
 20
-6357.15917159
 10
29700.78276484
 20
-6339.74859763
 42
-1.30322611
 10
29710.44131122
 20
-6339.74870349
 10
29705.7822051
 20
-6357.1591754
 42
1.3032262
 10
29715.44075148
 20
-6357.15928221
 10
29710.78202946
 20
-6339.7487073
 42
-1.3032262
 10
29720.44057584
 20
-6339.74881411
 10
29715.78146972
 20
-6357.15928603
 42
1.3032262
 10
29725.4400161
 20
-6357.15939284
 10
29720.78129408
 20
-6339.74881793
 42
-1.3032262
 10
29730.43984046
 20
-6339.74892474
 10
29725.78073435
 20
-6357.15939665
 42
1.30322611
 10
29735.43928072
 20
-6357.15950251
 10
29730.7805587
 20
-6339.74892855
 42
-1.3032263
 10
29740.43910508
 20
-6339.74903441
 10
29735.77999897
 20
-6357.15950633
 42
1.3032262
 10
29745.43854535
 20
-6357.15961314
 10
29740.77982332
 20
-6339.74903822
 42
-1.3032262
 10
29750.4383697
 20
-6339.74914504
 10
29745.77926359
 20
-6357.15961695
 42
1.3032262
 10
29755.43780997
 20
-6357.15972376
 10
29750.77908794
 20
-6339.74914885
 42
-1.3032262
 10
29760.43763432
 20
-6339.74925566
 10
29755.77852821
 20
-6357.15972758
 42
1.30322611
 10
29765.43707459
 20
-6357.15983344
 10
29760.77835256
 20
-6339.74925948
 42
-1.3032263
 10
29770.43689894
 20
-6339.74936533
 10
29765.77779283
 20
-6357.15983725
 42
1.3032262
 10
29775.43633921
 20
-6357.15994406
 10
29770.77761718
 20
-6339.74936915
 42
-0.49438213
 10
29775.62699379
 20
-6333.45582724
  0
LWPOLYLINE
  5
5F4
100
AcDbEntity
  8
Ech.1_5
 62
   254
  6
CONTINUOUS
370
    -3
100
AcDbPolyline
 90
        4
 70
     1
 43
0.0
 10
29775.62052345
 20
-6293.45358134
 10
29931.55532557
 20
-6293.45358134
 10
29931.55532557
 20
-6343.45358134
 10
29775.62052345
 20
-6343.45358134
  0
LWPOLYLINE
  5
5F5
102
{ACAD_REACTORS
330
5F6
102
}
100
AcDbEntity
  8
Ech.1_5
 62
     9
  6
CONTINUOUS
370
    -3
100
AcDbPolyline
 90
       12
 70
     1
 43
0.0
 10
29805.6205237
 20
-6335.45358134
 10
29805.6205237
 20
-6341.44947005
 10
29775.62052345
 20
-6341.45358134
 10
29775.62052345
 20
-6293.45358134
 10
29805.6205237
 20
-6293.45358134
 10
29805.6205237
 20
-6299.45358134
 10
29803.6205237
 20
-6299.45358134
 10
29803.6205237
 20
-6295.45358134
 10
29777.6205237
 20
-6295.45358134
 10
29777.6205237
 20
-6339.45358134
 10
29803.6205237
 20
-6339.45358134
 10
29803.6205237
 20
-6335.45358134
  0
HATCH
  5
5F6
100
AcDbEntity
  8
Ech.1_5
 62
     9
  6
CONTINUOUS
100
AcDbHatch
 10
0.0
 20
0.0
 30
0.0
210
0.0
220
0.0
230
1.0
  2
SOLID
 70
     1
 71
     1
 91
        1
 92
        7
 72
     0
 73
     1
 93
       12
 10
29805.6205237
 20
-6335.45358134
 10
29805.6205237
 20
-6341.44947005
 10
29775.62052345
 20
-6341.45358134
 10
29775.62052345
 20
-6293.45358134
 10
29805.6205237
 20
-6293.45358134
 10
29805.6205237
 20
-6299.45358134
 10
29803.6205237
 20
-6299.45358134
 10
29803.6205237
 20
-6295.45358134
 10
29777.6205237
 20
-6295.45358134
 10
29777.6205237
 20
-6339.45358134
 10
29803.6205237
 20
-6339.45358134
 10
29803.6205237
 20
-6335.45358134
 97
        1
330
5F5
 75
     0
 76
     2
 47
0.775229
 98
        1
 10
0.0
 20
0.0
  0
LWPOLYLINE
  5
5F7
102
{ACAD_REACTORS
330
5F8
102
}
100
AcDbEntity
  8
Ech.1_5
 62
     9
  6
CONTINUOUS
370
    -3
100
AcDbPolyline
 90
        4
 70
     1
 43
0.0
 10
29775.62052345
 20
-6293.45358134
 10
29775.62052345
 20
-6280.45358134
 10
29931.55532557
 20
-6280.45358134
 10
29931.55532557
 20
-6293.45358134
  0
HATCH
  5
5F8
100
AcDbEntity
  8
Ech.1_5
 62
     9
  6
CONTINUOUS
100
AcDbHatch
 10
0.0
 20
0.0
 30
0.0
210
0.0
220
0.0
230
1.0
  2
DOTS2
 70
     0
 71
     1
 91
        1
 92
        7
 72
     0
 73
     1
 93
        4
 10
29775.62052345
 20
-6293.45358134
 10
29775.62052345
 20
-6280.45358134
 10
29931.55532557
 20
-6280.45358134
 10
29931.55532557
 20
-6293.45358134
 97
        1
330
5F7
 75
     0
 76
     2
 52
0.0
 41
4.72440952
 77
     0
 78
     1
 53
0.0
 43
0.0
 44
0.0
 45
3.75
 46
3.535
 79
     2
 49
0.0
 49
-3.535
 47
0.775229
 98
        1
 10
0.0
 20
0.0
  0
LWPOLYLINE
  5
5F9
100
AcDbEntity
  8
Ech.1_5
 62
   254
  6
CONTINUOUS
370
    -3
100
AcDbPolyline
 90
        4
 70
     1
 43
0.0
 10
29575.62420826
 20
-6293.45358134
 10
29420.47758099
 20
-6293.45358134
 10
29420.47758099
 20
-6343.45358134
 10
29575.62420826
 20
-6343.45358134
  0
LWPOLYLINE
  5
5FA
102
{ACAD_REACTORS
330
5FB
102
}
100
AcDbEntity
  8
Ech.1_5
 62
     9
  6
CONTINUOUS
370
    -3
100
AcDbPolyline
 90
       12
 70
     1
 43
0.0
 10
29545.62420801
 20
-6335.45358134
 10
29545.62420801
 20
-6341.44947005
 10
29575.62420826
 20
-6341.45358134
 10
29575.62420826
 20
-6293.45358134
 10
29545.62420801
 20
-6293.45358134
 10
29545.62420801
 20
-6299.45358134
 10
29547.62420801
 20
-6299.45358134
 10
29547.62420801
 20
-6295.45358134
 10
29573.62420801
 20
-6295.45358134
 10
29573.62420801
 20
-6339.45358134
 10
29547.62420801
 20
-6339.45358134
 10
29547.62420801
 20
-6335.45358134
  0
HATCH
  5
5FB
100
AcDbEntity
  8
Ech.1_5
 62
     9
  6
CONTINUOUS
100
AcDbHatch
 10
0.0
 20
0.0
 30
0.0
210
0.0
220
0.0
230
1.0
  2
SOLID
 70
     1
 71
     1
 91
        1
 92
        7
 72
     0
 73
     1
 93
       12
 10
29545.62420801
 20
-6335.45358134
 10
29545.62420801
 20
-6341.44947005
 10
29575.62420826
 20
-6341.45358134
 10
29575.62420826
 20
-6293.45358134
 10
29545.62420801
 20
-6293.45358134
 10
29545.62420801
 20
-6299.45358134
 10
29547.62420801
 20
-6299.45358134
 10
29547.62420801
 20
-6295.45358134
 10
29573.62420801
 20
-6295.45358134
 10
29573.62420801
 20
-6339.45358134
 10
29547.62420801
 20
-6339.45358134
 10
29547.62420801
 20
-6335.45358134
 97
        1
330
5FA
 75
     0
 76
     2
 47
0.775229
 98
        1
 10
0.0
 20
0.0
  0
LWPOLYLINE
  5
5FC
102
{ACAD_REACTORS
330
5FD
102
}
100
AcDbEntity
  8
Ech.1_5
 62
     9
  6
CONTINUOUS
370
    -3
100
AcDbPolyline
 90
        4
 70
     1
 43
0.0
 10
29575.62420826
 20
-6293.45358134
 10
29575.62420826
 20
-6280.45358134
 10
29420.47758099
 20
-6280.45358134
 10
29420.47758099
 20
-6293.45358134
  0
HATCH
  5
5FD
100
AcDbEntity
  8
Ech.1_5
 62
     9
  6
CONTINUOUS
100
AcDbHatch
 10
0.0
 20
0.0
 30
0.0
210
0.0
220
0.0
230
1.0
  2
DOTS2
 70
     0
 71
     1
 91
        1
 92
        7
 72
     0
 73
     1
 93
        4
 10
29575.62420826
 20
-6293.45358134
 10
29575.62420826
 20
-6280.45358134
 10
29420.47758099
 20
-6280.45358134
 10
29420.47758099
 20
-6293.45358134
 97
        1
330
5FC
 75
     0
 76
     2
 52
0.0
 41
4.72440952
 77
     0
 78
     1
 53
0.0
 43
0.0
 44
0.0
 45
3.75
 46
3.535
 79
     2
 49
0.0
 49
-3.535
 47
0.775229
 98
        1
 10
0.0
 20
0.0
  0
LWPOLYLINE
  5
5FE
100
AcDbEntity
  8
Ech.1_5
 62
   190
  6
CONTINUOUS
370
    -3
100
AcDbPolyline
 90
        6
 70
     0
 43
0.0
 10
29420.47722053
 20
-6618.3344102
 10
29420.48026226
 20
-6444.3344102
 10
29438.45761067
 20
-6427.848907
 10
29402.50191065
 20
-6441.95884657
 10
29420.48026226
 20
-6425.4724927
 10
29420.47692265
 20
-6267.57789946
  0
LWPOLYLINE
  5
5FF
100
AcDbEntity
  8
Ech.1_5
 62
   190
  6
CONTINUOUS
370
    -3
100
AcDbPolyline
 90
        4
 70
     0
 43
0.0
 10
29698.11777852
 20
-6543.45137454
 10
29653.11777852
 20
-6363.44825411
 10
29698.11777852
 20
-6363.44825411
 10
29653.11777852
 20
-6543.45137454
  0
LWPOLYLINE
  5
600
100
AcDbEntity
  8
Ech.1_5
 62
     5
  6
CONTINUOUS
370
    -3
100
AcDbPolyline
 90
        5
 70
     0
 43
0.0
 10
29653.12133649
 20
-6543.4479785
 10
29653.12133649
 20
-6363.45018435
 10
29698.12133649
 20
-6363.45018435
 10
29698.12133649
 20
-6543.4479785
 10
29653.12133649
 20
-6543.4479785
  0
LWPOLYLINE
  5
601
100
AcDbEntity
  8
Ech.1_5
 62
   254
  6
CONTINUOUS
370
    -3
100
AcDbPolyline
 90
        7
 70
     1
 43
0.0
 10
29090.80495711
 20
-5942.03682226
 10
29040.80495711
 20
-5942.03682226
 10
29040.80495711
 20
-6147.34799856
 42
-0.53823114
 10
29042.54662536
 20
-6148.49724287
 42
-0.53823195
 10
29040.80495711
 20
-6149.64648718
 10
29040.80495711
 20
-6463.06572527
 10
29090.80495711
 20
-6463.06572527
  0
LWPOLYLINE
  5
602
100
AcDbEntity
  8
Ech.1_5
 62
   190
  6
CONTINUOUS
370
    -3
100
AcDbPolyline
 90
       12
 70
     1
 43
0.0
 10
29020.80495711
 20
-5942.03668112
 10
28950.7622973
 20
-5942.03610987
 10
28934.27594322
 20
-5960.01446146
 10
28948.38588324
 20
-5924.05876154
 10
28931.90038008
 20
-5942.03610987
 10
28875.80495711
 20
-5942.03670973
 10
28875.80495711
 20
-6463.06563467
 10
28982.48613753
 20
-6463.06530088
 10
28998.97164069
 20
-6445.08795256
 10
28984.86170067
 20
-6481.04365248
 10
29001.34805475
 20
-6463.06530088
 10
29020.80495711
 20
-6463.06528658
  0
LINE
  5
603
100
AcDbEntity
  8
Ech.1_5
 62
     0
  6
CONTINUOUS
100
AcDbLine
 10
29020.80495711
 20
-5942.03668112
 30
0.0
 11
29020.80495711
 21
-6463.06528658
 31
0.0
  0
LINE
  5
604
100
AcDbEntity
  8
Ech.1_5
 62
   190
  6
CONTINUOUS
370
    -3
100
AcDbLine
 10
29020.80495711
 20
-6463.06530088
 30
0.0
 11
29020.80495711
 21
-5942.03610987
 31
0.0
  0
LWPOLYLINE
  5
605
100
AcDbEntity
  8
Ech.1_5
 62
     0
  6
BYBLOCK
100
AcDbPolyline
 90
        3
 70
     0
 43
0.0
 10
28871.98592221
 20
-6298.32378096
 42
1.0
 10
28874.48592221
 20
-6298.32378096
 42
1.0
 10
28871.98592221
 20
-6298.32378096
  0
LINE
  5
606
100
AcDbEntity
  8
Ech.1_5
 62
     0
  6
BYBLOCK
100
AcDbLine
 10
28870.73592221
 20
-6298.32378096
 30
0.0
 11
28868.23592221
 21
-6298.32378096
 31
0.0
  0
LWPOLYLINE
  5
607
102
{ACAD_REACTORS
330
608
102
}
100
AcDbEntity
  8
Ech.1_5
 62
     9
  6
CONTINUOUS
370
    -3
100
AcDbPolyline
 90
        4
 70
     1
 43
0.0
 10
29090.80495711
 20
-5942.03682226
 10
29103.80495711
 20
-5942.03682226
 10
29103.80495711
 20
-6463.06572527
 10
29090.80495711
 20
-6463.06572527
  0
HATCH
  5
608
100
AcDbEntity
  8
Ech.1_5
 62
     9
  6
CONTINUOUS
100
AcDbHatch
 10
0.0
 20
0.0
 30
0.0
210
0.0
220
0.0
230
1.0
  2
DOTS2
 70
     0
 71
     1
 91
        1
 92
        7
 72
     0
 73
     1
 93
        4
 10
29090.80495711
 20
-5942.03682226
 10
29103.80495711
 20
-5942.03682226
 10
29103.80495711
 20
-6463.06572527
 10
29090.80495711
 20
-6463.06572527
 97
        1
330
607
 75
     0
 76
     2
 52
0.0
 41
4.72440952
 77
     0
 78
     1
 53
0.0
 43
0.0
 44
0.0
 45
3.75
 46
3.535
 79
     2
 49
0.0
 49
-3.535
 47
0.775229
 98
        1
 10
0.0
 20
0.0
  0
LINE
  5
609
100
AcDbEntity
  8
Ech.1_5
 62
     1
  6
CADWORK_22
 48
-5.0
370
    35
100
AcDbLine
 10
29022.30495711
 20
-5942.03610987
 30
0.0
 11
29022.30495711
 21
-6463.06530088
 31
0.0
  0
LWPOLYLINE
  5
60A
100
AcDbEntity
  8
Ech.1_5
 62
     9
  6
CONTINUOUS
370
    -3
100
AcDbPolyline
 90
      124
 70
     0
 43
0.0
 10
29082.47162378
 20
-6463.06572527
 42
1.14028178
 10
29080.31479354
 20
-6446.683011
 10
29051.29512068
 20
-6454.44843859
 42
-1.30322623
 10
29051.29512068
 20
-6438.34967798
 10
29080.31479354
 20
-6446.11510557
 42
1.30322616
 10
29080.31479354
 20
-6430.01634401
 10
29051.29512068
 20
-6437.78177256
 42
-1.30322616
 10
29051.29512068
 20
-6421.683011
 10
29080.31479354
 20
-6429.44843859
 42
1.30322623
 10
29080.31479354
 20
-6413.34967798
 10
29051.29512068
 20
-6421.11510557
 42
-1.30322616
 10
29051.29512068
 20
-6405.01634401
 10
29080.31479354
 20
-6412.78177256
 42
1.30322616
 10
29080.31479354
 20
-6396.683011
 10
29051.29512068
 20
-6404.44843859
 42
-1.30322623
 10
29051.29512068
 20
-6388.34967798
 10
29080.31479354
 20
-6396.11510557
 42
1.30322616
 10
29080.31479354
 20
-6380.01634401
 10
29051.29512068
 20
-6387.78177256
 42
-1.30322616
 10
29051.29512068
 20
-6371.683011
 10
29080.31479354
 20
-6379.44843859
 42
1.30322623
 10
29080.31479354
 20
-6363.34967798
 10
29051.29512068
 20
-6371.11510557
 42
-1.30322616
 10
29051.29512068
 20
-6355.01634401
 10
29080.31479354
 20
-6362.78177256
 42
1.30322616
 10
29080.31479354
 20
-6346.683011
 10
29051.29512068
 20
-6354.44843859
 42
-1.30322623
 10
29051.29512068
 20
-6338.34967798
 10
29080.31479354
 20
-6346.11510557
 42
1.30322616
 10
29080.31479354
 20
-6330.01634401
 10
29051.29512068
 20
-6337.78177256
 42
-1.30322616
 10
29051.29512068
 20
-6321.683011
 10
29080.31479354
 20
-6329.44843859
 42
1.30322623
 10
29080.31479354
 20
-6313.34967798
 10
29051.29512068
 20
-6321.11510557
 42
-1.30322616
 10
29051.29512068
 20
-6305.01634401
 10
29080.31479354
 20
-6312.78177256
 42
1.30322616
 10
29080.31479354
 20
-6296.683011
 10
29051.29512068
 20
-6304.44843859
 42
-1.30322623
 10
29051.29512068
 20
-6288.34967798
 10
29080.31479354
 20
-6296.11510557
 42
1.30322616
 10
29080.31479354
 20
-6280.01634401
 10
29051.29512068
 20
-6287.78177256
 42
-1.30322616
 10
29051.29512068
 20
-6271.683011
 10
29080.31479354
 20
-6279.44843859
 42
1.30322623
 10
29080.31479354
 20
-6263.34967798
 10
29051.29512068
 20
-6271.11510557
 42
-1.30322616
 10
29051.29512068
 20
-6255.01634401
 10
29080.31479354
 20
-6262.78177256
 42
1.30322616
 10
29080.31479354
 20
-6246.683011
 10
29051.29512068
 20
-6254.44843859
 42
-1.30322623
 10
29051.29512068
 20
-6238.34967798
 10
29080.31479354
 20
-6246.11510557
 42
1.30322616
 10
29080.31479354
 20
-6230.01634401
 10
29051.29512068
 20
-6237.78177256
 42
-1.30322616
 10
29051.29512068
 20
-6221.683011
 10
29080.31479354
 20
-6229.44843859
 42
1.30322623
 10
29080.31479354
 20
-6213.34967798
 10
29051.29512068
 20
-6221.11510557
 42
-1.30322616
 10
29051.29512068
 20
-6205.01634401
 10
29080.31479354
 20
-6212.78177256
 42
1.30322616
 10
29080.31479354
 20
-6196.683011
 10
29051.29512068
 20
-6204.44843859
 42
-1.30322623
 10
29051.29512068
 20
-6188.34967798
 10
29080.31479354
 20
-6196.11510557
 42
1.30322616
 10
29080.31479354
 20
-6180.01634401
 10
29051.29512068
 20
-6187.78177256
 42
-1.30322616
 10
29051.29512068
 20
-6171.683011
 10
29080.31479354
 20
-6179.44843859
 42
1.30322623
 10
29080.31479354
 20
-6163.34967798
 10
29051.29512068
 20
-6171.11510557
 42
-1.30322616
 10
29051.29512068
 20
-6155.01634401
 10
29080.31479354
 20
-6162.78177256
 42
1.30322616
 10
29080.31479354
 20
-6146.683011
 10
29051.29512068
 20
-6154.44843859
 42
-1.30322623
 10
29051.29512068
 20
-6138.34967798
 10
29080.31479354
 20
-6146.11510557
 42
1.30322616
 10
29080.31479354
 20
-6130.01634401
 10
29051.29512068
 20
-6137.78177256
 42
-1.30322616
 10
29051.29512068
 20
-6121.683011
 10
29080.31479354
 20
-6129.44843859
 42
1.30322623
 10
29080.31479354
 20
-6113.34967798
 10
29051.29512068
 20
-6121.11510557
 42
-1.30322616
 10
29051.29512068
 20
-6105.01634401
 10
29080.31479354
 20
-6112.78177256
 42
1.30322616
 10
29080.31479354
 20
-6096.683011
 10
29051.29512068
 20
-6104.44843859
 42
-1.30322623
 10
29051.29512068
 20
-6088.34967798
 10
29080.31479354
 20
-6096.11510557
 42
1.30322616
 10
29080.31479354
 20
-6080.01634401
 10
29051.29512068
 20
-6087.78177256
 42
-1.30322616
 10
29051.29512068
 20
-6071.683011
 10
29080.31479354
 20
-6079.44843859
 42
1.30322623
 10
29080.31479354
 20
-6063.34967798
 10
29051.29512068
 20
-6071.11510557
 42
-1.30322616
 10
29051.29512068
 20
-6055.01634401
 10
29080.31479354
 20
-6062.78177256
 42
1.30322616
 10
29080.31479354
 20
-6046.683011
 10
29051.29512068
 20
-6054.44843859
 42
-1.30322623
 10
29051.29512068
 20
-6038.34967798
 10
29080.31479354
 20
-6046.11510557
 42
1.30322616
 10
29080.31479354
 20
-6030.01634401
 10
29051.29512068
 20
-6037.78177256
 42
-1.30322616
 10
29051.29512068
 20
-6021.683011
 10
29080.31479354
 20
-6029.44843859
 42
1.30322623
 10
29080.31479354
 20
-6013.34967798
 10
29051.29512068
 20
-6021.11510557
 42
-1.30322616
 10
29051.29512068
 20
-6005.01634401
 10
29080.31479354
 20
-6012.78177256
 42
1.30322616
 10
29080.31479354
 20
-5996.683011
 10
29051.29512068
 20
-6004.44843859
 42
-1.30322623
 10
29051.29512068
 20
-5988.34967798
 10
29080.31479354
 20
-5996.11510557
 42
1.30322616
 10
29080.31479354
 20
-5980.01634401
 10
29051.29512068
 20
-5987.78177256
 42
-1.30322616
 10
29051.29512068
 20
-5971.683011
 10
29080.31479354
 20
-5979.44843859
 42
1.30322623
 10
29080.31479354
 20
-5963.34967798
 10
29051.29512068
 20
-5971.11510557
 42
-1.30322616
 10
29051.29512068
 20
-5955.01634401
 10
29080.31479354
 20
-5962.78177256
 42
1.30322616
 10
29080.31479354
 20
-5946.683011
 10
29051.29512068
 20
-5954.44843859
 42
-0.67810282
 10
29042.03791431
 20
-5942.03682226
  0
LWPOLYLINE
  5
60B
100
AcDbEntity
  8
Ech.1_5
 62
   190
  6
CONTINUOUS
370
    -3
100
AcDbPolyline
 90
       42
 70
     0
 43
0.0
 10
28900.22162378
 20
-5942.03670973
 42
1.14028179
 10
28906.54113636
 20
-5990.03806204
 10
28991.56877786
 20
-5967.28535837
 42
-1.3032262
 10
28991.56877786
 20
-6014.45472807
 10
28906.54113636
 20
-5991.70202536
 42
1.3032262
 10
28906.54113636
 20
-6038.87139505
 10
28991.56877786
 20
-6016.11869139
 42
-1.30322618
 10
28991.56877786
 20
-6063.28806204
 10
28906.54113636
 20
-6040.53535837
 42
1.3032262
 10
28906.54113636
 20
-6087.70472807
 10
28991.56877786
 20
-6064.95202536
 42
-1.3032262
 10
28991.56877786
 20
-6112.12139505
 10
28906.54113636
 20
-6089.36869139
 42
1.30322618
 10
28906.54113636
 20
-6136.53806204
 10
28991.56877786
 20
-6113.78535837
 42
-1.3032262
 10
28991.56877786
 20
-6160.95472807
 10
28906.54113636
 20
-6138.20202536
 42
1.3032262
 10
28906.54113636
 20
-6185.37139505
 10
28991.56877786
 20
-6162.61869139
 42
-1.30322618
 10
28991.56877786
 20
-6209.78806204
 10
28906.54113636
 20
-6187.03535837
 42
1.3032262
 10
28906.54113636
 20
-6234.20472807
 10
28991.56877786
 20
-6211.45202536
 42
-1.3032262
 10
28991.56877786
 20
-6258.62139505
 10
28906.54113636
 20
-6235.86869139
 42
1.30322618
 10
28906.54113636
 20
-6283.03806204
 10
28991.56877786
 20
-6260.28535837
 42
-1.3032262
 10
28991.56877786
 20
-6307.45472807
 10
28906.54113636
 20
-6284.70202536
 42
1.3032262
 10
28906.54113636
 20
-6331.87139505
 10
28991.56877786
 20
-6309.11869139
 42
-1.30322618
 10
28991.56877786
 20
-6356.28806204
 10
28906.54113636
 20
-6333.53535837
 42
1.3032262
 10
28906.54113636
 20
-6380.70472807
 10
28991.56877786
 20
-6357.95202536
 42
-1.3032262
 10
28991.56877786
 20
-6405.12139505
 10
28906.54113636
 20
-6382.36869139
 42
1.30322618
 10
28906.54113636
 20
-6429.53806204
 10
28991.56877786
 20
-6406.78535837
 42
-1.3032262
 10
28991.56877786
 20
-6453.95472807
 10
28906.54113636
 20
-6431.20202536
 42
0.60574183
 10
28877.25135985
 20
-6463.06563467
  0
LWPOLYLINE
  5
60C
100
AcDbEntity
  8
Ech.1_5
 62
     9
  6
CONTINUOUS
370
    -3
100
AcDbPolyline
 90
        4
 70
     1
 43
0.0
 10
28841.80495711
 20
-6463.06576246
 10
28866.80495711
 20
-6463.06568045
 10
28866.80495711
 20
-5942.03670973
 10
28841.80495711
 20
-5942.03697771
  0
LINE
  5
60D
100
AcDbEntity
  8
Ech.1_5
 62
     9
  6
CONTINUOUS
370
    18
100
AcDbLine
 10
28841.80495711
 20
-6463.06576246
 30
0.0
 11
28841.80495711
 21
-5942.03697771
 31
0.0
  0
LWPOLYLINE
  5
60E
100
AcDbEntity
  8
Ech.1_5
 62
     9
  6
CONTINUOUS
100
AcDbPolyline
 90
       27
 70
     0
 43
0.0
 10
28828.67833999
 20
-6286.94095415
 10
28828.80495711
 20
-6286.60648054
 10
28828.80495711
 20
-6259.22301573
 10
28835.80495711
 20
-6259.22301573
 10
28835.80495711
 20
-6268.22301573
 10
28841.80495711
 20
-6268.22301573
 10
28841.80495711
 20
-6241.22301573
 10
28837.80495711
 20
-6237.22301573
 10
28841.80495711
 20
-6233.22301573
 10
28841.80495711
 20
-6169.22301573
 10
28837.80495711
 20
-6165.22301573
 10
28841.80495711
 20
-6161.22301573
 10
28841.80495711
 20
-6126.22301573
 10
28834.80495711
 20
-6126.22301573
 10
28834.80495711
 20
-6120.22301573
 10
28832.30495711
 20
-6115.22301573
 10
28829.80495711
 20
-6120.22301573
 10
28829.80495711
 20
-6151.15194792
 10
28829.42435477
 20
-6153.06536573
 10
28823.2694232
 20
-6159.75854963
 10
28821.80495711
 20
-6163.29408354
 10
28821.80495711
 20
-6282.38082785
 10
28822.76527951
 20
-6284.01069731
 10
28827.50140036
 20
-6286.98204702
 10
28827.91340173
 20
-6287.22301573
 10
28828.22721922
 20
-6287.22301573
 10
28828.67833999
 20
-6286.94095415
  0
LWPOLYLINE
  5
60F
100
AcDbEntity
  8
Ech.1_5
 62
     9
  6
CONTINUOUS
100
AcDbPolyline
 90
       27
 70
     0
 43
0.0
 10
28828.67833999
 20
-6431.94095415
 10
28828.80495711
 20
-6431.60648054
 10
28828.80495711
 20
-6404.22301573
 10
28835.80495711
 20
-6404.22301573
 10
28835.80495711
 20
-6413.22301573
 10
28841.80495711
 20
-6413.22301573
 10
28841.80495711
 20
-6386.22301573
 10
28837.80495711
 20
-6382.22301573
 10
28841.80495711
 20
-6378.22301573
 10
28841.80495711
 20
-6314.22301573
 10
28837.80495711
 20
-6310.22301573
 10
28841.80495711
 20
-6306.22301573
 10
28841.80495711
 20
-6271.22301573
 10
28834.80495711
 20
-6271.22301573
 10
28834.80495711
 20
-6265.22301573
 10
28832.30495711
 20
-6260.22301573
 10
28829.80495711
 20
-6265.22301573
 10
28829.80495711
 20
-6296.15194792
 10
28829.42435477
 20
-6298.06536573
 10
28823.2694232
 20
-6304.75854963
 10
28821.80495711
 20
-6308.29408354
 10
28821.80495711
 20
-6427.38082785
 10
28822.76527951
 20
-6429.01069731
 10
28827.50140036
 20
-6431.98204702
 10
28827.91340173
 20
-6432.22301573
 10
28828.22721922
 20
-6432.22301573
 10
28828.67833999
 20
-6431.94095415
  0
LWPOLYLINE
  5
610
100
AcDbEntity
  8
Ech.1_5
 62
     9
  6
CONTINUOUS
100
AcDbPolyline
 90
       14
 70
     0
 43
0.0
 10
28841.80495711
 20
-6463.06576246
 10
28841.80495711
 20
-6459.22301573
 10
28837.80495711
 20
-6455.22301573
 10
28841.80495711
 20
-6451.22301573
 10
28841.80495711
 20
-6416.22301573
 10
28834.80495711
 20
-6416.22301573
 10
28834.80495711
 20
-6410.22301573
 10
28832.30495711
 20
-6405.22301573
 10
28829.80495711
 20
-6410.22301573
 10
28829.80495711
 20
-6441.15194792
 10
28829.42435477
 20
-6443.06536573
 10
28823.2694232
 20
-6449.75854963
 10
28821.80495711
 20
-6453.29408354
 10
28821.80495711
 20
-6463.06582731
  0
LWPOLYLINE
  5
611
100
AcDbEntity
  8
Ech.1_5
 62
     9
  6
CONTINUOUS
100
AcDbPolyline
 90
       16
 70
     0
 43
0.0
 10
28821.80495711
 20
-5942.03697771
 10
28821.80495711
 20
-5992.38082785
 10
28822.76527951
 20
-5994.01069731
 10
28827.50140036
 20
-5996.98204702
 10
28827.91340173
 20
-5997.22301573
 10
28828.22721922
 20
-5997.22301573
 10
28828.67833999
 20
-5996.94095415
 10
28828.80495711
 20
-5996.60648054
 10
28828.80495711
 20
-5969.22301573
 10
28835.80495711
 20
-5969.22301573
 10
28835.80495711
 20
-5978.22301573
 10
28841.80495711
 20
-5978.22301573
 10
28841.80495711
 20
-5951.22301573
 10
28837.80495711
 20
-5947.22301573
 10
28841.80495711
 20
-5943.22301573
 10
28841.80495711
 20
-5942.03697771
  0
LWPOLYLINE
  5
612
100
AcDbEntity
  8
Ech.1_5
 62
     9
  6
CONTINUOUS
100
AcDbPolyline
 90
       27
 70
     0
 43
0.0
 10
28828.67833999
 20
-6141.94095415
 10
28828.80495711
 20
-6141.60648054
 10
28828.80495711
 20
-6114.22301573
 10
28835.80495711
 20
-6114.22301573
 10
28835.80495711
 20
-6123.22301573
 10
28841.80495711
 20
-6123.22301573
 10
28841.80495711
 20
-6096.22301573
 10
28837.80495711
 20
-6092.22301573
 10
28841.80495711
 20
-6088.22301573
 10
28841.80495711
 20
-6024.22301573
 10
28837.80495711
 20
-6020.22301573
 10
28841.80495711
 20
-6016.22301573
 10
28841.80495711
 20
-5981.22301573
 10
28834.80495711
 20
-5981.22301573
 10
28834.80495711
 20
-5975.22301573
 10
28832.30495711
 20
-5970.22301573
 10
28829.80495711
 20
-5975.22301573
 10
28829.80495711
 20
-6006.15194792
 10
28829.42435477
 20
-6008.06536573
 10
28823.2694232
 20
-6014.75854963
 10
28821.80495711
 20
-6018.29408354
 10
28821.80495711
 20
-6137.38082785
 10
28822.76527951
 20
-6139.01069731
 10
28827.50140036
 20
-6141.98204702
 10
28827.91340173
 20
-6142.22301573
 10
28828.22721922
 20
-6142.22301573
 10
28828.67833999
 20
-6141.94095415
  0
LINE
  5
613
100
AcDbEntity
  8
Ech.1_5
 62
     7
  6
CONTINUOUS
370
    18
100
AcDbLine
 10
28866.80891719
 20
-5942.03663153
 30
0.0
 11
28866.80891719
 21
-6463.06560225
 31
0.0
  0
LWPOLYLINE
  5
614
100
AcDbEntity
  8
Ech.1_5
 62
   140
  6
CONTINUOUS
370
    18
100
AcDbPolyline
 90
        3
 70
     0
 43
0.0
 10
28864.80891719
 20
-6463.06528658
 10
28864.80892239
 20
-5942.03663153
 10
28864.80892239
 20
-5942.03663153
  0
LWPOLYLINE
  5
615
100
AcDbEntity
  8
Ech.1_5
 62
     0
  6
BYBLOCK
100
AcDbPolyline
 90
        3
 70
     0
 43
0.0
 10
28863.55891951
 20
-6195.22649378
 42
1.0
 10
28866.05891951
 20
-6195.22649378
 42
1.0
 10
28863.55891951
 20
-6195.22649378
  0
LINE
  5
616
100
AcDbEntity
  8
Ech.1_5
 62
     0
  6
BYBLOCK
100
AcDbLine
 10
28862.30891951
 20
-6195.22649378
 30
0.0
 11
28859.80891951
 21
-6195.22649378
 31
0.0
  0
LINE
  5
617
100
AcDbEntity
  8
Ech.1_5
 62
   150
  6
CADWORK_22
370
    35
100
AcDbLine
 10
28865.30495711
 20
-5942.03670973
 30
2500.0
 11
28865.30495711
 21
-6463.06560225
 31
2500.0
  0
LWPOLYLINE
  5
618
100
AcDbEntity
  8
Ech.1_5
 62
   190
  6
CONTINUOUS
370
    -3
100
AcDbPolyline
 90
        6
 70
     0
 43
0.0
 10
28809.90038009
 20
-5942.03741449
 10
28931.90038008
 20
-5942.03610987
 10
28948.38588324
 20
-5924.05876154
 10
28934.27594322
 20
-5960.01446146
 10
28950.7622973
 20
-5942.03610987
 10
29141.45268367
 20
-5942.03610987
  0
LWPOLYLINE
  5
619
100
AcDbEntity
  8
Ech.1_5
 62
   190
  6
CONTINUOUS
370
    -3
100
AcDbPolyline
 90
        6
 70
     0
 43
0.0
 10
28809.90038009
 20
-6463.06586355
 10
28982.48613753
 20
-6463.06530088
 10
28998.97164069
 20
-6445.08795256
 10
28984.86170067
 20
-6481.04365248
 10
29001.34805475
 20
-6463.06530088
 10
29141.03844113
 20
-6463.06530088
  0
LWPOLYLINE
  5
61A
100
AcDbEntity
  8
Ech.1_5
 62
   190
  6
CONTINUOUS
370
    -3
100
AcDbPolyline
 90
        8
 70
     1
 43
0.0
 10
29949.53571571
 20
-6426.848907
 10
29913.5800157
 20
-6440.95884657
 10
29931.5583673
 20
-6424.4724927
 10
29931.55518454
 20
-6363.45503524
 10
29698.12133649
 20
-6363.45381308
 10
29698.12133649
 20
-6543.45335007
 10
29931.55502769
 20
-6543.45358134
 10
29931.5583673
 20
-6443.3344102
  0
LWPOLYLINE
  5
61B
100
AcDbEntity
  8
Ech.1_5
 62
   190
  6
CONTINUOUS
370
    -3
100
AcDbPolyline
 90
        6
 70
     0
 43
0.0
 10
29931.55532557
 20
-6617.3344102
 10
29931.5583673
 20
-6443.3344102
 10
29949.53571571
 20
-6426.848907
 10
29913.5800157
 20
-6440.95884657
 10
29931.5583673
 20
-6424.4724927
 10
29931.55502769
 20
-6266.57789946
  0
LWPOLYLINE
  5
61C
100
AcDbEntity
  8
Ech.1_5
 62
     9
  6
CONTINUOUS
370
    -3
100
AcDbPolyline
 90
       36
 70
     0
 43
0.0
 10
29775.62052345
 20
-6335.12024801
 42
1.14028181
 10
29792.00323737
 20
-6332.96341777
 10
29784.23780954
 20
-6303.9437449
 42
-1.30322619
 10
29800.33657071
 20
-6303.9437449
 10
29792.57114287
 20
-6332.96341777
 42
1.30322619
 10
29808.66990404
 20
-6332.96341777
 10
29800.9044762
 20
-6303.9437449
 42
-1.30322619
 10
29817.00323737
 20
-6303.9437449
 10
29809.23780954
 20
-6332.96341777
 42
1.30322619
 10
29825.33657071
 20
-6332.96341777
 10
29817.57114287
 20
-6303.9437449
 42
-1.30322619
 10
29833.66990404
 20
-6303.9437449
 10
29825.9044762
 20
-6332.96341777
 42
1.30322619
 10
29842.00323737
 20
-6332.96341777
 10
29834.23780954
 20
-6303.9437449
 42
-1.30322619
 10
29850.33657071
 20
-6303.9437449
 10
29842.57114287
 20
-6332.96341777
 42
1.30322619
 10
29858.66990404
 20
-6332.96341777
 10
29850.9044762
 20
-6303.9437449
 42
-1.30322619
 10
29867.00323737
 20
-6303.9437449
 10
29859.23780954
 20
-6332.96341777
 42
1.30322619
 10
29875.33657071
 20
-6332.96341777
 10
29867.57114287
 20
-6303.9437449
 42
-1.30322619
 10
29883.66990404
 20
-6303.9437449
 10
29875.9044762
 20
-6332.96341777
 42
1.30322619
 10
29892.00323737
 20
-6332.96341777
 10
29884.23780954
 20
-6303.9437449
 42
-1.30322619
 10
29900.33657071
 20
-6303.9437449
 10
29892.57114287
 20
-6332.96341777
 42
1.30322619
 10
29908.66990404
 20
-6332.96341777
 10
29900.9044762
 20
-6303.9437449
 42
-1.30322619
 10
29917.00323737
 20
-6303.9437449
 10
29909.23780954
 20
-6332.96341777
 42
1.30322619
 10
29925.33657071
 20
-6332.96341777
 10
29917.57114287
 20
-6303.9437449
 42
-0.77018912
 10
29931.55532557
 20
-6295.93690883
  0
LWPOLYLINE
  5
61D
100
AcDbEntity
  8
Ech.1_5
 62
     9
  6
CONTINUOUS
370
    -3
100
AcDbPolyline
 90
       36
 70
     0
 43
0.0
 10
29420.47758099
 20
-6335.12024801
 42
1.14028181
 10
29436.86029491
 20
-6332.96341777
 10
29429.09486708
 20
-6303.9437449
 42
-1.30322619
 10
29445.19362825
 20
-6303.9437449
 10
29437.42820041
 20
-6332.96341777
 42
1.30322619
 10
29453.52696158
 20
-6332.96341777
 10
29445.76153374
 20
-6303.9437449
 42
-1.30322619
 10
29461.86029491
 20
-6303.9437449
 10
29454.09486708
 20
-6332.96341777
 42
1.30322619
 10
29470.19362825
 20
-6332.96341777
 10
29462.42820041
 20
-6303.9437449
 42
-1.30322619
 10
29478.52696158
 20
-6303.9437449
 10
29470.76153374
 20
-6332.96341777
 42
1.30322619
 10
29486.86029491
 20
-6332.96341777
 10
29479.09486708
 20
-6303.9437449
 42
-1.30322619
 10
29495.19362825
 20
-6303.9437449
 10
29487.42820041
 20
-6332.96341777
 42
1.30322619
 10
29503.52696158
 20
-6332.96341777
 10
29495.76153374
 20
-6303.9437449
 42
-1.30322619
 10
29511.86029491
 20
-6303.9437449
 10
29504.09486708
 20
-6332.96341777
 42
1.30322619
 10
29520.19362825
 20
-6332.96341777
 10
29512.42820041
 20
-6303.9437449
 42
-1.30322619
 10
29528.52696158
 20
-6303.9437449
 10
29520.76153374
 20
-6332.96341777
 42
1.30322619
 10
29536.86029491
 20
-6332.96341777
 10
29529.09486708
 20
-6303.9437449
 42
-1.30322619
 10
29545.19362825
 20
-6303.9437449
 10
29537.42820041
 20
-6332.96341777
 42
1.30322619
 10
29553.52696158
 20
-6332.96341777
 10
29545.76153374
 20
-6303.9437449
 42
-1.30322619
 10
29561.86029491
 20
-6303.9437449
 10
29554.09486708
 20
-6332.96341777
 42
1.30322619
 10
29570.19362825
 20
-6332.96341777
 10
29562.42820041
 20
-6303.9437449
 42
-0.72082998
 10
29575.62420826
 20
-6295.23278069
  0
LINE
  5
61E
100
AcDbEntity
  8
Ech.1_5
 62
   190
  6
CONTINUOUS
370
    -3
100
AcDbLine
 10
29420.47610875
 20
-6363.45358134
 30
0.0
 11
29420.47308421
 21
-6363.45358134
 31
0.0
  0
LINE
  5
61F
100
AcDbEntity
  8
Ech.1_5
 62
     1
  6
CADWORK_22
 48
-5.0
370
    35
100
AcDbLine
 10
29420.47610875
 20
-6363.45358134
 30
0.0
 11
29931.55502769
 21
-6363.45358134
 31
0.0
  0
LWPOLYLINE
  5
620
100
AcDbEntity
  8
Ech.1_5
 62
   190
  6
CONTINUOUS
370
    -3
100
AcDbPolyline
 90
       14
 70
     0
 43
0.0
 10
29420.47566788
 20
-6513.45362728
 42
1.14028181
 10
29479.45316068
 20
-6505.68762996
 10
29451.49514729
 20
-6401.21764086
 42
-1.30322619
 10
29509.45059875
 20
-6401.21624511
 10
29481.49761734
 20
-6505.68758072
 42
1.30322619
 10
29539.4530688
 20
-6505.68618497
 10
29511.49505541
 20
-6401.21619587
 42
-1.30322619
 10
29569.45050688
 20
-6401.21480012
 10
29541.49752546
 20
-6505.68613573
 42
1.30322619
 10
29599.45297693
 20
-6505.68473998
 10
29571.49496354
 20
-6401.21475088
 42
-1.30322619
 10
29629.450415
 20
-6401.21335513
 10
29601.49743359
 20
-6505.68469074
 42
0.79551944
 10
29653.12108788
 20
-6533.12514556
  0
LWPOLYLINE
  5
621
100
AcDbEntity
  8
Ech.1_5
 62
   190
  6
CONTINUOUS
370
    -3
100
AcDbPolyline
 90
       14
 70
     0
 43
0.0
 10
29698.11806212
 20
-6513.45161685
 42
1.14028181
 10
29757.09542925
 20
-6505.68764828
 10
29729.14110245
 20
-6401.21740552
 42
-1.30322619
 10
29787.09617453
 20
-6401.21795339
 10
29759.13987252
 20
-6505.68766761
 42
1.30322619
 10
29817.09494461
 20
-6505.68821548
 10
29789.14061781
 20
-6401.21797272
 42
-1.30322619
 10
29847.0956899
 20
-6401.2185206
 10
29819.13938789
 20
-6505.68823481
 42
1.30322619
 10
29877.09445997
 20
-6505.68878269
 10
29849.14013318
 20
-6401.21853993
 42
-1.30322619
 10
29907.09520526
 20
-6401.21908781
 10
29879.13890325
 20
-6505.68880202
 42
0.81253454
 10
29931.55513428
 20
-6532.17817409
  0
LWPOLYLINE
  5
622
100
AcDbEntity
  8
Ech.1_5
 62
   190
  6
CONTINUOUS
370
    -3
100
AcDbPolyline
 90
        5
 70
     0
 43
0.0
 10
29988.58589483
 20
-6880.17682778
 10
29988.58589483
 20
-5895.17682778
 10
28633.58589483
 20
-5895.17682778
 10
28633.58589483
 20
-6880.17682778
 10
29988.58589483
 20
-6880.17682778
  0
LWPOLYLINE
  5
623
100
AcDbEntity
  8
Ech.1_5
 62
   190
100
AcDbPolyline
 90
        5
 70
     0
 43
0.0
 10
28714.27128025
 20
-6751.61554964
 10
28848.70005923
 20
-6751.61554964
 10
28848.70005923
 20
-6808.33850845
 10
28714.27128025
 20
-6808.33850845
 10
28714.27128025
 20
-6751.61554964
  0
HATCH
  5
624
100
AcDbEntity
  8
Ech.1_5
 62
   190
100
AcDbHatch
 10
0.0
 20
0.0
 30
0.0
210
0.0
220
0.0
230
1.0
  2
SOLID
 70
     1
 71
     0
 91
        1
 92
        7
 72
     0
 73
     1
 93
        4
 10
28732.55132603
 20
-6785.27236077
 10
28782.55132603
 20
-6785.27236077
 10
28782.55132603
 20
-6777.85722323
 10
28732.55132603
 20
-6777.85722323
 97
        0
 75
     0
 76
     2
 47
0.775229
 98
        1
 10
0.0
 20
0.0
  0
LWPOLYLINE
  5
625
100
AcDbEntity
  8
Ech.1_5
 62
   190
100
AcDbPolyline
 90
        5
 70
     0
 43
0.0
 10
28732.55132603
 20
-6785.27236077
 10
28782.55132603
 20
-6785.27236077
 10
28782.55132603
 20
-6777.85722323
 10
28732.55132603
 20
-6777.85722323
 10
28732.55132603
 20
-6785.27236077
  0
LWPOLYLINE
  5
626
100
AcDbEntity
  8
Ech.1_5
 62
   190
100
AcDbPolyline
 90
        5
 70
     0
 43
0.0
 10
28782.55132603
 20
-6785.27236077
 10
28832.55132603
 20
-6785.27236077
 10
28832.55132603
 20
-6777.85722323
 10
28782.55132603
 20
-6777.85722323
 10
28782.55132603
 20
-6785.27236077
  0
TEXT
  5
627
100
AcDbEntity
  8
Ech.1_5
 62
   190
100
AcDbText
 10
28743.84561866
 20
-6768.27122015
 30
0.0
 40
8.00000012
  1
Echelle en mm
  7
ARIAL
 50
0.0
 41
1.0
 51
0.0
100
AcDbText
  0
TEXT
  5
628
100
AcDbEntity
  8
Ech.1_5
 62
   190
100
AcDbText
 10
28729.86503391
 20
-6796.48105568
 30
0.0
 40
8.00000012
  1
0
  7
ARIAL
 50
0.0
 41
1.0
 51
0.0
100
AcDbText
  0
TEXT
  5
629
100
AcDbEntity
  8
Ech.1_5
 62
   190
100
AcDbText
 10
28816.4620918
 20
-6796.48105568
 30
0.0
 40
8.00000012
  1
100
  7
ARIAL
 50
0.0
 41
1.0
 51
0.0
100
AcDbText
  0
TEXT
  5
62A
100
AcDbEntity
  8
Ech.1_5
 62
   190
100
AcDbText
 10
28777.72166024
 20
-6796.48105568
 30
0.0
 40
8.00000012
  1
50
  7
ARIAL
 50
0.0
 41
1.0
 51
0.0
100
AcDbText
  0
ENDSEC
  0
SECTION
  2
OBJECTS
  0
DICTIONARY
  5
1
100
AcDbDictionary
  3
ACAD_GROUP
350
2
  3
ACAD_MLINESTYLE
350
3
  0
DICTIONARY
  5
2
102
{CDWK_REACTORS
330
1
102
}
100
AcDbDictionary
  0
DICTIONARY
  5
3
102
{CDWK_REACTORS
330
1
102
}
100
AcDbDictionary
  3
STANDARD
350
4
  0
MLINESTYLE
  5
4
102
{CDWK_REACTORS
330
3
102
}
100
AcDbMlineStyle
  2
STANDARD
 70
     0
  3

 62
     0
 51
90.0
 52
90.0
 71
     2
 49
0.5
 62
   256
  6
BYLAYER
 49
-0.5
 62
   256
  6
BYLAYER
  0
ENDSEC
  0
EOF
