  0
SECTION
  2
HEADER
  9
$ACADVER
  1
AC1014
  9
$DWGCODEPAGE
  3
ANSI_1252
  9
$INSBASE
 10
0.0
 20
0.0
 30
0.0
  9
$EXTMIN
 10
27318.65122512
 20
-2850.66955982
  9
$EXTMAX
 10
28673.65122512
 20
-1865.66955982
  9
$LIMMIN
 10
27318.65122512
 20
-2850.66955982
  9
$LIMMAX
 10
28673.65122512
 20
-1865.66955982
  9
$ORTHOMODE
 70
     0
  9
$REGENMODE
 70
     1
  9
$FILLMODE
 70
     1
  9
$QTEXTMODE
 70
     0
  9
$MIRRTEXT
 70
     1
  9
$DRAGMODE
 70
     2
  9
$LTSCALE
 40
5.0
  9
$OSMODE
 70
     0
  9
$ATTMODE
 70
     1
  9
$TEXTSIZE
 40
3.5
  9
$TRACEWID
 40
1.0
  9
$TEXTSTYLE
  7
STANDARD
  9
$CLAYER
  8
0
  9
$CELTYPE
  6
BYLAYER
  9
$CECOLOR
 62
   256
  9
$DIMSCALE
 40
1.0
  9
$DIMASZ
 40
2.0
  9
$DIMEXO
 40
5.0
  9
$DIMDLI
 40
10.0
  9
$DIMRND
 40
0.0
  9
$DIMDLE
 40
2.0
  9
$DIMEXE
 40
2.0
  9
$DIMTP
 40
0.0
  9
$DIMTM
 40
0.0
  9
$DIMTXT
 40
2.5
  9
$DIMCEN
 40
1.5
  9
$DIMTSZ
 40
0.0
  9
$DIMTOL
 70
     0
  9
$DIMLIM
 70
     0
  9
$DIMTIH
 70
     1
  9
$DIMTOH
 70
     0
  9
$DIMSE1
 70
     0
  9
$DIMSE2
 70
     0
  9
$DIMTAD
 70
     1
  9
$DIMZIN
 70
     8
  9
$DIMBLK
  1

  9
$DIMASO
 70
     1
  9
$DIMSHO
 70
     1
  9
$DIMPOST
  1

  9
$DIMAPOST
  1

  9
$DIMALT
 70
     0
  9
$DIMALTD
 70
     2
  9
$DIMALTF
 40
25.4
  9
$DIMLFAC
 40
1.0
  9
$DIMTOFL
 70
     0
  9
$DIMTVP
 40
0.0
  9
$DIMTIX
 70
     0
  9
$DIMSOXD
 70
     0
  9
$DIMSAH
 70
     0
  9
$DIMBLK1
  1

  9
$DIMBLK2
  1

  9
$DIMSTYLE
  2
*UNNAMED
  9
$DIMCLRD
 70
   190
  9
$DIMCLRE
 70
   190
  9
$DIMCLRT
 70
   190
  9
$DIMTFAC
 40
1.0
  9
$DIMGAP
 40
0.09
  9
$DIMUNIT
 70
     2
  9
$LUNITS
 70
     2
  9
$LUPREC
 70
     6
  9
$AXISMODE
 70
     0
  9
$AXISUNIT
 10
0.0
 20
0.0
  9
$SKETCHINC
 40
0.1
  9
$FILLETRAD
 40
0.0
  9
$AUNITS
 70
     0
  9
$AUPREC
 70
     0
  9
$MENU
  1
ACAD
  9
$ELEVATION
 40
0.0
  9
$PELEVATION
 40
0.0
  9
$THICKNESS
 40
0.0
  9
$LIMCHECK
 70
     0
  9
$BLIPMODE
 70
     1
  9
$CHAMFERA
 40
0.0
  9
$CHAMFERB
 40
0.0
  9
$SKPOLY
 70
     1
  9
$TDCREATE
 40
2457732.0000000000
  9
$TDUPDATE
 40
2457732.0000000000
  9
$TDINDWG
 40
0.0
  9
$TDUSRTIMER
 40
0.0
  9
$USRTIMER
 70
     1
  9
$ANGBASE
 50
0.0
  9
$ANGDIR
 70
     0
  9
$PDMODE
 70
     0
  9
$PDSIZE
 40
0.0
  9
$PLINEWID
 40
0.0
  9
$COORDS
 70
     2
  9
$SPLFRAME
 70
     0
  9
$SPLINETYPE
 70
     6
  9
$SPLINESEGS
 70
     8
  9
$ATTDIA
 70
     1
  9
$ATTREQ
 70
     1
  9
$HANDLING
 70
     1
  9
$HANDSEED
  5
     20D
  9
$SURFTAB1
 70
     6
  9
$SURFTAB2
 70
     6
  9
$SURFTYPE
 70
     6
  9
$SURFU
 70
     6
  9
$SURFV
 70
     6
  9
$UCSNAME
  2

  9
$UCSORG
 10
0.0
 20
0.0
 30
0.0
  9
$UCSXDIR
 10
1.0
 20
0.0
 30
0.0
  9
$UCSYDIR
 10
0.0
 20
1.0
 30
0.0
  9
$PUCSNAME
  2

  9
$PUCSORG
 10
0.0
 20
0.0
 30
0.0
  9
$PUCSXDIR
 10
1.0
 20
0.0
 30
0.0
  9
$PUCSYDIR
 10
0.0
 20
1.0
 30
0.0
  9
$USERI1
 70
     0
  9
$USERI2
 70
     0
  9
$USERI3
 70
     0
  9
$USERI4
 70
     0
  9
$USERI5
 70
     0
  9
$USERR1
 40
0.0
  9
$USERR2
 40
0.0
  9
$USERR3
 40
0.0
  9
$USERR4
 40
0.0
  9
$USERR5
 40
0.0
  9
$WORLDVIEW
 70
     1
  9
$SHADEDGE
 70
     3
  9
$SHADEDIF
 70
    70
  9
$TILEMODE
 70
     1
  9
$MAXACTVP
 70
    16
  9
$PINSBASE
 10
0.0
 20
0.0
 30
0.0
  9
$PLIMCHECK
 70
     0
  9
$PEXTMIN
 10
1.0000000000000E+20
 20
1.0000000000000E+20
 30
1.0000000000000E+20
  9
$PEXTMAX
 10
-1.0000000000000E+20
 20
-1.0000000000000E+20
 30
-1.0000000000000E+20
  9
$PLIMMIN
 10
0.0
 20
0.0
  9
$UNITMODE
 70
     0
  9
$VISRETAIN
 70
     0
  9
$MEASUREMENT
 70
     1
  0
ENDSEC
  0
SECTION
  2
TABLES
  0
TABLE
  2
VPORT
  5
132
100
AcDbSymbolTable
 70
     1
  0
ENDTAB
  0
TABLE
  2
STYLE
  5
133
100
AcDbSymbolTable
 70
     3
  0
STYLE
  5
134
100
AcDbSymbolTableRecord
100
AcDbTextStyleTableRecord
  2
STANDARD
 70
     0
 40
0.0
 41
1.0
 50
0.0
 71
     0
 42
3.5
  3
MONOTXT
  4

  0
STYLE
  5
135
100
AcDbSymbolTableRecord
100
AcDbTextStyleTableRecord
  2
SYMAP
 70
     0
 40
0.0
 41
1.0
 50
0.0
 71
     0
 42
3.5
  3
SYMAP
  4

  0
STYLE
  5
136
100
AcDbSymbolTableRecord
100
AcDbTextStyleTableRecord
  2
CADWORK1
 70
     0
 40
0.0
 41
1.0
 50
0.0
 71
     0
 42
3.5
  3
MONOTXT
  4

  0
STYLE
  5
137
100
AcDbSymbolTableRecord
100
AcDbTextStyleTableRecord
  2
MONOTXT
 70
     0
 40
0.0
 41
1.0
 50
0.0
 71
     0
 42
3.5
  3
MONOTXT
  4

  0
STYLE
  5
138
100
AcDbSymbolTableRecord
100
AcDbTextStyleTableRecord
  2
ARIAL
 70
     0
 40
0.0
 41
1.0
 50
0.0
 71
     0
 42
3.5
  3

  4

1001
ACAD
1000
Arial
1071
        0
  0
ENDTAB
  0
TABLE
  2
LTYPE
  5
139
100
AcDbSymbolTable
 70
    16
  0
LTYPE
  5
13A
100
AcDbSymbolTableRecord
100
AcDbLinetypeTableRecord
  2
BYBLOCK
 70
    64
  3

 72
    65
 73
     0
 40
0.0
  0
LTYPE
  5
13B
100
AcDbSymbolTableRecord
100
AcDbLinetypeTableRecord
  2
BYLAYER
 70
    64
  3

 72
    65
 73
     0
 40
0.0
  0
LTYPE
  5
13C
100
AcDbSymbolTableRecord
100
AcDbLinetypeTableRecord
  2
CONTINUOUS
 70
    64
  3
Solid line
 72
    65
 73
     0
 40
0.0
  0
LTYPE
  5
13D
100
AcDbSymbolTableRecord
100
AcDbLinetypeTableRecord
  2
DOT2
 70
    64
  3
...............................................
 72
    65
 73
     2
 40
1.25
 49
0.0
 74
     0
 49
-1.25
 74
     0
  0
LTYPE
  5
13E
100
AcDbSymbolTableRecord
100
AcDbLinetypeTableRecord
  2
CADWORK_13
 70
    64
  3
13 =======================================
 72
    65
 73
     2
 40
4.0
 49
2.0
 74
     0
 49
-2.0
 74
     0
  0
LTYPE
  5
13F
100
AcDbSymbolTableRecord
100
AcDbLinetypeTableRecord
  2
DASHDOT
 70
    64
  3
 __ . __ . __ . __ . __ . __ . __ . __ . __ . __
 72
    65
 73
     4
 40
10.0
 49
5.0
 74
     0
 49
-2.5
 74
     0
 49
0.0
 74
     0
 49
-2.5
 74
     0
  0
LTYPE
  5
140
100
AcDbSymbolTableRecord
100
AcDbLinetypeTableRecord
  2
CENTER
 70
    64
  3
 ____ _ ____ _ ____ _ ____ _ ____ _ ____ _ ____
 72
    65
 73
     4
 40
20.0
 49
12.5
 74
     0
 49
-2.5
 74
     0
 49
2.5
 74
     0
 49
-2.5
 74
     0
  0
LTYPE
  5
141
100
AcDbSymbolTableRecord
100
AcDbLinetypeTableRecord
  2
DASHEDX2
 70
    64
  3
____  ____  ____  ____  ____  ____  ____  ____
 72
    65
 73
     2
 40
3.75
 49
2.5
 74
     0
 49
-1.25
 74
     0
  0
LTYPE
  5
142
100
AcDbSymbolTableRecord
100
AcDbLinetypeTableRecord
  2
CADWORK_22
 70
    64
  3
22 =======================================
 72
    65
 73
     0
 40
0.0
  0
LTYPE
  5
143
100
AcDbSymbolTableRecord
100
AcDbLinetypeTableRecord
  2
DAL
 70
    64
  3
Solid line (for MAPS)
 72
    65
 73
     0
 40
0.0
  0
LTYPE
  5
144
100
AcDbSymbolTableRecord
100
AcDbLinetypeTableRecord
  2
MUR
 70
    64
  3
Solid line (for MAPS)
 72
    65
 73
     0
 40
0.0
  0
LTYPE
  5
145
100
AcDbSymbolTableRecord
100
AcDbLinetypeTableRecord
  2
SOM
 70
    64
  3
Solid line (for MAPS)
 72
    65
 73
     0
 40
0.0
  0
LTYPE
  5
146
100
AcDbSymbolTableRecord
100
AcDbLinetypeTableRecord
  2
COL
 70
    64
  3
Solid line (for MAPS)
 72
    65
 73
     0
 40
0.0
  0
LTYPE
  5
147
100
AcDbSymbolTableRecord
100
AcDbLinetypeTableRecord
  2
LGN
 70
    64
  3
Solid line (for MAPS)
 72
    65
 73
     0
 40
0.0
  0
LTYPE
  5
148
100
AcDbSymbolTableRecord
100
AcDbLinetypeTableRecord
  2
PNT
 70
    64
  3
Solid line (for MAPS)
 72
    65
 73
     0
 40
0.0
  0
ENDTAB
  0
TABLE
  2
LAYER
  5
149
100
AcDbSymbolTable
 70
    32
  0
LAYER
  5
14A
100
AcDbSymbolTableRecord
100
AcDbLayerTableRecord
  2
Standard
 70
     0
 62
     7
  6
CONTINUOUS
370
    -3
  0
LAYER
  5
14B
100
AcDbSymbolTableRecord
100
AcDbLayerTableRecord
  2
Ech.1_1
 70
     0
 62
     7
  6
CONTINUOUS
370
    -3
  0
LAYER
  5
14C
100
AcDbSymbolTableRecord
100
AcDbLayerTableRecord
  2
Ech.1_2
 70
     0
 62
     7
  6
CONTINUOUS
370
    -3
  0
LAYER
  5
14D
100
AcDbSymbolTableRecord
100
AcDbLayerTableRecord
  2
Ech.1_5
 70
     0
 62
     7
  6
CONTINUOUS
370
    -3
  0
LAYER
  5
14E
100
AcDbSymbolTableRecord
100
AcDbLayerTableRecord
  2
Ech.1_10
 70
     0
 62
     7
  6
CONTINUOUS
370
    -3
  0
LAYER
  5
14F
100
AcDbSymbolTableRecord
100
AcDbLayerTableRecord
  2
Ech.1_20
 70
     0
 62
     7
  6
CONTINUOUS
370
    -3
  0
LAYER
  5
150
100
AcDbSymbolTableRecord
100
AcDbLayerTableRecord
  2
Ech.1_25
 70
     0
 62
     7
  6
CONTINUOUS
370
    -3
  0
LAYER
  5
151
100
AcDbSymbolTableRecord
100
AcDbLayerTableRecord
  2
Ech.1_33
 70
     0
 62
     7
  6
CONTINUOUS
370
    -3
  0
LAYER
  5
152
100
AcDbSymbolTableRecord
100
AcDbLayerTableRecord
  2
Ech.1_50
 70
     0
 62
     7
  6
CONTINUOUS
370
    -3
  0
LAYER
  5
153
100
AcDbSymbolTableRecord
100
AcDbLayerTableRecord
  2
Ech.1_75
 70
     0
 62
     7
  6
CONTINUOUS
370
    -3
  0
LAYER
  5
154
100
AcDbSymbolTableRecord
100
AcDbLayerTableRecord
  2
Ech.1_100
 70
     0
 62
     7
  6
CONTINUOUS
370
    -3
  0
LAYER
  5
155
100
AcDbSymbolTableRecord
100
AcDbLayerTableRecord
  2
Ech.1_200
 70
     0
 62
     7
  6
CONTINUOUS
370
    -3
  0
LAYER
  5
156
100
AcDbSymbolTableRecord
100
AcDbLayerTableRecord
  2
Ech.1_500
 70
     0
 62
     7
  6
CONTINUOUS
370
    -3
  0
LAYER
  5
157
100
AcDbSymbolTableRecord
100
AcDbLayerTableRecord
  2
Ech.1_1000
 70
     0
 62
     7
  6
CONTINUOUS
370
    -3
  0
LAYER
  5
158
100
AcDbSymbolTableRecord
100
AcDbLayerTableRecord
  2
Cadres traceur
 70
     0
 62
     7
  6
CONTINUOUS
370
    18
  0
LAYER
  5
159
100
AcDbSymbolTableRecord
100
AcDbLayerTableRecord
  2
Cadres laser
 70
     0
 62
     7
  6
CONTINUOUS
370
    18
  0
LAYER
  5
15A
100
AcDbSymbolTableRecord
100
AcDbLayerTableRecord
  2
Légende d_aide
 70
     0
 62
     7
  6
CONTINUOUS
370
    18
  0
LAYER
  5
15B
100
AcDbSymbolTableRecord
100
AcDbLayerTableRecord
  2
hachures ok
 70
     0
 62
     7
  6
CONTINUOUS
370
    18
  0
LAYER
  5
15C
100
AcDbSymbolTableRecord
100
AcDbLayerTableRecord
  2
ossature bois
 70
     0
 62
     7
  6
CONTINUOUS
370
    18
  0
LAYER
  5
15D
100
AcDbSymbolTableRecord
100
AcDbLayerTableRecord
  2
VR
 70
     0
 62
     7
  6
CONTINUOUS
370
    25
  0
LAYER
  5
15E
100
AcDbSymbolTableRecord
100
AcDbLayerTableRecord
  2
Calque1
 70
     0
 62
     7
  6
CONTINUOUS
370
     9
  0
LAYER
  5
15F
100
AcDbSymbolTableRecord
100
AcDbLayerTableRecord
  2
0
 70
     0
 62
     7
  6
CONTINUOUS
370
    -3
  0
LAYER
  5
160
100
AcDbSymbolTableRecord
100
AcDbLayerTableRecord
  2
menuiserie
 70
     0
 62
     7
  6
CONTINUOUS
370
    -3
  0
LAYER
  5
161
100
AcDbSymbolTableRecord
100
AcDbLayerTableRecord
  2
cotation
 70
     0
 62
   250
  6
CONTINUOUS
370
     9
  0
LAYER
  5
162
100
AcDbSymbolTableRecord
100
AcDbLayerTableRecord
  2
Defpoints
 70
     0
 62
    10
  6
CONTINUOUS
370
    -3
  0
LAYER
  5
163
100
AcDbSymbolTableRecord
100
AcDbLayerTableRecord
  2
HACHURE
 70
     0
 62
   254
  6
CONTINUOUS
370
    25
  0
LAYER
  5
164
100
AcDbSymbolTableRecord
100
AcDbLayerTableRecord
  2
mat1
 70
     0
 62
     7
  6
CONTINUOUS
370
    30
  0
LAYER
  5
165
100
AcDbSymbolTableRecord
100
AcDbLayerTableRecord
  2
mat2
 70
     0
 62
     7
  6
CONTINUOUS
370
     5
  0
LAYER
  5
166
100
AcDbSymbolTableRecord
100
AcDbLayerTableRecord
  2
hach
 70
     0
 62
     8
  6
CONTINUOUS
370
     5
  0
LAYER
  5
167
100
AcDbSymbolTableRecord
100
AcDbLayerTableRecord
  2
menuiseries
 70
     0
 62
     7
  6
CONTINUOUS
370
     9
  0
LAYER
  5
168
100
AcDbSymbolTableRecord
100
AcDbLayerTableRecord
  2
BétonMétal
 70
     0
 62
     7
  6
CONTINUOUS
370
    80
  0
LAYER
  5
169
100
AcDbSymbolTableRecord
100
AcDbLayerTableRecord
  2
bois
 70
     0
 62
     7
  6
CONTINUOUS
370
    60
  0
ENDTAB
  0
TABLE
  2
VIEW
  5
16A
100
AcDbSymbolTable
 70
     0
  0
ENDTAB
  0
TABLE
  2
UCS
  5
16B
100
AcDbSymbolTable
 70
     0
  0
ENDTAB
  0
TABLE
  2
APPID
  5
16C
100
AcDbSymbolTable
 70
     1
  0
APPID
  5
16D
100
AcDbSymbolTableRecord
100
AcDbRegAppTableRecord
  2
ACAD
 70
     0
  0
ENDTAB
  0
TABLE
  2
DIMSTYLE
  5
16E
100
AcDbSymbolTable
 70
     0
  0
ENDTAB
  0
TABLE
  2
BLOCK_RECORD
  5
16F
100
AcDbSymbolTable
 70
     0
  0
BLOCK_RECORD
  5
170
100
AcDbSymbolTableRecord
100
AcDbBlockTableRecord
  2
*MODEL_SPACE
  0
BLOCK_RECORD
  5
171
100
AcDbSymbolTableRecord
100
AcDbBlockTableRecord
  2
*PAPER_SPACE
  0
BLOCK_RECORD
  5
172
100
AcDbSymbolTableRecord
100
AcDbBlockTableRecord
  2
CDWK_EXTR_0
  0
BLOCK_RECORD
  5
173
100
AcDbSymbolTableRecord
100
AcDbBlockTableRecord
  2
CDWK_EXTR_1D
  0
BLOCK_RECORD
  5
174
100
AcDbSymbolTableRecord
100
AcDbBlockTableRecord
  2
CDWK_EXTR_1G
  0
BLOCK_RECORD
  5
175
100
AcDbSymbolTableRecord
100
AcDbBlockTableRecord
  2
CDWK_EXTR_2
  0
BLOCK_RECORD
  5
176
100
AcDbSymbolTableRecord
100
AcDbBlockTableRecord
  2
CDWK_EXTR_3
  0
BLOCK_RECORD
  5
177
100
AcDbSymbolTableRecord
100
AcDbBlockTableRecord
  2
CDWK_EXTR_4
  0
BLOCK_RECORD
  5
178
100
AcDbSymbolTableRecord
100
AcDbBlockTableRecord
  2
CDWK_PTTYP0
  0
BLOCK_RECORD
  5
179
100
AcDbSymbolTableRecord
100
AcDbBlockTableRecord
  2
*D75
  0
BLOCK_RECORD
  5
17A
100
AcDbSymbolTableRecord
100
AcDbBlockTableRecord
  2
*D76
  0
ENDTAB
  0
ENDSEC
  0
SECTION
  2
BLOCKS
  0
BLOCK
  5
17B
100
AcDbEntity
  8
0
100
AcDbBlockBegin
  2
*MODEL_SPACE
 70
     0
 10
0.0
 20
0.0
 30
0.0
  3
*MODEL_SPACE
  1

  0
ENDBLK
  5
17C
100
AcDbEntity
100
AcDbBlockEnd
  0
BLOCK
  5
17D
100
AcDbEntity
  8
0
100
AcDbBlockBegin
  2
*PAPER_SPACE
 70
     0
 10
0.0
 20
0.0
 30
0.0
  3
*PAPER_SPACE
  1

  0
ENDBLK
  5
17E
100
AcDbEntity
100
AcDbBlockEnd
  0
BLOCK
  5
17F
100
AcDbEntity
  8
0
100
AcDbBlockBegin
  2
CDWK_EXTR_0
 70
     0
 10
0.0
 20
0.0
 30
0.0
  3
CDWK_EXTR_0
  1

  4
Cadwork line-extremity
  0
LINE
  5
180
100
AcDbEntity
  8
0
 62
     0
370
    -2
100
AcDbLine
 10
0.0
 20
0.0
 30
0.0
 11
2.0
 21
0.5
 31
0.0
  0
LINE
  5
181
100
AcDbEntity
  8
0
 62
     0
370
    -2
100
AcDbLine
 10
0.0
 20
0.0
 30
0.0
 11
2.0
 21
-0.5
 31
0.0
  0
LINE
  5
182
100
AcDbEntity
  8
0
 62
     0
370
    -2
100
AcDbLine
 10
2.0
 20
0.5
 30
0.0
 11
2.0
 21
-0.5
 31
0.0
  0
ENDBLK
  5
183
100
AcDbEntity
100
AcDbBlockEnd
  0
BLOCK
  5
184
100
AcDbEntity
  8
0
100
AcDbBlockBegin
  2
CDWK_EXTR_1D
 70
     0
 10
0.0
 20
0.0
 30
0.0
  3
CDWK_EXTR_1D
  1

  4
Cadwork line-extremity
  0
LINE
  5
185
100
AcDbEntity
  8
0
 62
     0
370
    -2
100
AcDbLine
 10
0.0
 20
0.0
 30
0.0
 11
0.0
 21
1.0
 31
0.0
  0
LINE
  5
186
100
AcDbEntity
  8
0
 62
     0
370
    -2
100
AcDbLine
 10
0.0
 20
1.0
 30
0.0
 11
0.5
 21
1.5
 31
0.0
  0
LINE
  5
187
100
AcDbEntity
  8
0
 62
     0
370
    -2
100
AcDbLine
 10
0.5
 20
1.5
 30
0.0
 11
1.5
 21
1.5
 31
0.0
  0
ENDBLK
  5
188
100
AcDbEntity
100
AcDbBlockEnd
  0
BLOCK
  5
189
100
AcDbEntity
  8
0
100
AcDbBlockBegin
  2
CDWK_EXTR_1G
 70
     0
 10
0.0
 20
0.0
 30
0.0
  3
CDWK_EXTR_1G
  1

  4
Cadwork line-extremity
  0
LINE
  5
18A
100
AcDbEntity
  8
0
 62
     0
370
    -2
100
AcDbLine
 10
0.0
 20
0.0
 30
0.0
 11
0.0
 21
-1.0
 31
0.0
  0
LINE
  5
18B
100
AcDbEntity
  8
0
 62
     0
370
    -2
100
AcDbLine
 10
0.0
 20
-1.0
 30
0.0
 11
0.5
 21
-1.5
 31
0.0
  0
LINE
  5
18C
100
AcDbEntity
  8
0
 62
     0
370
    -2
100
AcDbLine
 10
0.5
 20
-1.5
 30
0.0
 11
1.5
 21
-1.5
 31
0.0
  0
ENDBLK
  5
18D
100
AcDbEntity
100
AcDbBlockEnd
  0
BLOCK
  5
18E
100
AcDbEntity
  8
0
100
AcDbBlockBegin
  2
CDWK_EXTR_2
 70
     0
 10
0.0
 20
0.0
 30
0.0
  3
CDWK_EXTR_2
  1

  4
Cadwork line-extremity
  0
SOLID
  5
18F
100
AcDbEntity
  8
0
 62
     0
100
AcDbTrace
 10
0.0
 20
0.0
 11
2.0
 21
0.5
 12
2.0
 22
-0.5
 13
2.0
 23
-0.5
  0
ENDBLK
  5
190
100
AcDbEntity
100
AcDbBlockEnd
  0
BLOCK
  5
191
100
AcDbEntity
  8
0
100
AcDbBlockBegin
  2
CDWK_EXTR_3
 70
     0
 10
0.0
 20
0.0
 30
0.0
  3
CDWK_EXTR_3
  1

  4
Cadwork line-extremity
  0
SOLID
  5
192
100
AcDbEntity
  8
0
 62
     0
100
AcDbTrace
 10
0.0
 20
0.0
 11
2.0
 21
0.5
 12
2.0
 22
-0.5
 13
2.0
 23
-0.5
  0
LINE
  5
193
100
AcDbEntity
  8
0
 62
     0
370
    -2
100
AcDbLine
 10
0.0
 20
1.0
 30
0.0
 11
0.0
 21
-1.0
 31
0.0
  0
ENDBLK
  5
194
100
AcDbEntity
100
AcDbBlockEnd
  0
BLOCK
  5
195
100
AcDbEntity
  8
0
100
AcDbBlockBegin
  2
CDWK_EXTR_4
 70
     0
 10
0.0
 20
0.0
 30
0.0
  3
CDWK_EXTR_4
  1

  4
Cadwork line-extremity
  0
HATCH
  5
196
100
AcDbEntity
  8
0
 62
     0
370
    -2
100
AcDbHatch
 10
0.0
 20
0.0
 30
0.0
210
0.0
220
0.0
230
1.0
  2
SOLID
 70
     1
 71
     0
 91
        1
 92
        1
 93
        1
 72
     2
 10
0.0
 20
0.0
 40
0.5
 50
0.0
 51
360.0
 73
     1
 97
        0
 75
     0
 76
     1
 98
        1
 10
0.0
 20
0.0
  0
ENDBLK
  5
197
100
AcDbEntity
100
AcDbBlockEnd
  0
BLOCK
  5
198
100
AcDbEntity
  8
0
100
AcDbBlockBegin
  2
CDWK_PTTYP0
 70
     0
 10
0.0
 20
0.0
 30
0.0
  3
CDWK_PTTYP0
  1

  4
Cadwork point
  0
POINT
  5
199
100
AcDbEntity
  8
0
 62
     0
100
AcDbPoint
 10
0.0
 20
0.0
 30
0.0
  0
ENDBLK
  5
19A
100
AcDbEntity
100
AcDbBlockEnd
  0
BLOCK
  5
19B
100
AcDbEntity
  8
Ech.1_5
100
AcDbBlockBegin
  2
*D75
 70
     1
 10
0.0
 20
0.0
 30
0.0
  3
*D75
  1

  4
Cadwork dimension
  0
TEXT
  5
19C
100
AcDbEntity
  8
Ech.1_5
 62
   190
370
    18
100
AcDbText
 10
28492.51389953
 20
-2159.6782737
 30
0.0
 40
25.0
  1
2/3*
  7
ARIAL
 50
89.9999975
 41
1.0
 51
0.0
100
AcDbText
  0
LINE
  5
19D
100
AcDbEntity
  8
Ech.1_5
 62
   190
370
    -2
100
AcDbLine
 10
28502.51389953
 20
-2035.42313626
 30
0.0
 11
28468.62995017
 21
-2035.42313626
 31
0.0
  0
LINE
  5
19E
100
AcDbEntity
  8
Ech.1_5
 62
   190
370
    -2
100
AcDbLine
 10
28502.51389953
 20
-2255.42313626
 30
0.0
 11
28462.65422946
 21
-2255.42313626
 31
0.0
  0
LINE
  5
19F
100
AcDbEntity
  8
Ech.1_5
 62
   190
370
    -2
100
AcDbLine
 10
28497.51389953
 20
-2030.42313626
 30
0.0
 11
28497.51389953
 21
-2260.42313626
 31
0.0
  0
LINE
  5
1A0
100
AcDbEntity
  8
Ech.1_5
 62
   190
370
    -2
100
AcDbLine
 10
28495.01389953
 20
-2032.92313626
 30
0.0
 11
28500.01389953
 21
-2037.92313626
 31
0.0
  0
LINE
  5
1A1
100
AcDbEntity
  8
Ech.1_5
 62
   190
370
    -2
100
AcDbLine
 10
28495.01389953
 20
-2252.92313626
 30
0.0
 11
28500.01389953
 21
-2257.92313626
 31
0.0
  0
ENDBLK
  5
1A2
100
AcDbEntity
100
AcDbBlockEnd
  0
BLOCK
  5
1A3
100
AcDbEntity
  8
Ech.1_5
100
AcDbBlockBegin
  2
*D76
 70
     1
 10
0.0
 20
0.0
 30
0.0
  3
*D76
  1

  4
Cadwork dimension
  0
TEXT
  5
1A4
100
AcDbEntity
  8
Ech.1_5
 62
   190
370
    18
100
AcDbText
 10
28492.51389953
 20
-2353.17830406
 30
0.0
 40
25.0
  1
1/3*
  7
ARIAL
 50
89.9999975
 41
1.0
 51
0.0
100
AcDbText
  0
LINE
  5
1A5
100
AcDbEntity
  8
Ech.1_5
 62
   190
370
    -2
100
AcDbLine
 10
28502.51389953
 20
-2255.42313626
 30
0.0
 11
28462.65422946
 21
-2255.42313626
 31
0.0
  0
LINE
  5
1A6
100
AcDbEntity
  8
Ech.1_5
 62
   190
370
    -2
100
AcDbLine
 10
28502.51389953
 20
-2422.42319698
 30
0.0
 11
28468.6301515
 21
-2422.42319698
 31
0.0
  0
LINE
  5
1A7
100
AcDbEntity
  8
Ech.1_5
 62
   190
370
    -2
100
AcDbLine
 10
28497.51389953
 20
-2250.42313626
 30
0.0
 11
28497.51389953
 21
-2427.42319698
 31
0.0
  0
LINE
  5
1A8
100
AcDbEntity
  8
Ech.1_5
 62
   190
370
    -2
100
AcDbLine
 10
28495.01389953
 20
-2252.92313626
 30
0.0
 11
28500.01389953
 21
-2257.92313626
 31
0.0
  0
LINE
  5
1A9
100
AcDbEntity
  8
Ech.1_5
 62
   190
370
    -2
100
AcDbLine
 10
28495.01389953
 20
-2419.92319698
 30
0.0
 11
28500.01389953
 21
-2424.92319698
 31
0.0
  0
ENDBLK
  5
1AA
100
AcDbEntity
100
AcDbBlockEnd
  0
ENDSEC
  0
SECTION
  2
ENTITIES
  0
LWPOLYLINE
  5
1AB
102
{ACAD_REACTORS
330
1AC
102
}
100
AcDbEntity
  8
Ech.1_5
 62
   190
  6
CONTINUOUS
370
    -3
100
AcDbPolyline
 90
        4
 70
     1
 43
0.0
 10
28086.16901422
 20
-2640.98667606
 10
28095.16901422
 20
-2640.98667606
 10
28095.16901422
 20
-2266.5543991
 10
28086.16901422
 20
-2266.5543991
  0
HATCH
  5
1AC
100
AcDbEntity
  8
Ech.1_5
 62
   190
  6
CONTINUOUS
100
AcDbHatch
 10
0.0
 20
0.0
 30
0.0
210
0.0
220
0.0
230
1.0
  2
CDWK10A
 70
     0
 71
     1
 91
        1
 92
        7
 72
     0
 73
     1
 93
        4
 10
28086.16901422
 20
-2640.98667606
 10
28095.16901422
 20
-2640.98667606
 10
28095.16901422
 20
-2266.5543991
 10
28086.16901422
 20
-2266.5543991
 97
        1
330
1AB
 75
     0
 76
     2
 52
0.0
 41
1.0
 77
     0
 78
     3
 53
45.0
 43
0.0
 44
0.0
 45
0.0
 46
42.00000167
 79
     0
 53
45.0
 43
0.0
 44
10.80000043
 45
0.0
 46
42.00000167
 79
     0
 53
45.0
 43
0.0
 44
21.60000086
 45
0.0
 46
42.00000167
 79
     0
 47
0.775229
 98
        1
 10
0.0
 20
0.0
  0
LWPOLYLINE
  5
1AD
102
{ACAD_REACTORS
330
1AE
102
}
100
AcDbEntity
  8
Ech.1_5
 62
   190
  6
CONTINUOUS
370
    -3
100
AcDbPolyline
 90
        4
 70
     1
 43
0.0
 10
27906.25963266
 20
-2035.42313626
 10
27890.25963266
 20
-2035.42313626
 10
27890.25963266
 20
-2640.98667606
 10
27906.25963266
 20
-2640.98667606
  0
HATCH
  5
1AE
100
AcDbEntity
  8
Ech.1_5
 62
   190
  6
CONTINUOUS
100
AcDbHatch
 10
0.0
 20
0.0
 30
0.0
210
0.0
220
0.0
230
1.0
  2
ANSI37
 70
     0
 71
     1
 91
        1
 92
        7
 72
     0
 73
     1
 93
        4
 10
27906.25963266
 20
-2035.42313626
 10
27890.25963266
 20
-2035.42313626
 10
27890.25963266
 20
-2640.98667606
 10
27906.25963266
 20
-2640.98667606
 97
        1
330
1AD
 75
     0
 76
     2
 52
0.0
 41
1.88976388
 77
     0
 78
     2
 53
45.0
 43
0.0
 44
0.0
 45
4.24264086
 46
-4.24264086
 79
     0
 53
-45.0
 43
0.0
 44
0.0
 45
4.24264086
 46
4.24264086
 79
     0
 47
0.775229
 98
        1
 10
0.0
 20
0.0
  0
LWPOLYLINE
  5
1AF
102
{ACAD_REACTORS
330
1B0
102
}
100
AcDbEntity
  8
Ech.1_5
 62
     7
  6
CONTINUOUS
370
    -3
100
AcDbPolyline
 90
        4
 70
     1
 43
0.0
 10
28086.25966039
 20
-2255.42313626
 10
28086.25966039
 20
-2267.42313626
 10
28447.65380249
 20
-2267.42313626
 10
28447.65380249
 20
-2255.42313626
  0
HATCH
  5
1B0
100
AcDbEntity
  8
Ech.1_5
 62
   190
  6
CONTINUOUS
100
AcDbHatch
 10
0.0
 20
0.0
 30
0.0
210
0.0
220
0.0
230
1.0
  2
CDWK10A
 70
     0
 71
     1
 91
        1
 92
        7
 72
     0
 73
     1
 93
        4
 10
28086.25966039
 20
-2255.42313626
 10
28086.25966039
 20
-2267.42313626
 10
28447.65380249
 20
-2267.42313626
 10
28447.65380249
 20
-2255.42313626
 97
        1
330
1AF
 75
     0
 76
     2
 52
0.0
 41
1.0
 77
     0
 78
     3
 53
45.0
 43
0.0
 44
0.0
 45
0.0
 46
42.00000167
 79
     0
 53
45.0
 43
0.0
 44
10.80000043
 45
0.0
 46
42.00000167
 79
     0
 53
45.0
 43
0.0
 44
21.60000086
 45
0.0
 46
42.00000167
 79
     0
 47
0.775229
 98
        1
 10
0.0
 20
0.0
  0
LWPOLYLINE
  5
1B1
100
AcDbEntity
  8
Ech.1_5
 62
   190
  6
CONTINUOUS
370
    -3
100
AcDbPolyline
 90
        4
 70
     0
 43
0.0
 10
28095.16901422
 20
-2362.42313626
 10
28142.16901422
 20
-2267.42313626
 10
28142.16901422
 20
-2362.42313626
 10
28095.16901422
 20
-2267.42313626
  0
LWPOLYLINE
  5
1B2
100
AcDbEntity
  8
Ech.1_5
 62
     5
  6
CONTINUOUS
370
    -3
100
AcDbPolyline
 90
        5
 70
     0
 43
0.0
 10
28142.16901422
 20
-2362.42313626
 10
28142.16901422
 20
-2267.42313626
 10
28095.16901422
 20
-2267.42313626
 10
28095.16901422
 20
-2362.42313626
 10
28142.16901422
 20
-2362.42313626
  0
LWPOLYLINE
  5
1B3
102
{ACAD_REACTORS
330
1B4
102
}
100
AcDbEntity
  8
Ech.1_5
 62
     7
  6
CONTINUOUS
370
    -3
100
AcDbPolyline
 90
        4
 70
     1
 43
0.0
 10
28135.16901422
 20
-2640.98667606
 10
28148.16901422
 20
-2640.98667606
 10
28148.16901422
 20
-2410.42319698
 10
28135.16901422
 20
-2410.42319698
  0
HATCH
  5
1B4
100
AcDbEntity
  8
Ech.1_5
 62
   190
  6
CONTINUOUS
100
AcDbHatch
 10
0.0
 20
0.0
 30
0.0
210
0.0
220
0.0
230
1.0
  2
DOTS2
 70
     0
 71
     1
 91
        1
 92
        7
 72
     0
 73
     1
 93
        4
 10
28135.16901422
 20
-2640.98667606
 10
28148.16901422
 20
-2640.98667606
 10
28148.16901422
 20
-2410.42319698
 10
28135.16901422
 20
-2410.42319698
 97
        1
330
1B3
 75
     0
 76
     2
 52
0.0
 41
4.72440952
 77
     0
 78
     1
 53
0.0
 43
0.0
 44
0.0
 45
3.75
 46
3.535
 79
     2
 49
0.0
 49
-3.535
 47
0.775229
 98
        1
 10
0.0
 20
0.0
  0
LWPOLYLINE
  5
1B5
100
AcDbEntity
  8
Ech.1_5
 62
   190
  6
CONTINUOUS
370
    -3
100
AcDbPolyline
 90
        6
 70
     0
 43
0.0
 10
28159.25966039
 20
-2640.98667606
 10
28039.19405158
 20
-2640.98830561
 10
28022.70854843
 20
-2658.96565402
 10
28036.81848845
 20
-2623.00995401
 10
28020.33213436
 20
-2640.98830561
 10
27845.02556341
 20
-2640.98751988
  0
LINE
  5
1B6
100
AcDbEntity
  8
Ech.1_5
 62
   190
  6
CONTINUOUS
370
    -3
100
AcDbLine
 10
28095.16901422
 20
-2487.42313626
 30
0.0
 11
28095.16901422
 21
-2640.98667606
 31
0.0
  0
LWPOLYLINE
  5
1B7
100
AcDbEntity
  8
Ech.1_5
 62
   190
370
    18
100
AcDbPolyline
 90
        4
 70
     0
 43
0.0
 10
28095.16901422
 20
-2442.42335312
 10
28135.16901422
 20
-2487.42335312
 10
28135.16901422
 20
-2442.42335312
 10
28095.16901422
 20
-2487.42335312
  0
LWPOLYLINE
  5
1B8
102
{ACAD_REACTORS
330
1B9
102
}
100
AcDbEntity
  8
Ech.1_5
 62
     7
  6
CONTINUOUS
370
    -3
100
AcDbPolyline
 90
        4
 70
     1
 43
0.0
 10
28135.16901422
 20
-2640.98667606
 10
28148.16901422
 20
-2640.98667606
 10
28148.16901422
 20
-2422.42335105
 10
28135.16901422
 20
-2422.42335105
  0
HATCH
  5
1B9
100
AcDbEntity
  8
Ech.1_5
 62
   190
  6
CONTINUOUS
100
AcDbHatch
 10
0.0
 20
0.0
 30
0.0
210
0.0
220
0.0
230
1.0
  2
DOTS2
 70
     0
 71
     1
 91
        1
 92
        7
 72
     0
 73
     1
 93
        4
 10
28135.16901422
 20
-2640.98667606
 10
28148.16901422
 20
-2640.98667606
 10
28148.16901422
 20
-2422.42335105
 10
28135.16901422
 20
-2422.42335105
 97
        1
330
1B8
 75
     0
 76
     2
 52
0.0
 41
4.72440952
 77
     0
 78
     1
 53
0.0
 43
0.0
 44
0.0
 45
3.75
 46
3.535
 79
     2
 49
0.0
 49
-3.535
 47
0.775229
 98
        1
 10
0.0
 20
0.0
  0
LWPOLYLINE
  5
1BA
100
AcDbEntity
  8
Ech.1_5
 62
   190
  6
CONTINUOUS
370
    -3
100
AcDbPolyline
 90
        6
 70
     0
 43
0.0
 10
28159.25966039
 20
-2640.98667606
 10
28039.19405158
 20
-2640.98830561
 10
28022.70854843
 20
-2658.96565402
 10
28036.81848845
 20
-2623.00995401
 10
28020.33213436
 20
-2640.98830561
 10
27829.22973642
 20
-2640.98751988
  0
LINE
  5
1BB
100
AcDbEntity
  8
Ech.1_5
 62
   190
  6
CONTINUOUS
370
    -3
100
AcDbLine
 10
28095.16901422
 20
-2487.42313626
 30
0.0
 11
28095.16901422
 21
-2640.98667606
 31
0.0
  0
LWPOLYLINE
  5
1BC
100
AcDbEntity
  8
Ech.1_5
 62
   190
370
    18
100
AcDbPolyline
 90
        4
 70
     0
 43
0.0
 10
28095.16901422
 20
-2442.42335312
 10
28135.16901422
 20
-2487.42335312
 10
28135.16901422
 20
-2442.42335312
 10
28095.16901422
 20
-2487.42335312
  0
LWPOLYLINE
  5
1BD
102
{ACAD_REACTORS
330
1BE
102
}
100
AcDbEntity
  8
Ech.1_5
 62
     7
  6
CONTINUOUS
370
    -3
100
AcDbPolyline
 90
        4
 70
     1
 43
0.0
 10
28095.16901422
 20
-2409.42319698
 10
28095.16901422
 20
-2422.42319698
 10
28456.5635833
 20
-2422.42319698
 10
28456.5635833
 20
-2409.42319698
  0
HATCH
  5
1BE
100
AcDbEntity
  8
Ech.1_5
 62
   190
  6
CONTINUOUS
100
AcDbHatch
 10
0.0
 20
0.0
 30
0.0
210
0.0
220
0.0
230
1.0
  2
DOTS2
 70
     0
 71
     1
 91
        1
 92
        7
 72
     0
 73
     1
 93
        4
 10
28095.16901422
 20
-2409.42319698
 10
28095.16901422
 20
-2422.42319698
 10
28456.5635833
 20
-2422.42319698
 10
28456.5635833
 20
-2409.42319698
 97
        1
330
1BD
 75
     0
 76
     2
 52
0.0
 41
4.72440952
 77
     0
 78
     1
 53
0.0
 43
0.0
 44
0.0
 45
3.75
 46
3.535
 79
     2
 49
0.0
 49
-3.535
 47
0.775229
 98
        1
 10
0.0
 20
0.0
  0
LWPOLYLINE
  5
1BF
100
AcDbEntity
  8
Ech.1_5
 62
   190
  6
CONTINUOUS
370
    -3
100
AcDbPolyline
 90
        6
 70
     0
 43
0.0
 10
28447.65335152
 20
-1914.20958102
 10
28447.65422946
 20
-2188.12535711
 10
28465.63157787
 20
-2204.61086027
 10
28429.67587786
 20
-2190.50092025
 10
28447.65422946
 20
-2206.98727433
 10
28447.65422946
 20
-2430.42330205
  0
LWPOLYLINE
  5
1C0
100
AcDbEntity
  8
Ech.1_5
 62
     5
  6
CONTINUOUS
370
    -3
100
AcDbPolyline
 90
        5
 70
     0
 43
0.0
 10
28084.25966039
 20
-2008.42313626
 10
28124.25966039
 20
-2008.42313626
 10
28124.25966039
 20
-2035.42313626
 10
28084.25966039
 20
-2035.42313626
 10
28084.25966039
 20
-2008.42313626
  0
LWPOLYLINE
  5
1C1
100
AcDbEntity
  8
Ech.1_5
 62
     5
100
AcDbPolyline
 90
        5
 70
     0
 43
0.0
 10
28095.16901422
 20
-2487.42335312
 10
28135.16901422
 20
-2487.42335312
 10
28135.16901422
 20
-2442.42335312
 10
28095.16901422
 20
-2442.42335312
 10
28095.16901422
 20
-2487.42335312
  0
LWPOLYLINE
  5
1C2
100
AcDbEntity
  8
Ech.1_5
 62
     5
  6
CONTINUOUS
370
    -3
100
AcDbPolyline
 90
        5
 70
     0
 43
0.0
 10
28084.25966039
 20
-2008.42313626
 10
28124.25966039
 20
-2008.42313626
 10
28124.25966039
 20
-2035.42313626
 10
28084.25966039
 20
-2035.42313626
 10
28084.25966039
 20
-2008.42313626
  0
LWPOLYLINE
  5
1C3
100
AcDbEntity
  8
Ech.1_5
 62
     5
100
AcDbPolyline
 90
        5
 70
     0
 43
0.0
 10
28095.16901422
 20
-2487.42335312
 10
28135.16901422
 20
-2487.42335312
 10
28135.16901422
 20
-2442.42335312
 10
28095.16901422
 20
-2442.42335312
 10
28095.16901422
 20
-2487.42335312
  0
LWPOLYLINE
  5
1C4
100
AcDbEntity
  8
Ech.1_5
100
AcDbPolyline
 90
        4
 70
     0
 43
0.0
 10
28456.5635833
 20
-2409.42319698
 10
28095.16901422
 20
-2409.42319698
 10
28095.16901422
 20
-2384.74102688
 10
28456.5635833
 20
-2384.74102688
  0
LINE
  5
1C5
100
AcDbEntity
  8
Ech.1_5
 62
   190
  6
CONTINUOUS
370
    -3
100
AcDbLine
 10
28095.16901422
 20
-2487.42313626
 30
0.0
 11
28095.16901422
 21
-2640.98667606
 31
0.0
  0
LINE
  5
1C6
100
AcDbEntity
  8
Ech.1_5
 62
   190
  6
CONTINUOUS
370
    -3
100
AcDbLine
 10
28095.16901422
 20
-2487.42313626
 30
0.0
 11
28095.16901422
 21
-2640.98667606
 31
0.0
  0
LWPOLYLINE
  5
1C7
100
AcDbEntity
  8
Ech.1_5
 62
   190
  6
CONTINUOUS
370
    -3
100
AcDbPolyline
 90
        4
 70
     0
 43
0.0
 10
27906.25963266
 20
-2035.42313626
 10
28086.25966039
 20
-2080.42313626
 10
28086.25966039
 20
-2035.42313626
 10
27906.25963266
 20
-2080.42313626
  0
LWPOLYLINE
  5
1C8
100
AcDbEntity
  8
Ech.1_5
 62
   190
  6
CONTINUOUS
370
    -3
100
AcDbPolyline
 90
        4
 70
     0
 43
0.0
 10
27906.25963266
 20
-2080.42313626
 10
28086.25966039
 20
-2125.42313626
 10
28086.25966039
 20
-2080.42313626
 10
27906.25963266
 20
-2125.42313626
  0
LWPOLYLINE
  5
1C9
100
AcDbEntity
  8
Ech.1_5
 62
   190
  6
CONTINUOUS
370
    -3
100
AcDbPolyline
 90
       42
 70
     0
 43
0.0
 10
27930.42629933
 20
-2125.42313626
 42
1.14028181
 10
27936.681107
 20
-2172.93300662
 10
28055.83818605
 20
-2150.4132659
 42
-1.30322619
 10
28055.83818605
 20
-2197.09967329
 10
27936.681107
 20
-2174.57993257
 42
1.30322619
 10
27936.681107
 20
-2221.26633996
 10
28055.83818605
 20
-2198.74659923
 42
-1.30322619
 10
28055.83818605
 20
-2245.43300662
 10
27936.681107
 20
-2222.9132659
 42
1.30322619
 10
27936.681107
 20
-2269.59967329
 10
28055.83818605
 20
-2247.07993257
 42
-1.30322619
 10
28055.83818605
 20
-2293.76633996
 10
27936.681107
 20
-2271.24659923
 42
1.30322619
 10
27936.681107
 20
-2317.93300662
 10
28055.83818605
 20
-2295.4132659
 42
-1.30322619
 10
28055.83818605
 20
-2342.09967329
 10
27936.681107
 20
-2319.57993257
 42
1.30322619
 10
27936.681107
 20
-2366.26633996
 10
28055.83818605
 20
-2343.74659923
 42
-1.30322619
 10
28055.83818605
 20
-2390.43300662
 10
27936.681107
 20
-2367.9132659
 42
1.30322619
 10
27936.681107
 20
-2414.59967329
 10
28055.83818605
 20
-2392.07993257
 42
-1.30322619
 10
28055.83818605
 20
-2438.76633996
 10
27936.681107
 20
-2416.24659923
 42
1.30322619
 10
27936.681107
 20
-2462.93300662
 10
28055.83818605
 20
-2440.4132659
 42
-1.30322619
 10
28055.83818605
 20
-2487.09967329
 10
27936.681107
 20
-2464.57993257
 42
1.30322619
 10
27936.681107
 20
-2511.26633996
 10
28055.83818605
 20
-2488.74659923
 42
-1.30322619
 10
28055.83818605
 20
-2535.43300662
 10
27936.681107
 20
-2512.9132659
 42
1.30322619
 10
27936.681107
 20
-2559.59967329
 10
28055.83818605
 20
-2537.07993257
 42
-1.30322619
 10
28055.83818605
 20
-2583.76633996
 10
27936.681107
 20
-2561.24659923
 42
1.30322619
 10
27936.681107
 20
-2607.93300662
 10
28055.83818605
 20
-2585.4132659
 42
-1.30322619
 10
28055.83818605
 20
-2632.09967329
 10
27936.681107
 20
-2609.57993257
 42
0.60380227
 10
27907.64504553
 20
-2640.98801402
  0
LWPOLYLINE
  5
1CA
100
AcDbEntity
  8
Ech.1_5
 62
     5
  6
CONTINUOUS
370
    -3
100
AcDbPolyline
 90
        5
 70
     0
 43
0.0
 10
28086.25966039
 20
-2080.42313626
 10
27906.25963266
 20
-2080.42313626
 10
27906.25963266
 20
-2125.42313626
 10
28086.25966039
 20
-2125.42313626
 10
28086.25966039
 20
-2080.42313626
  0
LWPOLYLINE
  5
1CB
100
AcDbEntity
  8
Ech.1_5
 62
     5
  6
CONTINUOUS
370
    -3
100
AcDbPolyline
 90
        5
 70
     0
 43
0.0
 10
27825.25963266
 20
-2008.42313626
 10
27865.25963266
 20
-2008.42313626
 10
27865.25963266
 20
-2035.42313626
 10
27825.25963266
 20
-2035.42313626
 10
27825.25963266
 20
-2008.42313626
  0
LWPOLYLINE
  5
1CC
100
AcDbEntity
  8
Ech.1_5
 62
     5
  6
CONTINUOUS
370
    -3
100
AcDbPolyline
 90
        5
 70
     0
 43
0.0
 10
28086.25966039
 20
-2035.42313626
 10
27906.25963266
 20
-2035.42313626
 10
27906.25963266
 20
-2080.42313626
 10
28086.25966039
 20
-2080.42313626
 10
28086.25966039
 20
-2035.42313626
  0
LWPOLYLINE
  5
1CD
100
AcDbEntity
  8
Ech.1_5
 62
     5
  6
CONTINUOUS
370
    -3
100
AcDbPolyline
 90
        5
 70
     0
 43
0.0
 10
28086.25966039
 20
-2080.42313626
 10
27906.25963266
 20
-2080.42313626
 10
27906.25963266
 20
-2125.42313626
 10
28086.25966039
 20
-2125.42313626
 10
28086.25966039
 20
-2080.42313626
  0
LWPOLYLINE
  5
1CE
100
AcDbEntity
  8
Ech.1_5
 62
     5
  6
CONTINUOUS
370
    -3
100
AcDbPolyline
 90
        5
 70
     0
 43
0.0
 10
27890.25963266
 20
-2255.42313626
 10
27825.25963266
 20
-2255.42313626
 10
27825.25963266
 20
-2035.42313626
 10
27890.25963266
 20
-2035.42313626
 10
27890.25963266
 20
-2255.42313626
  0
LWPOLYLINE
  5
1CF
100
AcDbEntity
  8
Ech.1_5
 62
     5
  6
CONTINUOUS
370
    -3
100
AcDbPolyline
 90
        5
 70
     0
 43
0.0
 10
28086.25966039
 20
-2035.42313626
 10
27906.25966039
 20
-2035.42313626
 10
27906.25966039
 20
-2080.42313626
 10
28086.25966039
 20
-2080.42313626
 10
28086.25966039
 20
-2035.42313626
  0
LWPOLYLINE
  5
1D0
100
AcDbEntity
  8
Ech.1_5
 62
   190
  6
CONTINUOUS
370
    -3
100
AcDbPolyline
 90
       38
 70
     0
 43
0.0
 10
27877.6601267
 20
-2342.52739396
 10
27878.28601974
 20
-2337.97498902
 10
27878.87861127
 20
-2333.39734705
 10
27879.4045998
 20
-2328.76923101
 10
27879.83068382
 20
-2324.06540388
 10
27880.12356183
 20
-2319.26062862
 10
27880.24993234
 20
-2314.3296682
 10
27880.17649382
 20
-2309.24728559
 10
27879.8699448
 20
-2303.98824375
 10
27879.29698375
 20
-2298.52730567
 10
27878.42430918
 20
-2292.83923429
 10
27877.21947945
 20
-2286.9132831
 10
27875.66119111
 20
-2280.92640917
 10
27873.73590916
 20
-2275.18648478
 10
27871.43025692
 20
-2270.00405081
 10
27868.73085774
 20
-2265.68964812
 10
27865.62433494
 20
-2262.5538176
 10
27862.09731188
 20
-2260.9071001
 10
27858.15542408
 20
-2261.01207966
 10
27853.95900008
 20
-2262.74113898
 10
27849.74366816
 20
-2265.77672284
 10
27845.74556013
 20
-2269.80000593
 10
27842.20080779
 20
-2274.49216295
 10
27839.34554296
 20
-2279.53436859
 10
27837.3918353
 20
-2284.62621316
 10
27836.29663844
 20
-2289.66253671
 10
27835.86329239
 20
-2294.6557454
 10
27835.89302787
 20
-2299.61985974
 10
27836.18707556
 20
-2304.56890026
 10
27836.54666616
 20
-2309.51688746
 10
27836.78465203
 20
-2314.47699534
 10
27836.84552513
 20
-2319.45280926
 10
27836.75709066
 20
-2324.44184605
 10
27836.54847153
 20
-2329.44152653
 10
27836.24879069
 20
-2334.44927155
 10
27835.88717106
 20
-2339.46250194
 10
27835.49273556
 20
-2344.47863855
 10
27835.44184971
 20
-2345.11478712
  0
LINE
  5
1D1
100
AcDbEntity
  8
Ech.1_5
 62
   190
  6
CONTINUOUS
370
    -3
100
AcDbLine
 10
27835.44184971
 20
-2345.11478712
 30
0.0
 11
27842.46995378
 21
-2331.01558933
 31
0.0
  0
LINE
  5
1D2
100
AcDbEntity
  8
Ech.1_5
 62
   190
  6
CONTINUOUS
370
    -3
100
AcDbLine
 10
27835.44184971
 20
-2345.11478712
 30
0.0
 11
27829.46280345
 21
-2331.29881398
 31
0.0
  0
LWPOLYLINE
  5
1D3
100
AcDbEntity
  8
Ech.1_5
 62
   190
  6
CONTINUOUS
370
    -3
100
AcDbPolyline
 90
       46
 70
     0
 43
0.0
 10
28142.16901422
 20
-2329.77604467
 42
-0.69451845
 10
28163.03650496
 20
-2344.62699485
 10
28150.30123335
 20
-2392.21914609
 42
1.30322619
 10
28176.70313939
 20
-2392.21914609
 10
28163.96786778
 20
-2344.62699485
 42
-1.30322619
 10
28190.36977382
 20
-2344.62699485
 10
28177.63450221
 20
-2392.21914609
 42
1.30322619
 10
28204.03640825
 20
-2392.21914609
 10
28191.30113664
 20
-2344.62699485
 42
-1.30322619
 10
28217.70304268
 20
-2344.62699485
 10
28204.96777107
 20
-2392.21914609
 42
1.30322619
 10
28231.36967711
 20
-2392.21914609
 10
28218.6344055
 20
-2344.62699485
 42
-1.30322619
 10
28245.03631154
 20
-2344.62699485
 10
28232.30103993
 20
-2392.21914609
 42
1.30322619
 10
28258.70294597
 20
-2392.21914609
 10
28245.96767436
 20
-2344.62699485
 42
-1.30322619
 10
28272.3695804
 20
-2344.62699485
 10
28259.63430879
 20
-2392.21914609
 42
1.30322619
 10
28286.03621483
 20
-2392.21914609
 10
28273.30094322
 20
-2344.62699485
 42
-1.30322619
 10
28299.70284926
 20
-2344.62699485
 10
28286.96757765
 20
-2392.21914609
 42
1.30322619
 10
28313.36948369
 20
-2392.21914609
 10
28300.63421208
 20
-2344.62699485
 42
-1.30322619
 10
28327.03611812
 20
-2344.62699485
 10
28314.30084651
 20
-2392.21914609
 42
1.30322619
 10
28340.70275255
 20
-2392.21914609
 10
28327.96748094
 20
-2344.62699485
 42
-1.30322619
 10
28354.36938697
 20
-2344.62699485
 10
28341.63411536
 20
-2392.21914609
 42
1.30322619
 10
28368.0360214
 20
-2392.21914609
 10
28355.30074979
 20
-2344.62699485
 42
-1.30322619
 10
28381.70265583
 20
-2344.62699485
 10
28368.96738422
 20
-2392.21914609
 42
1.30322619
 10
28395.36929026
 20
-2392.21914609
 10
28382.63401865
 20
-2344.62699485
 42
-1.30322619
 10
28409.03592469
 20
-2344.62699485
 10
28396.30065308
 20
-2392.21914609
 42
1.30322619
 10
28422.70255912
 20
-2392.21914609
 10
28409.96728751
 20
-2344.62699485
 42
-1.30322619
 10
28436.36919355
 20
-2344.62699485
 10
28423.63392194
 20
-2392.21914609
 42
1.30322619
 10
28450.03582798
 20
-2392.21914609
 10
28437.30055637
 20
-2344.62699485
 42
-0.64526997
 10
28456.5635833
 20
-2328.84120346
  0
LWPOLYLINE
  5
1D4
100
AcDbEntity
  8
Ech.1_5
 62
   190
  6
CONTINUOUS
370
    -3
100
AcDbPolyline
 90
       36
 70
     0
 43
0.0
 10
28447.65413802
 20
-2052.08980293
 42
1.14028181
 10
28414.88871019
 20
-2056.40346339
 10
28430.41956586
 20
-2114.44280913
 42
-1.30322619
 10
28398.22204352
 20
-2114.44280913
 10
28413.75289919
 20
-2056.40346339
 42
1.30322619
 10
28381.55537685
 20
-2056.40346339
 10
28397.08623253
 20
-2114.44280913
 42
-1.30322619
 10
28364.88871019
 20
-2114.44280913
 10
28380.41956586
 20
-2056.40346339
 42
1.30322619
 10
28348.22204352
 20
-2056.40346339
 10
28363.75289919
 20
-2114.44280913
 42
-1.30322619
 10
28331.55537685
 20
-2114.44280913
 10
28347.08623253
 20
-2056.40346339
 42
1.30322619
 10
28314.88871019
 20
-2056.40346339
 10
28330.41956586
 20
-2114.44280913
 42
-1.30322619
 10
28298.22204352
 20
-2114.44280913
 10
28313.75289919
 20
-2056.40346339
 42
1.30322619
 10
28281.55537685
 20
-2056.40346339
 10
28297.08623253
 20
-2114.44280913
 42
-1.30322619
 10
28264.88871019
 20
-2114.44280913
 10
28280.41956586
 20
-2056.40346339
 42
1.30322619
 10
28248.22204352
 20
-2056.40346339
 10
28263.75289919
 20
-2114.44280913
 42
-1.30322619
 10
28231.55537685
 20
-2114.44280913
 10
28247.08623253
 20
-2056.40346339
 42
1.30322619
 10
28214.88871019
 20
-2056.40346339
 10
28230.41956586
 20
-2114.44280913
 42
-1.30322619
 10
28198.22204352
 20
-2114.44280913
 10
28213.75289919
 20
-2056.40346339
 42
1.30322619
 10
28181.55537685
 20
-2056.40346339
 10
28197.08623253
 20
-2114.44280913
 42
-1.30322619
 10
28164.88871019
 20
-2114.44280913
 10
28180.41956586
 20
-2056.40346339
 42
1.30322619
 10
28148.22204352
 20
-2056.40346339
 10
28163.75289919
 20
-2114.44280913
 42
-1.04125161
 10
28131.25966039
 20
-2121.75628306
  0
LWPOLYLINE
  5
1D5
100
AcDbEntity
  8
Ech.1_5
 62
   190
  6
CONTINUOUS
370
    -3
100
AcDbPolyline
 90
       30
 70
     0
 43
0.0
 10
28131.25966039
 20
-2235.42313626
 42
1.14028181
 10
28170.57817379
 20
-2230.2467437
 10
28151.94114698
 20
-2160.59952882
 42
-1.30322619
 10
28190.57817379
 20
-2160.59952882
 10
28171.94114698
 20
-2230.2467437
 42
1.30322619
 10
28210.57817379
 20
-2230.2467437
 10
28191.94114698
 20
-2160.59952882
 42
-1.30322619
 10
28230.57817379
 20
-2160.59952882
 10
28211.94114698
 20
-2230.2467437
 42
1.30322619
 10
28250.57817379
 20
-2230.2467437
 10
28231.94114698
 20
-2160.59952882
 42
-1.30322619
 10
28270.57817379
 20
-2160.59952882
 10
28251.94114698
 20
-2230.2467437
 42
1.30322619
 10
28290.57817379
 20
-2230.2467437
 10
28271.94114698
 20
-2160.59952882
 42
-1.30322619
 10
28310.57817379
 20
-2160.59952882
 10
28291.94114698
 20
-2230.2467437
 42
1.30322619
 10
28330.57817379
 20
-2230.2467437
 10
28311.94114698
 20
-2160.59952882
 42
-1.30322619
 10
28350.57817379
 20
-2160.59952882
 10
28331.94114698
 20
-2230.2467437
 42
1.30322619
 10
28370.57817379
 20
-2230.2467437
 10
28351.94114698
 20
-2160.59952882
 42
-1.30322619
 10
28390.57817379
 20
-2160.59952882
 10
28371.94114698
 20
-2230.2467437
 42
1.30322619
 10
28410.57817379
 20
-2230.2467437
 10
28391.94114698
 20
-2160.59952882
 42
-1.30322619
 10
28430.57817379
 20
-2160.59952882
 10
28411.94114698
 20
-2230.2467437
 42
0.83952841
 10
28447.65422946
 20
-2246.8781834
  0
LWPOLYLINE
  5
1D6
100
AcDbEntity
  8
Ech.1_5
 62
     5
  6
CONTINUOUS
370
    -3
100
AcDbPolyline
 90
        5
 70
     0
 43
0.0
 10
28131.25966039
 20
-2255.42313626
 10
28086.25966039
 20
-2255.42313626
 10
28086.25966039
 20
-2035.42313626
 10
28131.25966039
 20
-2035.42313626
 10
28131.25966039
 20
-2255.42313626
  0
LINE
  5
1D7
100
AcDbEntity
  8
Ech.1_5
 62
   190
  6
CONTINUOUS
370
    -3
100
AcDbLine
 10
28131.25966039
 20
-2135.42313626
 30
0.0
 11
28447.6541014
 21
-2135.42313626
 31
0.0
  0
LWPOLYLINE
  5
1D8
100
AcDbEntity
  8
Ech.1_5
 62
   150
  6
CADWORK_22
370
    35
100
AcDbPolyline
 90
        3
 70
     0
 43
0.0
 38
2500.0
 10
28441.85387959
 20
-2035.42313626
 10
27821.45951184
 20
-2035.42313626
 10
27821.45951184
 20
-2089.67721456
  0
LWPOLYLINE
  5
1D9
100
AcDbEntity
  8
Ech.1_5
 62
   190
  6
CONTINUOUS
370
    -3
100
AcDbPolyline
 90
        5
 70
     0
 43
0.0
 10
27318.65122512
 20
-2850.66955982
 10
28673.65122512
 20
-2850.66955982
 10
28673.65122512
 20
-1865.66955982
 10
27318.65122512
 20
-1865.66955982
 10
27318.65122512
 20
-2850.66955982
  0
LINE
  5
1DA
100
AcDbEntity
  8
Ech.1_5
 48
0.2
100
AcDbLine
 10
28144.68999419
 20
-2385.49150772
 30
0.0
 11
28144.68999419
 21
-2295.47940284
 31
0.0
  0
LINE
  5
1DB
100
AcDbEntity
  8
Ech.1_5
  6
DASHEDX2
 48
0.2
100
AcDbLine
 10
28144.68999419
 20
-2385.49150772
 30
0.0
 11
28144.68999419
 21
-2409.42297376
 31
0.0
  0
LWPOLYLINE
  5
1DC
100
AcDbEntity
  8
Ech.1_5
 62
     1
  6
CADWORK_22
 48
-5.0
370
    35
100
AcDbPolyline
 90
        3
 70
     0
 43
0.0
 10
28096.80875211
 20
-2395.03322487
 10
28096.80875211
 20
-2268.17616641
 10
28203.47241468
 20
-2268.17616641
  0
LWPOLYLINE
  5
1DD
100
AcDbEntity
  8
Ech.1_5
 62
   190
100
AcDbPolyline
 90
        5
 70
     0
 43
0.0
 10
27406.33255228
 20
-2735.74795519
 10
27540.76133126
 20
-2735.74795519
 10
27540.76133126
 20
-2792.470914
 10
27406.33255228
 20
-2792.470914
 10
27406.33255228
 20
-2735.74795519
  0
LWPOLYLINE
  5
1DE
100
AcDbEntity
  8
Ech.1_5
 62
   190
100
AcDbPolyline
 90
        5
 70
     0
 43
0.0
 10
27424.61259806
 20
-2769.40476632
 10
27474.61259806
 20
-2769.40476632
 10
27474.61259806
 20
-2761.98962878
 10
27424.61259806
 20
-2761.98962878
 10
27424.61259806
 20
-2769.40476632
  0
LWPOLYLINE
  5
1DF
100
AcDbEntity
  8
Ech.1_5
 62
   190
100
AcDbPolyline
 90
        5
 70
     0
 43
0.0
 10
27474.61259806
 20
-2769.40476632
 10
27524.61259806
 20
-2769.40476632
 10
27524.61259806
 20
-2761.98962878
 10
27474.61259806
 20
-2761.98962878
 10
27474.61259806
 20
-2769.40476632
  0
LWPOLYLINE
  5
1E0
100
AcDbEntity
  8
Ech.1_5
 62
     3
370
    70
100
AcDbPolyline
 90
        4
 70
     0
 43
0.0
 10
27369.63920192
 20
-2693.11448439
 10
27356.6500685
 20
-2693.11448439
 10
27352.71533636
 20
-2687.43387143
 10
27339.23690636
 20
-2687.43387143
  0
LWPOLYLINE
  5
1E1
100
AcDbEntity
  8
Ech.1_5
 62
   150
  6
CADWORK_22
370
    35
100
AcDbPolyline
 90
        3
 70
     0
 43
0.0
 38
2500.0
 10
27889.95951184
 20
-2309.72178162
 10
27889.95951184
 20
-2038.30434579
 10
27992.56175741
 20
-2038.30434579
  0
LWPOLYLINE
  5
1E2
100
AcDbEntity
  8
Ech.1_5
 62
     3
370
    70
100
AcDbPolyline
 90
        4
 70
     0
 43
0.0
 10
28223.2168158
 20
-2269.06796705
 10
28210.22768238
 20
-2269.06796705
 10
28206.29295024
 20
-2274.74858001
 10
28192.81452024
 20
-2274.74858001
  0
LWPOLYLINE
  5
1E3
100
AcDbEntity
  8
Ech.1_5
 62
     3
370
    70
100
AcDbPolyline
 90
        4
 70
     0
 43
0.0
 10
28096.23375474
 20
-2414.73142915
 10
28096.23375474
 20
-2401.74229573
 10
28101.9143677
 20
-2397.80756359
 10
28101.9143677
 20
-2384.32913359
  0
LWPOLYLINE
  5
1E4
100
AcDbEntity
  8
Ech.1_5
 62
   190
  6
CONTINUOUS
370
    -3
100
AcDbPolyline
 90
        5
 70
     0
 43
0.0
 10
28086.25966039
 20
-2255.42313626
 10
28086.25966039
 20
-2267.42313626
 10
28447.65380249
 20
-2267.42313626
 10
28447.65380249
 20
-2255.42313626
 10
28086.25966039
 20
-2255.42313626
  0
LWPOLYLINE
  5
1E5
100
AcDbEntity
  8
Ech.1_5
 62
   190
  6
CONTINUOUS
370
    -3
100
AcDbPolyline
 90
        5
 70
     0
 43
0.0
 10
28142.16901422
 20
-2362.42313626
 10
28142.16901422
 20
-2267.42313626
 10
28095.16901422
 20
-2267.42313626
 10
28095.16901422
 20
-2362.42313626
 10
28142.16901422
 20
-2362.42313626
  0
LWPOLYLINE
  5
1E6
100
AcDbEntity
  8
Ech.1_5
 62
     7
  6
CONTINUOUS
370
    -3
100
AcDbPolyline
 90
        5
 70
     0
 43
0.0
 10
28131.25966039
 20
-2035.42313626
 10
28086.25966039
 20
-2035.42313626
 10
28086.25966039
 20
-2255.42313626
 10
28131.25966039
 20
-2255.42313626
 10
28131.25966039
 20
-2035.42313626
  0
LWPOLYLINE
  5
1E7
100
AcDbEntity
  8
Ech.1_5
 62
   190
  6
CONTINUOUS
370
    -3
100
AcDbPolyline
 90
        5
 70
     0
 43
0.0
 10
28124.25966039
 20
-2008.42313626
 10
28084.25966039
 20
-2008.42313626
 10
28084.25966039
 20
-2035.42313626
 10
28124.25966039
 20
-2035.42313626
 10
28124.25966039
 20
-2008.42313626
  0
LWPOLYLINE
  5
1E8
100
AcDbEntity
  8
Ech.1_5
 62
   190
  6
CONTINUOUS
370
    -3
100
AcDbPolyline
 90
        5
 70
     0
 43
0.0
 10
28124.25966039
 20
-2008.42313626
 10
28084.25966039
 20
-2008.42313626
 10
28084.25966039
 20
-2035.42313626
 10
28124.25966039
 20
-2035.42313626
 10
28124.25966039
 20
-2008.42313626
  0
LWPOLYLINE
  5
1E9
100
AcDbEntity
  8
Ech.1_5
 62
   253
  6
CONTINUOUS
370
    15
100
AcDbPolyline
 90
        5
 70
     0
 43
0.0
 10
28135.16901422
 20
-2640.98667606
 10
28148.16901422
 20
-2640.98667606
 10
28148.16901422
 20
-2410.42319698
 10
28135.16901422
 20
-2410.42319698
 10
28135.16901422
 20
-2640.98667606
  0
LWPOLYLINE
  5
1EA
100
AcDbEntity
  8
Ech.1_5
 62
   190
  6
CONTINUOUS
370
    -3
100
AcDbPolyline
 90
        5
 70
     0
 43
0.0
 10
28095.16901422
 20
-2487.42335312
 10
28135.16901422
 20
-2487.42335312
 10
28135.16901422
 20
-2442.42335312
 10
28095.16901422
 20
-2442.42335312
 10
28095.16901422
 20
-2487.42335312
  0
LWPOLYLINE
  5
1EB
100
AcDbEntity
  8
Ech.1_5
 62
   190
  6
CONTINUOUS
370
    -3
100
AcDbPolyline
 90
        5
 70
     0
 43
0.0
 10
28124.25966039
 20
-2008.42313626
 10
28084.25966039
 20
-2008.42313626
 10
28084.25966039
 20
-2035.42313626
 10
28124.25966039
 20
-2035.42313626
 10
28124.25966039
 20
-2008.42313626
  0
LWPOLYLINE
  5
1EC
100
AcDbEntity
  8
Ech.1_5
 62
   190
  6
CONTINUOUS
370
    -3
100
AcDbPolyline
 90
        5
 70
     0
 43
0.0
 10
28124.25966039
 20
-2008.42313626
 10
28084.25966039
 20
-2008.42313626
 10
28084.25966039
 20
-2035.42313626
 10
28124.25966039
 20
-2035.42313626
 10
28124.25966039
 20
-2008.42313626
  0
LWPOLYLINE
  5
1ED
100
AcDbEntity
  8
Ech.1_5
 62
   253
  6
CONTINUOUS
370
    15
100
AcDbPolyline
 90
        5
 70
     0
 43
0.0
 10
28135.16901422
 20
-2640.98667606
 10
28148.16901422
 20
-2640.98667606
 10
28148.16901422
 20
-2422.42335105
 10
28135.16901422
 20
-2422.42335105
 10
28135.16901422
 20
-2640.98667606
  0
LWPOLYLINE
  5
1EE
100
AcDbEntity
  8
Ech.1_5
 62
   190
  6
CONTINUOUS
370
    -3
100
AcDbPolyline
 90
        5
 70
     0
 43
0.0
 10
28095.16901422
 20
-2487.42335312
 10
28135.16901422
 20
-2487.42335312
 10
28135.16901422
 20
-2442.42335312
 10
28095.16901422
 20
-2442.42335312
 10
28095.16901422
 20
-2487.42335312
  0
LWPOLYLINE
  5
1EF
100
AcDbEntity
  8
Ech.1_5
 62
   190
  6
CONTINUOUS
370
    -3
100
AcDbPolyline
 90
        5
 70
     0
 43
0.0
 10
28095.16901422
 20
-2409.42335948
 10
28095.16901422
 20
-2422.42335948
 10
28456.5635833
 20
-2422.42330205
 10
28456.5635833
 20
-2409.42330205
 10
28095.16901422
 20
-2409.42335948
  0
LWPOLYLINE
  5
1F0
100
AcDbEntity
  8
Ech.1_5
 62
   190
  6
CONTINUOUS
370
    -3
100
AcDbPolyline
 90
        5
 70
     0
 43
0.0
 10
28131.25966039
 20
-2035.42313626
 10
28086.25966039
 20
-2035.42313626
 10
28086.25966039
 20
-2255.42313626
 10
28131.25966039
 20
-2255.42313626
 10
28131.25966039
 20
-2035.42313626
  0
LWPOLYLINE
  5
1F1
100
AcDbEntity
  8
Ech.1_5
 62
   190
  6
CONTINUOUS
370
    -3
100
AcDbPolyline
 90
        9
 70
     0
 43
0.0
 10
28429.67587786
 20
-2190.50092025
 10
28465.63157787
 20
-2204.61086027
 10
28447.65422946
 20
-2188.12535711
 10
28447.65385841
 20
-2035.42313626
 10
28131.25966039
 20
-2035.42313626
 10
28131.25966039
 20
-2255.42313626
 10
28447.65422946
 20
-2255.42313626
 10
28447.65422946
 20
-2206.98727433
 10
28429.67587786
 20
-2190.50092025
  0
LWPOLYLINE
  5
1F2
100
AcDbEntity
  8
Ech.1_5
 62
   190
  6
CONTINUOUS
370
    -3
100
AcDbPolyline
 90
        5
 70
     0
 43
0.0
 10
27861.45951184
 20
-2008.42313626
 10
27821.45951184
 20
-2008.42313626
 10
27821.45951184
 20
-2035.42313626
 10
27861.45951184
 20
-2035.42313626
 10
27861.45951184
 20
-2008.42313626
  0
LWPOLYLINE
  5
1F3
100
AcDbEntity
  8
Ech.1_5
 62
   190
  6
CONTINUOUS
370
    -3
100
AcDbPolyline
 90
        5
 70
     0
 43
0.0
 10
27861.45951184
 20
-2008.42313626
 10
27821.45951184
 20
-2008.42313626
 10
27821.45951184
 20
-2035.42313626
 10
27861.45951184
 20
-2035.42313626
 10
27861.45951184
 20
-2008.42313626
  0
LWPOLYLINE
  5
1F4
100
AcDbEntity
  8
Ech.1_5
 62
   190
  6
CONTINUOUS
370
    -3
100
AcDbPolyline
 90
       10
 70
     0
 43
0.0
 10
28086.25966039
 20
-2561.42313431
 10
28086.25966039
 20
-2125.42313626
 10
27906.25963266
 20
-2125.42313626
 10
27906.25963266
 20
-2640.98801402
 10
28020.33213436
 20
-2640.98830561
 10
28036.81848845
 20
-2623.00995401
 10
28022.70854843
 20
-2658.96565402
 10
28039.19405158
 20
-2640.98830561
 10
28086.25966039
 20
-2640.98667606
 10
28086.25966039
 20
-2561.42313431
  0
LWPOLYLINE
  5
1F5
100
AcDbEntity
  8
Ech.1_5
 62
     7
  6
CONTINUOUS
370
    -3
100
AcDbPolyline
 90
       13
 70
     0
 43
0.0
 10
27825.25963266
 20
-2035.42313626
 10
27825.25963266
 20
-2008.42313626
 10
27825.25963266
 20
-1981.49023542
 10
27803.25963266
 20
-1981.49023542
 10
27803.25963266
 20
-2313.55267541
 42
0.44196403
 10
27816.12365776
 20
-2326.41670052
 10
27825.25963266
 20
-2326.41670052
 10
27825.25963266
 20
-2316.41670052
 10
27820.25963266
 20
-2313.91670052
 10
27825.25963266
 20
-2311.41670052
 10
27825.25963266
 20
-2300.983892
 10
27825.25963266
 20
-2146.85537729
 10
27825.25963266
 20
-2035.42313626
  0
LWPOLYLINE
  5
1F6
100
AcDbEntity
  8
Ech.1_5
 62
     7
  6
CONTINUOUS
370
    -3
100
AcDbPolyline
 90
        6
 70
     0
 43
0.0
 10
28447.65335152
 20
-1981.42313626
 10
27825.25963266
 20
-1981.42313626
 10
27825.25963266
 20
-2008.42313626
 10
27874.25963266
 20
-2008.42313626
 10
28447.65335152
 20
-2008.42313626
 10
28447.65335152
 20
-1981.42313626
  0
LWPOLYLINE
  5
1F7
100
AcDbEntity
  8
Ech.1_5
 62
   190
  6
CONTINUOUS
370
    -3
100
AcDbPolyline
 90
        5
 70
     0
 43
0.0
 10
27865.25963266
 20
-2008.42313626
 10
27825.25963266
 20
-2008.42313626
 10
27825.25963266
 20
-2035.42313626
 10
27865.25963266
 20
-2035.42313626
 10
27865.25963266
 20
-2008.42313626
  0
LWPOLYLINE
  5
1F8
100
AcDbEntity
  8
Ech.1_5
 62
   190
  6
CONTINUOUS
370
    -3
100
AcDbPolyline
 90
        5
 70
     0
 43
0.0
 10
27865.25963266
 20
-2008.42313626
 10
27825.25963266
 20
-2008.42313626
 10
27825.25963266
 20
-2035.42313626
 10
27865.25963266
 20
-2035.42313626
 10
27865.25963266
 20
-2008.42313626
  0
LWPOLYLINE
  5
1F9
100
AcDbEntity
  8
Ech.1_5
 62
     7
  6
CONTINUOUS
370
    -3
100
AcDbPolyline
 90
        6
 70
     0
 43
0.0
 10
28086.25966039
 20
-2035.42313626
 10
27906.25963266
 20
-2035.42313626
 10
27906.25966039
 20
-2080.42313626
 10
28086.25966039
 20
-2080.42313626
 10
28086.25966039
 20
-2036.48284504
 10
28086.25966039
 20
-2035.42313626
  0
LWPOLYLINE
  5
1FA
100
AcDbEntity
  8
Ech.1_5
 62
     7
  6
CONTINUOUS
370
    -3
100
AcDbPolyline
 90
        6
 70
     0
 43
0.0
 10
28086.25966039
 20
-2080.42313626
 10
27906.25963266
 20
-2080.42313626
 10
27906.25966039
 20
-2125.42313626
 10
28086.25966039
 20
-2125.42313626
 10
28086.25966039
 20
-2081.48284504
 10
28086.25966039
 20
-2080.42313626
  0
LWPOLYLINE
  5
1FB
100
AcDbEntity
  8
Ech.1_5
 62
   190
  6
CONTINUOUS
370
    -3
100
AcDbPolyline
 90
       15
 70
     0
 43
0.0
 10
27877.25657997
 20
-1952.26705153
 10
27865.47958311
 20
-1952.26705153
 10
27860.10063865
 20
-1964.32239085
 10
27846.44059078
 20
-1964.32239085
 10
27846.44059078
 20
-1952.26705153
 10
27834.66359392
 20
-1952.26705153
 10
27834.66359392
 20
-1964.32239085
 10
27790.2352884
 20
-1964.32239085
 10
27780.73868294
 20
-1973.81899631
 10
27780.73868294
 20
-2098.06469457
 10
27796.46509266
 20
-2098.06469457
 10
27796.46509266
 20
-1984.47284415
 10
27802.11554595
 20
-1978.82239085
 10
27871.87763551
 20
-1978.82239085
 10
27877.25657997
 20
-1952.26705153
  0
LWPOLYLINE
  5
1FC
100
AcDbEntity
  8
Ech.1_5
 62
   190
  6
CONTINUOUS
370
    -3
100
AcDbPolyline
 90
       22
 70
     0
 43
0.0
 10
27856.79797955
 20
-1922.09055022
 42
-0.5436568
 10
27978.01224711
 20
-1967.08742507
 42
0.35131149
 10
27992.65258698
 20
-1978.82239085
 10
28090.94506972
 20
-1978.82239085
 10
28096.32401419
 20
-1952.26705153
 10
28084.54701733
 20
-1952.26705153
 10
28079.16807286
 20
-1964.32239085
 10
28065.50802499
 20
-1964.32239085
 10
28065.50802499
 20
-1952.26705153
 10
28053.73102813
 20
-1952.26705153
 10
28053.73102813
 20
-1964.32239085
 10
27995.92416607
 20
-1964.32239085
 42
-0.37555118
 10
27988.4911812
 20
-1957.8227587
 42
0.74707677
 10
27816.78713898
 20
-1959.10702443
 10
27813.79188094
 20
-1959.10702443
 10
27813.79188094
 20
-1960.8258963
 10
27831.18489851
 20
-1960.8258963
 42
-0.03525917
 10
27833.09461373
 20
-1950.8590044
 10
27847.67072255
 20
-1950.8590044
 10
27847.67072255
 20
-1960.8258963
 10
27853.06707959
 20
-1960.8258963
 10
27856.79797955
 20
-1922.09055022
  0
LWPOLYLINE
  5
1FD
100
AcDbEntity
  8
Ech.1_5
 62
   190
  6
CONTINUOUS
370
    -3
100
AcDbPolyline
 90
       22
 70
     0
 43
0.0
 10
28197.07968132
 20
-1967.08742507
 42
0.35131149
 10
28211.72002119
 20
-1978.82239085
 10
28310.01250394
 20
-1978.82239085
 10
28315.3914484
 20
-1952.26705153
 10
28303.61445154
 20
-1952.26705153
 10
28298.23550708
 20
-1964.32239085
 10
28284.57545921
 20
-1964.32239085
 10
28284.57545921
 20
-1952.26705153
 10
28272.79846235
 20
-1952.26705153
 10
28272.79846235
 20
-1964.32239085
 10
28214.99160029
 20
-1964.32239085
 42
-0.37555118
 10
28207.55861541
 20
-1957.8227587
 42
0.74707677
 10
28035.85457319
 20
-1959.10702443
 10
28032.85931515
 20
-1959.10702443
 10
28032.85931515
 20
-1960.8258963
 10
28050.25233272
 20
-1960.8258963
 42
-0.03525917
 10
28052.16204794
 20
-1950.8590044
 10
28066.73815677
 20
-1950.8590044
 10
28066.73815677
 20
-1960.8258963
 10
28072.1345138
 20
-1960.8258963
 10
28075.86541376
 20
-1922.09055022
 42
-0.5436568
 10
28197.07968132
 20
-1967.08742507
  0
LWPOLYLINE
  5
1FE
100
AcDbEntity
  8
Ech.1_5
 62
   190
  6
CONTINUOUS
370
    -3
100
AcDbPolyline
 90
       16
 70
     0
 43
0.0
 10
28430.78745541
 20
-1978.82239085
 10
28447.65335152
 20
-1978.82239085
 10
28447.65335152
 20
-1964.32239085
 10
28434.0590345
 20
-1964.32239085
 42
-0.37555118
 10
28426.62604962
 20
-1957.8227587
 42
0.74707677
 10
28254.9220074
 20
-1959.10702443
 10
28251.92674936
 20
-1959.10702443
 10
28251.92674936
 20
-1960.8258963
 10
28269.31976693
 20
-1960.8258963
 42
-0.03525917
 10
28271.22948215
 20
-1950.8590044
 10
28285.80559098
 20
-1950.8590044
 10
28285.80559098
 20
-1960.8258963
 10
28291.20194802
 20
-1960.8258963
 10
28294.93284797
 20
-1922.09055022
 42
-0.5436568
 10
28416.14711554
 20
-1967.08742507
 42
0.35131149
 10
28430.78745541
 20
-1978.82239085
  0
LWPOLYLINE
  5
1FF
100
AcDbEntity
  8
Ech.1_5
 62
     7
  6
CONTINUOUS
370
    -3
100
AcDbPolyline
 90
        5
 70
     0
 43
0.0
 10
27890.25963266
 20
-2035.42313626
 10
27825.25963266
 20
-2035.42313626
 10
27825.25963266
 20
-2255.42313626
 10
27890.25963266
 20
-2255.42313626
 10
27890.25963266
 20
-2035.42313626
  0
LWPOLYLINE
  5
200
100
AcDbEntity
  8
Ech.1_5
 62
   190
  6
CONTINUOUS
370
    -3
100
AcDbPolyline
 90
        5
 70
     0
 43
0.0
 10
27890.25963266
 20
-2035.42313626
 10
27825.25963266
 20
-2035.42313626
 10
27825.25963266
 20
-2255.42313626
 10
27890.25963266
 20
-2255.42313626
 10
27890.25963266
 20
-2035.42313626
  0
LWPOLYLINE
  5
201
100
AcDbEntity
  8
Ech.1_5
 62
     7
  6
CONTINUOUS
370
    -3
100
AcDbPolyline
 90
       27
 70
     0
 43
0.0
 10
27853.33289472
 20
-2521.64735198
 10
27853.45951184
 20
-2521.31287818
 10
27853.45951184
 20
-2493.92941409
 10
27860.45951184
 20
-2493.92941409
 10
27860.45951184
 20
-2502.92941409
 10
27866.45951184
 20
-2502.92941409
 10
27866.45951184
 20
-2475.92941409
 10
27862.45951184
 20
-2471.92941409
 10
27866.45951184
 20
-2467.92941409
 10
27866.45951184
 20
-2403.92941409
 10
27862.45951184
 20
-2399.92941409
 10
27866.45951184
 20
-2395.92941409
 10
27866.45951184
 20
-2360.92941409
 10
27859.45951184
 20
-2360.92941409
 10
27859.45951184
 20
-2354.92941409
 10
27856.95951184
 20
-2349.92941409
 10
27854.45951184
 20
-2354.92941409
 10
27854.45951184
 20
-2385.85834628
 10
27854.0789095
 20
-2387.77176344
 10
27847.92397793
 20
-2394.464948
 10
27846.45951184
 20
-2398.0004819
 10
27846.45951184
 20
-2517.08722632
 10
27847.41983423
 20
-2518.71709496
 10
27852.15595509
 20
-2521.68844489
 10
27852.56795646
 20
-2521.92941409
 10
27852.88177395
 20
-2521.92941409
 10
27853.33289472
 20
-2521.64735198
  0
LWPOLYLINE
  5
202
100
AcDbEntity
  8
Ech.1_5
 62
   190
  6
CONTINUOUS
370
    -3
100
AcDbPolyline
 90
        6
 70
     0
 43
0.0
 10
27891.45951184
 20
-2275.42313626
 10
27887.46147044
 20
-2275.42313626
 10
27866.45951184
 20
-2275.42313626
 10
27866.45943315
 20
-2640.987754
 10
27891.46044182
 20
-2640.987754
 10
27891.45951184
 20
-2275.42313626
  0
LWPOLYLINE
  5
203
100
AcDbEntity
  8
Ech.1_5
 62
     7
  6
CONTINUOUS
370
    -3
100
AcDbPolyline
 90
       17
 70
     0
 43
0.0
 10
27853.45951184
 20
-2376.31287818
 10
27853.45951184
 20
-2348.92941409
 10
27860.45951184
 20
-2348.92941409
 10
27860.45951184
 20
-2357.92941409
 10
27866.45951184
 20
-2357.92941409
 10
27866.45951184
 20
-2330.92941409
 10
27862.45951184
 20
-2326.92941409
 10
27866.45951184
 20
-2322.92941409
 10
27866.45951184
 20
-2275.42313626
 10
27846.45951184
 20
-2275.42313626
 10
27846.45951184
 20
-2372.08722632
 10
27847.41983423
 20
-2373.71709496
 10
27852.15595509
 20
-2376.68844489
 10
27852.56795646
 20
-2376.92941409
 10
27852.88177395
 20
-2376.92941409
 10
27853.33289472
 20
-2376.64735198
 10
27853.45951184
 20
-2376.31287818
  0
LWPOLYLINE
  5
204
100
AcDbEntity
  8
Ech.1_5
 62
     7
  6
CONTINUOUS
370
    -3
100
AcDbPolyline
 90
       22
 70
     0
 43
0.0
 10
27862.45951184
 20
-2616.92941409
 10
27866.45951184
 20
-2612.92941409
 10
27866.45951184
 20
-2548.92941409
 10
27862.45951184
 20
-2544.92941409
 10
27866.45951184
 20
-2540.92941409
 10
27866.45951184
 20
-2505.92941409
 10
27859.45951184
 20
-2505.92941409
 10
27859.45951184
 20
-2499.92941409
 10
27856.95951184
 20
-2494.92941409
 10
27854.45951184
 20
-2499.92941409
 10
27854.45951184
 20
-2530.85834628
 10
27854.0789095
 20
-2532.77176344
 10
27847.92397793
 20
-2539.464948
 10
27846.45951184
 20
-2543.0004819
 10
27846.45951184
 20
-2640.987754
 10
27853.45951184
 20
-2640.987754
 10
27853.45951184
 20
-2638.92941409
 10
27860.45951184
 20
-2638.92941409
 10
27860.45951184
 20
-2640.987754
 10
27866.45951184
 20
-2640.987754
 10
27866.45951184
 20
-2620.92941409
 10
27862.45951184
 20
-2616.92941409
  0
LWPOLYLINE
  5
205
100
AcDbEntity
  8
Ech.1_5
 62
   190
  6
CONTINUOUS
370
    -3
100
AcDbPolyline
 90
        5
 70
     0
 43
0.0
 10
28142.16901422
 20
-2327.42314028
 10
28142.16901422
 20
-2409.42314028
 10
28456.5635833
 20
-2409.42316718
 10
28456.5635833
 20
-2327.42316718
 10
28142.16901422
 20
-2327.42314028
  0
LWPOLYLINE
  5
206
100
AcDbEntity
  8
Ech.1_5
 62
   190
  6
CONTINUOUS
370
     5
100
AcDbPolyline
 90
        5
 70
     0
 43
0.0
 10
27424.61259806
 20
-2769.40476632
 10
27474.61259806
 20
-2769.40476632
 10
27474.61259806
 20
-2761.98962878
 10
27424.61259806
 20
-2761.98962878
 10
27424.61259806
 20
-2769.40476632
  0
TEXT
  5
207
100
AcDbEntity
  8
Ech.1_5
 62
   190
100
AcDbText
 10
27435.90689069
 20
-2752.4036257
 30
0.0
 40
8.00000012
  1
Echelle en mm
  7
ARIAL
 50
0.0
 41
1.0
 51
0.0
100
AcDbText
  0
TEXT
  5
208
100
AcDbEntity
  8
Ech.1_5
 62
   190
100
AcDbText
 10
27421.92630594
 20
-2780.61346123
 30
0.0
 40
8.00000012
  1
0
  7
ARIAL
 50
0.0
 41
1.0
 51
0.0
100
AcDbText
  0
TEXT
  5
209
100
AcDbEntity
  8
Ech.1_5
 62
   190
100
AcDbText
 10
27508.52336383
 20
-2780.61346123
 30
0.0
 40
8.00000012
  1
100
  7
ARIAL
 50
0.0
 41
1.0
 51
0.0
100
AcDbText
  0
TEXT
  5
20A
100
AcDbEntity
  8
Ech.1_5
 62
   190
100
AcDbText
 10
27469.78293227
 20
-2780.61346123
 30
0.0
 40
8.00000012
  1
50
  7
ARIAL
 50
0.0
 41
1.0
 51
0.0
100
AcDbText
  0
INSERT
  5
20B
100
AcDbEntity
  8
Ech.1_5
 62
     0
370
    -3
100
AcDbBlockReference
  2
*D75
 10
0.0
 20
0.0
 30
0.0
  0
INSERT
  5
20C
100
AcDbEntity
  8
Ech.1_5
 62
     0
370
    -3
100
AcDbBlockReference
  2
*D76
 10
0.0
 20
0.0
 30
0.0
  0
ENDSEC
  0
SECTION
  2
OBJECTS
  0
DICTIONARY
  5
1
100
AcDbDictionary
  3
ACAD_GROUP
350
2
  3
ACAD_MLINESTYLE
350
3
  0
DICTIONARY
  5
2
102
{CDWK_REACTORS
330
1
102
}
100
AcDbDictionary
  0
DICTIONARY
  5
3
102
{CDWK_REACTORS
330
1
102
}
100
AcDbDictionary
  3
STANDARD
350
4
  0
MLINESTYLE
  5
4
102
{CDWK_REACTORS
330
3
102
}
100
AcDbMlineStyle
  2
STANDARD
 70
     0
  3

 62
     0
 51
90.0
 52
90.0
 71
     2
 49
0.5
 62
   256
  6
BYLAYER
 49
-0.5
 62
   256
  6
BYLAYER
  0
ENDSEC
  0
EOF
