  0
SECTION
  2
HEADER
  9
$ACADVER
  1
AC1014
  9
$DWGCODEPAGE
  3
ANSI_1252
  9
$INSBASE
 10
0.0
 20
0.0
 30
0.0
  9
$EXTMIN
 10
25540.47124057
 20
-2850.66955982
  9
$EXTMAX
 10
26895.47124057
 20
-1865.66955982
  9
$LIMMIN
 10
25540.47124057
 20
-2850.66955982
  9
$LIMMAX
 10
26895.47124057
 20
-1865.66955982
  9
$ORTHOMODE
 70
     0
  9
$REGENMODE
 70
     1
  9
$FILLMODE
 70
     1
  9
$QTEXTMODE
 70
     0
  9
$MIRRTEXT
 70
     1
  9
$DRAGMODE
 70
     2
  9
$LTSCALE
 40
5.0
  9
$OSMODE
 70
     0
  9
$ATTMODE
 70
     1
  9
$TEXTSIZE
 40
3.5
  9
$TRACEWID
 40
1.0
  9
$TEXTSTYLE
  7
STANDARD
  9
$CLAYER
  8
0
  9
$CELTYPE
  6
BYLAYER
  9
$CECOLOR
 62
   256
  9
$DIMSCALE
 40
1.0
  9
$DIMASZ
 40
2.0
  9
$DIMEXO
 40
5.0
  9
$DIMDLI
 40
10.0
  9
$DIMRND
 40
0.0
  9
$DIMDLE
 40
2.0
  9
$DIMEXE
 40
2.0
  9
$DIMTP
 40
0.0
  9
$DIMTM
 40
0.0
  9
$DIMTXT
 40
2.5
  9
$DIMCEN
 40
1.5
  9
$DIMTSZ
 40
0.0
  9
$DIMTOL
 70
     0
  9
$DIMLIM
 70
     0
  9
$DIMTIH
 70
     1
  9
$DIMTOH
 70
     0
  9
$DIMSE1
 70
     0
  9
$DIMSE2
 70
     0
  9
$DIMTAD
 70
     1
  9
$DIMZIN
 70
     8
  9
$DIMBLK
  1

  9
$DIMASO
 70
     1
  9
$DIMSHO
 70
     1
  9
$DIMPOST
  1

  9
$DIMAPOST
  1

  9
$DIMALT
 70
     0
  9
$DIMALTD
 70
     2
  9
$DIMALTF
 40
25.4
  9
$DIMLFAC
 40
1.0
  9
$DIMTOFL
 70
     0
  9
$DIMTVP
 40
0.0
  9
$DIMTIX
 70
     0
  9
$DIMSOXD
 70
     0
  9
$DIMSAH
 70
     0
  9
$DIMBLK1
  1

  9
$DIMBLK2
  1

  9
$DIMSTYLE
  2
*UNNAMED
  9
$DIMCLRD
 70
   190
  9
$DIMCLRE
 70
   190
  9
$DIMCLRT
 70
   190
  9
$DIMTFAC
 40
1.0
  9
$DIMGAP
 40
0.09
  9
$DIMUNIT
 70
     2
  9
$LUNITS
 70
     2
  9
$LUPREC
 70
     6
  9
$AXISMODE
 70
     0
  9
$AXISUNIT
 10
0.0
 20
0.0
  9
$SKETCHINC
 40
0.1
  9
$FILLETRAD
 40
0.0
  9
$AUNITS
 70
     0
  9
$AUPREC
 70
     0
  9
$MENU
  1
ACAD
  9
$ELEVATION
 40
0.0
  9
$PELEVATION
 40
0.0
  9
$THICKNESS
 40
0.0
  9
$LIMCHECK
 70
     0
  9
$BLIPMODE
 70
     1
  9
$CHAMFERA
 40
0.0
  9
$CHAMFERB
 40
0.0
  9
$SKPOLY
 70
     1
  9
$TDCREATE
 40
2457732.0000000000
  9
$TDUPDATE
 40
2457732.0000000000
  9
$TDINDWG
 40
0.0
  9
$TDUSRTIMER
 40
0.0
  9
$USRTIMER
 70
     1
  9
$ANGBASE
 50
0.0
  9
$ANGDIR
 70
     0
  9
$PDMODE
 70
     0
  9
$PDSIZE
 40
0.0
  9
$PLINEWID
 40
0.0
  9
$COORDS
 70
     2
  9
$SPLFRAME
 70
     0
  9
$SPLINETYPE
 70
     6
  9
$SPLINESEGS
 70
     8
  9
$ATTDIA
 70
     1
  9
$ATTREQ
 70
     1
  9
$HANDLING
 70
     1
  9
$HANDSEED
  5
     258
  9
$SURFTAB1
 70
     6
  9
$SURFTAB2
 70
     6
  9
$SURFTYPE
 70
     6
  9
$SURFU
 70
     6
  9
$SURFV
 70
     6
  9
$UCSNAME
  2

  9
$UCSORG
 10
0.0
 20
0.0
 30
0.0
  9
$UCSXDIR
 10
1.0
 20
0.0
 30
0.0
  9
$UCSYDIR
 10
0.0
 20
1.0
 30
0.0
  9
$PUCSNAME
  2

  9
$PUCSORG
 10
0.0
 20
0.0
 30
0.0
  9
$PUCSXDIR
 10
1.0
 20
0.0
 30
0.0
  9
$PUCSYDIR
 10
0.0
 20
1.0
 30
0.0
  9
$USERI1
 70
     0
  9
$USERI2
 70
     0
  9
$USERI3
 70
     0
  9
$USERI4
 70
     0
  9
$USERI5
 70
     0
  9
$USERR1
 40
0.0
  9
$USERR2
 40
0.0
  9
$USERR3
 40
0.0
  9
$USERR4
 40
0.0
  9
$USERR5
 40
0.0
  9
$WORLDVIEW
 70
     1
  9
$SHADEDGE
 70
     3
  9
$SHADEDIF
 70
    70
  9
$TILEMODE
 70
     1
  9
$MAXACTVP
 70
    16
  9
$PINSBASE
 10
0.0
 20
0.0
 30
0.0
  9
$PLIMCHECK
 70
     0
  9
$PEXTMIN
 10
1.0000000000000E+20
 20
1.0000000000000E+20
 30
1.0000000000000E+20
  9
$PEXTMAX
 10
-1.0000000000000E+20
 20
-1.0000000000000E+20
 30
-1.0000000000000E+20
  9
$PLIMMIN
 10
0.0
 20
0.0
  9
$UNITMODE
 70
     0
  9
$VISRETAIN
 70
     0
  9
$MEASUREMENT
 70
     1
  0
ENDSEC
  0
SECTION
  2
TABLES
  0
TABLE
  2
VPORT
  5
132
100
AcDbSymbolTable
 70
     1
  0
ENDTAB
  0
TABLE
  2
STYLE
  5
133
100
AcDbSymbolTable
 70
     3
  0
STYLE
  5
134
100
AcDbSymbolTableRecord
100
AcDbTextStyleTableRecord
  2
STANDARD
 70
     0
 40
0.0
 41
1.0
 50
0.0
 71
     0
 42
3.5
  3
MONOTXT
  4

  0
STYLE
  5
135
100
AcDbSymbolTableRecord
100
AcDbTextStyleTableRecord
  2
SYMAP
 70
     0
 40
0.0
 41
1.0
 50
0.0
 71
     0
 42
3.5
  3
SYMAP
  4

  0
STYLE
  5
136
100
AcDbSymbolTableRecord
100
AcDbTextStyleTableRecord
  2
CADWORK1
 70
     0
 40
0.0
 41
1.0
 50
0.0
 71
     0
 42
3.5
  3
MONOTXT
  4

  0
STYLE
  5
137
100
AcDbSymbolTableRecord
100
AcDbTextStyleTableRecord
  2
MONOTXT
 70
     0
 40
0.0
 41
1.0
 50
0.0
 71
     0
 42
3.5
  3
MONOTXT
  4

  0
STYLE
  5
138
100
AcDbSymbolTableRecord
100
AcDbTextStyleTableRecord
  2
ARIAL
 70
     0
 40
0.0
 41
1.0
 50
0.0
 71
     0
 42
3.5
  3

  4

1001
ACAD
1000
Arial
1071
        0
  0
ENDTAB
  0
TABLE
  2
LTYPE
  5
139
100
AcDbSymbolTable
 70
    16
  0
LTYPE
  5
13A
100
AcDbSymbolTableRecord
100
AcDbLinetypeTableRecord
  2
BYBLOCK
 70
    64
  3

 72
    65
 73
     0
 40
0.0
  0
LTYPE
  5
13B
100
AcDbSymbolTableRecord
100
AcDbLinetypeTableRecord
  2
BYLAYER
 70
    64
  3

 72
    65
 73
     0
 40
0.0
  0
LTYPE
  5
13C
100
AcDbSymbolTableRecord
100
AcDbLinetypeTableRecord
  2
CONTINUOUS
 70
    64
  3
Solid line
 72
    65
 73
     0
 40
0.0
  0
LTYPE
  5
13D
100
AcDbSymbolTableRecord
100
AcDbLinetypeTableRecord
  2
DOT2
 70
    64
  3
...............................................
 72
    65
 73
     2
 40
1.25
 49
0.0
 74
     0
 49
-1.25
 74
     0
  0
LTYPE
  5
13E
100
AcDbSymbolTableRecord
100
AcDbLinetypeTableRecord
  2
CADWORK_13
 70
    64
  3
13 =======================================
 72
    65
 73
     2
 40
4.0
 49
2.0
 74
     0
 49
-2.0
 74
     0
  0
LTYPE
  5
13F
100
AcDbSymbolTableRecord
100
AcDbLinetypeTableRecord
  2
DASHDOT
 70
    64
  3
 __ . __ . __ . __ . __ . __ . __ . __ . __ . __
 72
    65
 73
     4
 40
10.0
 49
5.0
 74
     0
 49
-2.5
 74
     0
 49
0.0
 74
     0
 49
-2.5
 74
     0
  0
LTYPE
  5
140
100
AcDbSymbolTableRecord
100
AcDbLinetypeTableRecord
  2
CENTER
 70
    64
  3
 ____ _ ____ _ ____ _ ____ _ ____ _ ____ _ ____
 72
    65
 73
     4
 40
20.0
 49
12.5
 74
     0
 49
-2.5
 74
     0
 49
2.5
 74
     0
 49
-2.5
 74
     0
  0
LTYPE
  5
141
100
AcDbSymbolTableRecord
100
AcDbLinetypeTableRecord
  2
DASHEDX2
 70
    64
  3
____  ____  ____  ____  ____  ____  ____  ____
 72
    65
 73
     2
 40
3.75
 49
2.5
 74
     0
 49
-1.25
 74
     0
  0
LTYPE
  5
142
100
AcDbSymbolTableRecord
100
AcDbLinetypeTableRecord
  2
CADWORK_22
 70
    64
  3
22 =======================================
 72
    65
 73
     0
 40
0.0
  0
LTYPE
  5
143
100
AcDbSymbolTableRecord
100
AcDbLinetypeTableRecord
  2
DAL
 70
    64
  3
Solid line (for MAPS)
 72
    65
 73
     0
 40
0.0
  0
LTYPE
  5
144
100
AcDbSymbolTableRecord
100
AcDbLinetypeTableRecord
  2
MUR
 70
    64
  3
Solid line (for MAPS)
 72
    65
 73
     0
 40
0.0
  0
LTYPE
  5
145
100
AcDbSymbolTableRecord
100
AcDbLinetypeTableRecord
  2
SOM
 70
    64
  3
Solid line (for MAPS)
 72
    65
 73
     0
 40
0.0
  0
LTYPE
  5
146
100
AcDbSymbolTableRecord
100
AcDbLinetypeTableRecord
  2
COL
 70
    64
  3
Solid line (for MAPS)
 72
    65
 73
     0
 40
0.0
  0
LTYPE
  5
147
100
AcDbSymbolTableRecord
100
AcDbLinetypeTableRecord
  2
LGN
 70
    64
  3
Solid line (for MAPS)
 72
    65
 73
     0
 40
0.0
  0
LTYPE
  5
148
100
AcDbSymbolTableRecord
100
AcDbLinetypeTableRecord
  2
PNT
 70
    64
  3
Solid line (for MAPS)
 72
    65
 73
     0
 40
0.0
  0
ENDTAB
  0
TABLE
  2
LAYER
  5
149
100
AcDbSymbolTable
 70
    32
  0
LAYER
  5
14A
100
AcDbSymbolTableRecord
100
AcDbLayerTableRecord
  2
Standard
 70
     0
 62
     7
  6
CONTINUOUS
370
    -3
  0
LAYER
  5
14B
100
AcDbSymbolTableRecord
100
AcDbLayerTableRecord
  2
Ech.1_1
 70
     0
 62
     7
  6
CONTINUOUS
370
    -3
  0
LAYER
  5
14C
100
AcDbSymbolTableRecord
100
AcDbLayerTableRecord
  2
Ech.1_2
 70
     0
 62
     7
  6
CONTINUOUS
370
    -3
  0
LAYER
  5
14D
100
AcDbSymbolTableRecord
100
AcDbLayerTableRecord
  2
Ech.1_5
 70
     0
 62
     7
  6
CONTINUOUS
370
    -3
  0
LAYER
  5
14E
100
AcDbSymbolTableRecord
100
AcDbLayerTableRecord
  2
Ech.1_10
 70
     0
 62
     7
  6
CONTINUOUS
370
    -3
  0
LAYER
  5
14F
100
AcDbSymbolTableRecord
100
AcDbLayerTableRecord
  2
Ech.1_20
 70
     0
 62
     7
  6
CONTINUOUS
370
    -3
  0
LAYER
  5
150
100
AcDbSymbolTableRecord
100
AcDbLayerTableRecord
  2
Ech.1_25
 70
     0
 62
     7
  6
CONTINUOUS
370
    -3
  0
LAYER
  5
151
100
AcDbSymbolTableRecord
100
AcDbLayerTableRecord
  2
Ech.1_33
 70
     0
 62
     7
  6
CONTINUOUS
370
    -3
  0
LAYER
  5
152
100
AcDbSymbolTableRecord
100
AcDbLayerTableRecord
  2
Ech.1_50
 70
     0
 62
     7
  6
CONTINUOUS
370
    -3
  0
LAYER
  5
153
100
AcDbSymbolTableRecord
100
AcDbLayerTableRecord
  2
Ech.1_75
 70
     0
 62
     7
  6
CONTINUOUS
370
    -3
  0
LAYER
  5
154
100
AcDbSymbolTableRecord
100
AcDbLayerTableRecord
  2
Ech.1_100
 70
     0
 62
     7
  6
CONTINUOUS
370
    -3
  0
LAYER
  5
155
100
AcDbSymbolTableRecord
100
AcDbLayerTableRecord
  2
Ech.1_200
 70
     0
 62
     7
  6
CONTINUOUS
370
    -3
  0
LAYER
  5
156
100
AcDbSymbolTableRecord
100
AcDbLayerTableRecord
  2
Ech.1_500
 70
     0
 62
     7
  6
CONTINUOUS
370
    -3
  0
LAYER
  5
157
100
AcDbSymbolTableRecord
100
AcDbLayerTableRecord
  2
Ech.1_1000
 70
     0
 62
     7
  6
CONTINUOUS
370
    -3
  0
LAYER
  5
158
100
AcDbSymbolTableRecord
100
AcDbLayerTableRecord
  2
Cadres traceur
 70
     0
 62
     7
  6
CONTINUOUS
370
    18
  0
LAYER
  5
159
100
AcDbSymbolTableRecord
100
AcDbLayerTableRecord
  2
Cadres laser
 70
     0
 62
     7
  6
CONTINUOUS
370
    18
  0
LAYER
  5
15A
100
AcDbSymbolTableRecord
100
AcDbLayerTableRecord
  2
Légende d_aide
 70
     0
 62
     7
  6
CONTINUOUS
370
    18
  0
LAYER
  5
15B
100
AcDbSymbolTableRecord
100
AcDbLayerTableRecord
  2
hachures ok
 70
     0
 62
     7
  6
CONTINUOUS
370
    18
  0
LAYER
  5
15C
100
AcDbSymbolTableRecord
100
AcDbLayerTableRecord
  2
ossature bois
 70
     0
 62
     7
  6
CONTINUOUS
370
    18
  0
LAYER
  5
15D
100
AcDbSymbolTableRecord
100
AcDbLayerTableRecord
  2
VR
 70
     0
 62
     7
  6
CONTINUOUS
370
    25
  0
LAYER
  5
15E
100
AcDbSymbolTableRecord
100
AcDbLayerTableRecord
  2
Calque1
 70
     0
 62
     7
  6
CONTINUOUS
370
     9
  0
LAYER
  5
15F
100
AcDbSymbolTableRecord
100
AcDbLayerTableRecord
  2
0
 70
     0
 62
     7
  6
CONTINUOUS
370
    -3
  0
LAYER
  5
160
100
AcDbSymbolTableRecord
100
AcDbLayerTableRecord
  2
menuiserie
 70
     0
 62
     7
  6
CONTINUOUS
370
    -3
  0
LAYER
  5
161
100
AcDbSymbolTableRecord
100
AcDbLayerTableRecord
  2
cotation
 70
     0
 62
   250
  6
CONTINUOUS
370
     9
  0
LAYER
  5
162
100
AcDbSymbolTableRecord
100
AcDbLayerTableRecord
  2
Defpoints
 70
     0
 62
    10
  6
CONTINUOUS
370
    -3
  0
LAYER
  5
163
100
AcDbSymbolTableRecord
100
AcDbLayerTableRecord
  2
HACHURE
 70
     0
 62
   254
  6
CONTINUOUS
370
    25
  0
LAYER
  5
164
100
AcDbSymbolTableRecord
100
AcDbLayerTableRecord
  2
mat1
 70
     0
 62
     7
  6
CONTINUOUS
370
    30
  0
LAYER
  5
165
100
AcDbSymbolTableRecord
100
AcDbLayerTableRecord
  2
mat2
 70
     0
 62
     7
  6
CONTINUOUS
370
     5
  0
LAYER
  5
166
100
AcDbSymbolTableRecord
100
AcDbLayerTableRecord
  2
hach
 70
     0
 62
     8
  6
CONTINUOUS
370
     5
  0
LAYER
  5
167
100
AcDbSymbolTableRecord
100
AcDbLayerTableRecord
  2
menuiseries
 70
     0
 62
     7
  6
CONTINUOUS
370
     9
  0
LAYER
  5
168
100
AcDbSymbolTableRecord
100
AcDbLayerTableRecord
  2
BétonMétal
 70
     0
 62
     7
  6
CONTINUOUS
370
    80
  0
LAYER
  5
169
100
AcDbSymbolTableRecord
100
AcDbLayerTableRecord
  2
bois
 70
     0
 62
     7
  6
CONTINUOUS
370
    60
  0
ENDTAB
  0
TABLE
  2
VIEW
  5
16A
100
AcDbSymbolTable
 70
     0
  0
ENDTAB
  0
TABLE
  2
UCS
  5
16B
100
AcDbSymbolTable
 70
     0
  0
ENDTAB
  0
TABLE
  2
APPID
  5
16C
100
AcDbSymbolTable
 70
     1
  0
APPID
  5
16D
100
AcDbSymbolTableRecord
100
AcDbRegAppTableRecord
  2
ACAD
 70
     0
  0
ENDTAB
  0
TABLE
  2
DIMSTYLE
  5
16E
100
AcDbSymbolTable
 70
     0
  0
ENDTAB
  0
TABLE
  2
BLOCK_RECORD
  5
16F
100
AcDbSymbolTable
 70
     0
  0
BLOCK_RECORD
  5
170
100
AcDbSymbolTableRecord
100
AcDbBlockTableRecord
  2
*MODEL_SPACE
  0
BLOCK_RECORD
  5
171
100
AcDbSymbolTableRecord
100
AcDbBlockTableRecord
  2
*PAPER_SPACE
  0
BLOCK_RECORD
  5
172
100
AcDbSymbolTableRecord
100
AcDbBlockTableRecord
  2
CDWK_EXTR_0
  0
BLOCK_RECORD
  5
173
100
AcDbSymbolTableRecord
100
AcDbBlockTableRecord
  2
CDWK_EXTR_1D
  0
BLOCK_RECORD
  5
174
100
AcDbSymbolTableRecord
100
AcDbBlockTableRecord
  2
CDWK_EXTR_1G
  0
BLOCK_RECORD
  5
175
100
AcDbSymbolTableRecord
100
AcDbBlockTableRecord
  2
CDWK_EXTR_2
  0
BLOCK_RECORD
  5
176
100
AcDbSymbolTableRecord
100
AcDbBlockTableRecord
  2
CDWK_EXTR_3
  0
BLOCK_RECORD
  5
177
100
AcDbSymbolTableRecord
100
AcDbBlockTableRecord
  2
CDWK_EXTR_4
  0
BLOCK_RECORD
  5
178
100
AcDbSymbolTableRecord
100
AcDbBlockTableRecord
  2
CDWK_PTTYP0
  0
BLOCK_RECORD
  5
179
100
AcDbSymbolTableRecord
100
AcDbBlockTableRecord
  2
*D79
  0
BLOCK_RECORD
  5
17A
100
AcDbSymbolTableRecord
100
AcDbBlockTableRecord
  2
*D80
  0
ENDTAB
  0
ENDSEC
  0
SECTION
  2
BLOCKS
  0
BLOCK
  5
17B
100
AcDbEntity
  8
0
100
AcDbBlockBegin
  2
*MODEL_SPACE
 70
     0
 10
0.0
 20
0.0
 30
0.0
  3
*MODEL_SPACE
  1

  0
ENDBLK
  5
17C
100
AcDbEntity
100
AcDbBlockEnd
  0
BLOCK
  5
17D
100
AcDbEntity
  8
0
100
AcDbBlockBegin
  2
*PAPER_SPACE
 70
     0
 10
0.0
 20
0.0
 30
0.0
  3
*PAPER_SPACE
  1

  0
ENDBLK
  5
17E
100
AcDbEntity
100
AcDbBlockEnd
  0
BLOCK
  5
17F
100
AcDbEntity
  8
0
100
AcDbBlockBegin
  2
CDWK_EXTR_0
 70
     0
 10
0.0
 20
0.0
 30
0.0
  3
CDWK_EXTR_0
  1

  4
Cadwork line-extremity
  0
LINE
  5
180
100
AcDbEntity
  8
0
 62
     0
370
    -2
100
AcDbLine
 10
0.0
 20
0.0
 30
0.0
 11
2.0
 21
0.5
 31
0.0
  0
LINE
  5
181
100
AcDbEntity
  8
0
 62
     0
370
    -2
100
AcDbLine
 10
0.0
 20
0.0
 30
0.0
 11
2.0
 21
-0.5
 31
0.0
  0
LINE
  5
182
100
AcDbEntity
  8
0
 62
     0
370
    -2
100
AcDbLine
 10
2.0
 20
0.5
 30
0.0
 11
2.0
 21
-0.5
 31
0.0
  0
ENDBLK
  5
183
100
AcDbEntity
100
AcDbBlockEnd
  0
BLOCK
  5
184
100
AcDbEntity
  8
0
100
AcDbBlockBegin
  2
CDWK_EXTR_1D
 70
     0
 10
0.0
 20
0.0
 30
0.0
  3
CDWK_EXTR_1D
  1

  4
Cadwork line-extremity
  0
LINE
  5
185
100
AcDbEntity
  8
0
 62
     0
370
    -2
100
AcDbLine
 10
0.0
 20
0.0
 30
0.0
 11
0.0
 21
1.0
 31
0.0
  0
LINE
  5
186
100
AcDbEntity
  8
0
 62
     0
370
    -2
100
AcDbLine
 10
0.0
 20
1.0
 30
0.0
 11
0.5
 21
1.5
 31
0.0
  0
LINE
  5
187
100
AcDbEntity
  8
0
 62
     0
370
    -2
100
AcDbLine
 10
0.5
 20
1.5
 30
0.0
 11
1.5
 21
1.5
 31
0.0
  0
ENDBLK
  5
188
100
AcDbEntity
100
AcDbBlockEnd
  0
BLOCK
  5
189
100
AcDbEntity
  8
0
100
AcDbBlockBegin
  2
CDWK_EXTR_1G
 70
     0
 10
0.0
 20
0.0
 30
0.0
  3
CDWK_EXTR_1G
  1

  4
Cadwork line-extremity
  0
LINE
  5
18A
100
AcDbEntity
  8
0
 62
     0
370
    -2
100
AcDbLine
 10
0.0
 20
0.0
 30
0.0
 11
0.0
 21
-1.0
 31
0.0
  0
LINE
  5
18B
100
AcDbEntity
  8
0
 62
     0
370
    -2
100
AcDbLine
 10
0.0
 20
-1.0
 30
0.0
 11
0.5
 21
-1.5
 31
0.0
  0
LINE
  5
18C
100
AcDbEntity
  8
0
 62
     0
370
    -2
100
AcDbLine
 10
0.5
 20
-1.5
 30
0.0
 11
1.5
 21
-1.5
 31
0.0
  0
ENDBLK
  5
18D
100
AcDbEntity
100
AcDbBlockEnd
  0
BLOCK
  5
18E
100
AcDbEntity
  8
0
100
AcDbBlockBegin
  2
CDWK_EXTR_2
 70
     0
 10
0.0
 20
0.0
 30
0.0
  3
CDWK_EXTR_2
  1

  4
Cadwork line-extremity
  0
SOLID
  5
18F
100
AcDbEntity
  8
0
 62
     0
100
AcDbTrace
 10
0.0
 20
0.0
 11
2.0
 21
0.5
 12
2.0
 22
-0.5
 13
2.0
 23
-0.5
  0
ENDBLK
  5
190
100
AcDbEntity
100
AcDbBlockEnd
  0
BLOCK
  5
191
100
AcDbEntity
  8
0
100
AcDbBlockBegin
  2
CDWK_EXTR_3
 70
     0
 10
0.0
 20
0.0
 30
0.0
  3
CDWK_EXTR_3
  1

  4
Cadwork line-extremity
  0
SOLID
  5
192
100
AcDbEntity
  8
0
 62
     0
100
AcDbTrace
 10
0.0
 20
0.0
 11
2.0
 21
0.5
 12
2.0
 22
-0.5
 13
2.0
 23
-0.5
  0
LINE
  5
193
100
AcDbEntity
  8
0
 62
     0
370
    -2
100
AcDbLine
 10
0.0
 20
1.0
 30
0.0
 11
0.0
 21
-1.0
 31
0.0
  0
ENDBLK
  5
194
100
AcDbEntity
100
AcDbBlockEnd
  0
BLOCK
  5
195
100
AcDbEntity
  8
0
100
AcDbBlockBegin
  2
CDWK_EXTR_4
 70
     0
 10
0.0
 20
0.0
 30
0.0
  3
CDWK_EXTR_4
  1

  4
Cadwork line-extremity
  0
HATCH
  5
196
100
AcDbEntity
  8
0
 62
     0
370
    -2
100
AcDbHatch
 10
0.0
 20
0.0
 30
0.0
210
0.0
220
0.0
230
1.0
  2
SOLID
 70
     1
 71
     0
 91
        1
 92
        1
 93
        1
 72
     2
 10
0.0
 20
0.0
 40
0.5
 50
0.0
 51
360.0
 73
     1
 97
        0
 75
     0
 76
     1
 98
        1
 10
0.0
 20
0.0
  0
ENDBLK
  5
197
100
AcDbEntity
100
AcDbBlockEnd
  0
BLOCK
  5
198
100
AcDbEntity
  8
0
100
AcDbBlockBegin
  2
CDWK_PTTYP0
 70
     0
 10
0.0
 20
0.0
 30
0.0
  3
CDWK_PTTYP0
  1

  4
Cadwork point
  0
POINT
  5
199
100
AcDbEntity
  8
0
 62
     0
100
AcDbPoint
 10
0.0
 20
0.0
 30
0.0
  0
ENDBLK
  5
19A
100
AcDbEntity
100
AcDbBlockEnd
  0
BLOCK
  5
19B
100
AcDbEntity
  8
Ech.1_5
100
AcDbBlockBegin
  2
*D79
 70
     1
 10
0.0
 20
0.0
 30
0.0
  3
*D79
  1

  4
Cadwork dimension
  0
TEXT
  5
19C
100
AcDbEntity
  8
Ech.1_5
 62
   190
370
    18
100
AcDbText
 10
25887.75367719
 20
-2304.25043514
 30
0.0
 40
25.0
  1
2/3*
  7
ARIAL
 50
289.99999193
 41
1.0
 51
0.0
100
AcDbText
  0
LINE
  5
19D
100
AcDbEntity
  8
Ech.1_5
 62
   190
370
    -2
100
AcDbLine
 10
25852.95488183
 20
-2208.64153067
 30
0.0
 11
25828.01622385
 21
-2217.71845985
 31
0.0
  0
LINE
  5
19E
100
AcDbEntity
  8
Ech.1_5
 62
   190
370
    -2
100
AcDbLine
 10
25932.30356085
 20
-2426.65023455
 30
0.0
 11
25907.36490287
 21
-2435.72716373
 31
0.0
  0
LINE
  5
19F
100
AcDbEntity
  8
Ech.1_5
 62
   190
370
    -2
100
AcDbLine
 10
25846.54631801
 20
-2205.65316828
 30
0.0
 11
25929.31519846
 21
-2433.05879837
 31
0.0
  0
LINE
  5
1A0
100
AcDbEntity
  8
Ech.1_5
 62
   190
370
    -2
100
AcDbLine
 10
25845.05213681
 20
-2208.85745019
 30
0.0
 11
25851.46070063
 21
-2211.84581258
 31
0.0
  0
LINE
  5
1A1
100
AcDbEntity
  8
Ech.1_5
 62
   190
370
    -2
100
AcDbLine
 10
25924.40081584
 20
-2426.86615407
 30
0.0
 11
25930.80937966
 21
-2429.85451646
 31
0.0
  0
ENDBLK
  5
1A2
100
AcDbEntity
100
AcDbBlockEnd
  0
BLOCK
  5
1A3
100
AcDbEntity
  8
Ech.1_5
100
AcDbBlockBegin
  2
*D80
 70
     1
 10
0.0
 20
0.0
 30
0.0
  3
*D80
  1

  4
Cadwork dimension
  0
TEXT
  5
1A4
100
AcDbEntity
  8
Ech.1_5
 62
   190
370
    18
100
AcDbText
 10
25953.93458984
 20
-2486.08099428
 30
0.0
 40
25.0
  1
1/3*
  7
ARIAL
 50
289.99999193
 41
1.0
 51
0.0
100
AcDbText
  0
LINE
  5
1A5
100
AcDbEntity
  8
Ech.1_5
 62
   190
370
    -2
100
AcDbLine
 10
25932.30356085
 20
-2426.65023455
 30
0.0
 11
25907.36490287
 21
-2435.72716373
 31
0.0
  0
LINE
  5
1A6
100
AcDbEntity
  8
Ech.1_5
 62
   190
370
    -2
100
AcDbLine
 10
25985.31670714
 20
-2572.30264894
 30
0.0
 11
25798.64599417
 21
-2640.24523506
 31
0.0
  0
LINE
  5
1A7
100
AcDbEntity
  8
Ech.1_5
 62
   190
370
    -2
100
AcDbLine
 10
25925.89499695
 20
-2423.66187219
 30
0.0
 11
25982.32834484
 21
-2578.71121273
 31
0.0
  0
LINE
  5
1A8
100
AcDbEntity
  8
Ech.1_5
 62
   190
370
    -2
100
AcDbLine
 10
25924.40081581
 20
-2426.86615413
 30
0.0
 11
25930.80937968
 21
-2429.8545164
 31
0.0
  0
LINE
  5
1A9
100
AcDbEntity
  8
Ech.1_5
 62
   190
370
    -2
100
AcDbLine
 10
25977.4139621
 20
-2572.51856852
 30
0.0
 11
25983.82252597
 21
-2575.50693079
 31
0.0
  0
ENDBLK
  5
1AA
100
AcDbEntity
100
AcDbBlockEnd
  0
ENDSEC
  0
SECTION
  2
ENTITIES
  0
LWPOLYLINE
  5
1AB
102
{ACAD_REACTORS
330
1AC
102
}
100
AcDbEntity
  8
Ech.1_5
 62
     7
  6
CONTINUOUS
370
    -3
100
AcDbPolyline
 90
        4
 70
     1
 43
0.0
 10
26654.5591599
 20
-2645.37540513
 10
26659.00542177
 20
-2633.15940106
 10
26278.69952742
 20
-2494.73971384
 10
26274.2532666
 20
-2506.95571829
  0
HATCH
  5
1AC
100
AcDbEntity
  8
Ech.1_5
 62
   190
  6
CONTINUOUS
100
AcDbHatch
 10
0.0
 20
0.0
 30
0.0
210
0.0
220
0.0
230
1.0
  2
DOTS2
 70
     0
 71
     1
 91
        1
 92
        7
 72
     0
 73
     1
 93
        4
 10
26654.5591599
 20
-2645.37540513
 10
26659.00542177
 20
-2633.15940106
 10
26278.69952742
 20
-2494.73971384
 10
26274.2532666
 20
-2506.95571829
 97
        1
330
1AB
 75
     0
 76
     2
 52
0.0
 41
4.72440952
 77
     0
 78
     1
 53
0.0
 43
0.0
 44
0.0
 45
3.75
 46
3.535
 79
     2
 49
0.0
 49
-3.535
 47
0.775229
 98
        1
 10
0.0
 20
0.0
  0
LWPOLYLINE
  5
1AD
100
AcDbEntity
  8
Ech.1_5
100
AcDbPolyline
 90
        4
 70
     0
 43
0.0
 10
26659.00542117
 20
-2633.15940269
 10
26278.69947184
 20
-2494.73986654
 10
26274.25321103
 20
-2506.95587099
 10
26654.55915931
 20
-2645.37540676
  0
LWPOLYLINE
  5
1AE
100
AcDbEntity
  8
Ech.1_5
 62
   190
  6
CONTINUOUS
370
    -3
100
AcDbPolyline
 90
        4
 70
     0
 43
0.0
 10
26133.06974848
 20
-2049.41804781
 10
26104.71658752
 20
-2088.4705543
 10
26142.30429235
 20
-2074.78974857
 10
26095.48204365
 20
-2063.09885354
  0
LWPOLYLINE
  5
1AF
100
AcDbEntity
  8
Ech.1_5
 62
   190
  6
CONTINUOUS
370
    -3
100
AcDbPolyline
 90
        3
 70
     0
 43
0.0
 10
25749.46514298
 20
-2117.22346143
 10
25750.10115264
 20
-2117.06987764
 10
25751.46520364
 20
-2122.71858294
  0
LINE
  5
1B0
100
AcDbEntity
  8
Ech.1_5
 62
   190
  6
CONTINUOUS
370
    -3
100
AcDbLine
 10
25750.73732704
 20
-2120.71875842
 30
0.0
 11
26097.68009336
 21
-2036.9389182
 31
0.0
  0
LINE
  5
1B1
100
AcDbEntity
  8
Ech.1_5
 62
   190
  6
CONTINUOUS
370
    -3
100
AcDbLine
 10
25753.71273977
 20
-2132.26750023
 30
0.0
 11
25754.84151537
 21
-2131.99492317
 31
0.0
  0
LWPOLYLINE
  5
1B2
100
AcDbEntity
  8
Ech.1_5
 62
   190
  6
CONTINUOUS
370
    -3
100
AcDbPolyline
 90
        4
 70
     0
 43
0.0
 10
26306.03996817
 20
-2049.41804781
 10
26334.39312913
 20
-2088.4705543
 10
26296.8054243
 20
-2074.78974857
 10
26343.627673
 20
-2063.09885354
  0
LINE
  5
1B3
100
AcDbEntity
  8
Ech.1_5
 62
   190
  6
CONTINUOUS
370
    -3
100
AcDbLine
 10
26688.31726487
 20
-2120.70544689
 30
0.0
 11
26341.37449856
 21
-2036.92560666
 31
0.0
  0
LWPOLYLINE
  5
1B4
100
AcDbEntity
  8
Ech.1_5
 62
   190
  6
CONTINUOUS
370
    -3
100
AcDbPolyline
 90
        6
 70
     0
 43
0.0
 10
26853.27243305
 20
-2099.41517423
 10
26738.95345083
 20
-2413.50399647
 10
26750.20825832
 20
-2435.14391741
 10
26721.24683605
 20
-2409.58733723
 10
26732.5022952
 20
-2431.2284009
 10
26651.82290379
 20
-2652.89320703
  0
LWPOLYLINE
  5
1B5
100
AcDbEntity
  8
Ech.1_5
 62
   190
  6
CONTINUOUS
370
    -3
100
AcDbPolyline
 90
        4
 70
     0
 43
0.0
 10
26644.60384349
 20
-2172.60322668
 10
26672.95700445
 20
-2211.65573317
 10
26635.36929962
 20
-2197.97492744
 10
26682.19154832
 20
-2186.28403241
  0
LWPOLYLINE
  5
1B6
102
{ACAD_REACTORS
330
1B7
102
}
100
AcDbEntity
  8
Ech.1_5
 62
     7
  6
CONTINUOUS
370
    -3
100
AcDbPolyline
 90
        4
 70
     1
 43
0.0
 10
26164.85645005
 20
-2506.95571829
 10
26160.41018923
 20
-2494.73971384
 10
25780.10429492
 20
-2633.15940104
 10
25784.55055678
 20
-2645.37540511
  0
HATCH
  5
1B7
100
AcDbEntity
  8
Ech.1_5
 62
   190
  6
CONTINUOUS
100
AcDbHatch
 10
0.0
 20
0.0
 30
0.0
210
0.0
220
0.0
230
1.0
  2
DOTS2
 70
     0
 71
     1
 91
        1
 92
        7
 72
     0
 73
     1
 93
        4
 10
26164.85645005
 20
-2506.95571829
 10
26160.41018923
 20
-2494.73971384
 10
25780.10429492
 20
-2633.15940104
 10
25784.55055678
 20
-2645.37540511
 97
        1
330
1B6
 75
     0
 76
     2
 52
0.0
 41
4.72440952
 77
     0
 78
     1
 53
0.0
 43
0.0
 44
0.0
 45
3.75
 46
3.535
 79
     2
 49
0.0
 49
-3.535
 47
0.775229
 98
        1
 10
0.0
 20
0.0
  0
LWPOLYLINE
  5
1B8
100
AcDbEntity
  8
Ech.1_5
100
AcDbPolyline
 90
        4
 70
     0
 43
0.0
 10
25780.10429492
 20
-2633.15940104
 10
26160.41018923
 20
-2494.73971384
 10
26164.85645005
 20
-2506.95571829
 10
25784.55055678
 20
-2645.37540511
  0
LWPOLYLINE
  5
1B9
100
AcDbEntity
  8
Ech.1_5
 62
   190
  6
CONTINUOUS
370
    -3
100
AcDbPolyline
 90
        4
 70
     0
 43
0.0
 10
25585.8372836
 20
-2099.41517423
 10
25700.15626581
 20
-2413.50399647
 10
25688.90145833
 20
-2435.14391741
 10
25703.38176543
 20
-2422.36598385
  0
LINE
  5
1BA
100
AcDbEntity
  8
Ech.1_5
 62
   190
  6
CONTINUOUS
370
    -3
100
AcDbLine
 10
25620.14769559
 20
-2193.68225633
 30
0.0
 11
25759.17134277
 21
-2160.11078553
 31
0.0
  0
LINE
  5
1BB
100
AcDbEntity
  8
Ech.1_5
 62
   190
  6
CONTINUOUS
370
    -3
100
AcDbLine
 10
26823.17933339
 20
-2194.70065414
 30
0.0
 11
26679.93837388
 21
-2160.11078553
 31
0.0
  0
LWPOLYLINE
  5
1BC
100
AcDbEntity
  8
Ech.1_5
 62
   190
  6
CONTINUOUS
370
    -3
100
AcDbPolyline
 90
        4
 70
     0
 43
0.0
 10
25794.50587316
 20
-2172.60322668
 10
25766.1527122
 20
-2211.65573317
 10
25803.74041703
 20
-2197.97492744
 10
25756.91816833
 20
-2186.28403241
  0
LWPOLYLINE
  5
1BD
100
AcDbEntity
  8
Ech.1_5
 62
   190
  6
CONTINUOUS
370
    -3
100
AcDbPolyline
 90
        4
 70
     0
 43
0.0
 10
26644.60384349
 20
-2172.60322668
 10
26672.95700445
 20
-2211.65573317
 10
26635.36929962
 20
-2197.97492744
 10
26682.19154832
 20
-2186.28403241
  0
LWPOLYLINE
  5
1BE
100
AcDbEntity
  8
Ech.1_5
 62
     7
  6
CONTINUOUS
370
    -3
100
AcDbPolyline
 90
       85
 70
     0
 43
0.0
 10
26105.92471415
 20
-2100.06481663
 10
26110.46819541
 20
-2098.49535399
 10
26115.0350484
 20
-2096.93945395
 10
26119.64864484
 20
-2095.41067909
 10
26124.33235645
 20
-2093.922592
 10
26129.10955496
 20
-2092.48875528
 10
26134.00361208
 20
-2091.12273152
 10
26139.03789955
 20
-2089.8380833
 10
26144.23578909
 20
-2088.64837323
 10
26149.59907251
 20
-2087.54910556
 10
26155.02594188
 20
-2086.44909107
 10
26160.38353794
 20
-2085.2311564
 10
26165.5389956
 20
-2083.77812334
 10
26170.35944977
 20
-2081.97281365
 10
26174.71203535
 20
-2079.69804911
 10
26178.46388728
 20
-2076.8366515
 10
26181.48214044
 20
-2073.27144259
 10
26183.64296487
 20
-2068.91959012
 10
26184.90057714
 20
-2063.99494769
 10
26185.24912988
 20
-2058.86318152
 10
26184.71513466
 20
-2053.84256246
 10
26183.49925215
 20
-2048.98705208
 10
26181.86075065
 20
-2044.26113342
 10
26180.02424506
 20
-2039.61734319
 10
26178.14679362
 20
-2034.98509704
 10
26176.376096
 20
-2030.29198316
 10
26174.70701954
 20
-2025.54686303
 10
26172.85594236
 20
-2020.90669327
 10
26170.51865081
 20
-2016.53957579
 10
26167.60922826
 20
-2012.50226289
 10
26164.26670602
 20
-2008.73676478
 10
26160.64043237
 20
-2005.17982911
 10
26156.86153126
 20
-2001.78135516
 10
26152.95471522
 20
-1998.56803395
 10
26148.90618463
 20
-1995.59434879
 10
26144.70208678
 20
-1992.91482129
 10
26140.328569
 20
-1990.58397306
 10
26135.7790558
 20
-1988.63628855
 10
26131.08081261
 20
-1987.01307418
 10
26126.27093437
 20
-1985.62857178
 10
26121.38651707
 20
-1984.3970202
 10
26116.46465669
 20
-1983.23265832
 10
26111.54117763
 20
-1982.05596585
 10
26106.62824482
 20
-1980.90353791
 10
26101.71710581
 20
-1979.91462778
 10
26096.79828755
 20
-1979.23202532
 10
26091.8627827
 20
-1978.99294595
 10
26086.91110498
 20
-1979.22064333
 10
26081.95267127
 20
-1979.83180527
 10
26076.9972404
 20
-1980.73902641
 10
26072.05457124
 20
-1981.85490138
 10
26067.13442261
 20
-1983.09202484
 10
26062.24502171
 20
-1984.37017695
 10
26057.3839143
 20
-1985.65924796
 10
26052.54409764
 20
-1986.95046687
 10
26047.71855214
 20
-1988.23514148
 10
26042.90025824
 20
-1989.50457963
 10
26038.08219637
 20
-1990.75008914
 10
26033.25734697
 20
-1991.96297782
 10
26028.41914087
 20
-1993.13535089
 10
26023.56586268
 20
-1994.26790648
 10
26018.69875603
 20
-1995.36658127
 10
26013.81910666
 20
-1996.43738651
 10
26008.9282003
 20
-1997.48633342
 10
26004.0273227
 20
-1998.51943326
 10
25999.11775961
 20
-1999.54269727
 10
25994.20079676
 20
-2000.56213668
 10
25989.27754201
 20
-2001.57796382
 10
25984.34837396
 20
-2002.56661781
 10
25979.41348434
 20
-2003.49844653
 10
25974.47306491
 20
-2004.34379783
 10
25969.5273074
 20
-2005.07301958
 10
25964.57640356
 20
-2005.65645964
 10
25959.62054513
 20
-2006.06446588
 10
25954.65994097
 20
-2006.27070786
 10
25949.694956
 20
-2006.2791352
 10
25944.72603858
 20
-2006.10988846
 10
25939.75363787
 20
-2005.783261
 10
25934.77820301
 20
-2005.31954616
 10
25929.80018316
 20
-2004.73903732
 10
25924.82002747
 20
-2004.06202781
 10
25919.83818509
 20
-2003.30881099
 10
25914.85510517
 20
-2002.49968021
 10
25909.87123686
 20
-2001.65492883
 10
25906.1067509
 20
-2001.00564424
  0
LWPOLYLINE
  5
1BF
100
AcDbEntity
  8
Ech.1_5
 62
     7
  6
CONTINUOUS
370
    -3
100
AcDbPolyline
 90
       85
 70
     0
 43
0.0
 10
26333.1850025
 20
-2100.06481663
 10
26328.64152124
 20
-2098.49535399
 10
26324.07466825
 20
-2096.93945395
 10
26319.46107181
 20
-2095.41067909
 10
26314.7773602
 20
-2093.922592
 10
26310.00016169
 20
-2092.48875528
 10
26305.10610457
 20
-2091.12273152
 10
26300.0718171
 20
-2089.8380833
 10
26294.87392756
 20
-2088.64837323
 10
26289.51064414
 20
-2087.54910556
 10
26284.08377476
 20
-2086.44909107
 10
26278.7261787
 20
-2085.2311564
 10
26273.57072105
 20
-2083.77812334
 10
26268.75026688
 20
-2081.97281365
 10
26264.39768129
 20
-2079.69804911
 10
26260.64582937
 20
-2076.8366515
 10
26257.6275762
 20
-2073.27144259
 10
26255.46675178
 20
-2068.91959012
 10
26254.20913951
 20
-2063.99494769
 10
26253.86058676
 20
-2058.86318152
 10
26254.39458199
 20
-2053.84256246
 10
26255.6104645
 20
-2048.98705208
 10
26257.248966
 20
-2044.26113342
 10
26259.08547159
 20
-2039.61734319
 10
26260.96292303
 20
-2034.98509704
 10
26262.73362065
 20
-2030.29198316
 10
26264.4026971
 20
-2025.54686303
 10
26266.25377429
 20
-2020.90669327
 10
26268.59106584
 20
-2016.53957579
 10
26271.50048839
 20
-2012.50226289
 10
26274.84301063
 20
-2008.73676478
 10
26278.46928428
 20
-2005.17982911
 10
26282.24818538
 20
-2001.78135516
 10
26286.15500143
 20
-1998.56803395
 10
26290.20353202
 20
-1995.59434879
 10
26294.40762986
 20
-1992.91482129
 10
26298.78114765
 20
-1990.58397306
 10
26303.33066085
 20
-1988.63628855
 10
26308.02890404
 20
-1987.01307418
 10
26312.83878228
 20
-1985.62857178
 10
26317.72319958
 20
-1984.3970202
 10
26322.64505995
 20
-1983.23265832
 10
26327.56853902
 20
-1982.05596585
 10
26332.48147183
 20
-1980.90353791
 10
26337.39261084
 20
-1979.91462778
 10
26342.3114291
 20
-1979.23202532
 10
26347.24693395
 20
-1978.99294595
 10
26352.19861167
 20
-1979.22064333
 10
26357.15704538
 20
-1979.83180527
 10
26362.11247624
 20
-1980.73902641
 10
26367.05514541
 20
-1981.85490138
 10
26371.97529404
 20
-1983.09202484
 10
26376.86469494
 20
-1984.37017695
 10
26381.72580234
 20
-1985.65924796
 10
26386.56561901
 20
-1986.95046686
 10
26391.39116451
 20
-1988.23514148
 10
26396.20945841
 20
-1989.50457963
 10
26401.02752028
 20
-1990.75008914
 10
26405.85236968
 20
-1991.96297782
 10
26410.69057578
 20
-1993.13535089
 10
26415.54385397
 20
-1994.26790648
 10
26420.41096062
 20
-1995.36658127
 10
26425.29060999
 20
-1996.43738651
 10
26430.18151635
 20
-1997.48633342
 10
26435.08239394
 20
-1998.51943326
 10
26439.99195704
 20
-1999.54269727
 10
26444.90891989
 20
-2000.56213668
 10
26449.83217464
 20
-2001.57796382
 10
26454.76134269
 20
-2002.56661781
 10
26459.6962323
 20
-2003.49844653
 10
26464.63665174
 20
-2004.34379783
 10
26469.58240924
 20
-2005.07301958
 10
26474.53331309
 20
-2005.65645964
 10
26479.48917152
 20
-2006.06446588
 10
26484.44977568
 20
-2006.27070786
 10
26489.41476065
 20
-2006.2791352
 10
26494.38367807
 20
-2006.10988846
 10
26499.35607878
 20
-2005.783261
 10
26504.33151364
 20
-2005.31954616
 10
26509.30953349
 20
-2004.73903732
 10
26514.28968918
 20
-2004.06202781
 10
26519.27153156
 20
-2003.30881099
 10
26524.25461148
 20
-2002.49968021
 10
26529.23847979
 20
-2001.65492883
 10
26533.00296575
 20
-2001.00564424
  0
LWPOLYLINE
  5
1C0
100
AcDbEntity
  8
Ech.1_5
 62
     5
  6
CONTINUOUS
370
    -3
100
AcDbPolyline
 90
        5
 70
     0
 43
0.0
 10
26095.5201237
 20
-2063.04640361
 10
26133.10782853
 20
-2049.36559788
 10
26142.3423724
 20
-2074.73729864
 10
26104.75466757
 20
-2088.41810437
 10
26095.5201237
 20
-2063.04640361
  0
LWPOLYLINE
  5
1C1
100
AcDbEntity
  8
Ech.1_5
 62
     5
  6
CONTINUOUS
370
    -3
100
AcDbPolyline
 90
        5
 70
     0
 43
0.0
 10
26343.58959295
 20
-2063.04640361
 10
26306.00188812
 20
-2049.36559788
 10
26296.76734425
 20
-2074.73729864
 10
26334.35504908
 20
-2088.41810437
 10
26343.58959295
 20
-2063.04640361
  0
LWPOLYLINE
  5
1C2
100
AcDbEntity
  8
Ech.1_5
 62
     5
  6
CONTINUOUS
370
    -3
100
AcDbPolyline
 90
        5
 70
     0
 43
0.0
 10
26682.15346827
 20
-2186.23158248
 10
26644.56576344
 20
-2172.55077675
 10
26635.33121957
 20
-2197.92247751
 10
26672.9189244
 20
-2211.60328324
 10
26682.15346827
 20
-2186.23158248
  0
LWPOLYLINE
  5
1C3
100
AcDbEntity
  8
Ech.1_5
 62
     5
  6
CONTINUOUS
370
    -3
100
AcDbPolyline
 90
        5
 70
     0
 43
0.0
 10
25756.95624838
 20
-2186.23158248
 10
25794.54395321
 20
-2172.55077675
 10
25803.77849708
 20
-2197.92247751
 10
25766.19079225
 20
-2211.60328324
 10
25756.95624838
 20
-2186.23158248
  0
LWPOLYLINE
  5
1C4
100
AcDbEntity
  8
Ech.1_5
 62
     5
  6
CONTINUOUS
370
    -3
100
AcDbPolyline
 90
        4
 70
     0
 43
0.0
 10
26239.55485832
 20
-2082.48945637
 10
26239.55485832
 20
-1910.11404713
 10
26199.55485832
 20
-1910.11404713
 10
26199.55485832
 20
-2082.54854937
  0
LWPOLYLINE
  5
1C5
102
{ACAD_REACTORS
330
1C6
102
}
100
AcDbEntity
  8
Ech.1_5
 62
     7
  6
CONTINUOUS
370
    -3
100
AcDbPolyline
 90
        4
 70
     1
 43
0.0
 10
26219.55485832
 20
-2322.09929455
 10
26707.57226228
 20
-2499.7231034
 10
26711.676504
 20
-2488.44679195
 10
26219.55485832
 20
-2309.32916128
  0
HATCH
  5
1C6
100
AcDbEntity
  8
Ech.1_5
 62
   190
  6
CONTINUOUS
100
AcDbHatch
 10
0.0
 20
0.0
 30
0.0
210
0.0
220
0.0
230
1.0
  2
CDWK10A
 70
     0
 71
     1
 91
        1
 92
        7
 72
     0
 73
     1
 93
        4
 10
26219.55485832
 20
-2322.09929455
 10
26707.57226228
 20
-2499.7231034
 10
26711.676504
 20
-2488.44679195
 10
26219.55485832
 20
-2309.32916128
 97
        1
330
1C5
 75
     0
 76
     2
 52
90.0
 41
1.0
 77
     0
 78
     3
 53
45.0
 43
0.0
 44
0.0
 45
0.0
 46
42.00000167
 79
     0
 53
45.0
 43
0.0
 44
10.80000043
 45
0.0
 46
42.00000167
 79
     0
 53
45.0
 43
0.0
 44
21.60000086
 45
0.0
 46
42.00000167
 79
     0
 47
0.775229
 98
        1
 10
0.0
 20
0.0
  0
LWPOLYLINE
  5
1C7
102
{ACAD_REACTORS
330
1C8
102
}
100
AcDbEntity
  8
Ech.1_5
 62
     7
  6
CONTINUOUS
370
    -3
100
AcDbPolyline
 90
        4
 70
     1
 43
0.0
 10
26219.55485832
 20
-2309.32916128
 10
25727.43315925
 20
-2488.44664525
 10
25731.53740097
 20
-2499.7229567
 10
26219.55485832
 20
-2322.09929455
  0
HATCH
  5
1C8
100
AcDbEntity
  8
Ech.1_5
 62
   190
  6
CONTINUOUS
100
AcDbHatch
 10
0.0
 20
0.0
 30
0.0
210
0.0
220
0.0
230
1.0
  2
CDWK10A
 70
     0
 71
     1
 91
        1
 92
        7
 72
     0
 73
     1
 93
        4
 10
26219.55485832
 20
-2309.32916128
 10
25727.43315925
 20
-2488.44664525
 10
25731.53740097
 20
-2499.7229567
 10
26219.55485832
 20
-2322.09929455
 97
        1
330
1C7
 75
     0
 76
     2
 52
0.0
 41
1.0
 77
     0
 78
     3
 53
45.0
 43
0.0
 44
0.0
 45
0.0
 46
42.00000167
 79
     0
 53
45.0
 43
0.0
 44
10.80000043
 45
0.0
 46
42.00000167
 79
     0
 53
45.0
 43
0.0
 44
21.60000086
 45
0.0
 46
42.00000167
 79
     0
 47
0.775229
 98
        1
 10
0.0
 20
0.0
  0
LWPOLYLINE
  5
1C9
100
AcDbEntity
  8
Ech.1_5
 62
     7
  6
CONTINUOUS
370
    70
100
AcDbPolyline
 90
        3
 70
     0
 43
0.0
 10
26139.36407914
 20
-2499.67175894
 10
26167.55485832
 20
-2489.41115618
 10
26167.55485832
 20
-2459.41115618
  0
LWPOLYLINE
  5
1CA
100
AcDbEntity
  8
Ech.1_5
 62
     7
  6
CONTINUOUS
370
    70
100
AcDbPolyline
 90
        3
 70
     0
 43
0.0
 10
26299.74563751
 20
-2499.67175894
 10
26271.55485832
 20
-2489.41115618
 10
26271.55485832
 20
-2459.41115618
  0
LWPOLYLINE
  5
1CB
100
AcDbEntity
  8
Ech.1_5
 62
   190
  6
CONTINUOUS
370
    -3
100
AcDbPolyline
 90
       62
 70
     0
 43
0.0
 10
26660.20621714
 20
-2629.86024287
 42
-0.74954235
 10
26644.10050212
 20
-2609.76147653
 10
26671.82869013
 20
-2570.13339942
 42
1.30322619
 10
26647.47272033
 20
-2561.26855275
 10
26643.24131246
 20
-2609.44875712
 42
-1.30322619
 10
26618.88534266
 20
-2600.58391044
 10
26646.61353067
 20
-2560.95583333
 42
1.30322619
 10
26622.25756086
 20
-2552.09098666
 10
26618.026153
 20
-2600.27119103
 42
-1.30322619
 10
26593.67018319
 20
-2591.40634435
 10
26621.3983712
 20
-2551.77826725
 42
1.30322619
 10
26597.0424014
 20
-2542.91342057
 10
26592.81099353
 20
-2591.09362494
 42
-1.30322619
 10
26568.45502373
 20
-2582.22877826
 10
26596.18321174
 20
-2542.60070116
 42
1.30322619
 10
26571.82724194
 20
-2533.73585448
 10
26567.59583407
 20
-2581.91605885
 42
-1.30322619
 10
26543.23986427
 20
-2573.05121218
 10
26570.96805228
 20
-2533.42313507
 42
1.30322619
 10
26546.61208247
 20
-2524.55828839
 10
26542.38067461
 20
-2572.73849276
 42
-1.30322619
 10
26518.02470481
 20
-2563.87364609
 10
26545.75289281
 20
-2524.24556898
 42
1.30322619
 10
26521.39692301
 20
-2515.38072231
 10
26517.16551514
 20
-2563.56092667
 42
-1.30322619
 10
26492.80954534
 20
-2554.69608
 10
26520.53773335
 20
-2515.06800289
 42
1.30322619
 10
26496.18176355
 20
-2506.20315622
 10
26491.95035568
 20
-2554.38336059
 42
-1.30322619
 10
26467.59438588
 20
-2545.51851391
 10
26495.32257389
 20
-2505.8904368
 42
1.30322619
 10
26470.96660409
 20
-2497.02559013
 10
26466.73519622
 20
-2545.2057945
 42
-1.30322619
 10
26442.37922642
 20
-2536.34094782
 10
26470.10741442
 20
-2496.71287072
 42
1.30322619
 10
26445.75144462
 20
-2487.84802404
 10
26441.52003676
 20
-2536.02822841
 42
-1.30322619
 10
26417.16406695
 20
-2527.16338173
 10
26444.89225496
 20
-2487.53530463
 42
1.30322619
 10
26420.53628516
 20
-2478.67045795
 10
26416.30487729
 20
-2526.85066232
 42
-1.30322619
 10
26391.94890749
 20
-2517.98581565
 10
26419.6770955
 20
-2478.35773854
 42
1.30322619
 10
26395.3211257
 20
-2469.49289186
 10
26391.08971783
 20
-2517.67309623
 42
-1.30322619
 10
26366.73374803
 20
-2508.80824956
 10
26394.46193603
 20
-2469.18017245
 42
1.30322619
 10
26370.10596623
 20
-2460.31532578
 10
26365.87455837
 20
-2508.49553014
 42
-1.30322619
 10
26341.51858856
 20
-2499.63068347
 10
26369.24677657
 20
-2460.00260636
 42
1.30322619
 10
26344.89080677
 20
-2451.13775969
 10
26340.6593989
 20
-2499.31796405
 42
-1.30322619
 10
26316.3034291
 20
-2490.45311738
 10
26344.03161711
 20
-2450.82504027
 42
1.30322619
 10
26319.67564731
 20
-2441.9601936
 10
26315.44423944
 20
-2490.14039797
 42
-1.30322619
 10
26291.08826964
 20
-2481.27555129
 10
26318.81645765
 20
-2441.64747419
 42
1.30322619
 10
26294.46048784
 20
-2432.78262751
 10
26290.22907998
 20
-2480.96283188
 42
-0.56265603
 10
26269.6629064
 20
-2491.11429645
  0
CIRCLE
  5
1CC
100
AcDbEntity
  8
Ech.1_5
 62
     7
  6
CONTINUOUS
370
    -3
100
AcDbCircle
 10
26387.34588969
 20
-2485.39637366
 30
0.0
 40
2.51802373
  0
LINE
  5
1CD
100
AcDbEntity
  8
Ech.1_5
 62
     7
  6
CONTINUOUS
370
    -3
100
AcDbLine
 10
26404.58063738
 20
-2398.57293417
 30
0.0
 11
26368.18246153
 21
-2498.57610043
 31
0.0
  0
CIRCLE
  5
1CE
100
AcDbEntity
  8
Ech.1_5
 62
     7
  6
CONTINUOUS
370
    -3
100
AcDbCircle
 10
26402.73679614
 20
-2443.11020573
 30
0.0
 40
2.51802373
  0
ARC
  5
1CF
100
AcDbEntity
  8
Ech.1_5
 62
     7
  6
CONTINUOUS
370
    -3
100
AcDbCircle
 10
26398.25262539
 20
-2509.52074502
 30
0.0
 40
5.0
100
AcDbArc
 50
160.0
 51
250.0
  0
LINE
  5
1D0
100
AcDbEntity
  8
Ech.1_5
 62
     7
  6
CONTINUOUS
370
    -3
100
AcDbLine
 10
26393.65310585
 20
-2522.83059524
 30
0.0
 11
26394.33714614
 21
-2520.95121
 31
0.0
  0
LINE
  5
1D1
100
AcDbEntity
  8
Ech.1_5
 62
     7
  6
CONTINUOUS
370
    -3
100
AcDbLine
 10
26400.30129516
 20
-2515.5872887
 30
0.0
 11
26396.54252467
 21
-2514.21920812
 31
0.0
  0
ARC
  5
1D2
100
AcDbEntity
  8
Ech.1_5
 62
     7
  6
CONTINUOUS
370
    -3
100
AcDbCircle
 10
26389.24787205
 20
-2505.7064111
 30
0.0
 40
14.82598747
100
AcDbArc
 50
281.86484165
 51
318.20582892
  0
ARC
  5
1D3
100
AcDbEntity
  8
Ech.1_5
 62
     7
  6
CONTINUOUS
370
    -3
100
AcDbCircle
 10
26386.00694307
 20
-2518.86638322
 30
0.0
 40
12.47697948
100
AcDbArc
 50
265.38781896
 51
330.63775604
  0
LINE
  5
1D4
100
AcDbEntity
  8
Ech.1_5
 62
     7
  6
CONTINUOUS
370
    -3
100
AcDbLine
 10
26393.65310585
 20
-2522.83059524
 30
0.0
 11
26397.53442535
 21
-2524.24328001
 31
0.0
  0
LINE
  5
1D5
100
AcDbEntity
  8
Ech.1_5
 62
     7
  6
CONTINUOUS
370
    -3
100
AcDbLine
 10
26397.53442535
 20
-2524.24328001
 30
0.0
 11
26393.79966675
 21
-2534.50444493
 31
0.0
  0
LINE
  5
1D6
100
AcDbEntity
  8
Ech.1_5
 62
     7
  6
CONTINUOUS
370
    -3
100
AcDbLine
 10
26394.33714614
 20
-2520.95121
 30
0.0
 11
26400.09785088
 21
-2523.04793505
 31
0.0
  0
LINE
  5
1D7
100
AcDbEntity
  8
Ech.1_5
 62
     7
  6
CONTINUOUS
370
    -3
100
AcDbLine
 10
26400.09785088
 20
-2523.04793505
 30
0.0
 11
26394.9950117
 21
-2537.06787046
 31
0.0
  0
CIRCLE
  5
1D8
100
AcDbEntity
  8
Ech.1_5
 62
     7
  6
CONTINUOUS
370
    -3
100
AcDbCircle
 10
26392.47619184
 20
-2471.30098435
 30
0.0
 40
2.51802373
  0
CIRCLE
  5
1D9
100
AcDbEntity
  8
Ech.1_5
 62
     7
  6
CONTINUOUS
370
    -3
100
AcDbCircle
 10
26382.21558755
 20
-2499.49176297
 30
0.0
 40
2.51802373
  0
CIRCLE
  5
1DA
100
AcDbEntity
  8
Ech.1_5
 62
     7
  6
CONTINUOUS
370
    -3
100
AcDbCircle
 10
26397.60649399
 20
-2457.20559504
 30
0.0
 40
2.51802373
  0
ARC
  5
1DB
100
AcDbEntity
  8
Ech.1_5
 62
     7
  6
CONTINUOUS
370
    -3
100
AcDbCircle
 10
26372.83384626
 20
-2499.73219429
 30
0.0
 40
14.82598747
100
AcDbArc
 50
181.79417108
 51
218.13515835
  0
ARC
  5
1DC
100
AcDbEntity
  8
Ech.1_5
 62
     7
  6
CONTINUOUS
370
    -3
100
AcDbCircle
 10
26357.68300248
 20
-2507.37053053
 30
0.0
 40
3.80485997
100
AcDbArc
 50
215.7460992
 51
336.50323339
  0
ARC
  5
1DD
100
AcDbEntity
  8
Ech.1_5
 62
     7
  6
CONTINUOUS
370
    -3
100
AcDbCircle
 10
26366.85747488
 20
-2511.8965468
 30
0.0
 40
12.47697948
100
AcDbArc
 50
169.36224396
 51
234.61218104
  0
LINE
  5
1DE
100
AcDbEntity
  8
Ech.1_5
 62
     7
  6
CONTINUOUS
370
    -3
100
AcDbLine
 10
26358.01512722
 20
-2500.19638225
 30
0.0
 11
26361.77389771
 21
-2501.56446282
 31
0.0
  0
ARC
  5
1DF
100
AcDbEntity
  8
Ech.1_5
 62
     7
  6
CONTINUOUS
370
    -3
100
AcDbCircle
 10
26363.48399842
 20
-2496.86599972
 30
0.0
 40
5.0
100
AcDbArc
 50
250.0
 51
340.0
  0
LINE
  5
1E0
100
AcDbEntity
  8
Ech.1_5
 62
     7
  6
CONTINUOUS
370
    -3
100
AcDbLine
 10
26358.452028
 20
-2510.01845069
 30
0.0
 11
26359.13606829
 21
-2508.13906545
 31
0.0
  0
LINE
  5
1E1
100
AcDbEntity
  8
Ech.1_5
 62
     7
  6
CONTINUOUS
370
    -3
100
AcDbLine
 10
26358.452028
 20
-2510.01845069
 30
0.0
 11
26354.5707085
 21
-2508.60576592
 31
0.0
  0
LINE
  5
1E2
100
AcDbEntity
  8
Ech.1_5
 62
     7
  6
CONTINUOUS
370
    -3
100
AcDbLine
 10
26354.5707085
 20
-2508.60576592
 30
0.0
 11
26350.8359499
 21
-2518.86693085
 31
0.0
  0
LINE
  5
1E3
100
AcDbEntity
  8
Ech.1_5
 62
     7
  6
CONTINUOUS
370
    -3
100
AcDbLine
 10
26359.13606829
 20
-2508.13906545
 30
0.0
 11
26353.37536355
 21
-2506.04234039
 31
0.0
  0
LINE
  5
1E4
100
AcDbEntity
  8
Ech.1_5
 62
     7
  6
CONTINUOUS
370
    -3
100
AcDbLine
 10
26353.37536355
 20
-2506.04234039
 30
0.0
 11
26348.27252437
 21
-2520.0622758
 31
0.0
  0
CIRCLE
  5
1E5
100
AcDbEntity
  8
Ech.1_5
 62
     7
  6
CONTINUOUS
370
    -3
100
AcDbCircle
 10
26407.86709829
 20
-2429.01481641
 30
0.0
 40
2.51802373
  0
LINE
  5
1E6
100
AcDbEntity
  8
Ech.1_5
 62
     7
  6
CONTINUOUS
370
    -3
100
AcDbLine
 10
26429.95233814
 20
-2407.80747804
 30
0.0
 11
26393.55416229
 21
-2507.8106443
 31
0.0
  0
CIRCLE
  5
1E7
100
AcDbEntity
  8
Ech.1_5
 62
     7
  6
CONTINUOUS
370
    -3
100
AcDbCircle
 10
26412.99740044
 20
-2414.9194271
 30
0.0
 40
2.51802373
  0
LINE
  5
1E8
100
AcDbEntity
  8
Ech.1_5
 62
     7
  6
CONTINUOUS
370
    -3
100
AcDbLine
 10
26429.95233814
 20
-2407.80747804
 30
0.0
 11
26404.58063738
 21
-2398.57293417
 31
0.0
  0
LINE
  5
1E9
100
AcDbEntity
  8
Ech.1_5
 62
     7
  6
CONTINUOUS
370
    -3
100
AcDbLine
 10
26350.8359499
 20
-2518.86693085
 30
0.0
 11
26393.79966675
 21
-2534.50444493
 31
0.0
  0
LINE
  5
1EA
100
AcDbEntity
  8
Ech.1_5
 62
     7
  6
CONTINUOUS
370
    -3
100
AcDbLine
 10
26394.9950117
 20
-2537.06787046
 30
0.0
 11
26348.27252437
 21
-2520.0622758
 31
0.0
  0
ARC
  5
1EB
100
AcDbEntity
  8
Ech.1_5
 62
     7
  6
CONTINUOUS
370
    -3
100
AcDbCircle
 10
26395.94426384
 20
-2521.29649079
 30
0.0
 40
3.80485997
100
AcDbArc
 50
163.49676661
 51
284.2539008
  0
LINE
  5
1EC
100
AcDbEntity
  8
Ech.1_5
 62
     7
  6
CONTINUOUS
370
    -3
100
AcDbLine
 10
26421.68783489
 20
-2396.57572866
 30
0.0
 11
26421.68783489
 21
-2396.57572866
 31
0.0
  0
LWPOLYLINE
  5
1ED
100
AcDbEntity
  8
Ech.1_5
 62
   190
  6
CONTINUOUS
370
    -3
100
AcDbPolyline
 90
       62
 70
     0
 43
0.0
 10
25778.90349955
 20
-2629.86024289
 42
0.74954235
 10
25795.00921453
 20
-2609.76147653
 10
25767.28102652
 20
-2570.13339942
 42
-1.30322619
 10
25791.63699632
 20
-2561.26855275
 10
25795.86840419
 20
-2609.44875712
 42
1.30322619
 10
25820.22437399
 20
-2600.58391044
 10
25792.49618598
 20
-2560.95583333
 42
-1.30322619
 10
25816.85215578
 20
-2552.09098666
 10
25821.08356365
 20
-2600.27119103
 42
1.30322619
 10
25845.43953345
 20
-2591.40634435
 10
25817.71134545
 20
-2551.77826725
 42
-1.30322619
 10
25842.06731525
 20
-2542.91342057
 10
25846.29872311
 20
-2591.09362494
 42
1.30322619
 10
25870.65469292
 20
-2582.22877826
 10
25842.92650491
 20
-2542.60070116
 42
-1.30322619
 10
25867.28247471
 20
-2533.73585448
 10
25871.51388258
 20
-2581.91605885
 42
1.30322619
 10
25895.86985238
 20
-2573.05121218
 10
25868.14166437
 20
-2533.42313507
 42
-1.30322619
 10
25892.49763417
 20
-2524.55828839
 10
25896.72904204
 20
-2572.73849276
 42
1.30322619
 10
25921.08501184
 20
-2563.87364609
 10
25893.35682383
 20
-2524.24556898
 42
-1.30322619
 10
25917.71279364
 20
-2515.38072231
 10
25921.9442015
 20
-2563.56092667
 42
1.30322619
 10
25946.30017131
 20
-2554.69608
 10
25918.5719833
 20
-2515.06800289
 42
-1.30322619
 10
25942.9279531
 20
-2506.20315622
 10
25947.15936097
 20
-2554.38336059
 42
1.30322619
 10
25971.51533077
 20
-2545.51851391
 10
25943.78714276
 20
-2505.8904368
 42
-1.30322619
 10
25968.14311256
 20
-2497.02559013
 10
25972.37452043
 20
-2545.2057945
 42
1.30322619
 10
25996.73049023
 20
-2536.34094782
 10
25969.00230222
 20
-2496.71287072
 42
-1.30322619
 10
25993.35827203
 20
-2487.84802404
 10
25997.58967989
 20
-2536.02822841
 42
1.30322619
 10
26021.94564969
 20
-2527.16338173
 10
25994.21746169
 20
-2487.53530463
 42
-1.30322619
 10
26018.57343149
 20
-2478.67045795
 10
26022.80483936
 20
-2526.85066232
 42
1.30322619
 10
26047.16080916
 20
-2517.98581565
 10
26019.43262115
 20
-2478.35773854
 42
-1.30322619
 10
26043.78859095
 20
-2469.49289186
 10
26048.01999882
 20
-2517.67309623
 42
1.30322619
 10
26072.37596862
 20
-2508.80824956
 10
26044.64778061
 20
-2469.18017245
 42
-1.30322619
 10
26069.00375041
 20
-2460.31532578
 10
26073.23515828
 20
-2508.49553014
 42
1.30322619
 10
26097.59112808
 20
-2499.63068347
 10
26069.86294008
 20
-2460.00260636
 42
-1.30322619
 10
26094.21890988
 20
-2451.13775969
 10
26098.45031774
 20
-2499.31796405
 42
1.30322619
 10
26122.80628755
 20
-2490.45311738
 10
26095.07809954
 20
-2450.82504027
 42
-1.30322619
 10
26119.43406934
 20
-2441.9601936
 10
26123.66547721
 20
-2490.14039797
 42
1.30322619
 10
26148.02144701
 20
-2481.27555129
 10
26120.293259
 20
-2441.64747419
 42
-1.30322619
 10
26144.6492288
 20
-2432.78262751
 10
26148.88063667
 20
-2480.96283188
 42
0.56265603
 10
26169.44681024
 20
-2491.11429645
  0
CIRCLE
  5
1EE
100
AcDbEntity
  8
Ech.1_5
 62
     7
  6
CONTINUOUS
370
    -3
100
AcDbCircle
 10
26051.78637481
 20
-2485.39637366
 30
0.0
 40
2.51802373
  0
LINE
  5
1EF
100
AcDbEntity
  8
Ech.1_5
 62
     7
  6
CONTINUOUS
370
    -3
100
AcDbLine
 10
26034.55162713
 20
-2398.57293417
 30
0.0
 11
26070.94980298
 21
-2498.57610043
 31
0.0
  0
CIRCLE
  5
1F0
100
AcDbEntity
  8
Ech.1_5
 62
     7
  6
CONTINUOUS
370
    -3
100
AcDbCircle
 10
26036.39546836
 20
-2443.11020573
 30
0.0
 40
2.51802373
  0
ARC
  5
1F1
100
AcDbEntity
  8
Ech.1_5
 62
     7
  6
CONTINUOUS
370
    -3
100
AcDbCircle
 10
26040.87963911
 20
-2509.52074502
 30
0.0
 40
5.0
100
AcDbArc
 50
290.0
 51
20.0
  0
LINE
  5
1F2
100
AcDbEntity
  8
Ech.1_5
 62
     7
  6
CONTINUOUS
370
    -3
100
AcDbLine
 10
26045.47915865
 20
-2522.83059524
 30
0.0
 11
26044.79511837
 21
-2520.95121
 31
0.0
  0
LINE
  5
1F3
100
AcDbEntity
  8
Ech.1_5
 62
     7
  6
CONTINUOUS
370
    -3
100
AcDbLine
 10
26038.83096934
 20
-2515.5872887
 30
0.0
 11
26042.58973983
 21
-2514.21920812
 31
0.0
  0
ARC
  5
1F4
100
AcDbEntity
  8
Ech.1_5
 62
     7
  6
CONTINUOUS
370
    -3
100
AcDbCircle
 10
26049.88439245
 20
-2505.7064111
 30
0.0
 40
14.82598747
100
AcDbArc
 50
221.79417108
 51
258.13515835
  0
ARC
  5
1F5
100
AcDbEntity
  8
Ech.1_5
 62
     7
  6
CONTINUOUS
370
    -3
100
AcDbCircle
 10
26053.12532144
 20
-2518.86638322
 30
0.0
 40
12.47697948
100
AcDbArc
 50
209.36224396
 51
274.61218104
  0
LINE
  5
1F6
100
AcDbEntity
  8
Ech.1_5
 62
     7
  6
CONTINUOUS
370
    -3
100
AcDbLine
 10
26045.47915865
 20
-2522.83059524
 30
0.0
 11
26041.59783916
 21
-2524.24328001
 31
0.0
  0
LINE
  5
1F7
100
AcDbEntity
  8
Ech.1_5
 62
     7
  6
CONTINUOUS
370
    -3
100
AcDbLine
 10
26041.59783916
 20
-2524.24328001
 30
0.0
 11
26045.33259776
 21
-2534.50444493
 31
0.0
  0
LINE
  5
1F8
100
AcDbEntity
  8
Ech.1_5
 62
     7
  6
CONTINUOUS
370
    -3
100
AcDbLine
 10
26044.79511837
 20
-2520.95121
 30
0.0
 11
26039.03441363
 21
-2523.04793505
 31
0.0
  0
LINE
  5
1F9
100
AcDbEntity
  8
Ech.1_5
 62
     7
  6
CONTINUOUS
370
    -3
100
AcDbLine
 10
26039.03441363
 20
-2523.04793505
 30
0.0
 11
26044.1372528
 21
-2537.06787046
 31
0.0
  0
CIRCLE
  5
1FA
100
AcDbEntity
  8
Ech.1_5
 62
     7
  6
CONTINUOUS
370
    -3
100
AcDbCircle
 10
26046.65607266
 20
-2471.30098435
 30
0.0
 40
2.51802373
  0
CIRCLE
  5
1FB
100
AcDbEntity
  8
Ech.1_5
 62
     7
  6
CONTINUOUS
370
    -3
100
AcDbCircle
 10
26056.91667696
 20
-2499.49176297
 30
0.0
 40
2.51802373
  0
CIRCLE
  5
1FC
100
AcDbEntity
  8
Ech.1_5
 62
     7
  6
CONTINUOUS
370
    -3
100
AcDbCircle
 10
26041.52577051
 20
-2457.20559504
 30
0.0
 40
2.51802373
  0
ARC
  5
1FD
100
AcDbEntity
  8
Ech.1_5
 62
     7
  6
CONTINUOUS
370
    -3
100
AcDbCircle
 10
26066.29841824
 20
-2499.73219429
 30
0.0
 40
14.82598747
100
AcDbArc
 50
321.86484165
 51
358.20582892
  0
ARC
  5
1FE
100
AcDbEntity
  8
Ech.1_5
 62
     7
  6
CONTINUOUS
370
    -3
100
AcDbCircle
 10
26081.44926202
 20
-2507.37053053
 30
0.0
 40
3.80485997
100
AcDbArc
 50
203.49676661
 51
324.2539008
  0
ARC
  5
1FF
100
AcDbEntity
  8
Ech.1_5
 62
     7
  6
CONTINUOUS
370
    -3
100
AcDbCircle
 10
26072.27478962
 20
-2511.8965468
 30
0.0
 40
12.47697948
100
AcDbArc
 50
305.38781896
 51
10.63775604
  0
LINE
  5
200
100
AcDbEntity
  8
Ech.1_5
 62
     7
  6
CONTINUOUS
370
    -3
100
AcDbLine
 10
26081.11713728
 20
-2500.19638225
 30
0.0
 11
26077.3583668
 21
-2501.56446282
 31
0.0
  0
ARC
  5
201
100
AcDbEntity
  8
Ech.1_5
 62
     7
  6
CONTINUOUS
370
    -3
100
AcDbCircle
 10
26075.64826608
 20
-2496.86599972
 30
0.0
 40
5.0
100
AcDbArc
 50
200.0
 51
290.0
  0
LINE
  5
202
100
AcDbEntity
  8
Ech.1_5
 62
     7
  6
CONTINUOUS
370
    -3
100
AcDbLine
 10
26080.6802365
 20
-2510.01845069
 30
0.0
 11
26079.99619622
 21
-2508.13906545
 31
0.0
  0
LINE
  5
203
100
AcDbEntity
  8
Ech.1_5
 62
     7
  6
CONTINUOUS
370
    -3
100
AcDbLine
 10
26080.6802365
 20
-2510.01845069
 30
0.0
 11
26084.561556
 21
-2508.60576592
 31
0.0
  0
LINE
  5
204
100
AcDbEntity
  8
Ech.1_5
 62
     7
  6
CONTINUOUS
370
    -3
100
AcDbLine
 10
26084.561556
 20
-2508.60576592
 30
0.0
 11
26088.2963146
 21
-2518.86693085
 31
0.0
  0
LINE
  5
205
100
AcDbEntity
  8
Ech.1_5
 62
     7
  6
CONTINUOUS
370
    -3
100
AcDbLine
 10
26079.99619622
 20
-2508.13906545
 30
0.0
 11
26085.75690096
 21
-2506.04234039
 31
0.0
  0
LINE
  5
206
100
AcDbEntity
  8
Ech.1_5
 62
     7
  6
CONTINUOUS
370
    -3
100
AcDbLine
 10
26085.75690096
 20
-2506.04234039
 30
0.0
 11
26090.85974013
 21
-2520.0622758
 31
0.0
  0
CIRCLE
  5
207
100
AcDbEntity
  8
Ech.1_5
 62
     7
  6
CONTINUOUS
370
    -3
100
AcDbCircle
 10
26031.26516621
 20
-2429.01481641
 30
0.0
 40
2.51802373
  0
LINE
  5
208
100
AcDbEntity
  8
Ech.1_5
 62
     7
  6
CONTINUOUS
370
    -3
100
AcDbLine
 10
26009.17992636
 20
-2407.80747804
 30
0.0
 11
26045.57810221
 21
-2507.8106443
 31
0.0
  0
CIRCLE
  5
209
100
AcDbEntity
  8
Ech.1_5
 62
     7
  6
CONTINUOUS
370
    -3
100
AcDbCircle
 10
26026.13486406
 20
-2414.9194271
 30
0.0
 40
2.51802373
  0
LINE
  5
20A
100
AcDbEntity
  8
Ech.1_5
 62
     7
  6
CONTINUOUS
370
    -3
100
AcDbLine
 10
26009.17992636
 20
-2407.80747804
 30
0.0
 11
26034.55162713
 21
-2398.57293417
 31
0.0
  0
LINE
  5
20B
100
AcDbEntity
  8
Ech.1_5
 62
     7
  6
CONTINUOUS
370
    -3
100
AcDbLine
 10
26088.2963146
 20
-2518.86693085
 30
0.0
 11
26045.33259776
 21
-2534.50444493
 31
0.0
  0
LINE
  5
20C
100
AcDbEntity
  8
Ech.1_5
 62
     7
  6
CONTINUOUS
370
    -3
100
AcDbLine
 10
26044.1372528
 20
-2537.06787046
 30
0.0
 11
26090.85974013
 21
-2520.0622758
 31
0.0
  0
ARC
  5
20D
100
AcDbEntity
  8
Ech.1_5
 62
     7
  6
CONTINUOUS
370
    -3
100
AcDbCircle
 10
26043.18800066
 20
-2521.29649079
 30
0.0
 40
3.80485997
100
AcDbArc
 50
255.7460992
 51
16.50323339
  0
LINE
  5
20E
100
AcDbEntity
  8
Ech.1_5
 62
     7
  6
CONTINUOUS
370
    -3
100
AcDbLine
 10
26017.44442961
 20
-2396.57572866
 30
0.0
 11
26017.44442961
 21
-2396.57572866
 31
0.0
  0
LWPOLYLINE
  5
20F
100
AcDbEntity
  8
Ech.1_5
 62
     7
  6
CONTINUOUS
370
    70
100
AcDbPolyline
 90
        3
 70
     0
 43
0.0
 10
26299.85368559
 20
-2499.37489922
 10
26271.6629064
 20
-2489.11429645
 10
26271.6629064
 20
-2459.11429645
  0
LWPOLYLINE
  5
210
100
AcDbEntity
  8
Ech.1_5
 62
     7
  6
CONTINUOUS
370
    70
100
AcDbPolyline
 90
        3
 70
     0
 43
0.0
 10
26139.36407914
 20
-2499.67175894
 10
26167.55485832
 20
-2489.41115618
 10
26167.55485832
 20
-2459.41115618
  0
LWPOLYLINE
  5
211
100
AcDbEntity
  8
Ech.1_5
 62
     5
  6
CONTINUOUS
370
    -3
100
AcDbPolyline
 90
        6
 70
     0
 43
0.0
 10
26169.55485831
 20
-2637.09929455
 10
26269.55485831
 20
-2637.09929455
 10
26269.55485831
 20
-2340.39780668
 10
26219.55485831
 20
-2322.09929455
 10
26169.55485831
 20
-2340.29780627
 10
26169.55485831
 20
-2637.09929455
  0
LINE
  5
212
100
AcDbEntity
  8
Ech.1_5
 62
   190
  6
CONTINUOUS
370
    -3
100
AcDbLine
 10
26169.55485831
 20
-2367.09929455
 30
0.0
 11
26269.55485831
 21
-2367.09929455
 31
0.0
  0
LINE
  5
213
100
AcDbEntity
  8
Ech.1_5
 62
   190
  6
CONTINUOUS
370
    -3
100
AcDbLine
 10
26269.55485831
 20
-2412.09929455
 30
0.0
 11
26169.55485831
 21
-2412.09929455
 31
0.0
  0
LINE
  5
214
100
AcDbEntity
  8
Ech.1_5
 62
   190
  6
CONTINUOUS
370
    -3
100
AcDbLine
 10
26169.55485831
 20
-2457.09929455
 30
0.0
 11
26269.55485831
 21
-2457.09929455
 31
0.0
  0
LINE
  5
215
100
AcDbEntity
  8
Ech.1_5
 62
   190
  6
CONTINUOUS
370
    -3
100
AcDbLine
 10
26269.55485831
 20
-2502.09929455
 30
0.0
 11
26169.55485831
 21
-2502.09929455
 31
0.0
  0
LINE
  5
216
100
AcDbEntity
  8
Ech.1_5
 62
   190
  6
CONTINUOUS
370
    -3
100
AcDbLine
 10
26169.55485831
 20
-2547.09929455
 30
0.0
 11
26269.55485831
 21
-2547.09929455
 31
0.0
  0
LINE
  5
217
100
AcDbEntity
  8
Ech.1_5
 62
   190
  6
CONTINUOUS
370
    -3
100
AcDbLine
 10
26169.55485831
 20
-2592.09929455
 30
0.0
 11
26269.55485831
 21
-2592.09929455
 31
0.0
  0
LWPOLYLINE
  5
218
100
AcDbEntity
  8
Ech.1_5
 62
   190
  6
CONTINUOUS
370
    -3
100
AcDbPolyline
 90
       68
 70
     0
 43
0.0
 10
26774.38020585
 20
-2294.88623158
 42
1.14028181
 10
26742.11546669
 20
-2287.73332132
 10
26736.85908002
 20
-2347.58423828
 42
-1.30322619
 10
26706.60335311
 20
-2336.57205426
 10
26741.04815515
 20
-2287.34485169
 42
1.30322619
 10
26710.79242823
 20
-2276.33266768
 10
26705.53604156
 20
-2336.18358463
 42
-1.30322619
 10
26675.28031465
 20
-2325.17140062
 10
26709.72511669
 20
-2275.94419805
 42
1.30322619
 10
26679.46938977
 20
-2264.93201403
 10
26674.2130031
 20
-2324.78293098
 42
-1.30322619
 10
26643.95727619
 20
-2313.77074697
 10
26678.40207823
 20
-2264.5435444
 42
1.30322619
 10
26648.14635131
 20
-2253.53136039
 10
26642.88996464
 20
-2313.38227734
 42
-1.30322619
 10
26612.63423773
 20
-2302.37009332
 10
26647.07903977
 20
-2253.14289075
 42
1.30322619
 10
26616.82331285
 20
-2242.13070674
 10
26611.56692618
 20
-2301.98162369
 42
-1.30322619
 10
26581.31119927
 20
-2290.96943968
 10
26615.75600131
 20
-2241.74223711
 42
1.30322619
 10
26585.50027439
 20
-2230.73005309
 10
26580.24388772
 20
-2290.58097005
 42
-1.30322619
 10
26549.9881608
 20
-2279.56878603
 10
26584.43296285
 20
-2230.34158346
 42
1.30322619
 10
26554.17723593
 20
-2219.32939945
 10
26548.92084926
 20
-2279.1803164
 42
-1.30322619
 10
26518.66512234
 20
-2268.16813239
 10
26553.10992439
 20
-2218.94092981
 42
1.30322619
 10
26522.85419747
 20
-2207.9287458
 10
26517.5978108
 20
-2267.77966275
 42
-1.30322619
 10
26487.34208388
 20
-2256.76747874
 10
26521.78688593
 20
-2207.54027617
 42
1.30322619
 10
26491.53115901
 20
-2196.52809215
 10
26486.27477234
 20
-2256.37900911
 42
-1.30322619
 10
26456.01904542
 20
-2245.36682509
 10
26490.46384747
 20
-2196.13962252
 42
1.30322619
 10
26460.20812055
 20
-2185.12743851
 10
26454.95173388
 20
-2244.97835546
 42
-1.30322619
 10
26424.69600696
 20
-2233.96617145
 10
26459.14080901
 20
-2184.73896887
 42
1.30322619
 10
26428.88508209
 20
-2173.72678486
 10
26423.62869542
 20
-2233.57770181
 42
-1.30322619
 10
26393.3729685
 20
-2222.5655178
 10
26427.81777055
 20
-2173.33831523
 42
1.30322619
 10
26397.56204363
 20
-2162.32613122
 10
26392.30565696
 20
-2222.17704817
 42
-1.30322619
 10
26362.04993004
 20
-2211.16486415
 10
26396.49473209
 20
-2161.93766158
 42
1.30322619
 10
26366.23900517
 20
-2150.92547757
 10
26360.9826185
 20
-2210.77639452
 42
-1.30322619
 10
26330.72689158
 20
-2199.76421051
 10
26365.17169363
 20
-2150.53700794
 42
1.30322619
 10
26334.91596671
 20
-2139.52482392
 10
26329.65958004
 20
-2199.37574088
 42
-1.30322619
 10
26299.40385312
 20
-2188.36355686
 10
26333.84865517
 20
-2139.13635429
 42
1.30322619
 10
26303.59292825
 20
-2128.12417028
 10
26298.33654158
 20
-2187.97508723
 42
-1.30322619
 10
26268.08081466
 20
-2176.96290322
 10
26302.52561671
 20
-2127.73570064
 42
1.30322619
 10
26272.26988979
 20
-2116.72351663
 10
26267.01350312
 20
-2176.57443358
 42
-1.30322619
 10
26236.7577762
 20
-2165.56224957
 10
26271.20257825
 20
-2116.335047
 42
1.30322619
 10
26240.94685133
 20
-2105.32286298
 10
26235.69046466
 20
-2165.17377994
 42
-0.38082473
 10
26219.55485832
 20
-2180.38127598
  0
LWPOLYLINE
  5
219
100
AcDbEntity
  8
Ech.1_5
 62
   190
  6
CONTINUOUS
370
    -3
100
AcDbPolyline
 90
        3
 70
     0
 43
0.0
 10
26219.55485832
 20
-2133.98165599
 10
26239.87953979
 20
-2104.93439335
 42
0.75765931
 10
26219.55485832
 20
-2080.10197383
  0
ARC
  5
21A
100
AcDbEntity
  8
Ech.1_5
 62
   190
  6
CONTINUOUS
370
    -3
100
AcDbCircle
 10
26226.22703279
 20
-2116.65834821
 30
0.0
 40
16.66664064
100
AcDbArc
 50
113.59887835
 51
122.18492139
  0
LWPOLYLINE
  5
21B
100
AcDbEntity
  8
Ech.1_5
 62
   190
  6
CONTINUOUS
370
    -3
100
AcDbPolyline
 90
       68
 70
     0
 43
0.0
 10
26219.55485832
 20
-2181.34457307
 42
-0.43868965
 10
26200.13020162
 20
-2166.37103677
 10
26194.87380617
 20
-2106.52001989
 42
1.30322619
 10
26164.61802874
 20
-2117.53222229
 10
26199.0628883
 20
-2166.75950705
 42
-1.30322619
 10
26168.80711086
 20
-2177.77170945
 10
26163.55071542
 20
-2117.92069257
 42
1.30322619
 10
26133.29493798
 20
-2128.93289497
 10
26167.73979754
 20
-2178.16017973
 42
-1.30322619
 10
26137.48402011
 20
-2189.17238213
 10
26132.22762466
 20
-2129.32136525
 42
1.30322619
 10
26101.97184723
 20
-2140.33356765
 10
26136.41670678
 20
-2189.56085241
 42
-1.30322619
 10
26106.16092935
 20
-2200.57305481
 10
26100.9045339
 20
-2140.72203793
 42
1.30322619
 10
26070.64875647
 20
-2151.73424033
 10
26105.09361602
 20
-2200.96152509
 42
-1.30322619
 10
26074.83783859
 20
-2211.97372749
 10
26069.58144314
 20
-2152.12271061
 42
1.30322619
 10
26039.32566571
 20
-2163.13491301
 10
26073.77052526
 20
-2212.36219778
 42
-1.30322619
 10
26043.51474783
 20
-2223.37440017
 10
26038.25835238
 20
-2163.52338329
 42
1.30322619
 10
26008.00257495
 20
-2174.53558569
 10
26042.44743451
 20
-2223.76287046
 42
-1.30322619
 10
26012.19165707
 20
-2234.77507286
 10
26006.93526163
 20
-2174.92405598
 42
1.30322619
 10
25976.67948419
 20
-2185.93625837
 10
26011.12434375
 20
-2235.16354314
 42
-1.30322619
 10
25980.86856632
 20
-2246.17574554
 10
25975.61217087
 20
-2186.32472866
 42
1.30322619
 10
25945.35639344
 20
-2197.33693106
 10
25979.80125299
 20
-2246.56421582
 42
-1.30322619
 10
25949.54547556
 20
-2257.57641822
 10
25944.28908011
 20
-2197.72540134
 42
1.30322619
 10
25914.03330268
 20
-2208.73760374
 10
25948.47816223
 20
-2257.9648885
 42
-1.30322619
 10
25918.2223848
 20
-2268.9770909
 10
25912.96598935
 20
-2209.12607402
 42
1.30322619
 10
25882.71021192
 20
-2220.13827642
 10
25917.15507147
 20
-2269.36556118
 42
-1.30322619
 10
25886.89929404
 20
-2280.37776358
 10
25881.64289859
 20
-2220.5267467
 42
1.30322619
 10
25851.38712116
 20
-2231.5389491
 10
25885.83198072
 20
-2280.76623386
 42
-1.30322619
 10
25855.57620328
 20
-2291.77843626
 10
25850.31980784
 20
-2231.92741938
 42
1.30322619
 10
25820.0640304
 20
-2242.93962178
 10
25854.50888996
 20
-2292.16690654
 42
-1.30322619
 10
25824.25311253
 20
-2303.17910894
 10
25818.99671708
 20
-2243.32809206
 42
1.30322619
 10
25788.74093965
 20
-2254.34029446
 10
25823.1857992
 20
-2303.56757922
 42
-1.30322619
 10
25792.93002177
 20
-2314.57978162
 10
25787.67362632
 20
-2254.72876474
 42
1.30322619
 10
25757.41784889
 20
-2265.74096714
 10
25791.86270844
 20
-2314.96825191
 42
-1.30322619
 10
25761.60693101
 20
-2325.98045431
 10
25756.35053556
 20
-2266.12943742
 42
1.30322619
 10
25726.09475813
 20
-2277.14163982
 10
25760.53961768
 20
-2326.36892459
 42
-1.30322619
 10
25730.28384025
 20
-2337.38112699
 10
25725.0274448
 20
-2277.53011011
 42
1.30322619
 10
25694.77166737
 20
-2288.5423125
 10
25729.21652693
 20
-2337.76959727
 42
-1.30322619
 10
25698.96074949
 20
-2348.78179967
 10
25693.70435404
 20
-2288.93078279
 42
0.81834022
 10
25661.23411987
 20
-2285.28272392
  0
LWPOLYLINE
  5
21C
100
AcDbEntity
  8
Ech.1_5
 62
   190
  6
CONTINUOUS
370
    -3
100
AcDbPolyline
 90
        3
 70
     0
 43
0.0
 10
26219.55485832
 20
-2083.20959223
 42
0.85184509
 10
26195.9411195
 20
-2106.13154961
 10
26219.55485832
 20
-2139.87940808
  0
LWPOLYLINE
  5
21D
100
AcDbEntity
  8
Ech.1_5
 62
   190
  6
CONTINUOUS
370
    -3
100
AcDbPolyline
 90
       54
 70
     0
 43
0.0
 10
26219.55485832
 20
-2308.98924088
 42
-0.43868965
 10
26196.24527492
 20
-2291.02100089
 10
26189.93760163
 20
-2219.19979492
 42
1.30322619
 10
26153.63067594
 20
-2232.41443517
 10
26194.96449918
 20
-2291.48716513
 42
-1.30322619
 10
26158.65757349
 20
-2304.70180539
 10
26152.3499002
 20
-2232.88059941
 42
1.30322619
 10
26116.04297451
 20
-2246.09523966
 10
26157.37679775
 20
-2305.16796963
 42
-1.30322619
 10
26121.06987205
 20
-2318.38260988
 10
26114.76219877
 20
-2246.56140391
 42
1.30322619
 10
26078.45527307
 20
-2259.77604416
 10
26119.78909632
 20
-2318.84877413
 42
-1.30322619
 10
26083.48217062
 20
-2332.06341438
 10
26077.17449734
 20
-2260.24220841
 42
1.30322619
 10
26040.86757164
 20
-2273.45684866
 10
26082.20139488
 20
-2332.52957862
 42
-1.30322619
 10
26045.89446919
 20
-2345.74421887
 10
26039.5867959
 20
-2273.9230129
 42
1.30322619
 10
26003.27987021
 20
-2287.13765315
 10
26044.61369345
 20
-2346.21038312
 42
-1.30322619
 10
26008.30676775
 20
-2359.42502337
 10
26001.99909447
 20
-2287.6038174
 42
1.30322619
 10
25965.69216877
 20
-2300.81845765
 10
26007.02599202
 20
-2359.89118761
 42
-1.30322619
 10
25970.71906632
 20
-2373.10582787
 10
25964.41139304
 20
-2301.28462189
 42
1.30322619
 10
25928.10446734
 20
-2314.49926215
 10
25969.43829058
 20
-2373.57199211
 42
-1.30322619
 10
25933.13136489
 20
-2386.78663236
 10
25926.8236916
 20
-2314.96542639
 42
1.30322619
 10
25890.51676591
 20
-2328.18006664
 10
25931.85058915
 20
-2387.25279661
 42
-1.30322619
 10
25895.54366346
 20
-2400.46743686
 10
25889.23599017
 20
-2328.64623089
 42
1.30322619
 10
25852.92906448
 20
-2341.86087114
 10
25894.26288772
 20
-2400.9336011
 42
-1.30322619
 10
25857.95596202
 20
-2414.14824135
 10
25851.64828874
 20
-2342.32703538
 42
1.30322619
 10
25815.34136304
 20
-2355.54167563
 10
25856.67518629
 20
-2414.6144056
 42
-1.30322619
 10
25820.36826059
 20
-2427.82904585
 10
25814.06058731
 20
-2356.00783988
 42
1.30322619
 10
25777.75366161
 20
-2369.22248013
 10
25819.08748485
 20
-2428.2952101
 42
-1.30322619
 10
25782.78055916
 20
-2441.50985035
 10
25776.47288587
 20
-2369.68864437
 42
1.30322619
 10
25740.16596018
 20
-2382.90328463
 10
25781.49978342
 20
-2441.97601459
 42
-1.30322619
 10
25745.19285772
 20
-2455.19065484
 10
25738.88518444
 20
-2383.36944887
 42
1.30322619
 10
25702.57825874
 20
-2396.58408912
 10
25743.91208199
 20
-2455.65681909
 42
-0.61675869
 10
25726.95029226
 20
-2487.1199791
  0
LWPOLYLINE
  5
21E
100
AcDbEntity
  8
Ech.1_5
 62
   190
  6
CONTINUOUS
370
    -3
100
AcDbPolyline
 90
        3
 70
     0
 43
0.0
 10
26219.55485832
 20
-2191.22728729
 42
0.85184509
 10
26191.21837737
 20
-2218.73363067
 10
26219.55485832
 20
-2259.23105279
  0
LWPOLYLINE
  5
21F
100
AcDbEntity
  8
Ech.1_5
 62
   190
  6
CONTINUOUS
370
    -3
100
AcDbPolyline
 90
       52
 70
     0
 43
0.0
 10
26745.87856664
 20
-2394.47741093
 42
1.14028181
 10
26707.16082796
 20
-2385.89391674
 10
26700.85317277
 20
-2457.7151107
 42
-1.30322619
 10
26664.54625079
 20
-2444.50048148
 10
26705.88005236
 20
-2385.42775288
 42
1.30322619
 10
26669.57313037
 20
-2372.21312366
 10
26663.26547518
 20
-2444.03431762
 42
-1.30322619
 10
26626.95855319
 20
-2430.8196884
 10
26668.29235476
 20
-2371.7469598
 42
1.30322619
 10
26631.98543278
 20
-2358.53233058
 10
26625.67777759
 20
-2430.35352455
 42
-1.30322619
 10
26589.3708556
 20
-2417.13889532
 10
26630.70465717
 20
-2358.06616673
 42
1.30322619
 10
26594.39773519
 20
-2344.8515375
 10
26588.09007999
 20
-2416.67273147
 42
-1.30322619
 10
26551.78315801
 20
-2403.45810225
 10
26593.11695958
 20
-2344.38537365
 42
1.30322619
 10
26556.81003759
 20
-2331.17074443
 10
26550.5023824
 20
-2402.99193839
 42
-1.30322619
 10
26514.19546042
 20
-2389.77730917
 10
26555.52926199
 20
-2330.70458057
 42
1.30322619
 10
26519.22234
 20
-2317.48995135
 10
26512.91468481
 20
-2389.31114531
 42
-1.30322619
 10
26476.60776282
 20
-2376.09651609
 10
26517.94156439
 20
-2317.02378749
 42
1.30322619
 10
26481.63464241
 20
-2303.80915827
 10
26475.32698722
 20
-2375.63035224
 42
-1.30322619
 10
26439.02006523
 20
-2362.41572302
 10
26480.3538668
 20
-2303.34299442
 42
1.30322619
 10
26444.04694482
 20
-2290.1283652
 10
26437.73928962
 20
-2361.94955916
 42
-1.30322619
 10
26401.43236764
 20
-2348.73492994
 10
26442.76616921
 20
-2289.66220134
 42
1.30322619
 10
26406.45924722
 20
-2276.44757212
 10
26400.15159203
 20
-2348.26876608
 42
-1.30322619
 10
26363.84467005
 20
-2335.05413686
 10
26405.17847162
 20
-2275.98140826
 42
1.30322619
 10
26368.87154963
 20
-2262.76677904
 10
26362.56389444
 20
-2334.587973
 42
-1.30322619
 10
26326.25697245
 20
-2321.37334378
 10
26367.59077402
 20
-2262.30061518
 42
1.30322619
 10
26331.28385204
 20
-2249.08598596
 10
26324.97619685
 20
-2320.90717993
 42
-1.30322619
 10
26288.66927486
 20
-2307.69255071
 10
26330.00307643
 20
-2248.61982211
 42
1.30322619
 10
26293.69615445
 20
-2235.40519289
 10
26287.38849925
 20
-2307.22638685
 42
-1.30322619
 10
26251.08157727
 20
-2294.01175763
 10
26292.41537884
 20
-2234.93902903
 42
1.30322619
 10
26256.10845685
 20
-2221.72439981
 10
26249.80080166
 20
-2293.54559377
 42
-0.5547155
 10
26219.55485832
 20
-2308.93302412
  0
LWPOLYLINE
  5
220
100
AcDbEntity
  8
Ech.1_5
 62
   190
  6
CONTINUOUS
370
    -3
100
AcDbPolyline
 90
        3
 70
     0
 43
0.0
 10
26219.55485832
 20
-2271.66883977
 10
26254.82768125
 20
-2221.25823595
 42
1.14854321
 10
26219.55485832
 20
-2203.21589163
  0
LWPOLYLINE
  5
221
100
AcDbEntity
  8
Ech.1_5
 62
   190
  6
CONTINUOUS
370
    -3
100
AcDbPolyline
 90
        5
 70
     0
 43
0.0
 10
25540.47124057
 20
-2850.66955982
 10
26895.47124057
 20
-2850.66955982
 10
26895.47124057
 20
-1865.66955982
 10
25540.47124057
 20
-1865.66955982
 10
25540.47124057
 20
-2850.66955982
  0
LWPOLYLINE
  5
222
100
AcDbEntity
  8
Ech.1_5
 62
     5
  6
CONTINUOUS
370
    -3
100
AcDbPolyline
 90
        5
 70
     0
 43
0.0
 10
26174.55485832
 20
-2325.70780664
 10
26219.55485832
 20
-2309.32916128
 10
26219.55485832
 20
-2075.21005134
 10
26174.55485832
 20
-2091.58869871
 10
26174.55485832
 20
-2325.70780664
  0
LWPOLYLINE
  5
223
100
AcDbEntity
  8
Ech.1_5
 62
     5
  6
CONTINUOUS
370
    -3
100
AcDbPolyline
 90
        5
 70
     0
 43
0.0
 10
26264.55485832
 20
-2325.70780664
 10
26219.55485832
 20
-2309.32916128
 10
26219.55485832
 20
-2075.21005134
 10
26264.55485832
 20
-2091.58869871
 10
26264.55485832
 20
-2325.70780664
  0
LWPOLYLINE
  5
224
100
AcDbEntity
  8
Ech.1_5
 62
     3
370
    70
100
AcDbPolyline
 90
        4
 70
     0
 43
0.0
 10
25630.57123779
 20
-1962.54877386
 10
25617.58210437
 20
-1962.54877386
 10
25613.64737223
 20
-1956.8681609
 10
25600.16894223
 20
-1956.8681609
  0
LWPOLYLINE
  5
225
100
AcDbEntity
  8
Ech.1_5
 62
   190
100
AcDbPolyline
 90
        5
 70
     0
 43
0.0
 10
25639.66483945
 20
-2763.19431767
 10
25774.09361843
 20
-2763.19431767
 10
25774.09361843
 20
-2819.91727649
 10
25639.66483945
 20
-2819.91727649
 10
25639.66483945
 20
-2763.19431767
  0
LWPOLYLINE
  5
226
100
AcDbEntity
  8
Ech.1_5
 62
   190
100
AcDbPolyline
 90
        5
 70
     0
 43
0.0
 10
25657.94488523
 20
-2796.8511288
 10
25707.94488523
 20
-2796.8511288
 10
25707.94488523
 20
-2789.43599127
 10
25657.94488523
 20
-2789.43599127
 10
25657.94488523
 20
-2796.8511288
  0
LWPOLYLINE
  5
227
100
AcDbEntity
  8
Ech.1_5
 62
   190
100
AcDbPolyline
 90
        5
 70
     0
 43
0.0
 10
25707.94488523
 20
-2796.8511288
 10
25757.94488523
 20
-2796.8511288
 10
25757.94488523
 20
-2789.43599127
 10
25707.94488523
 20
-2789.43599127
 10
25707.94488523
 20
-2796.8511288
  0
LWPOLYLINE
  5
228
100
AcDbEntity
  8
Ech.1_5
 62
   150
  6
CADWORK_22
370
    35
100
AcDbPolyline
 90
        3
 70
     0
 43
0.0
 38
2500.0
 10
25651.6756975
 20
-2280.30472975
 10
26219.55485832
 20
-2073.61378483
 10
26306.97767305
 20
-2105.46455682
  0
LWPOLYLINE
  5
229
100
AcDbEntity
  8
Ech.1_5
 62
   150
  6
CADWORK_22
370
    35
100
AcDbPolyline
 90
        5
 70
     0
 43
0.0
 38
2500.0
 10
26787.43401922
 20
-2280.30472978
 10
26314.02658696
 20
-2107.99865437
 10
26310.5940362
 20
-2103.49571543
 10
26219.56941214
 20
-2069.33005827
 10
26123.94687055
 20
-2104.13827392
  0
LWPOLYLINE
  5
22A
100
AcDbEntity
  8
Ech.1_5
 62
     3
370
    70
100
AcDbPolyline
 90
        4
 70
     0
 43
0.0
 10
26141.49886435
 20
-2355.3990388
 10
26129.29307159
 20
-2359.84158426
 10
26124.33678903
 20
-2357.72869715
 10
26111.67120789
 20
-2362.3385919
  0
LWPOLYLINE
  5
22B
100
AcDbEntity
  8
Ech.1_5
 62
     3
370
    70
100
AcDbPolyline
 90
        4
 70
     0
 43
0.0
 10
26297.6108523
 20
-2355.3990388
 10
26309.81664506
 20
-2359.84158426
 10
26314.77292762
 20
-2357.72869715
 10
26327.43850876
 20
-2362.3385919
  0
LWPOLYLINE
  5
22C
100
AcDbEntity
  8
Ech.1_5
 62
     1
  6
CADWORK_22
 48
-5.0
370
    35
100
AcDbPolyline
 90
        3
 70
     0
 43
0.0
 10
26309.59209819
 20
-2354.87016984
 10
26219.55485832
 20
-2322.09929456
 10
26130.75768799
 20
-2354.41891806
  0
LWPOLYLINE
  5
22D
100
AcDbEntity
  8
Ech.1_5
 62
   190
  6
CONTINUOUS
370
    -3
100
AcDbPolyline
 90
        5
 70
     0
 43
0.0
 10
26219.55485832
 20
-2322.09929455
 10
26707.57226228
 20
-2499.7231034
 10
26711.676504
 20
-2488.44679195
 10
26219.55485832
 20
-2309.32916128
 10
26219.55485832
 20
-2322.09929455
  0
LWPOLYLINE
  5
22E
100
AcDbEntity
  8
Ech.1_5
 62
     7
  6
CONTINUOUS
370
    -3
100
AcDbPolyline
 90
        5
 70
     0
 43
0.0
 10
26257.75443909
 20
-2060.38086707
 10
26248.51988402
 20
-2085.75261781
 10
26786.92093511
 20
-2281.71441677
 10
26796.15549328
 20
-2256.34267673
 10
26257.75443909
 20
-2060.38086707
  0
LWPOLYLINE
  5
22F
100
AcDbEntity
  8
Ech.1_5
 62
   190
  6
CONTINUOUS
370
    -3
100
AcDbPolyline
 90
        9
 70
     0
 43
0.0
 10
26786.92098893
 20
-2281.71426868
 10
26219.55485832
 20
-2075.21005134
 10
26219.55485832
 20
-2309.32916128
 10
26711.6765574
 20
-2488.44664525
 10
26732.50234328
 20
-2431.22826881
 10
26721.24688413
 20
-2409.58720515
 10
26750.2083064
 20
-2435.14378533
 10
26738.95349891
 20
-2413.50386439
 10
26786.92098893
 20
-2281.71426868
  0
LWPOLYLINE
  5
230
100
AcDbEntity
  8
Ech.1_5
 62
   190
  6
CONTINUOUS
370
    -3
100
AcDbPolyline
 90
        9
 70
     0
 43
0.0
 10
25652.18872772
 20
-2281.71426868
 10
26219.55485832
 20
-2075.21005134
 10
26219.55485832
 20
-2309.32916128
 10
25727.43315925
 20
-2488.44664525
 10
25706.60737337
 20
-2431.22826881
 10
25717.86283252
 20
-2409.58720515
 10
25688.90141025
 20
-2435.14378533
 10
25700.15621774
 20
-2413.50386439
 10
25652.18872772
 20
-2281.71426868
  0
LWPOLYLINE
  5
231
100
AcDbEntity
  8
Ech.1_5
 62
   190
  6
CONTINUOUS
370
    -3
100
AcDbPolyline
 90
        7
 70
     0
 43
0.0
 10
26306.00188812
 20
-2049.36559788
 10
26296.78083881
 20
-2074.70022265
 10
26334.36716708
 20
-2088.38481046
 10
26340.09367382
 20
-2072.6513625
 10
26343.58959295
 20
-2063.04640361
 10
26340.09367382
 20
-2061.7739931
 10
26306.00188812
 20
-2049.36559788
  0
LWPOLYLINE
  5
232
100
AcDbEntity
  8
Ech.1_5
 62
   190
  6
CONTINUOUS
370
    -3
100
AcDbPolyline
 90
        6
 70
     0
 43
0.0
 10
26199.55485832
 20
-2082.48945637
 10
26199.55485832
 20
-1910.11404713
 10
26239.55485832
 20
-1910.11404713
 10
26239.55485832
 20
-2082.48945637
 10
26219.55485832
 20
-2075.21005134
 10
26199.55485832
 20
-2082.48945637
  0
LWPOLYLINE
  5
233
100
AcDbEntity
  8
Ech.1_5
 62
   190
  6
CONTINUOUS
370
    -3
100
AcDbPolyline
 90
        5
 70
     0
 43
0.0
 10
26654.55911175
 20
-2645.37553743
 10
26659.00537361
 20
-2633.15953336
 10
26278.69947184
 20
-2494.73986654
 10
26274.25321103
 20
-2506.95587099
 10
26654.55911175
 20
-2645.37553743
  0
LWPOLYLINE
  5
234
100
AcDbEntity
  8
Ech.1_5
 62
   190
  6
CONTINUOUS
370
    -3
100
AcDbPolyline
 90
        7
 70
     0
 43
0.0
 10
26133.10782853
 20
-2049.36559788
 10
26142.32887784
 20
-2074.70022265
 10
26104.74254957
 20
-2088.38481046
 10
26099.01604283
 20
-2072.6513625
 10
26095.5201237
 20
-2063.04640361
 10
26099.01604283
 20
-2061.7739931
 10
26133.10782853
 20
-2049.36559788
  0
LWPOLYLINE
  5
235
100
AcDbEntity
  8
Ech.1_5
 62
   190
  6
CONTINUOUS
370
    -3
100
AcDbPolyline
 90
        4
 70
     0
 43
0.0
 10
25750.05320304
 20
-2117.08145652
 10
25749.46514298
 20
-2117.22346143
 10
25751.31441646
 20
-2122.30429857
 10
25750.05320304
 20
-2117.08145652
  0
LWPOLYLINE
  5
236
100
AcDbEntity
  8
Ech.1_5
 62
   190
  6
CONTINUOUS
370
    -3
100
AcDbPolyline
 90
       25
 70
     0
 43
0.0
 10
26142.93681897
 20
-2070.58752525
 10
26166.66948326
 20
-2064.22178841
 10
26154.0652246
 20
-2012.02598145
 10
26144.62080614
 20
-2014.30662237
 10
26147.19850567
 20
-2024.98119758
 10
26130.24598534
 20
-2029.07489712
 10
26127.66828581
 20
-2018.40032192
 10
26118.22386734
 20
-2020.68096284
 10
26120.80156687
 20
-2031.35553804
 10
26097.73521809
 20
-2036.92560666
 10
26084.60471825
 20
-1982.55056936
 10
25758.16933423
 20
-2061.37828093
 42
0.41421356
 10
25741.72151133
 20
-2088.29867302
 10
25745.94901472
 20
-2105.80529177
 10
25745.99696431
 20
-2105.79371288
 10
25747.36101532
 20
-2111.44241819
 10
25763.99578581
 20
-2157.14607449
 10
25778.96061263
 20
-2153.53236375
 10
25776.42735996
 20
-2143.04184853
 10
25792.21201703
 20
-2138.87103045
 10
25794.70743415
 20
-2149.20486394
 10
25805.16663197
 20
-2146.39942667
 10
25802.98339946
 20
-2137.35838856
 10
26136.8279042
 20
-2047.81234196
 10
26142.93681897
 20
-2070.58752525
  0
LWPOLYLINE
  5
237
100
AcDbEntity
  8
Ech.1_5
 62
   190
  6
CONTINUOUS
370
    -3
100
AcDbPolyline
 90
       25
 70
     0
 43
0.0
 10
26296.17289768
 20
-2070.58752525
 10
26272.44023339
 20
-2064.22178841
 10
26285.04449205
 20
-2012.02598145
 10
26294.48891051
 20
-2014.30662237
 10
26291.91121098
 20
-2024.98119758
 10
26308.86373131
 20
-2029.07489712
 10
26311.44143084
 20
-2018.40032192
 10
26320.8858493
 20
-2020.68096284
 10
26318.30814977
 20
-2031.35553804
 10
26341.37449856
 20
-2036.92560666
 10
26354.5049984
 20
-1982.55056936
 10
26680.94038242
 20
-2061.37828093
 42
-0.41421356
 10
26697.38820532
 20
-2088.29867302
 10
26693.16070193
 20
-2105.80529177
 10
26693.11275233
 20
-2105.79371288
 10
26691.74870133
 20
-2111.44241819
 10
26675.11393084
 20
-2157.14607449
 10
26660.14910402
 20
-2153.53236375
 10
26662.68235669
 20
-2143.04184853
 10
26646.89769962
 20
-2138.87103045
 10
26644.4022825
 20
-2149.20486394
 10
26633.94308468
 20
-2146.39942667
 10
26636.12631719
 20
-2137.35838856
 10
26302.28181244
 20
-2047.81234196
 10
26296.17289768
 20
-2070.58752525
  0
LWPOLYLINE
  5
238
100
AcDbEntity
  8
Ech.1_5
 62
   190
  6
CONTINUOUS
370
    -3
100
AcDbPolyline
 90
        5
 70
     0
 43
0.0
 10
26010.74083446
 20
-1991.09088934
 10
26060.55285174
 20
-1979.0622689
 42
-0.46038436
 10
26378.5568649
 20
-1979.0622689
 10
26428.36888218
 20
-1991.09088934
 42
0.56907071
 10
26010.74083446
 20
-1991.09088934
  0
LWPOLYLINE
  5
239
100
AcDbEntity
  8
Ech.1_5
 62
   190
  6
CONTINUOUS
370
    -3
100
AcDbPolyline
 90
        6
 70
     0
 43
0.0
 10
26199.55485832
 20
-1910.11404713
 10
26239.55485832
 20
-1910.11404713
 10
26239.55485832
 20
-2082.48945637
 10
26219.55485832
 20
-2075.21005134
 10
26199.55485832
 20
-2082.48945637
 10
26199.55485832
 20
-1910.11404713
  0
LWPOLYLINE
  5
23A
100
AcDbEntity
  8
Ech.1_5
 62
     7
  6
CONTINUOUS
370
    -3
100
AcDbPolyline
 90
        5
 70
     0
 43
0.0
 10
26190.58983263
 20
-2085.75261781
 10
26181.35527755
 20
-2060.38086708
 10
25642.95422344
 20
-2256.3426767
 10
25652.18878158
 20
-2281.71441668
 10
26190.58983263
 20
-2085.75261781
  0
LWPOLYLINE
  5
23B
100
AcDbEntity
  8
Ech.1_5
 62
   190
  6
CONTINUOUS
370
    -3
100
AcDbPolyline
 90
        5
 70
     0
 43
0.0
 10
26164.85650562
 20
-2506.95587099
 10
26160.41024481
 20
-2494.73986654
 10
25780.10434307
 20
-2633.15953335
 10
25784.55060494
 20
-2645.37553742
 10
26164.85650562
 20
-2506.95587099
  0
LWPOLYLINE
  5
23C
100
AcDbEntity
  8
Ech.1_5
 62
   190
  6
CONTINUOUS
370
    -3
100
AcDbPolyline
 90
        7
 70
     0
 43
0.0
 10
25794.54395321
 20
-2172.55077675
 10
25803.76500252
 20
-2197.88540152
 10
25766.17867425
 20
-2211.56998933
 10
25760.45216751
 20
-2195.83654137
 10
25756.95624838
 20
-2186.23158248
 10
25760.45216751
 20
-2184.95917197
 10
25794.54395321
 20
-2172.55077675
  0
LWPOLYLINE
  5
23D
100
AcDbEntity
  8
Ech.1_5
 62
   190
  6
CONTINUOUS
370
    -3
100
AcDbPolyline
 90
       15
 70
     0
 43
0.0
 10
25804.37294365
 20
-2193.77270412
 10
25828.10560794
 20
-2187.40696728
 10
25815.50134928
 20
-2135.21116032
 10
25806.05693082
 20
-2137.49180124
 10
25808.63463035
 20
-2148.16637645
 10
25791.68211002
 20
-2152.26007599
 10
25789.10441049
 20
-2141.58550079
 10
25779.65999203
 20
-2143.86614171
 10
25782.23769156
 20
-2154.54071691
 10
25759.17134277
 20
-2160.11078553
 10
25746.04084293
 20
-2105.73574823
 10
25600.8948992
 20
-2140.78563298
 10
25628.46775568
 20
-2216.54143357
 10
25798.26402889
 20
-2170.99752083
 10
25804.37294365
 20
-2193.77270412
  0
LWPOLYLINE
  5
23E
100
AcDbEntity
  8
Ech.1_5
 62
   190
  6
CONTINUOUS
370
    -3
100
AcDbPolyline
 90
        7
 70
     0
 43
0.0
 10
26644.56576344
 20
-2172.55077675
 10
26635.34471413
 20
-2197.88540152
 10
26672.9310424
 20
-2211.56998933
 10
26678.65754913
 20
-2195.83654137
 10
26682.15346827
 20
-2186.23158248
 10
26678.65754913
 20
-2184.95917197
 10
26644.56576344
 20
-2172.55077675
  0
LWPOLYLINE
  5
23F
100
AcDbEntity
  8
Ech.1_5
 62
   190
  6
CONTINUOUS
370
    -3
100
AcDbPolyline
 90
       15
 70
     0
 43
0.0
 10
26640.84568776
 20
-2170.99752083
 10
26810.64196107
 20
-2216.5414336
 10
26838.21481755
 20
-2140.78563301
 10
26693.06887371
 20
-2105.73574823
 10
26679.93837388
 20
-2160.11078553
 10
26656.87202509
 20
-2154.54071691
 10
26659.44972462
 20
-2143.86614171
 10
26650.00530616
 20
-2141.58550079
 10
26647.42760663
 20
-2152.26007599
 10
26630.4750863
 20
-2148.16637645
 10
26633.05278583
 20
-2137.49180124
 10
26623.60836736
 20
-2135.21116032
 10
26611.0041087
 20
-2187.40696727
 10
26634.736773
 20
-2193.77270412
 10
26640.84568776
 20
-2170.99752083
  0
LWPOLYLINE
  5
240
100
AcDbEntity
  8
Ech.1_5
 62
     7
  6
CONTINUOUS
100
AcDbPolyline
 90
        4
 70
     0
 43
0.0
 10
25907.99479215
 20
-1998.66548019
 10
25892.78893883
 20
-1989.00808647
 10
25904.21870965
 20
-2003.3458083
 10
25907.99479215
 20
-1998.66548019
  0
LWPOLYLINE
  5
241
100
AcDbEntity
  8
Ech.1_5
 62
     7
  6
CONTINUOUS
100
AcDbPolyline
 90
        4
 70
     0
 43
0.0
 10
26531.1149245
 20
-1998.66548019
 10
26546.32077782
 20
-1989.00808647
 10
26534.89100699
 20
-2003.3458083
 10
26531.1149245
 20
-1998.66548019
  0
LWPOLYLINE
  5
242
100
AcDbEntity
  8
Ech.1_5
 62
   190
  6
CONTINUOUS
370
    -3
100
AcDbPolyline
 90
        5
 70
     0
 43
0.0
 10
26219.55485832
 20
-2309.32916128
 10
25727.43315925
 20
-2488.44664525
 10
25731.53740097
 20
-2499.7229567
 10
26219.55485832
 20
-2322.09929455
 10
26219.55485832
 20
-2309.32916128
  0
LWPOLYLINE
  5
243
100
AcDbEntity
  8
Ech.1_5
 62
   190
  6
CONTINUOUS
370
    -3
100
AcDbPolyline
 90
        5
 70
     0
 43
0.0
 10
26269.55485832
 20
-2491.41115616
 10
26659.00542232
 20
-2633.15939953
 10
26686.53807635
 20
-2557.51405429
 10
26269.55485832
 20
-2405.74473669
 10
26269.55485832
 20
-2491.41115616
  0
LWPOLYLINE
  5
244
100
AcDbEntity
  8
Ech.1_5
 62
     7
  6
CONTINUOUS
370
    -3
100
AcDbPolyline
 90
        5
 70
     0
 43
0.0
 10
26290.58906278
 20
-2347.95373492
 10
26269.55485832
 20
-2405.74473669
 10
26686.53807635
 20
-2557.51405429
 10
26707.57228698
 20
-2499.72303555
 10
26290.58906278
 20
-2347.95373492
  0
LWPOLYLINE
  5
245
100
AcDbEntity
  8
Ech.1_5
 62
   190
  6
CONTINUOUS
370
    -3
100
AcDbPolyline
 90
        5
 70
     0
 43
0.0
 10
26169.55485832
 20
-2405.74473669
 10
25752.57164034
 20
-2557.51405428
 10
25780.10429436
 20
-2633.15939952
 10
26169.55485832
 20
-2491.41115616
 10
26169.55485832
 20
-2405.74473669
  0
LWPOLYLINE
  5
246
100
AcDbEntity
  8
Ech.1_5
 62
     7
  6
CONTINUOUS
370
    -3
100
AcDbPolyline
 90
        5
 70
     0
 43
0.0
 10
25731.53742971
 20
-2499.72303554
 10
25752.57164034
 20
-2557.51405428
 10
26169.55485832
 20
-2405.74473669
 10
26148.52065387
 20
-2347.95373492
 10
25731.53742971
 20
-2499.72303554
  0
LWPOLYLINE
  5
247
100
AcDbEntity
  8
Ech.1_5
 62
     7
  6
CONTINUOUS
370
    -3
100
AcDbPolyline
 90
        6
 70
     0
 43
0.0
 10
26169.55485831
 20
-2340.29780627
 10
26169.55485831
 20
-2637.09929455
 10
26269.55485831
 20
-2637.09929455
 10
26269.55485831
 20
-2340.39780668
 10
26219.55485832
 20
-2322.09929456
 10
26169.55485831
 20
-2340.29780627
  0
LWPOLYLINE
  5
248
100
AcDbEntity
  8
Ech.1_5
 62
   190
  6
CONTINUOUS
370
    -3
100
AcDbPolyline
 90
        6
 70
     0
 43
0.0
 10
25652.18872772
 20
-2281.71426868
 10
25686.39079915
 20
-2375.68368765
 10
26219.55485832
 20
-2181.62784013
 10
26219.55485832
 20
-2075.21005134
 10
25659.02918398
 20
-2279.22471234
 10
25652.18872772
 20
-2281.71426868
  0
LWPOLYLINE
  5
249
100
AcDbEntity
  8
Ech.1_5
 62
   190
  6
CONTINUOUS
370
    -3
100
AcDbPolyline
 90
        9
 70
     0
 43
0.0
 10
26786.92098893
 20
-2281.71426868
 10
26219.55485832
 20
-2075.21005134
 10
26219.55485832
 20
-2309.32916128
 10
26711.6765574
 20
-2488.44664525
 10
26732.50234328
 20
-2431.22826881
 10
26721.24688413
 20
-2409.58720515
 10
26750.2083064
 20
-2435.14378533
 10
26738.95349891
 20
-2413.50386439
 10
26786.92098893
 20
-2281.71426868
  0
LWPOLYLINE
  5
24A
100
AcDbEntity
  8
Ech.1_5
 62
   190
  6
CONTINUOUS
370
    -3
100
AcDbPolyline
 90
        6
 70
     0
 43
0.0
 10
26786.92098893
 20
-2281.71426868
 10
26752.71896318
 20
-2375.68356214
 10
26219.55485832
 20
-2181.62784013
 10
26219.55485832
 20
-2075.21005134
 10
26780.08053267
 20
-2279.22471234
 10
26786.92098893
 20
-2281.71426868
  0
LWPOLYLINE
  5
24B
100
AcDbEntity
  8
Ech.1_5
 62
   190
  6
CONTINUOUS
370
    -3
100
AcDbPolyline
 90
        9
 70
     0
 43
0.0
 10
26219.55485832
 20
-2309.32916128
 10
26219.55485832
 20
-2181.62784013
 10
25686.39079915
 20
-2375.68368765
 10
25700.15621774
 20
-2413.50386439
 10
25688.90141025
 20
-2435.14378533
 10
25717.86283252
 20
-2409.58720515
 10
25706.60742144
 20
-2431.2284009
 10
25727.43315925
 20
-2488.44664525
 10
26219.55485832
 20
-2309.32916128
  0
LWPOLYLINE
  5
24C
100
AcDbEntity
  8
Ech.1_5
 62
   190
  6
CONTINUOUS
370
    -3
100
AcDbPolyline
 90
        9
 70
     0
 43
0.0
 10
26711.6765574
 20
-2488.44664525
 10
26732.50234328
 20
-2431.22826881
 10
26721.24683605
 20
-2409.58733723
 10
26750.20825832
 20
-2435.14391741
 10
26738.95345083
 20
-2413.50399647
 10
26752.71896318
 20
-2375.68356214
 10
26219.55485832
 20
-2181.62784013
 10
26219.55485832
 20
-2309.32916128
 10
26711.6765574
 20
-2488.44664525
  0
LWPOLYLINE
  5
24D
100
AcDbEntity
  8
Ech.1_5
 62
     7
  6
CONTINUOUS
370
    -3
100
AcDbPolyline
 90
        5
 70
     0
 43
0.0
 10
26174.55485832
 20
-2091.58869871
 10
26219.55485832
 20
-2075.21005134
 10
26219.55485832
 20
-2309.32916128
 10
26174.55485832
 20
-2325.70780664
 10
26174.55485832
 20
-2091.58869871
  0
LWPOLYLINE
  5
24E
100
AcDbEntity
  8
Ech.1_5
 62
   190
  6
CONTINUOUS
370
    -3
100
AcDbPolyline
 90
        5
 70
     0
 43
0.0
 10
26174.55485832
 20
-2325.70780664
 10
26219.55485832
 20
-2309.32916128
 10
26219.55485832
 20
-2075.21005134
 10
26174.55485832
 20
-2091.58869871
 10
26174.55485832
 20
-2325.70780664
  0
LWPOLYLINE
  5
24F
100
AcDbEntity
  8
Ech.1_5
 62
     7
  6
CONTINUOUS
370
    -3
100
AcDbPolyline
 90
        5
 70
     0
 43
0.0
 10
26264.55485832
 20
-2091.58869871
 10
26219.55485832
 20
-2075.21005134
 10
26219.55485832
 20
-2309.32916128
 10
26264.55485832
 20
-2325.70780664
 10
26264.55485832
 20
-2091.58869871
  0
LWPOLYLINE
  5
250
100
AcDbEntity
  8
Ech.1_5
 62
   190
  6
CONTINUOUS
370
    -3
100
AcDbPolyline
 90
        5
 70
     0
 43
0.0
 10
26264.55485832
 20
-2325.70780664
 10
26219.55485832
 20
-2309.32916128
 10
26219.55485832
 20
-2075.21005134
 10
26264.55485832
 20
-2091.58869871
 10
26264.55485832
 20
-2325.70780664
  0
LWPOLYLINE
  5
251
100
AcDbEntity
  8
Ech.1_5
 62
   190
  6
CONTINUOUS
370
     5
100
AcDbPolyline
 90
        5
 70
     0
 43
0.0
 10
25657.94488523
 20
-2796.8511288
 10
25707.94488523
 20
-2796.8511288
 10
25707.94488523
 20
-2789.43599127
 10
25657.94488523
 20
-2789.43599127
 10
25657.94488523
 20
-2796.8511288
  0
TEXT
  5
252
100
AcDbEntity
  8
Ech.1_5
 62
   190
100
AcDbText
 10
25669.23917786
 20
-2779.84998819
 30
0.0
 40
8.00000012
  1
Echelle en mm
  7
ARIAL
 50
0.0
 41
1.0
 51
0.0
100
AcDbText
  0
TEXT
  5
253
100
AcDbEntity
  8
Ech.1_5
 62
   190
100
AcDbText
 10
25655.25859311
 20
-2808.05982372
 30
0.0
 40
8.00000012
  1
0
  7
ARIAL
 50
0.0
 41
1.0
 51
0.0
100
AcDbText
  0
TEXT
  5
254
100
AcDbEntity
  8
Ech.1_5
 62
   190
100
AcDbText
 10
25741.855651
 20
-2808.05982372
 30
0.0
 40
8.00000012
  1
100
  7
ARIAL
 50
0.0
 41
1.0
 51
0.0
100
AcDbText
  0
TEXT
  5
255
100
AcDbEntity
  8
Ech.1_5
 62
   190
100
AcDbText
 10
25703.11521943
 20
-2808.05982372
 30
0.0
 40
8.00000012
  1
50
  7
ARIAL
 50
0.0
 41
1.0
 51
0.0
100
AcDbText
  0
INSERT
  5
256
100
AcDbEntity
  8
Ech.1_5
 62
     0
370
    -3
100
AcDbBlockReference
  2
*D79
 10
0.0
 20
0.0
 30
0.0
  0
INSERT
  5
257
100
AcDbEntity
  8
Ech.1_5
 62
     0
370
    -3
100
AcDbBlockReference
  2
*D80
 10
0.0
 20
0.0
 30
0.0
  0
ENDSEC
  0
SECTION
  2
OBJECTS
  0
DICTIONARY
  5
1
100
AcDbDictionary
  3
ACAD_GROUP
350
2
  3
ACAD_MLINESTYLE
350
3
  0
DICTIONARY
  5
2
102
{CDWK_REACTORS
330
1
102
}
100
AcDbDictionary
  0
DICTIONARY
  5
3
102
{CDWK_REACTORS
330
1
102
}
100
AcDbDictionary
  3
STANDARD
350
4
  0
MLINESTYLE
  5
4
102
{CDWK_REACTORS
330
3
102
}
100
AcDbMlineStyle
  2
STANDARD
 70
     0
  3

 62
     0
 51
90.0
 52
90.0
 71
     2
 49
0.5
 62
   256
  6
BYLAYER
 49
-0.5
 62
   256
  6
BYLAYER
  0
ENDSEC
  0
EOF
