  0
SECTION
  2
HEADER
  9
$ACADVER
  1
AC1014
  9
$DWGCODEPAGE
  3
ANSI_1252
  9
$INSBASE
 10
0.0
 20
0.0
 30
0.0
  9
$EXTMIN
 10
23526.2269873
 20
-2901.29766776
  9
$EXTMAX
 10
24881.2269873
 20
-1916.29766776
  9
$LIMMIN
 10
23526.2269873
 20
-2901.29766776
  9
$LIMMAX
 10
24881.2269873
 20
-1916.29766776
  9
$ORTHOMODE
 70
     0
  9
$REGENMODE
 70
     1
  9
$FILLMODE
 70
     1
  9
$QTEXTMODE
 70
     0
  9
$MIRRTEXT
 70
     1
  9
$DRAGMODE
 70
     2
  9
$LTSCALE
 40
5.0
  9
$OSMODE
 70
     0
  9
$ATTMODE
 70
     1
  9
$TEXTSIZE
 40
3.5
  9
$TRACEWID
 40
1.0
  9
$TEXTSTYLE
  7
STANDARD
  9
$CLAYER
  8
0
  9
$CELTYPE
  6
BYLAYER
  9
$CECOLOR
 62
   256
  9
$DIMSCALE
 40
1.0
  9
$DIMASZ
 40
2.0
  9
$DIMEXO
 40
5.0
  9
$DIMDLI
 40
10.0
  9
$DIMRND
 40
0.0
  9
$DIMDLE
 40
2.0
  9
$DIMEXE
 40
2.0
  9
$DIMTP
 40
0.0
  9
$DIMTM
 40
0.0
  9
$DIMTXT
 40
2.5
  9
$DIMCEN
 40
1.5
  9
$DIMTSZ
 40
0.0
  9
$DIMTOL
 70
     0
  9
$DIMLIM
 70
     0
  9
$DIMTIH
 70
     1
  9
$DIMTOH
 70
     0
  9
$DIMSE1
 70
     0
  9
$DIMSE2
 70
     0
  9
$DIMTAD
 70
     1
  9
$DIMZIN
 70
     8
  9
$DIMBLK
  1

  9
$DIMASO
 70
     1
  9
$DIMSHO
 70
     1
  9
$DIMPOST
  1

  9
$DIMAPOST
  1

  9
$DIMALT
 70
     0
  9
$DIMALTD
 70
     2
  9
$DIMALTF
 40
25.4
  9
$DIMLFAC
 40
1.0
  9
$DIMTOFL
 70
     0
  9
$DIMTVP
 40
0.0
  9
$DIMTIX
 70
     0
  9
$DIMSOXD
 70
     0
  9
$DIMSAH
 70
     0
  9
$DIMBLK1
  1

  9
$DIMBLK2
  1

  9
$DIMSTYLE
  2
*UNNAMED
  9
$DIMCLRD
 70
   190
  9
$DIMCLRE
 70
   190
  9
$DIMCLRT
 70
   190
  9
$DIMTFAC
 40
1.0
  9
$DIMGAP
 40
0.09
  9
$DIMUNIT
 70
     2
  9
$LUNITS
 70
     2
  9
$LUPREC
 70
     6
  9
$AXISMODE
 70
     0
  9
$AXISUNIT
 10
0.0
 20
0.0
  9
$SKETCHINC
 40
0.1
  9
$FILLETRAD
 40
0.0
  9
$AUNITS
 70
     0
  9
$AUPREC
 70
     0
  9
$MENU
  1
ACAD
  9
$ELEVATION
 40
0.0
  9
$PELEVATION
 40
0.0
  9
$THICKNESS
 40
0.0
  9
$LIMCHECK
 70
     0
  9
$BLIPMODE
 70
     1
  9
$CHAMFERA
 40
0.0
  9
$CHAMFERB
 40
0.0
  9
$SKPOLY
 70
     1
  9
$TDCREATE
 40
2457732.0000000000
  9
$TDUPDATE
 40
2457732.0000000000
  9
$TDINDWG
 40
0.0
  9
$TDUSRTIMER
 40
0.0
  9
$USRTIMER
 70
     1
  9
$ANGBASE
 50
0.0
  9
$ANGDIR
 70
     0
  9
$PDMODE
 70
     0
  9
$PDSIZE
 40
0.0
  9
$PLINEWID
 40
0.0
  9
$COORDS
 70
     2
  9
$SPLFRAME
 70
     0
  9
$SPLINETYPE
 70
     6
  9
$SPLINESEGS
 70
     8
  9
$ATTDIA
 70
     1
  9
$ATTREQ
 70
     1
  9
$HANDLING
 70
     1
  9
$HANDSEED
  5
     26D
  9
$SURFTAB1
 70
     6
  9
$SURFTAB2
 70
     6
  9
$SURFTYPE
 70
     6
  9
$SURFU
 70
     6
  9
$SURFV
 70
     6
  9
$UCSNAME
  2

  9
$UCSORG
 10
0.0
 20
0.0
 30
0.0
  9
$UCSXDIR
 10
1.0
 20
0.0
 30
0.0
  9
$UCSYDIR
 10
0.0
 20
1.0
 30
0.0
  9
$PUCSNAME
  2

  9
$PUCSORG
 10
0.0
 20
0.0
 30
0.0
  9
$PUCSXDIR
 10
1.0
 20
0.0
 30
0.0
  9
$PUCSYDIR
 10
0.0
 20
1.0
 30
0.0
  9
$USERI1
 70
     0
  9
$USERI2
 70
     0
  9
$USERI3
 70
     0
  9
$USERI4
 70
     0
  9
$USERI5
 70
     0
  9
$USERR1
 40
0.0
  9
$USERR2
 40
0.0
  9
$USERR3
 40
0.0
  9
$USERR4
 40
0.0
  9
$USERR5
 40
0.0
  9
$WORLDVIEW
 70
     1
  9
$SHADEDGE
 70
     3
  9
$SHADEDIF
 70
    70
  9
$TILEMODE
 70
     1
  9
$MAXACTVP
 70
    16
  9
$PINSBASE
 10
0.0
 20
0.0
 30
0.0
  9
$PLIMCHECK
 70
     0
  9
$PEXTMIN
 10
1.0000000000000E+20
 20
1.0000000000000E+20
 30
1.0000000000000E+20
  9
$PEXTMAX
 10
-1.0000000000000E+20
 20
-1.0000000000000E+20
 30
-1.0000000000000E+20
  9
$PLIMMIN
 10
0.0
 20
0.0
  9
$UNITMODE
 70
     0
  9
$VISRETAIN
 70
     0
  9
$MEASUREMENT
 70
     1
  0
ENDSEC
  0
SECTION
  2
TABLES
  0
TABLE
  2
VPORT
  5
132
100
AcDbSymbolTable
 70
     1
  0
ENDTAB
  0
TABLE
  2
STYLE
  5
133
100
AcDbSymbolTable
 70
     3
  0
STYLE
  5
134
100
AcDbSymbolTableRecord
100
AcDbTextStyleTableRecord
  2
STANDARD
 70
     0
 40
0.0
 41
1.0
 50
0.0
 71
     0
 42
3.5
  3
MONOTXT
  4

  0
STYLE
  5
135
100
AcDbSymbolTableRecord
100
AcDbTextStyleTableRecord
  2
SYMAP
 70
     0
 40
0.0
 41
1.0
 50
0.0
 71
     0
 42
3.5
  3
SYMAP
  4

  0
STYLE
  5
136
100
AcDbSymbolTableRecord
100
AcDbTextStyleTableRecord
  2
CADWORK1
 70
     0
 40
0.0
 41
1.0
 50
0.0
 71
     0
 42
3.5
  3
MONOTXT
  4

  0
STYLE
  5
137
100
AcDbSymbolTableRecord
100
AcDbTextStyleTableRecord
  2
MONOTXT
 70
     0
 40
0.0
 41
1.0
 50
0.0
 71
     0
 42
3.5
  3
MONOTXT
  4

  0
STYLE
  5
138
100
AcDbSymbolTableRecord
100
AcDbTextStyleTableRecord
  2
ARIAL
 70
     0
 40
0.0
 41
1.0
 50
0.0
 71
     0
 42
3.5
  3

  4

1001
ACAD
1000
Arial
1071
        0
  0
ENDTAB
  0
TABLE
  2
LTYPE
  5
139
100
AcDbSymbolTable
 70
    16
  0
LTYPE
  5
13A
100
AcDbSymbolTableRecord
100
AcDbLinetypeTableRecord
  2
BYBLOCK
 70
    64
  3

 72
    65
 73
     0
 40
0.0
  0
LTYPE
  5
13B
100
AcDbSymbolTableRecord
100
AcDbLinetypeTableRecord
  2
BYLAYER
 70
    64
  3

 72
    65
 73
     0
 40
0.0
  0
LTYPE
  5
13C
100
AcDbSymbolTableRecord
100
AcDbLinetypeTableRecord
  2
CONTINUOUS
 70
    64
  3
Solid line
 72
    65
 73
     0
 40
0.0
  0
LTYPE
  5
13D
100
AcDbSymbolTableRecord
100
AcDbLinetypeTableRecord
  2
DOT2
 70
    64
  3
...............................................
 72
    65
 73
     2
 40
1.25
 49
0.0
 74
     0
 49
-1.25
 74
     0
  0
LTYPE
  5
13E
100
AcDbSymbolTableRecord
100
AcDbLinetypeTableRecord
  2
CADWORK_13
 70
    64
  3
13 =======================================
 72
    65
 73
     2
 40
4.0
 49
2.0
 74
     0
 49
-2.0
 74
     0
  0
LTYPE
  5
13F
100
AcDbSymbolTableRecord
100
AcDbLinetypeTableRecord
  2
DASHDOT
 70
    64
  3
 __ . __ . __ . __ . __ . __ . __ . __ . __ . __
 72
    65
 73
     4
 40
10.0
 49
5.0
 74
     0
 49
-2.5
 74
     0
 49
0.0
 74
     0
 49
-2.5
 74
     0
  0
LTYPE
  5
140
100
AcDbSymbolTableRecord
100
AcDbLinetypeTableRecord
  2
CENTER
 70
    64
  3
 ____ _ ____ _ ____ _ ____ _ ____ _ ____ _ ____
 72
    65
 73
     4
 40
20.0
 49
12.5
 74
     0
 49
-2.5
 74
     0
 49
2.5
 74
     0
 49
-2.5
 74
     0
  0
LTYPE
  5
141
100
AcDbSymbolTableRecord
100
AcDbLinetypeTableRecord
  2
DASHEDX2
 70
    64
  3
____  ____  ____  ____  ____  ____  ____  ____
 72
    65
 73
     2
 40
3.75
 49
2.5
 74
     0
 49
-1.25
 74
     0
  0
LTYPE
  5
142
100
AcDbSymbolTableRecord
100
AcDbLinetypeTableRecord
  2
CADWORK_22
 70
    64
  3
22 =======================================
 72
    65
 73
     0
 40
0.0
  0
LTYPE
  5
143
100
AcDbSymbolTableRecord
100
AcDbLinetypeTableRecord
  2
DAL
 70
    64
  3
Solid line (for MAPS)
 72
    65
 73
     0
 40
0.0
  0
LTYPE
  5
144
100
AcDbSymbolTableRecord
100
AcDbLinetypeTableRecord
  2
MUR
 70
    64
  3
Solid line (for MAPS)
 72
    65
 73
     0
 40
0.0
  0
LTYPE
  5
145
100
AcDbSymbolTableRecord
100
AcDbLinetypeTableRecord
  2
SOM
 70
    64
  3
Solid line (for MAPS)
 72
    65
 73
     0
 40
0.0
  0
LTYPE
  5
146
100
AcDbSymbolTableRecord
100
AcDbLinetypeTableRecord
  2
COL
 70
    64
  3
Solid line (for MAPS)
 72
    65
 73
     0
 40
0.0
  0
LTYPE
  5
147
100
AcDbSymbolTableRecord
100
AcDbLinetypeTableRecord
  2
LGN
 70
    64
  3
Solid line (for MAPS)
 72
    65
 73
     0
 40
0.0
  0
LTYPE
  5
148
100
AcDbSymbolTableRecord
100
AcDbLinetypeTableRecord
  2
PNT
 70
    64
  3
Solid line (for MAPS)
 72
    65
 73
     0
 40
0.0
  0
ENDTAB
  0
TABLE
  2
LAYER
  5
149
100
AcDbSymbolTable
 70
    32
  0
LAYER
  5
14A
100
AcDbSymbolTableRecord
100
AcDbLayerTableRecord
  2
Standard
 70
     0
 62
     7
  6
CONTINUOUS
370
    -3
  0
LAYER
  5
14B
100
AcDbSymbolTableRecord
100
AcDbLayerTableRecord
  2
Ech.1_1
 70
     0
 62
     7
  6
CONTINUOUS
370
    -3
  0
LAYER
  5
14C
100
AcDbSymbolTableRecord
100
AcDbLayerTableRecord
  2
Ech.1_2
 70
     0
 62
     7
  6
CONTINUOUS
370
    -3
  0
LAYER
  5
14D
100
AcDbSymbolTableRecord
100
AcDbLayerTableRecord
  2
Ech.1_5
 70
     0
 62
     7
  6
CONTINUOUS
370
    -3
  0
LAYER
  5
14E
100
AcDbSymbolTableRecord
100
AcDbLayerTableRecord
  2
Ech.1_10
 70
     0
 62
     7
  6
CONTINUOUS
370
    -3
  0
LAYER
  5
14F
100
AcDbSymbolTableRecord
100
AcDbLayerTableRecord
  2
Ech.1_20
 70
     0
 62
     7
  6
CONTINUOUS
370
    -3
  0
LAYER
  5
150
100
AcDbSymbolTableRecord
100
AcDbLayerTableRecord
  2
Ech.1_25
 70
     0
 62
     7
  6
CONTINUOUS
370
    -3
  0
LAYER
  5
151
100
AcDbSymbolTableRecord
100
AcDbLayerTableRecord
  2
Ech.1_33
 70
     0
 62
     7
  6
CONTINUOUS
370
    -3
  0
LAYER
  5
152
100
AcDbSymbolTableRecord
100
AcDbLayerTableRecord
  2
Ech.1_50
 70
     0
 62
     7
  6
CONTINUOUS
370
    -3
  0
LAYER
  5
153
100
AcDbSymbolTableRecord
100
AcDbLayerTableRecord
  2
Ech.1_75
 70
     0
 62
     7
  6
CONTINUOUS
370
    -3
  0
LAYER
  5
154
100
AcDbSymbolTableRecord
100
AcDbLayerTableRecord
  2
Ech.1_100
 70
     0
 62
     7
  6
CONTINUOUS
370
    -3
  0
LAYER
  5
155
100
AcDbSymbolTableRecord
100
AcDbLayerTableRecord
  2
Ech.1_200
 70
     0
 62
     7
  6
CONTINUOUS
370
    -3
  0
LAYER
  5
156
100
AcDbSymbolTableRecord
100
AcDbLayerTableRecord
  2
Ech.1_500
 70
     0
 62
     7
  6
CONTINUOUS
370
    -3
  0
LAYER
  5
157
100
AcDbSymbolTableRecord
100
AcDbLayerTableRecord
  2
Ech.1_1000
 70
     0
 62
     7
  6
CONTINUOUS
370
    -3
  0
LAYER
  5
158
100
AcDbSymbolTableRecord
100
AcDbLayerTableRecord
  2
Cadres traceur
 70
     0
 62
     7
  6
CONTINUOUS
370
    18
  0
LAYER
  5
159
100
AcDbSymbolTableRecord
100
AcDbLayerTableRecord
  2
Cadres laser
 70
     0
 62
     7
  6
CONTINUOUS
370
    18
  0
LAYER
  5
15A
100
AcDbSymbolTableRecord
100
AcDbLayerTableRecord
  2
Légende d_aide
 70
     0
 62
     7
  6
CONTINUOUS
370
    18
  0
LAYER
  5
15B
100
AcDbSymbolTableRecord
100
AcDbLayerTableRecord
  2
hachures ok
 70
     0
 62
     7
  6
CONTINUOUS
370
    18
  0
LAYER
  5
15C
100
AcDbSymbolTableRecord
100
AcDbLayerTableRecord
  2
ossature bois
 70
     0
 62
     7
  6
CONTINUOUS
370
    18
  0
LAYER
  5
15D
100
AcDbSymbolTableRecord
100
AcDbLayerTableRecord
  2
VR
 70
     0
 62
     7
  6
CONTINUOUS
370
    25
  0
LAYER
  5
15E
100
AcDbSymbolTableRecord
100
AcDbLayerTableRecord
  2
Calque1
 70
     0
 62
     7
  6
CONTINUOUS
370
     9
  0
LAYER
  5
15F
100
AcDbSymbolTableRecord
100
AcDbLayerTableRecord
  2
0
 70
     0
 62
     7
  6
CONTINUOUS
370
    -3
  0
LAYER
  5
160
100
AcDbSymbolTableRecord
100
AcDbLayerTableRecord
  2
menuiserie
 70
     0
 62
     7
  6
CONTINUOUS
370
    -3
  0
LAYER
  5
161
100
AcDbSymbolTableRecord
100
AcDbLayerTableRecord
  2
cotation
 70
     0
 62
   250
  6
CONTINUOUS
370
     9
  0
LAYER
  5
162
100
AcDbSymbolTableRecord
100
AcDbLayerTableRecord
  2
Defpoints
 70
     0
 62
    10
  6
CONTINUOUS
370
    -3
  0
LAYER
  5
163
100
AcDbSymbolTableRecord
100
AcDbLayerTableRecord
  2
HACHURE
 70
     0
 62
   254
  6
CONTINUOUS
370
    25
  0
LAYER
  5
164
100
AcDbSymbolTableRecord
100
AcDbLayerTableRecord
  2
mat1
 70
     0
 62
     7
  6
CONTINUOUS
370
    30
  0
LAYER
  5
165
100
AcDbSymbolTableRecord
100
AcDbLayerTableRecord
  2
mat2
 70
     0
 62
     7
  6
CONTINUOUS
370
     5
  0
LAYER
  5
166
100
AcDbSymbolTableRecord
100
AcDbLayerTableRecord
  2
hach
 70
     0
 62
     8
  6
CONTINUOUS
370
     5
  0
LAYER
  5
167
100
AcDbSymbolTableRecord
100
AcDbLayerTableRecord
  2
menuiseries
 70
     0
 62
     7
  6
CONTINUOUS
370
     9
  0
LAYER
  5
168
100
AcDbSymbolTableRecord
100
AcDbLayerTableRecord
  2
BétonMétal
 70
     0
 62
     7
  6
CONTINUOUS
370
    80
  0
LAYER
  5
169
100
AcDbSymbolTableRecord
100
AcDbLayerTableRecord
  2
bois
 70
     0
 62
     7
  6
CONTINUOUS
370
    60
  0
ENDTAB
  0
TABLE
  2
VIEW
  5
16A
100
AcDbSymbolTable
 70
     0
  0
ENDTAB
  0
TABLE
  2
UCS
  5
16B
100
AcDbSymbolTable
 70
     0
  0
ENDTAB
  0
TABLE
  2
APPID
  5
16C
100
AcDbSymbolTable
 70
     1
  0
APPID
  5
16D
100
AcDbSymbolTableRecord
100
AcDbRegAppTableRecord
  2
ACAD
 70
     0
  0
ENDTAB
  0
TABLE
  2
DIMSTYLE
  5
16E
100
AcDbSymbolTable
 70
     0
  0
ENDTAB
  0
TABLE
  2
BLOCK_RECORD
  5
16F
100
AcDbSymbolTable
 70
     0
  0
BLOCK_RECORD
  5
170
100
AcDbSymbolTableRecord
100
AcDbBlockTableRecord
  2
*MODEL_SPACE
  0
BLOCK_RECORD
  5
171
100
AcDbSymbolTableRecord
100
AcDbBlockTableRecord
  2
*PAPER_SPACE
  0
BLOCK_RECORD
  5
172
100
AcDbSymbolTableRecord
100
AcDbBlockTableRecord
  2
CDWK_EXTR_0
  0
BLOCK_RECORD
  5
173
100
AcDbSymbolTableRecord
100
AcDbBlockTableRecord
  2
CDWK_EXTR_1D
  0
BLOCK_RECORD
  5
174
100
AcDbSymbolTableRecord
100
AcDbBlockTableRecord
  2
CDWK_EXTR_1G
  0
BLOCK_RECORD
  5
175
100
AcDbSymbolTableRecord
100
AcDbBlockTableRecord
  2
CDWK_EXTR_2
  0
BLOCK_RECORD
  5
176
100
AcDbSymbolTableRecord
100
AcDbBlockTableRecord
  2
CDWK_EXTR_3
  0
BLOCK_RECORD
  5
177
100
AcDbSymbolTableRecord
100
AcDbBlockTableRecord
  2
CDWK_EXTR_4
  0
BLOCK_RECORD
  5
178
100
AcDbSymbolTableRecord
100
AcDbBlockTableRecord
  2
CDWK_PTTYP0
  0
BLOCK_RECORD
  5
179
100
AcDbSymbolTableRecord
100
AcDbBlockTableRecord
  2
*D77
  0
BLOCK_RECORD
  5
17A
100
AcDbSymbolTableRecord
100
AcDbBlockTableRecord
  2
*D78
  0
ENDTAB
  0
ENDSEC
  0
SECTION
  2
BLOCKS
  0
BLOCK
  5
17B
100
AcDbEntity
  8
0
100
AcDbBlockBegin
  2
*MODEL_SPACE
 70
     0
 10
0.0
 20
0.0
 30
0.0
  3
*MODEL_SPACE
  1

  0
ENDBLK
  5
17C
100
AcDbEntity
100
AcDbBlockEnd
  0
BLOCK
  5
17D
100
AcDbEntity
  8
0
100
AcDbBlockBegin
  2
*PAPER_SPACE
 70
     0
 10
0.0
 20
0.0
 30
0.0
  3
*PAPER_SPACE
  1

  0
ENDBLK
  5
17E
100
AcDbEntity
100
AcDbBlockEnd
  0
BLOCK
  5
17F
100
AcDbEntity
  8
0
100
AcDbBlockBegin
  2
CDWK_EXTR_0
 70
     0
 10
0.0
 20
0.0
 30
0.0
  3
CDWK_EXTR_0
  1

  4
Cadwork line-extremity
  0
LINE
  5
180
100
AcDbEntity
  8
0
 62
     0
370
    -2
100
AcDbLine
 10
0.0
 20
0.0
 30
0.0
 11
2.0
 21
0.5
 31
0.0
  0
LINE
  5
181
100
AcDbEntity
  8
0
 62
     0
370
    -2
100
AcDbLine
 10
0.0
 20
0.0
 30
0.0
 11
2.0
 21
-0.5
 31
0.0
  0
LINE
  5
182
100
AcDbEntity
  8
0
 62
     0
370
    -2
100
AcDbLine
 10
2.0
 20
0.5
 30
0.0
 11
2.0
 21
-0.5
 31
0.0
  0
ENDBLK
  5
183
100
AcDbEntity
100
AcDbBlockEnd
  0
BLOCK
  5
184
100
AcDbEntity
  8
0
100
AcDbBlockBegin
  2
CDWK_EXTR_1D
 70
     0
 10
0.0
 20
0.0
 30
0.0
  3
CDWK_EXTR_1D
  1

  4
Cadwork line-extremity
  0
LINE
  5
185
100
AcDbEntity
  8
0
 62
     0
370
    -2
100
AcDbLine
 10
0.0
 20
0.0
 30
0.0
 11
0.0
 21
1.0
 31
0.0
  0
LINE
  5
186
100
AcDbEntity
  8
0
 62
     0
370
    -2
100
AcDbLine
 10
0.0
 20
1.0
 30
0.0
 11
0.5
 21
1.5
 31
0.0
  0
LINE
  5
187
100
AcDbEntity
  8
0
 62
     0
370
    -2
100
AcDbLine
 10
0.5
 20
1.5
 30
0.0
 11
1.5
 21
1.5
 31
0.0
  0
ENDBLK
  5
188
100
AcDbEntity
100
AcDbBlockEnd
  0
BLOCK
  5
189
100
AcDbEntity
  8
0
100
AcDbBlockBegin
  2
CDWK_EXTR_1G
 70
     0
 10
0.0
 20
0.0
 30
0.0
  3
CDWK_EXTR_1G
  1

  4
Cadwork line-extremity
  0
LINE
  5
18A
100
AcDbEntity
  8
0
 62
     0
370
    -2
100
AcDbLine
 10
0.0
 20
0.0
 30
0.0
 11
0.0
 21
-1.0
 31
0.0
  0
LINE
  5
18B
100
AcDbEntity
  8
0
 62
     0
370
    -2
100
AcDbLine
 10
0.0
 20
-1.0
 30
0.0
 11
0.5
 21
-1.5
 31
0.0
  0
LINE
  5
18C
100
AcDbEntity
  8
0
 62
     0
370
    -2
100
AcDbLine
 10
0.5
 20
-1.5
 30
0.0
 11
1.5
 21
-1.5
 31
0.0
  0
ENDBLK
  5
18D
100
AcDbEntity
100
AcDbBlockEnd
  0
BLOCK
  5
18E
100
AcDbEntity
  8
0
100
AcDbBlockBegin
  2
CDWK_EXTR_2
 70
     0
 10
0.0
 20
0.0
 30
0.0
  3
CDWK_EXTR_2
  1

  4
Cadwork line-extremity
  0
SOLID
  5
18F
100
AcDbEntity
  8
0
 62
     0
100
AcDbTrace
 10
0.0
 20
0.0
 11
2.0
 21
0.5
 12
2.0
 22
-0.5
 13
2.0
 23
-0.5
  0
ENDBLK
  5
190
100
AcDbEntity
100
AcDbBlockEnd
  0
BLOCK
  5
191
100
AcDbEntity
  8
0
100
AcDbBlockBegin
  2
CDWK_EXTR_3
 70
     0
 10
0.0
 20
0.0
 30
0.0
  3
CDWK_EXTR_3
  1

  4
Cadwork line-extremity
  0
SOLID
  5
192
100
AcDbEntity
  8
0
 62
     0
100
AcDbTrace
 10
0.0
 20
0.0
 11
2.0
 21
0.5
 12
2.0
 22
-0.5
 13
2.0
 23
-0.5
  0
LINE
  5
193
100
AcDbEntity
  8
0
 62
     0
370
    -2
100
AcDbLine
 10
0.0
 20
1.0
 30
0.0
 11
0.0
 21
-1.0
 31
0.0
  0
ENDBLK
  5
194
100
AcDbEntity
100
AcDbBlockEnd
  0
BLOCK
  5
195
100
AcDbEntity
  8
0
100
AcDbBlockBegin
  2
CDWK_EXTR_4
 70
     0
 10
0.0
 20
0.0
 30
0.0
  3
CDWK_EXTR_4
  1

  4
Cadwork line-extremity
  0
HATCH
  5
196
100
AcDbEntity
  8
0
 62
     0
370
    -2
100
AcDbHatch
 10
0.0
 20
0.0
 30
0.0
210
0.0
220
0.0
230
1.0
  2
SOLID
 70
     1
 71
     0
 91
        1
 92
        1
 93
        1
 72
     2
 10
0.0
 20
0.0
 40
0.5
 50
0.0
 51
360.0
 73
     1
 97
        0
 75
     0
 76
     1
 98
        1
 10
0.0
 20
0.0
  0
ENDBLK
  5
197
100
AcDbEntity
100
AcDbBlockEnd
  0
BLOCK
  5
198
100
AcDbEntity
  8
0
100
AcDbBlockBegin
  2
CDWK_PTTYP0
 70
     0
 10
0.0
 20
0.0
 30
0.0
  3
CDWK_PTTYP0
  1

  4
Cadwork point
  0
POINT
  5
199
100
AcDbEntity
  8
0
 62
     0
100
AcDbPoint
 10
0.0
 20
0.0
 30
0.0
  0
ENDBLK
  5
19A
100
AcDbEntity
100
AcDbBlockEnd
  0
BLOCK
  5
19B
100
AcDbEntity
  8
Ech.1_5
100
AcDbBlockBegin
  2
*D77
 70
     1
 10
0.0
 20
0.0
 30
0.0
  3
*D77
  1

  4
Cadwork dimension
  0
TEXT
  5
19C
100
AcDbEntity
  8
Ech.1_5
 62
   190
370
    18
100
AcDbText
 10
24509.3216756
 20
-2058.43980752
 30
0.0
 40
25.0
  1
2/3*
  7
ARIAL
 50
289.99999193
 41
1.0
 51
0.0
100
AcDbText
  0
LINE
  5
19D
100
AcDbEntity
  8
Ech.1_5
 62
   190
370
    -2
100
AcDbLine
 10
24474.52288024
 20
-1962.83090304
 30
0.0
 11
24449.58422226
 21
-1971.90783223
 31
0.0
  0
LINE
  5
19E
100
AcDbEntity
  8
Ech.1_5
 62
   190
370
    -2
100
AcDbLine
 10
24553.87155926
 20
-2180.83960692
 30
0.0
 11
24528.93290128
 21
-2189.91653611
 31
0.0
  0
LINE
  5
19F
100
AcDbEntity
  8
Ech.1_5
 62
   190
370
    -2
100
AcDbLine
 10
24468.11431642
 20
-1959.84254066
 30
0.0
 11
24550.88319687
 21
-2187.24817074
 31
0.0
  0
LINE
  5
1A0
100
AcDbEntity
  8
Ech.1_5
 62
   190
370
    -2
100
AcDbLine
 10
24466.62013522
 20
-1963.04682257
 30
0.0
 11
24473.02869905
 21
-1966.03518495
 31
0.0
  0
LINE
  5
1A1
100
AcDbEntity
  8
Ech.1_5
 62
   190
370
    -2
100
AcDbLine
 10
24545.96881425
 20
-2181.05552644
 30
0.0
 11
24552.37737807
 21
-2184.04388883
 31
0.0
  0
ENDBLK
  5
1A2
100
AcDbEntity
100
AcDbBlockEnd
  0
BLOCK
  5
1A3
100
AcDbEntity
  8
Ech.1_5
100
AcDbBlockBegin
  2
*D78
 70
     1
 10
0.0
 20
0.0
 30
0.0
  3
*D78
  1

  4
Cadwork dimension
  0
TEXT
  5
1A4
100
AcDbEntity
  8
Ech.1_5
 62
   190
370
    18
100
AcDbText
 10
24575.24607898
 20
-2239.56561325
 30
0.0
 40
25.0
  1
1/3*
  7
ARIAL
 50
289.99999193
 41
1.0
 51
0.0
100
AcDbText
  0
LINE
  5
1A5
100
AcDbEntity
  8
Ech.1_5
 62
   190
370
    -2
100
AcDbLine
 10
24553.87155926
 20
-2180.83960692
 30
0.0
 11
24528.93290128
 21
-2189.91653611
 31
0.0
  0
LINE
  5
1A6
100
AcDbEntity
  8
Ech.1_5
 62
   190
370
    -2
100
AcDbLine
 10
24606.371687
 20
-2325.08251451
 30
0.0
 11
24581.43302544
 21
-2334.159445
 31
0.0
  0
LINE
  5
1A7
100
AcDbEntity
  8
Ech.1_5
 62
   190
370
    -2
100
AcDbLine
 10
24547.46299536
 20
-2177.85124456
 30
0.0
 11
24603.3833247
 21
-2331.4910783
 31
0.0
  0
LINE
  5
1A8
100
AcDbEntity
  8
Ech.1_5
 62
   190
370
    -2
100
AcDbLine
 10
24545.96881422
 20
-2181.0555265
 30
0.0
 11
24552.37737809
 21
-2184.04388878
 31
0.0
  0
LINE
  5
1A9
100
AcDbEntity
  8
Ech.1_5
 62
   190
370
    -2
100
AcDbLine
 10
24598.46894196
 20
-2325.29843409
 30
0.0
 11
24604.87750584
 21
-2328.28679637
 31
0.0
  0
ENDBLK
  5
1AA
100
AcDbEntity
100
AcDbBlockEnd
  0
ENDSEC
  0
SECTION
  2
ENTITIES
  0
LWPOLYLINE
  5
1AB
102
{ACAD_REACTORS
330
1AC
102
}
100
AcDbEntity
  8
Ech.1_5
 62
   190
  6
CONTINUOUS
370
    -3
100
AcDbPolyline
 90
        4
 70
     1
 43
0.0
 10
24383.04989032
 20
-2641.9792592
 10
24392.04989032
 20
-2641.9792592
 10
24392.13643051
 20
-2250.72509577
 10
24383.13643051
 20
-2250.72509577
  0
HATCH
  5
1AC
100
AcDbEntity
  8
Ech.1_5
 62
   190
  6
CONTINUOUS
100
AcDbHatch
 10
0.0
 20
0.0
 30
0.0
210
0.0
220
0.0
230
1.0
  2
CDWK10A
 70
     0
 71
     1
 91
        1
 92
        7
 72
     0
 73
     1
 93
        4
 10
24383.04989032
 20
-2641.9792592
 10
24392.04989032
 20
-2641.9792592
 10
24392.13643051
 20
-2250.72509577
 10
24383.13643051
 20
-2250.72509577
 97
        1
330
1AB
 75
     0
 76
     2
 52
0.0
 41
1.0
 77
     0
 78
     3
 53
45.0
 43
0.0
 44
0.0
 45
0.0
 46
42.00000167
 79
     0
 53
45.0
 43
0.0
 44
10.80000043
 45
0.0
 46
42.00000167
 79
     0
 53
45.0
 43
0.0
 44
21.60000086
 45
0.0
 46
42.00000167
 79
     0
 47
0.775229
 98
        1
 10
0.0
 20
0.0
  0
LWPOLYLINE
  5
1AD
102
{ACAD_REACTORS
330
1AE
102
}
100
AcDbEntity
  8
Ech.1_5
 62
   190
  6
CONTINUOUS
370
    -3
100
AcDbPolyline
 90
        4
 70
     1
 43
0.0
 10
24203.14050876
 20
-2311.07929788
 10
24187.14050876
 20
-2311.07929788
 10
24187.14050876
 20
-2641.9792592
 10
24203.14050876
 20
-2641.9792592
  0
HATCH
  5
1AE
100
AcDbEntity
  8
Ech.1_5
 62
   190
  6
CONTINUOUS
100
AcDbHatch
 10
0.0
 20
0.0
 30
0.0
210
0.0
220
0.0
230
1.0
  2
ANSI37
 70
     0
 71
     1
 91
        1
 92
        7
 72
     0
 73
     1
 93
        4
 10
24203.14050876
 20
-2311.07929788
 10
24187.14050876
 20
-2311.07929788
 10
24187.14050876
 20
-2641.9792592
 10
24203.14050876
 20
-2641.9792592
 97
        1
330
1AD
 75
     0
 76
     2
 52
0.0
 41
1.88976388
 77
     0
 78
     2
 53
45.0
 43
0.0
 44
0.0
 45
4.24264086
 46
-4.24264086
 79
     0
 53
-45.0
 43
0.0
 44
0.0
 45
4.24264086
 46
4.24264086
 79
     0
 47
0.775229
 98
        1
 10
0.0
 20
0.0
  0
LWPOLYLINE
  5
1AF
100
AcDbEntity
  8
Ech.1_5
 62
   190
  6
CONTINUOUS
370
    -3
100
AcDbPolyline
 90
       60
 70
     0
 43
0.0
 10
24164.85502727
 20
-2164.22226507
 42
1.14028181
 10
24194.16909926
 20
-2148.96231384
 10
24159.72424344
 20
-2099.73503442
 42
-1.30322619
 10
24189.98001759
 20
-2088.72283321
 10
24195.23641247
 20
-2148.5738436
 42
1.30322619
 10
24225.49218662
 20
-2137.56164239
 10
24191.0473308
 20
-2088.33436297
 42
-1.30322619
 10
24221.30310495
 20
-2077.32216177
 10
24226.55949983
 20
-2137.17317215
 42
1.30322619
 10
24256.81527398
 20
-2126.16097095
 10
24222.37041816
 20
-2076.93369153
 42
-1.30322619
 10
24252.62619231
 20
-2065.92149032
 10
24257.88258719
 20
-2125.77250071
 42
1.30322619
 10
24288.13836134
 20
-2114.76029951
 10
24253.69350552
 20
-2065.53302008
 42
-1.30322619
 10
24283.94927967
 20
-2054.52081888
 10
24289.20567455
 20
-2114.37182927
 42
1.30322619
 10
24319.4614487
 20
-2103.35962806
 10
24285.01659288
 20
-2054.13234864
 42
-1.30322619
 10
24315.27236703
 20
-2043.12014743
 10
24320.52876191
 20
-2102.97115782
 42
1.30322619
 10
24350.78453606
 20
-2091.95895662
 10
24316.33968024
 20
-2042.7316772
 42
-1.30322619
 10
24346.59545439
 20
-2031.71947599
 10
24351.85184927
 20
-2091.57048638
 42
1.30322619
 10
24382.10762342
 20
-2080.55828517
 10
24347.6627676
 20
-2031.33100575
 42
-1.30322619
 10
24377.91854175
 20
-2020.31880455
 10
24383.17493663
 20
-2080.16981493
 42
1.30322619
 10
24413.43071078
 20
-2069.15761373
 10
24378.98585496
 20
-2019.93033431
 42
-1.30322619
 10
24409.24162911
 20
-2008.9181331
 10
24414.49802399
 20
-2068.76914349
 42
1.30322619
 10
24444.75379813
 20
-2057.75694229
 10
24410.30894232
 20
-2008.52966286
 42
-1.30322619
 10
24440.56471647
 20
-1997.51746166
 10
24445.82111135
 20
-2057.36847205
 42
1.30322619
 10
24476.07688549
 20
-2046.35627084
 10
24441.63202968
 20
-1997.12899142
 42
-1.30322619
 10
24471.88780383
 20
-1986.11679021
 10
24477.14419871
 20
-2045.9678006
 42
1.30322619
 10
24507.39997285
 20
-2034.9555994
 10
24472.95511704
 20
-1985.72831997
 42
-1.30322619
 10
24503.21089119
 20
-1974.71611877
 10
24508.46728606
 20
-2034.56712916
 42
1.30322619
 10
24538.72306021
 20
-2023.55492795
 10
24504.2782044
 20
-1974.32764853
 42
-1.30322619
 10
24534.53397855
 20
-1963.31544733
 10
24539.79037342
 20
-2023.16645771
 42
1.30322619
 10
24570.04614757
 20
-2012.15425651
 10
24535.60129176
 20
-1962.92697709
 42
-1.30322619
 10
24565.85706591
 20
-1951.91477588
 10
24571.11346078
 20
-2011.76578627
 42
1.30322619
 10
24601.36923493
 20
-2000.75358506
 10
24566.92437912
 20
-1951.52630564
 42
-1.30322619
 10
24597.18015326
 20
-1940.51410444
 10
24602.43654814
 20
-2000.36511482
 42
1.30322619
 10
24632.69232229
 20
-1989.35291362
 10
24598.24746648
 20
-1940.1256342
 42
-0.43419834
 10
24603.28652047
 20
-1916.29766776
  0
LWPOLYLINE
  5
1B0
100
AcDbEntity
  8
Ech.1_5
 62
   190
  6
CONTINUOUS
370
    -3
100
AcDbPolyline
 90
        6
 70
     0
 43
0.0
 10
24620.51346909
 20
-1916.29766776
 42
-0.23953254
 10
24628.50324062
 20
-1929.11343299
 10
24633.7596355
 20
-1988.96444338
 42
1.30322619
 10
24664.01540965
 20
-1977.95224218
 10
24629.57055384
 20
-1928.72496275
 42
-0.1984937
 10
24626.80497652
 20
-1916.29766776
  0
LWPOLYLINE
  5
1B1
100
AcDbEntity
  8
Ech.1_5
 62
   190
  6
CONTINUOUS
370
    -3
100
AcDbPolyline
 90
        6
 70
     0
 43
0.0
 10
24659.64118776
 20
-1916.29766776
 42
-0.02141712
 10
24659.82632798
 20
-1917.71276155
 10
24665.08272286
 20
-1977.56377194
 42
1.30322619
 10
24695.33849701
 20
-1966.55157073
 10
24660.89364119
 20
-1917.32429131
 42
-0.0183466
 10
24660.22954189
 20
-1916.29766776
  0
LWPOLYLINE
  5
1B2
100
AcDbEntity
  8
Ech.1_5
 62
   190
  6
CONTINUOUS
370
    -3
100
AcDbPolyline
 90
        4
 70
     0
 43
0.0
 10
24724.35074284
 20
-1916.29766776
 10
24727.72889758
 20
-1954.76242905
 42
1.30322619
 10
24757.98467173
 20
-1943.75022784
 10
24738.77582077
 20
-1916.29766776
  0
LWPOLYLINE
  5
1B3
100
AcDbEntity
  8
Ech.1_5
 62
   190
  6
CONTINUOUS
370
    -3
100
AcDbPolyline
 90
        4
 70
     0
 43
0.0
 10
24788.99943784
 20
-1916.29766776
 10
24790.3750723
 20
-1931.96108616
 42
1.30322619
 10
24820.63084645
 20
-1920.94888495
 10
24817.37633985
 20
-1916.29766776
  0
LWPOLYLINE
  5
1B4
100
AcDbEntity
  8
Ech.1_5
 62
   190
  6
CONTINUOUS
370
    -3
100
AcDbPolyline
 90
        4
 70
     0
 43
0.0
 10
24692.02639535
 20
-1916.29766776
 10
24696.40581022
 20
-1966.16310049
 42
1.30322619
 10
24726.66158437
 20
-1955.15089929
 10
24699.47556122
 20
-1916.29766776
  0
LWPOLYLINE
  5
1B5
100
AcDbEntity
  8
Ech.1_5
 62
   190
  6
CONTINUOUS
370
    -3
100
AcDbPolyline
 90
        4
 70
     0
 43
0.0
 10
24756.67509034
 20
-1916.29766776
 10
24759.05198494
 20
-1943.3617576
 42
1.30322619
 10
24789.30775909
 20
-1932.3495564
 10
24778.07608031
 20
-1916.29766776
  0
LWPOLYLINE
  5
1B6
100
AcDbEntity
  8
Ech.1_5
 62
   190
  6
CONTINUOUS
370
    -3
100
AcDbPolyline
 90
        3
 70
     0
 43
0.0
 10
24821.32378534
 20
-1916.29766776
 10
24821.69815966
 20
-1920.56041472
 42
1.04194391
 10
24854.72945382
 20
-1916.29766776
  0
ARC
  5
1B7
100
AcDbEntity
  8
Ech.1_5
 62
   190
  6
CONTINUOUS
370
    -3
100
AcDbCircle
 10
24869.62449286
 20
-1907.70715758
 30
0.0
 40
16.66666667
100
AcDbArc
 50
211.02624198
 51
314.11890169
  0
LWPOLYLINE
  5
1B8
100
AcDbEntity
  8
Ech.1_5
 62
   190
  6
CONTINUOUS
370
    -3
100
AcDbPolyline
 90
       74
 70
     0
 43
0.0
 10
24411.24968262
 20
-2369.58523206
 42
1.14028181
 10
24434.84751057
 20
-2357.30097132
 10
24407.11940164
 20
-2317.67301138
 42
-1.30322619
 10
24431.47529983
 20
-2308.80818941
 10
24435.70669771
 20
-2356.98825278
 42
1.30322619
 10
24460.0625959
 20
-2348.12343081
 10
24432.33448696
 20
-2308.49547087
 42
-1.30322619
 10
24456.69038515
 20
-2299.6306489
 10
24460.92178303
 20
-2347.81071226
 42
1.30322619
 10
24485.27768122
 20
-2338.94589029
 10
24457.54957229
 20
-2299.31793036
 42
-1.30322619
 10
24481.90547048
 20
-2290.45310839
 10
24486.13686835
 20
-2338.63317175
 42
1.30322619
 10
24510.49276654
 20
-2329.76834978
 10
24482.76465761
 20
-2290.14038985
 42
-1.30322619
 10
24507.1205558
 20
-2281.27556788
 10
24511.35195368
 20
-2329.45563124
 42
1.30322619
 10
24535.70785187
 20
-2320.59080927
 10
24507.97974294
 20
-2280.96284933
 42
-1.30322619
 10
24532.33564113
 20
-2272.09802736
 10
24536.567039
 20
-2320.27809073
 42
1.30322619
 10
24560.92293719
 20
-2311.41326876
 10
24533.19482826
 20
-2271.78530882
 42
-1.30322619
 10
24557.55072645
 20
-2262.92048685
 10
24561.78212433
 20
-2311.10055021
 42
1.30322619
 10
24586.13802252
 20
-2302.23572824
 10
24558.40991358
 20
-2262.60776831
 42
-1.30322619
 10
24582.76581177
 20
-2253.74294634
 10
24586.99720965
 20
-2301.9230097
 42
1.30322619
 10
24611.35310784
 20
-2293.05818773
 10
24583.62499891
 20
-2253.4302278
 42
-1.30322619
 10
24607.9808971
 20
-2244.56540583
 10
24612.21229498
 20
-2292.74546919
 42
1.30322619
 10
24636.56819317
 20
-2283.88064722
 10
24608.84008423
 20
-2244.25268728
 42
-1.30322619
 10
24633.19598242
 20
-2235.38786531
 10
24637.4273803
 20
-2283.56792868
 42
1.30322619
 10
24661.78327849
 20
-2274.70310671
 10
24634.05516956
 20
-2235.07514677
 42
-1.30322619
 10
24658.41106775
 20
-2226.2103248
 10
24662.64246563
 20
-2274.39038816
 42
1.30322619
 10
24686.99836381
 20
-2265.52556619
 10
24659.27025488
 20
-2225.89760626
 42
-1.30322619
 10
24683.62615307
 20
-2217.03278429
 10
24687.85755095
 20
-2265.21284765
 42
1.30322619
 10
24712.21344914
 20
-2256.34802568
 10
24684.48534021
 20
-2216.72006575
 42
-1.30322619
 10
24708.8412384
 20
-2207.85524378
 10
24713.07263627
 20
-2256.03530714
 42
1.30322619
 10
24737.42853446
 20
-2247.17048517
 10
24709.70042553
 20
-2207.54252523
 42
-1.30322619
 10
24734.05632372
 20
-2198.67770326
 10
24738.2877216
 20
-2246.85776662
 42
1.30322619
 10
24762.64361979
 20
-2237.99294465
 10
24734.91551086
 20
-2198.36498472
 42
-1.30322619
 10
24759.27140905
 20
-2189.50016275
 10
24763.50280692
 20
-2237.68022611
 42
1.30322619
 10
24787.85870511
 20
-2228.81540414
 10
24760.13059618
 20
-2189.18744421
 42
-1.30322619
 10
24784.48649437
 20
-2180.32262224
 10
24788.71789225
 20
-2228.5026856
 42
1.30322619
 10
24813.07379044
 20
-2219.63786363
 10
24785.3456815
 20
-2180.0099037
 42
-1.30322619
 10
24809.70157969
 20
-2171.14508173
 10
24813.93297757
 20
-2219.32514509
 42
1.30322619
 10
24838.28887576
 20
-2210.46032312
 10
24810.56076683
 20
-2170.83236318
 42
-1.30322619
 10
24834.91666502
 20
-2161.96754121
 10
24839.1480629
 20
-2210.14760457
 42
1.30322619
 10
24863.50396109
 20
-2201.2827826
 10
24835.77585215
 20
-2161.65482267
 42
-1.30322619
 10
24860.13175034
 20
-2152.7900007
 10
24864.36314822
 20
-2200.97006406
 42
0.4669126
 10
24881.2269873
 20
-2212.75331371
  0
LWPOLYLINE
  5
1B9
100
AcDbEntity
  8
Ech.1_5
 62
   190
  6
CONTINUOUS
370
    -3
100
AcDbPolyline
 90
        3
 70
     0
 43
0.0
 10
24881.2269873
 20
-2181.39787583
 10
24860.99093748
 20
-2152.47728216
 42
-0.90484574
 10
24881.2269873
 20
-2135.05950889
  0
LWPOLYLINE
  5
1BA
100
AcDbEntity
  8
Ech.1_5
 62
     7
100
AcDbPolyline
 90
       57
 70
     0
 43
0.0
 10
23614.83303566
 20
-2333.57219999
 10
23616.22812282
 20
-2333.36947377
 10
23617.62431739
 20
-2333.16483369
 10
23619.02272676
 20
-2332.95636586
 10
23620.42445835
 20
-2332.74215643
 10
23621.83061956
 20
-2332.52029152
 10
23623.2423178
 20
-2332.28885727
 10
23624.66066046
 20
-2332.0459398
 10
23626.08675495
 20
-2331.78962526
 10
23627.52170869
 20
-2331.51799976
 10
23628.96662907
 20
-2331.22914944
 10
23630.42262349
 20
-2330.92116044
 10
23631.89079937
 20
-2330.59211887
 10
23633.37226411
 20
-2330.24011089
 10
23634.86812511
 20
-2329.8632226
 10
23636.37947035
 20
-2329.45958481
 10
23637.90553406
 20
-2329.03158886
 10
23639.44219086
 20
-2328.58934771
 10
23640.98496093
 20
-2328.14378892
 10
23642.52936448
 20
-2327.70584004
 10
23644.07092168
 20
-2327.28642862
 10
23645.60515274
 20
-2326.89648219
 10
23647.12757785
 20
-2326.54692833
 10
23648.63371719
 20
-2326.24869456
 10
23650.11909097
 20
-2326.01270845
 10
23651.57921938
 20
-2325.84989754
 10
23653.0096226
 20
-2325.77118938
 10
23654.40582084
 20
-2325.78751151
 10
23655.76333428
 20
-2325.90979149
 10
23657.07768312
 20
-2326.14895687
 10
23658.34438754
 20
-2326.51593519
 10
23659.55896862
 20
-2327.02165027
 10
23660.71814278
 20
-2327.67190203
 10
23661.82219121
 20
-2328.45720999
 10
23662.87205669
 20
-2329.36525786
 10
23663.86868199
 20
-2330.38372934
 10
23664.81300987
 20
-2331.50030813
 10
23665.70598312
 20
-2332.70267795
 10
23666.54854449
 20
-2333.97852249
 10
23667.34163677
 20
-2335.31552545
 10
23668.08620272
 20
-2336.70137055
 10
23668.78318512
 20
-2338.12374148
 10
23669.43352673
 20
-2339.57032195
 10
23670.03817033
 20
-2341.02879566
 10
23670.59805868
 20
-2342.48684631
 10
23671.11417081
 20
-2343.93242443
 10
23671.58849985
 20
-2345.36094545
 10
23672.02416478
 20
-2346.776112
 10
23672.42434322
 20
-2348.18205854
 10
23672.79221279
 20
-2349.58291952
 10
23673.13095114
 20
-2350.98282938
 10
23673.44373589
 20
-2352.38592257
 10
23673.73374467
 20
-2353.79633356
 10
23674.00417377
 20
-2355.21812096
 10
23674.25903767
 20
-2356.65201851
 10
23674.50347084
 20
-2358.09420863
 10
23674.74268865
 20
-2359.54054504
  0
ARC
  5
1BB
100
AcDbEntity
  8
Ech.1_5
 62
     7
100
AcDbCircle
 10
23606.13220083
 20
-2266.34300624
 30
0.0
 40
67.78988877
100
AcDbArc
 50
176.81519387
 51
17.9333216
  0
LINE
  5
1BC
100
AcDbEntity
  8
Ech.1_5
 62
     7
100
AcDbLine
 10
23747.64039059
 20
-2227.39449308
 30
0.0
 11
24547.74300963
 21
-1936.18095539
 31
0.0
  0
LINE
  5
1BD
100
AcDbEntity
  8
Ech.1_5
 62
     7
100
AcDbLine
 10
23669.33404247
 20
-2245.46982253
 30
0.0
 11
23681.14054335
 21
-2245.46982253
 31
0.0
  0
ARC
  5
1BE
100
AcDbEntity
  8
Ech.1_5
 62
     7
100
AcDbCircle
 10
23678.12101431
 20
-2358.92616758
 30
0.0
 40
3.43373615
100
AcDbArc
 50
190.3070861
 51
331.56661712
  0
ARC
  5
1BF
100
AcDbEntity
  8
Ech.1_5
 62
     7
100
AcDbCircle
 10
24144.42968819
 20
-3018.47785011
 30
0.0
 40
901.70863496
100
AcDbArc
 50
114.11271308
 51
118.22750414
  0
ARC
  5
1C0
100
AcDbEntity
  8
Ech.1_5
 62
     7
100
AcDbCircle
 10
23669.83319349
 20
-2130.38345615
 30
0.0
 40
105.25912681
100
AcDbArc
 50
263.48671375
 51
297.1989192
  0
LWPOLYLINE
  5
1C1
100
AcDbEntity
  8
Ech.1_5
100
AcDbPolyline
 90
        4
 70
     0
 43
0.0
 10
24881.2269873
 20
-2212.80520082
 10
24415.83845288
 20
-2382.19277472
 10
24388.30582487
 20
-2306.5475211
 10
24881.2269873
 20
-2127.13889014
  0
LWPOLYLINE
  5
1C2
100
AcDbEntity
  8
Ech.1_5
 62
     7
  6
CONTINUOUS
370
    -3
100
AcDbPolyline
 90
        4
 70
     0
 43
0.0
 10
24881.2269873
 20
-2061.69195713
 10
24392.69493144
 20
-2239.50308395
 10
24413.72917025
 20
-2297.29418013
 10
24881.2269873
 20
-2127.13889014
  0
LWPOLYLINE
  5
1C3
100
AcDbEntity
  8
Ech.1_5
 62
   150
  6
CADWORK_22
370
    35
100
AcDbPolyline
 90
        4
 70
     0
 43
0.0
 38
2500.0
 10
23712.29986645
 20
-2236.03058017
 10
23763.34532619
 20
-2217.17561454
 10
23770.27363403
 20
-2217.56039951
 10
24597.98618683
 20
-1916.29766776
  0
LWPOLYLINE
  5
1C4
102
{ACAD_REACTORS
330
1C5
102
}
100
AcDbEntity
  8
Ech.1_5
 62
     7
  6
CONTINUOUS
370
    -3
100
AcDbPolyline
 90
        4
 70
     1
 43
0.0
 10
24243.89280054
 20
-2293.66263039
 10
24881.2269873
 20
-2061.69195713
 10
24881.2269873
 20
-2048.92182386
 10
24239.78855882
 20
-2282.38631894
  0
HATCH
  5
1C5
100
AcDbEntity
  8
Ech.1_5
 62
   190
  6
CONTINUOUS
100
AcDbHatch
 10
0.0
 20
0.0
 30
0.0
210
0.0
220
0.0
230
1.0
  2
CDWK10A
 70
     0
 71
     1
 91
        1
 92
        7
 72
     0
 73
     1
 93
        4
 10
24243.89280054
 20
-2293.66263039
 10
24881.2269873
 20
-2061.69195713
 10
24881.2269873
 20
-2048.92182386
 10
24239.78855882
 20
-2282.38631894
 97
        1
330
1C4
 75
     0
 76
     2
 52
0.0
 41
1.0
 77
     0
 78
     3
 53
45.0
 43
0.0
 44
0.0
 45
0.0
 46
42.00000167
 79
     0
 53
45.0
 43
0.0
 44
10.80000043
 45
0.0
 46
42.00000167
 79
     0
 53
45.0
 43
0.0
 44
21.60000086
 45
0.0
 46
42.00000167
 79
     0
 47
0.775229
 98
        1
 10
0.0
 20
0.0
  0
LWPOLYLINE
  5
1C6
102
{ACAD_REACTORS
330
1C7
102
}
100
AcDbEntity
  8
Ech.1_5
 62
     7
  6
CONTINUOUS
370
    -3
100
AcDbPolyline
 90
        4
 70
     1
 43
0.0
 10
24395.32576416
 20
-2403.49310246
 10
24881.226959
 20
-2226.63951698
 10
24881.2269873
 20
-2212.80519551
 10
24390.87950126
 20
-2391.27709877
  0
HATCH
  5
1C7
100
AcDbEntity
  8
Ech.1_5
 62
   190
  6
CONTINUOUS
100
AcDbHatch
 10
0.0
 20
0.0
 30
0.0
210
0.0
220
0.0
230
1.0
  2
DOTS2
 70
     0
 71
     1
 91
        1
 92
        7
 72
     0
 73
     1
 93
        4
 10
24395.32576416
 20
-2403.49310246
 10
24881.226959
 20
-2226.63951698
 10
24881.2269873
 20
-2212.80519551
 10
24390.87950126
 20
-2391.27709877
 97
        1
330
1C6
 75
     0
 76
     2
 52
0.0
 41
4.72440952
 77
     0
 78
     1
 53
0.0
 43
0.0
 44
0.0
 45
3.75
 46
3.535
 79
     2
 49
0.0
 49
-3.535
 47
0.775229
 98
        1
 10
0.0
 20
0.0
  0
LWPOLYLINE
  5
1C8
100
AcDbEntity
  8
Ech.1_5
100
AcDbPolyline
 90
        4
 70
     0
 43
0.0
 10
24881.2269873
 20
-2210.67684528
 10
24390.87950126
 20
-2391.27709877
 10
24395.32576416
 20
-2403.49310246
 10
24881.226959
 20
-2226.63951698
  0
LWPOLYLINE
  5
1C9
100
AcDbEntity
  8
Ech.1_5
370
    50
100
AcDbPolyline
 90
        3
 70
     0
 43
0.0
 10
24384.03646447
 20
-2369.00696854
 10
24384.03646447
 20
-2393.56661401
 10
24408.33896766
 20
-2384.72122388
  0
LWPOLYLINE
  5
1CA
100
AcDbEntity
  8
Ech.1_5
100
AcDbPolyline
 90
       10
 70
     0
 43
0.0
 10
23768.89672369
 20
-2219.65782054
 10
23768.21268341
 20
-2217.7784353
 10
23717.12381065
 20
-2236.37326429
 10
23659.86010161
 20
-2243.90229675
 10
23659.86010161
 20
-2272.51011635
 10
23664.57682765
 20
-2267.24901954
 10
23661.86010161
 20
-2267.24901954
 10
23661.86010161
 20
-2245.65654967
 10
23717.60186352
 20
-2238.32762282
 10
23768.89672369
 20
-2219.65782054
  0
ARC
  5
1CB
100
AcDbEntity
  8
Ech.1_5
 62
     7
100
AcDbCircle
 10
23605.32602559
 20
-2258.48364317
 30
0.0
 40
65.31757614
100
AcDbArc
 50
182.93511954
 51
11.68289665
  0
ARC
  5
1CC
100
AcDbEntity
  8
Ech.1_5
 62
     7
100
AcDbCircle
 10
23605.32602559
 20
-2258.48364317
 30
0.0
 40
62.81757614
100
AcDbArc
 50
180.12287567
 51
11.68289665
  0
LINE
  5
1CD
100
AcDbEntity
  8
Ech.1_5
 62
     7
100
AcDbLine
 10
23666.84222891
 20
-2245.76339942
 30
0.0
 11
23669.29043717
 21
-2245.25716198
 31
0.0
  0
LINE
  5
1CE
100
AcDbEntity
  8
Ech.1_5
 62
   190
  6
CONTINUOUS
370
    -3
100
AcDbLine
 10
23627.25315914
 20
-2145.75108816
 30
0.0
 11
23975.32470106
 21
-2061.69867088
 31
0.0
  0
LWPOLYLINE
  5
1CF
100
AcDbEntity
  8
Ech.1_5
 62
   190
  6
CONTINUOUS
370
    -3
100
AcDbPolyline
 90
       23
 70
     0
 43
0.0
 10
24022.25823871
 20
-2039.0681077
 10
24031.70265717
 20
-2036.78746678
 10
24044.30691583
 20
-2088.98327374
 10
24020.57425153
 20
-2095.34901058
 10
24014.46533677
 20
-2072.57382729
 10
23680.62083202
 20
-2162.11987389
 10
23682.80406454
 20
-2171.160912
 10
23672.34486671
 20
-2173.96634927
 10
23669.84944959
 20
-2163.63251578
 10
23654.06479252
 20
-2167.80333386
 10
23656.59804519
 20
-2178.29384908
 10
23636.29549185
 20
-2183.19651557
 10
23627.25315914
 20
-2145.75108816
 10
23619.35894389
 20
-2113.06015835
 42
-0.41421356
 10
23635.8067668
 20
-2086.13976626
 10
23962.19420122
 20
-2007.32363357
 10
23975.32470106
 20
-2061.69867088
 10
23998.43899944
 20
-2056.11702337
 10
23995.86129991
 20
-2045.44244817
 10
24005.30571837
 20
-2043.16180725
 10
24007.8834179
 20
-2053.83638245
 10
24024.83593824
 20
-2049.74268291
 10
24022.25823871
 20
-2039.0681077
  0
LINE
  5
1D0
100
AcDbEntity
  8
Ech.1_5
 62
   190
  6
CONTINUOUS
370
    -3
100
AcDbLine
 10
23965.86091307
 20
-2022.50794464
 30
0.0
 11
24313.93245499
 21
-1938.45552735
 31
0.0
  0
LWPOLYLINE
  5
1D1
100
AcDbEntity
  8
Ech.1_5
 62
   190
  6
CONTINUOUS
370
    -3
100
AcDbPolyline
 90
       15
 70
     0
 43
0.0
 10
24370.97528954
 20
-1916.29766776
 10
24382.91466976
 20
-1965.74013021
 10
24359.18200547
 20
-1972.10586705
 10
24353.07309071
 20
-1949.33068377
 10
24019.22858596
 20
-2038.87673037
 10
24021.41181847
 20
-2047.91776848
 10
24010.95262065
 20
-2050.72320575
 10
24008.45720353
 20
-2040.38937226
 10
23992.67254646
 20
-2044.56019033
 10
23995.20579913
 20
-2055.05070556
 10
23974.90324579
 20
-2059.95337205
 10
23965.86091307
 20
-2022.50794464
 10
23957.96669783
 20
-1989.81701483
 42
-0.41421356
 10
23974.41452073
 20
-1962.89662274
 10
24167.38660452
 20
-1916.29766776
  0
LWPOLYLINE
  5
1D2
100
AcDbEntity
  8
Ech.1_5
 62
   190
  6
CONTINUOUS
370
    -3
100
AcDbPolyline
 90
        8
 70
     0
 43
0.0
 10
24308.63251428
 20
-1916.29766776
 10
24313.98040459
 20
-1938.44394847
 10
24337.04675337
 20
-1932.87387985
 10
24334.46905385
 20
-1922.19930464
 10
24343.91347231
 20
-1919.91866372
 10
24346.49117184
 20
-1930.59323893
 10
24363.44369217
 20
-1926.49953938
 10
24360.98014124
 20
-1916.29766776
  0
LWPOLYLINE
  5
1D3
100
AcDbEntity
  8
Ech.1_5
 62
     7
  6
CONTINUOUS
370
    -3
100
AcDbPolyline
 90
        5
 70
     0
 43
0.0
 10
24311.77248533
 20
-1964.56301276
 10
24349.36019016
 20
-1950.88220703
 10
24358.59473403
 20
-1976.25390779
 10
24321.0070292
 20
-1989.93471353
 10
24311.77248533
 20
-1964.56301276
  0
LINE
  5
1D4
100
AcDbEntity
  8
Ech.1_5
 62
     7
100
AcDbLine
 10
23755.44738128
 20
-2266.96618098
 30
0.0
 11
23755.31020345
 21
-2266.98973408
 31
0.0
  0
LWPOLYLINE
  5
1D5
100
AcDbEntity
  8
Ech.1_5
 62
   190
  6
CONTINUOUS
370
    -3
100
AcDbPolyline
 90
        4
 70
     0
 43
0.0
 10
23741.70735945
 20
-2147.60381241
 10
23705.6479472
 20
-2213.94569268
 10
23758.37640564
 20
-2194.75410331
 10
23705.63082277
 20
-2157.28050677
  0
LWPOLYLINE
  5
1D6
100
AcDbEntity
  8
Ech.1_5
 62
   190
  6
CONTINUOUS
370
    -3
100
AcDbPolyline
 90
        4
 70
     0
 43
0.0
 10
24010.71435618
 20
-2074.17780049
 10
23982.36119522
 20
-2113.23030698
 10
24019.94890005
 20
-2099.54950125
 10
23973.12665135
 20
-2087.85860622
  0
LWPOLYLINE
  5
1D7
100
AcDbEntity
  8
Ech.1_5
 62
   190
  6
CONTINUOUS
370
    -3
100
AcDbPolyline
 90
        4
 70
     0
 43
0.0
 10
24349.32211011
 20
-1950.93465696
 10
24320.96894915
 20
-1989.98716346
 10
24358.55665398
 20
-1976.30635772
 10
24311.73440528
 20
-1964.6154627
  0
LWPOLYLINE
  5
1D8
100
AcDbEntity
  8
Ech.1_5
 62
   190
  6
CONTINUOUS
370
    -3
100
AcDbPolyline
 90
        4
 70
     0
 43
0.0
 10
24392.04989032
 20
-2412.42305076
 10
24432.04989032
 20
-2457.42305076
 10
24432.04989032
 20
-2412.42305076
 10
24392.04989032
 20
-2457.42305076
  0
LWPOLYLINE
  5
1D9
102
{ACAD_REACTORS
330
1DA
102
}
100
AcDbEntity
  8
Ech.1_5
 62
     7
  6
CONTINUOUS
370
    -3
100
AcDbPolyline
 90
        4
 70
     1
 43
0.0
 10
24432.04972782
 20
-2392.42320755
 10
24432.04977578
 20
-2641.9792592
 10
24445.04977578
 20
-2641.9792592
 10
24445.04972782
 20
-2392.42305076
  0
HATCH
  5
1DA
100
AcDbEntity
  8
Ech.1_5
 62
   190
  6
CONTINUOUS
100
AcDbHatch
 10
0.0
 20
0.0
 30
0.0
210
0.0
220
0.0
230
1.0
  2
DOTS2
 70
     0
 71
     1
 91
        1
 92
        7
 72
     0
 73
     1
 93
        4
 10
24432.04972782
 20
-2392.42320755
 10
24432.04977578
 20
-2641.9792592
 10
24445.04977578
 20
-2641.9792592
 10
24445.04972782
 20
-2392.42305076
 97
        1
330
1D9
 75
     0
 76
     2
 52
0.0
 41
4.72440952
 77
     0
 78
     1
 53
0.0
 43
0.0
 44
0.0
 45
3.75
 46
3.535
 79
     2
 49
0.0
 49
-3.535
 47
0.775229
 98
        1
 10
0.0
 20
0.0
  0
LWPOLYLINE
  5
1DB
100
AcDbEntity
  8
Ech.1_5
 62
   190
  6
CONTINUOUS
370
    -3
100
AcDbPolyline
 90
        6
 70
     0
 43
0.0
 10
24102.63600007
 20
-2641.9792592
 10
24308.34403577
 20
-2641.9792592
 10
24324.82953893
 20
-2624.00191079
 10
24310.71959891
 20
-2659.9576108
 10
24327.20595299
 20
-2641.9792592
 10
24454.20595299
 20
-2641.9792592
  0
LWPOLYLINE
  5
1DC
100
AcDbEntity
  8
Ech.1_5
 62
   190
  6
CONTINUOUS
370
    -3
100
AcDbPolyline
 90
        4
 70
     0
 43
0.0
 10
24203.14054335
 20
-2340.72509577
 10
24383.13643051
 20
-2385.72509577
 10
24383.13643051
 20
-2340.72509577
 10
24203.14054335
 20
-2385.72509577
  0
LINE
  5
1DD
100
AcDbEntity
  8
Ech.1_5
 62
     7
100
AcDbLine
 10
24162.14035606
 20
-2443.17505378
 30
0.0
 11
24162.14035606
 21
-2507.17505378
 31
0.0
  0
LWPOLYLINE
  5
1DE
100
AcDbEntity
  8
Ech.1_5
 62
     5
  6
CONTINUOUS
370
    -3
100
AcDbPolyline
 90
        5
 70
     0
 43
0.0
 10
23973.12665135
 20
-2087.85860622
 10
24010.71435618
 20
-2074.17780049
 10
24019.94890005
 20
-2099.54950125
 10
23982.36119522
 20
-2113.23030698
 10
23973.12665135
 20
-2087.85860622
  0
LWPOLYLINE
  5
1DF
100
AcDbEntity
  8
Ech.1_5
 62
     5
  6
CONTINUOUS
370
    -3
100
AcDbPolyline
 90
        5
 70
     0
 43
0.0
 10
23705.63082277
 20
-2157.28050677
 10
23741.70735945
 20
-2147.60381241
 10
23758.38082585
 20
-2194.75249449
 10
23705.6479472
 20
-2213.94569268
 10
23705.63082277
 20
-2157.28050677
  0
LWPOLYLINE
  5
1E0
100
AcDbEntity
  8
Ech.1_5
 62
     5
  6
CONTINUOUS
370
    -3
100
AcDbPolyline
 90
        5
 70
     0
 43
0.0
 10
24311.73440528
 20
-1964.6154627
 10
24349.32211011
 20
-1950.93465696
 10
24358.55665398
 20
-1976.30635772
 10
24320.96894915
 20
-1989.98716346
 10
24311.73440528
 20
-1964.6154627
  0
LWPOLYLINE
  5
1E1
100
AcDbEntity
  8
Ech.1_5
 62
     5
  6
CONTINUOUS
370
    -3
100
AcDbPolyline
 90
        5
 70
     0
 43
0.0
 10
24392.04989032
 20
-2457.42305076
 10
24432.04989032
 20
-2457.42305076
 10
24432.04989032
 20
-2412.42305076
 10
24392.04989032
 20
-2412.42305076
 10
24392.04989032
 20
-2457.42305076
  0
LWPOLYLINE
  5
1E2
100
AcDbEntity
  8
Ech.1_5
 62
     5
  6
CONTINUOUS
370
    -3
100
AcDbPolyline
 90
        5
 70
     0
 43
0.0
 10
24383.13643051
 20
-2340.72509577
 10
24203.14054335
 20
-2340.72509577
 10
24203.14054335
 20
-2385.72509577
 10
24383.13643051
 20
-2385.72509577
 10
24383.13643051
 20
-2340.72509577
  0
LWPOLYLINE
  5
1E3
100
AcDbEntity
  8
Ech.1_5
 62
   190
  6
CONTINUOUS
370
    -3
100
AcDbPolyline
 90
       22
 70
     0
 43
0.0
 10
24226.8467852
 20
-2385.72509577
 42
1.0290394
 10
24240.58954675
 20
-2443.58982378
 10
24344.1874358
 20
-2415.86789326
 42
-1.3030009
 10
24344.19702528
 20
-2473.34173686
 42
1.3027756
 10
24344.19703556
 20
-2415.86532444
 42
-1.30300084
 10
24344.18742552
 20
-2473.33916804
 10
24240.58954639
 20
-2445.61720046
 42
1.30322619
 10
24240.58953611
 20
-2503.08847524
 10
24344.18742516
 20
-2475.36654472
 42
-1.3030009
 10
24344.19701464
 20
-2532.84038832
 42
1.3027756
 10
24344.19702492
 20
-2475.3639759
 42
-1.30300084
 10
24344.18741488
 20
-2532.8378195
 10
24240.58953575
 20
-2505.11585192
 42
1.30322619
 10
24240.58952547
 20
-2562.5871267
 10
24344.18741452
 20
-2534.86519618
 42
-1.3030009
 10
24344.197004
 20
-2592.33903978
 42
1.3027756
 10
24344.19701428
 20
-2534.86262736
 42
-1.30300084
 10
24344.18740424
 20
-2592.33647096
 10
24240.58952511
 20
-2564.61450338
 42
1.30322619
 10
24240.58951483
 20
-2622.08577816
 10
24344.18740388
 20
-2594.36384764
 42
-0.72916271
 10
24374.87787589
 20
-2641.97928991
  0
ARC
  5
1E4
100
AcDbEntity
  8
Ech.1_5
 62
   190
  6
CONTINUOUS
370
    -3
100
AcDbCircle
 10
24232.88984248
 20
-2414.85418501
 30
0.0
 40
29.74932573
100
AcDbArc
 50
78.27979616
 51
101.72020384
  0
LWPOLYLINE
  5
1E5
102
{ACAD_REACTORS
330
1E6
102
}
100
AcDbEntity
  8
Ech.1_5
 62
     7
  6
CONTINUOUS
370
    -3
100
AcDbPolyline
 90
        4
 70
     1
 43
0.0
 10
24203.14054335
 20
-2295.72509577
 10
24211.59778379
 20
-2292.64693311
 10
24138.06345617
 20
-2090.61302842
 10
24129.60621573
 20
-2093.69119109
  0
HATCH
  5
1E6
100
AcDbEntity
  8
Ech.1_5
 62
   190
  6
CONTINUOUS
100
AcDbHatch
 10
0.0
 20
0.0
 30
0.0
210
0.0
220
0.0
230
1.0
  2
CDWK10A
 70
     0
 71
     1
 91
        1
 92
        7
 72
     0
 73
     1
 93
        4
 10
24203.14054335
 20
-2295.72509577
 10
24211.59778379
 20
-2292.64693311
 10
24138.06345617
 20
-2090.61302842
 10
24129.60621573
 20
-2093.69119109
 97
        1
330
1E5
 75
     0
 76
     2
 52
0.0
 41
1.0
 77
     0
 78
     3
 53
45.0
 43
0.0
 44
0.0
 45
0.0
 46
42.00000167
 79
     0
 53
45.0
 43
0.0
 44
10.80000043
 45
0.0
 46
42.00000167
 79
     0
 53
45.0
 43
0.0
 44
21.60000086
 45
0.0
 46
42.00000167
 79
     0
 47
0.775229
 98
        1
 10
0.0
 20
0.0
  0
CIRCLE
  5
1E7
100
AcDbEntity
  8
Ech.1_5
 62
     7
  6
CONTINUOUS
370
    -3
100
AcDbCircle
 10
24473.965701
 20
-2312.14908102
 30
0.0
 40
2.51802373
  0
LINE
  5
1E8
100
AcDbEntity
  8
Ech.1_5
 62
     7
  6
CONTINUOUS
370
    -3
100
AcDbLine
 10
24456.73095332
 20
-2225.32564154
 30
0.0
 11
24493.12912917
 21
-2325.3288078
 31
0.0
  0
CIRCLE
  5
1E9
100
AcDbEntity
  8
Ech.1_5
 62
     7
  6
CONTINUOUS
370
    -3
100
AcDbCircle
 10
24458.57479455
 20
-2269.86291309
 30
0.0
 40
2.51802373
  0
ARC
  5
1EA
100
AcDbEntity
  8
Ech.1_5
 62
     7
  6
CONTINUOUS
370
    -3
100
AcDbCircle
 10
24463.0589653
 20
-2336.27345238
 30
0.0
 40
5.0
100
AcDbArc
 50
290.0
 51
20.0
  0
LINE
  5
1EB
100
AcDbEntity
  8
Ech.1_5
 62
     7
  6
CONTINUOUS
370
    -3
100
AcDbLine
 10
24467.65848485
 20
-2349.5833026
 30
0.0
 11
24466.97444456
 21
-2347.70391736
 31
0.0
  0
LINE
  5
1EC
100
AcDbEntity
  8
Ech.1_5
 62
     7
  6
CONTINUOUS
370
    -3
100
AcDbLine
 10
24461.01029554
 20
-2342.33999606
 30
0.0
 11
24464.76906602
 21
-2340.97191549
 31
0.0
  0
ARC
  5
1ED
100
AcDbEntity
  8
Ech.1_5
 62
     7
  6
CONTINUOUS
370
    -3
100
AcDbCircle
 10
24472.06371864
 20
-2332.45911846
 30
0.0
 40
14.82598747
100
AcDbArc
 50
221.79417108
 51
258.13515835
  0
ARC
  5
1EE
100
AcDbEntity
  8
Ech.1_5
 62
     7
  6
CONTINUOUS
370
    -3
100
AcDbCircle
 10
24475.30464763
 20
-2345.61909059
 30
0.0
 40
12.47697948
100
AcDbArc
 50
209.36224396
 51
274.61218104
  0
LINE
  5
1EF
100
AcDbEntity
  8
Ech.1_5
 62
     7
  6
CONTINUOUS
370
    -3
100
AcDbLine
 10
24467.65848485
 20
-2349.5833026
 30
0.0
 11
24463.77716535
 21
-2350.99598737
 31
0.0
  0
LINE
  5
1F0
100
AcDbEntity
  8
Ech.1_5
 62
     7
  6
CONTINUOUS
370
    -3
100
AcDbLine
 10
24463.77716535
 20
-2350.99598737
 30
0.0
 11
24467.51192395
 21
-2361.25715229
 31
0.0
  0
LINE
  5
1F1
100
AcDbEntity
  8
Ech.1_5
 62
     7
  6
CONTINUOUS
370
    -3
100
AcDbLine
 10
24466.97444456
 20
-2347.70391736
 30
0.0
 11
24461.21373982
 21
-2349.80064241
 31
0.0
  0
LINE
  5
1F2
100
AcDbEntity
  8
Ech.1_5
 62
     7
  6
CONTINUOUS
370
    -3
100
AcDbLine
 10
24461.21373982
 20
-2349.80064241
 30
0.0
 11
24466.31657899
 21
-2363.82057782
 31
0.0
  0
CIRCLE
  5
1F3
100
AcDbEntity
  8
Ech.1_5
 62
     7
  6
CONTINUOUS
370
    -3
100
AcDbCircle
 10
24468.83539885
 20
-2298.05369171
 30
0.0
 40
2.51802373
  0
CIRCLE
  5
1F4
100
AcDbEntity
  8
Ech.1_5
 62
     7
  6
CONTINUOUS
370
    -3
100
AcDbCircle
 10
24479.09600315
 20
-2326.24447034
 30
0.0
 40
2.51802373
  0
CIRCLE
  5
1F5
100
AcDbEntity
  8
Ech.1_5
 62
     7
  6
CONTINUOUS
370
    -3
100
AcDbCircle
 10
24463.7050967
 20
-2283.9583024
 30
0.0
 40
2.51802373
  0
ARC
  5
1F6
100
AcDbEntity
  8
Ech.1_5
 62
     7
  6
CONTINUOUS
370
    -3
100
AcDbCircle
 10
24488.47774444
 20
-2326.48490165
 30
0.0
 40
14.82598747
100
AcDbArc
 50
321.86484165
 51
358.20582892
  0
ARC
  5
1F7
100
AcDbEntity
  8
Ech.1_5
 62
     7
  6
CONTINUOUS
370
    -3
100
AcDbCircle
 10
24503.62858821
 20
-2334.12323789
 30
0.0
 40
3.80485997
100
AcDbArc
 50
203.49676661
 51
324.2539008
  0
ARC
  5
1F8
100
AcDbEntity
  8
Ech.1_5
 62
     7
  6
CONTINUOUS
370
    -3
100
AcDbCircle
 10
24494.45411582
 20
-2338.64925416
 30
0.0
 40
12.47697948
100
AcDbArc
 50
305.38781896
 51
10.63775604
  0
LINE
  5
1F9
100
AcDbEntity
  8
Ech.1_5
 62
     7
  6
CONTINUOUS
370
    -3
100
AcDbLine
 10
24503.29646347
 20
-2326.94908961
 30
0.0
 11
24499.53769299
 21
-2328.31717018
 31
0.0
  0
ARC
  5
1FA
100
AcDbEntity
  8
Ech.1_5
 62
     7
  6
CONTINUOUS
370
    -3
100
AcDbCircle
 10
24497.82759227
 20
-2323.61870708
 30
0.0
 40
5.0
100
AcDbArc
 50
200.0
 51
290.0
  0
LINE
  5
1FB
100
AcDbEntity
  8
Ech.1_5
 62
     7
  6
CONTINUOUS
370
    -3
100
AcDbLine
 10
24502.8595627
 20
-2336.77115805
 30
0.0
 11
24502.17552241
 21
-2334.89177281
 31
0.0
  0
LINE
  5
1FC
100
AcDbEntity
  8
Ech.1_5
 62
     7
  6
CONTINUOUS
370
    -3
100
AcDbLine
 10
24502.8595627
 20
-2336.77115805
 30
0.0
 11
24506.74088219
 21
-2335.35847328
 31
0.0
  0
LINE
  5
1FD
100
AcDbEntity
  8
Ech.1_5
 62
     7
  6
CONTINUOUS
370
    -3
100
AcDbLine
 10
24506.74088219
 20
-2335.35847328
 30
0.0
 11
24510.47564079
 21
-2345.61963821
 31
0.0
  0
LINE
  5
1FE
100
AcDbEntity
  8
Ech.1_5
 62
     7
  6
CONTINUOUS
370
    -3
100
AcDbLine
 10
24502.17552241
 20
-2334.89177281
 30
0.0
 11
24507.93622715
 21
-2332.79504776
 31
0.0
  0
LINE
  5
1FF
100
AcDbEntity
  8
Ech.1_5
 62
     7
  6
CONTINUOUS
370
    -3
100
AcDbLine
 10
24507.93622715
 20
-2332.79504776
 30
0.0
 11
24513.03906632
 21
-2346.81498316
 31
0.0
  0
CIRCLE
  5
200
100
AcDbEntity
  8
Ech.1_5
 62
     7
  6
CONTINUOUS
370
    -3
100
AcDbCircle
 10
24453.4444924
 20
-2255.76752378
 30
0.0
 40
2.51802373
  0
LINE
  5
201
100
AcDbEntity
  8
Ech.1_5
 62
     7
  6
CONTINUOUS
370
    -3
100
AcDbLine
 10
24431.35925256
 20
-2234.56018541
 30
0.0
 11
24467.75742841
 21
-2334.56335167
 31
0.0
  0
CIRCLE
  5
202
100
AcDbEntity
  8
Ech.1_5
 62
     7
  6
CONTINUOUS
370
    -3
100
AcDbCircle
 10
24448.31419025
 20
-2241.67213446
 30
0.0
 40
2.51802373
  0
LINE
  5
203
100
AcDbEntity
  8
Ech.1_5
 62
     7
  6
CONTINUOUS
370
    -3
100
AcDbLine
 10
24431.35925256
 20
-2234.56018541
 30
0.0
 11
24456.73095332
 21
-2225.32564154
 31
0.0
  0
LINE
  5
204
100
AcDbEntity
  8
Ech.1_5
 62
     7
  6
CONTINUOUS
370
    -3
100
AcDbLine
 10
24510.47564079
 20
-2345.61963821
 30
0.0
 11
24467.51192395
 21
-2361.25715229
 31
0.0
  0
LINE
  5
205
100
AcDbEntity
  8
Ech.1_5
 62
     7
  6
CONTINUOUS
370
    -3
100
AcDbLine
 10
24466.31657899
 20
-2363.82057782
 30
0.0
 11
24513.03906632
 21
-2346.81498316
 31
0.0
  0
ARC
  5
206
100
AcDbEntity
  8
Ech.1_5
 62
     7
  6
CONTINUOUS
370
    -3
100
AcDbCircle
 10
24465.36732685
 20
-2348.04919815
 30
0.0
 40
3.80485997
100
AcDbArc
 50
255.7460992
 51
16.5032334
  0
LINE
  5
207
100
AcDbEntity
  8
Ech.1_5
 62
     7
  6
CONTINUOUS
370
    -3
100
AcDbLine
 10
24439.6237558
 20
-2223.32843602
 30
0.0
 11
24439.6237558
 21
-2223.32843602
 31
0.0
  0
CIRCLE
  5
208
100
AcDbEntity
  8
Ech.1_5
 62
     7
  6
CONTINUOUS
370
    -3
100
AcDbCircle
 10
24860.00603228
 20
-2171.64155272
 30
0.0
 40
2.51802373
  0
LINE
  5
209
100
AcDbEntity
  8
Ech.1_5
 62
     7
  6
CONTINUOUS
370
    -3
100
AcDbLine
 10
24842.7712846
 20
-2084.81811324
 30
0.0
 11
24879.16946045
 21
-2184.8212795
 31
0.0
  0
CIRCLE
  5
20A
100
AcDbEntity
  8
Ech.1_5
 62
     7
  6
CONTINUOUS
370
    -3
100
AcDbCircle
 10
24844.61512584
 20
-2129.35538479
 30
0.0
 40
2.51802373
  0
ARC
  5
20B
100
AcDbEntity
  8
Ech.1_5
 62
     7
  6
CONTINUOUS
370
    -3
100
AcDbCircle
 10
24849.09929659
 20
-2195.76592408
 30
0.0
 40
5.0
100
AcDbArc
 50
290.0
 51
20.0
  0
LINE
  5
20C
100
AcDbEntity
  8
Ech.1_5
 62
     7
  6
CONTINUOUS
370
    -3
100
AcDbLine
 10
24853.69881613
 20
-2209.0757743
 30
0.0
 11
24853.01477584
 21
-2207.19638906
 31
0.0
  0
LINE
  5
20D
100
AcDbEntity
  8
Ech.1_5
 62
     7
  6
CONTINUOUS
370
    -3
100
AcDbLine
 10
24847.05062682
 20
-2201.83246776
 30
0.0
 11
24850.80939731
 21
-2200.46438719
 31
0.0
  0
ARC
  5
20E
100
AcDbEntity
  8
Ech.1_5
 62
     7
  6
CONTINUOUS
370
    -3
100
AcDbCircle
 10
24858.10404993
 20
-2191.95159017
 30
0.0
 40
14.82598747
100
AcDbArc
 50
221.79417108
 51
258.13515835
  0
ARC
  5
20F
100
AcDbEntity
  8
Ech.1_5
 62
     7
  6
CONTINUOUS
370
    -3
100
AcDbCircle
 10
24861.34497891
 20
-2205.11156229
 30
0.0
 40
12.47697948
100
AcDbArc
 50
209.36224396
 51
274.61218104
  0
LINE
  5
210
100
AcDbEntity
  8
Ech.1_5
 62
     7
  6
CONTINUOUS
370
    -3
100
AcDbLine
 10
24853.69881613
 20
-2209.0757743
 30
0.0
 11
24849.81749663
 21
-2210.48845907
 31
0.0
  0
LINE
  5
211
100
AcDbEntity
  8
Ech.1_5
 62
     7
  6
CONTINUOUS
370
    -3
100
AcDbLine
 10
24849.81749663
 20
-2210.48845907
 30
0.0
 11
24853.55225523
 21
-2220.74962399
 31
0.0
  0
LINE
  5
212
100
AcDbEntity
  8
Ech.1_5
 62
     7
  6
CONTINUOUS
370
    -3
100
AcDbLine
 10
24853.01477584
 20
-2207.19638906
 30
0.0
 11
24847.2540711
 21
-2209.29311411
 31
0.0
  0
LINE
  5
213
100
AcDbEntity
  8
Ech.1_5
 62
     7
  6
CONTINUOUS
370
    -3
100
AcDbLine
 10
24847.2540711
 20
-2209.29311411
 30
0.0
 11
24852.35691028
 21
-2223.31304952
 31
0.0
  0
CIRCLE
  5
214
100
AcDbEntity
  8
Ech.1_5
 62
     7
  6
CONTINUOUS
370
    -3
100
AcDbCircle
 10
24854.87573013
 20
-2157.54616341
 30
0.0
 40
2.51802373
  0
CIRCLE
  5
215
100
AcDbEntity
  8
Ech.1_5
 62
     7
  6
CONTINUOUS
370
    -3
100
AcDbCircle
 10
24865.13633443
 20
-2185.73694204
 30
0.0
 40
2.51802373
  0
CIRCLE
  5
216
100
AcDbEntity
  8
Ech.1_5
 62
     7
  6
CONTINUOUS
370
    -3
100
AcDbCircle
 10
24849.74542799
 20
-2143.4507741
 30
0.0
 40
2.51802373
  0
LINE
  5
217
100
AcDbEntity
  8
Ech.1_5
 62
     7
  6
CONTINUOUS
370
    -3
100
AcDbLine
 10
24852.35691028
 20
-2223.31304952
 30
0.0
 11
24881.2269873
 21
-2212.80520082
 31
0.0
  0
LINE
  5
218
100
AcDbEntity
  8
Ech.1_5
 62
     7
  6
CONTINUOUS
370
    -3
100
AcDbLine
 10
24881.2269873
 20
-2210.67684528
 30
0.0
 11
24853.55225523
 21
-2220.74962399
 31
0.0
  0
ARC
  5
219
100
AcDbEntity
  8
Ech.1_5
 62
     7
  6
CONTINUOUS
370
    -3
100
AcDbCircle
 10
24883.86792356
 20
-2183.11117878
 30
0.0
 40
5.0
100
AcDbArc
 50
200.0
 51
238.11694368
  0
CIRCLE
  5
21A
100
AcDbEntity
  8
Ech.1_5
 62
     7
  6
CONTINUOUS
370
    -3
100
AcDbCircle
 10
24839.48482369
 20
-2115.25999548
 30
0.0
 40
2.51802373
  0
LINE
  5
21B
100
AcDbEntity
  8
Ech.1_5
 62
     7
  6
CONTINUOUS
370
    -3
100
AcDbLine
 10
24817.39958384
 20
-2094.05265711
 30
0.0
 11
24853.79775969
 21
-2194.05582337
 31
0.0
  0
CIRCLE
  5
21C
100
AcDbEntity
  8
Ech.1_5
 62
     7
  6
CONTINUOUS
370
    -3
100
AcDbCircle
 10
24834.35452154
 20
-2101.16460617
 30
0.0
 40
2.51802373
  0
LINE
  5
21D
100
AcDbEntity
  8
Ech.1_5
 62
     7
  6
CONTINUOUS
370
    -3
100
AcDbLine
 10
24817.39958384
 20
-2094.05265711
 30
0.0
 11
24842.7712846
 21
-2084.81811324
 31
0.0
  0
ARC
  5
21E
100
AcDbEntity
  8
Ech.1_5
 62
     7
  6
CONTINUOUS
370
    -3
100
AcDbCircle
 10
24851.40765814
 20
-2207.54166985
 30
0.0
 40
3.80485997
100
AcDbArc
 50
255.7460992
 51
16.5032334
  0
LINE
  5
21F
100
AcDbEntity
  8
Ech.1_5
 62
     7
  6
CONTINUOUS
370
    -3
100
AcDbLine
 10
24825.66408709
 20
-2082.82090772
 30
0.0
 11
24825.66408709
 21
-2082.82090772
 31
0.0
  0
LWPOLYLINE
  5
220
100
AcDbEntity
  8
Ech.1_5
 62
   190
  6
CONTINUOUS
370
    -3
100
AcDbPolyline
 90
        4
 70
     0
 43
0.0
 10
24136.97981102
 20
-2319.80564297
 10
24108.62665006
 20
-2358.85814946
 10
24146.21435489
 20
-2345.17734373
 10
24099.39210619
 20
-2333.4864487
  0
LWPOLYLINE
  5
221
102
{ACAD_REACTORS
330
222
102
}
100
AcDbEntity
  8
Ech.1_5
 62
     7
  6
CONTINUOUS
370
    -3
100
AcDbPolyline
 90
        4
 70
     1
 43
0.0
 10
24184.14039777
 20
-2331.20265053
 10
23937.93393897
 20
-2420.89678393
 10
23939.70016203
 20
-2430.8962731
 10
24184.14042122
 20
-2341.84556425
  0
HATCH
  5
222
100
AcDbEntity
  8
Ech.1_5
 62
   190
  6
CONTINUOUS
100
AcDbHatch
 10
0.0
 20
0.0
 30
0.0
210
0.0
220
0.0
230
1.0
  2
ANSI37
 70
     0
 71
     1
 91
        1
 92
        7
 72
     0
 73
     1
 93
        4
 10
24184.14039777
 20
-2331.20265053
 10
23937.93393897
 20
-2420.89678393
 10
23939.70016203
 20
-2430.8962731
 10
24184.14042122
 20
-2341.84556425
 97
        1
330
221
 75
     0
 76
     2
 52
0.0
 41
1.88976388
 77
     0
 78
     2
 53
45.0
 43
0.0
 44
0.0
 45
4.24264086
 46
-4.24264086
 79
     0
 53
-45.0
 43
0.0
 44
0.0
 45
4.24264086
 46
4.24264086
 79
     0
 47
0.775229
 98
        1
 10
0.0
 20
0.0
  0
LWPOLYLINE
  5
223
100
AcDbEntity
  8
Ech.1_5
 62
     5
  6
CONTINUOUS
370
    -3
100
AcDbPolyline
 90
        5
 70
     0
 43
0.0
 10
24099.39210619
 20
-2333.4864487
 10
24136.97981102
 20
-2319.80564297
 10
24146.21435489
 20
-2345.17734373
 10
24108.62665006
 20
-2358.85814946
 10
24099.39210619
 20
-2333.4864487
  0
LWPOLYLINE
  5
224
100
AcDbEntity
  8
Ech.1_5
 62
   190
  6
CONTINUOUS
370
    -3
100
AcDbPolyline
 90
        5
 70
     0
 43
0.0
 10
23526.2269873
 20
-2901.29766776
 10
24881.2269873
 20
-2901.29766776
 10
24881.2269873
 20
-1916.29766776
 10
23526.2269873
 20
-1916.29766776
 10
23526.2269873
 20
-2901.29766776
  0
LWPOLYLINE
  5
225
100
AcDbEntity
  8
Ech.1_5
 62
   190
  6
CONTINUOUS
370
    -3
100
AcDbPolyline
 90
        4
 70
     0
 43
0.0
 10
23910.89770726
 20
-2394.67291912
 10
23870.89770726
 20
-2421.67291912
 10
23910.89770726
 20
-2421.67291912
 10
23870.89770726
 20
-2394.67291912
  0
LWPOLYLINE
  5
226
102
{ACAD_REACTORS
330
227
102
}
100
AcDbEntity
  8
Ech.1_5
 62
     7
  6
CONTINUOUS
370
    -3
100
AcDbPolyline
 90
        4
 70
     1
 43
0.0
 10
23706.20762256
 20
-2431.66330004
 10
23935.76113625
 20
-2431.59202874
 10
23933.99491315
 20
-2421.59253938
 10
23706.14054335
 20
-2421.66329792
  0
HATCH
  5
227
100
AcDbEntity
  8
Ech.1_5
 62
   190
  6
CONTINUOUS
100
AcDbHatch
 10
0.0
 20
0.0
 30
0.0
210
0.0
220
0.0
230
1.0
  2
ANSI37
 70
     0
 71
     1
 91
        1
 92
        7
 72
     0
 73
     1
 93
        4
 10
23706.20762256
 20
-2431.66330004
 10
23935.76113625
 20
-2431.59202874
 10
23933.99491315
 20
-2421.59253938
 10
23706.14054335
 20
-2421.66329792
 97
        1
330
226
 75
     0
 76
     2
 52
0.0
 41
1.88976388
 77
     0
 78
     2
 53
45.0
 43
0.0
 44
0.0
 45
4.24264086
 46
-4.24264086
 79
     0
 53
-45.0
 43
0.0
 44
0.0
 45
4.24264086
 46
4.24264086
 79
     0
 47
0.775229
 98
        1
 10
0.0
 20
0.0
  0
LWPOLYLINE
  5
228
100
AcDbEntity
  8
Ech.1_5
 62
     5
  6
CONTINUOUS
370
    -3
100
AcDbPolyline
 90
        5
 70
     0
 43
0.0
 10
23870.89770726
 20
-2394.67291912
 10
23910.89770726
 20
-2394.67291912
 10
23910.89770726
 20
-2421.67291912
 10
23870.89770726
 20
-2421.67291912
 10
23870.89770726
 20
-2394.67291912
  0
LWPOLYLINE
  5
229
100
AcDbEntity
  8
Ech.1_5
 62
   190
  6
CONTINUOUS
370
    -3
100
AcDbPolyline
 90
        4
 70
     0
 43
0.0
 10
23753.14054335
 20
-2394.67291912
 10
23713.14054335
 20
-2421.67291912
 10
23753.14054335
 20
-2421.67291912
 10
23713.14054335
 20
-2394.67291912
  0
LWPOLYLINE
  5
22A
100
AcDbEntity
  8
Ech.1_5
 62
     5
  6
CONTINUOUS
370
    -3
100
AcDbPolyline
 90
        5
 70
     0
 43
0.0
 10
23713.14054335
 20
-2394.67291912
 10
23753.14054335
 20
-2394.67291912
 10
23753.14054335
 20
-2421.67291912
 10
23713.14054335
 20
-2421.67291912
 10
23713.14054335
 20
-2394.67291912
  0
LWPOLYLINE
  5
22B
100
AcDbEntity
  8
Ech.1_5
 62
   190
  6
CONTINUOUS
370
    -3
100
AcDbPolyline
 90
        4
 70
     0
 43
0.0
 10
23986.62899169
 20
-2374.5288659
 10
23958.27583073
 20
-2413.58137239
 10
23995.86353556
 20
-2399.90056666
 10
23949.04128686
 20
-2388.20967163
  0
LWPOLYLINE
  5
22C
100
AcDbEntity
  8
Ech.1_5
 62
     5
  6
CONTINUOUS
370
    -3
100
AcDbPolyline
 90
        5
 70
     0
 43
0.0
 10
23949.04128686
 20
-2388.20967163
 10
23986.62899169
 20
-2374.5288659
 10
23995.86353556
 20
-2399.90056666
 10
23958.27583073
 20
-2413.58137239
 10
23949.04128686
 20
-2388.20967163
  0
LWPOLYLINE
  5
22D
100
AcDbEntity
  8
Ech.1_5
 62
   190
  6
CONTINUOUS
370
    -3
100
AcDbPolyline
 90
        3
 70
     0
 43
0.0
 10
24311.76278168
 20
-2268.95997746
 10
24323.13643051
 20
-2273.22509577
 10
24263.13643051
 20
-2295.72509577
  0
LWPOLYLINE
  5
22E
100
AcDbEntity
  8
Ech.1_5
 62
   190
  6
CONTINUOUS
370
    -3
100
AcDbPolyline
 90
        3
 70
     0
 43
0.0
 10
24383.13643051
 20
-2295.72509577
 10
24383.13643051
 20
-2250.72509577
 10
24323.13643051
 20
-2273.22509577
  0
LINE
  5
22F
100
AcDbEntity
  8
Ech.1_5
 62
   190
  6
CONTINUOUS
370
    -3
100
AcDbLine
 10
24323.13643051
 20
-2273.22509577
 30
0.0
 11
24383.13643051
 21
-2295.72509577
 31
0.0
  0
LWPOLYLINE
  5
230
100
AcDbEntity
  8
Ech.1_5
 62
     5
  6
CONTINUOUS
370
    -3
100
AcDbPolyline
 90
        6
 70
     0
 43
0.0
 10
24361.86270736
 20
-2250.72509577
 10
24383.13643051
 20
-2250.72509577
 10
24383.13643051
 20
-2295.72509577
 10
24263.13643051
 20
-2295.72509577
 10
24263.13643051
 20
-2286.65852189
 10
24361.86270736
 20
-2250.72509577
  0
LWPOLYLINE
  5
231
100
AcDbEntity
  8
Ech.1_5
 62
   190
  6
CONTINUOUS
370
    -3
100
AcDbPolyline
 90
        4
 70
     0
 43
0.0
 10
24203.14054335
 20
-2295.72509577
 10
24383.13643051
 20
-2340.72509577
 10
24383.13643051
 20
-2295.72509577
 10
24203.14054335
 20
-2340.72509577
  0
LWPOLYLINE
  5
232
100
AcDbEntity
  8
Ech.1_5
 62
     5
  6
CONTINUOUS
370
    -3
100
AcDbPolyline
 90
        5
 70
     0
 43
0.0
 10
24383.13643051
 20
-2295.72509577
 10
24203.14054335
 20
-2295.72509577
 10
24203.14054335
 20
-2340.72509577
 10
24383.13643051
 20
-2340.72509577
 10
24383.13643051
 20
-2295.72509577
  0
ARC
  5
233
100
AcDbEntity
  8
Ech.1_5
 62
   190
  6
CONTINUOUS
370
    -3
100
AcDbCircle
 10
24232.88984248
 20
-2369.85418501
 30
0.0
 40
29.74932573
100
AcDbArc
 50
78.27979616
 51
101.72020384
  0
LWPOLYLINE
  5
234
100
AcDbEntity
  8
Ech.1_5
100
AcDbPolyline
 90
       27
 70
     0
 43
0.0
 10
24149.01389164
 20
-2573.84662558
 10
24149.14050876
 20
-2573.51215178
 10
24149.14050876
 20
-2546.12868769
 10
24156.14050876
 20
-2546.12868769
 10
24156.14050876
 20
-2555.12868769
 10
24162.14050876
 20
-2555.12868769
 10
24162.14050876
 20
-2528.12868769
 10
24158.14050876
 20
-2524.12868769
 10
24162.14050876
 20
-2520.12868769
 10
24162.14050876
 20
-2456.12868769
 10
24158.14050876
 20
-2452.12868769
 10
24162.14050876
 20
-2448.12868769
 10
24162.14050876
 20
-2413.12868769
 10
24155.14050876
 20
-2413.12868769
 10
24155.14050876
 20
-2407.12868769
 10
24152.64050876
 20
-2402.12868769
 10
24150.14050876
 20
-2407.12868769
 10
24150.14050876
 20
-2438.05761988
 10
24149.75990642
 20
-2439.97103704
 10
24143.60497485
 20
-2446.6642216
 10
24142.14050876
 20
-2450.1997555
 10
24142.14050876
 20
-2569.28649992
 10
24143.10083116
 20
-2570.91636856
 10
24147.83695201
 20
-2573.88771849
 10
24148.24895338
 20
-2574.12868769
 10
24148.56277087
 20
-2574.12868769
 10
24149.01389164
 20
-2573.84662558
  0
LWPOLYLINE
  5
235
100
AcDbEntity
  8
Ech.1_5
100
AcDbPolyline
 90
       16
 70
     0
 43
0.0
 10
24162.14050876
 20
-2371.46661413
 10
24162.14050876
 20
-2375.12868769
 10
24158.14050876
 20
-2379.12868769
 10
24162.14050876
 20
-2383.12868769
 10
24162.14050876
 20
-2410.12868769
 10
24156.14050876
 20
-2410.12868769
 10
24156.14050876
 20
-2401.12868769
 10
24149.14050876
 20
-2401.12868769
 10
24149.14050876
 20
-2428.51215178
 10
24149.01389164
 20
-2428.84662558
 10
24148.56277087
 20
-2429.12868769
 10
24148.24895338
 20
-2429.12868769
 10
24147.83695201
 20
-2428.88771849
 10
24143.10083116
 20
-2425.91636856
 10
24142.14050876
 20
-2424.28649992
 10
24142.14050876
 20
-2371.46661413
  0
LINE
  5
236
100
AcDbEntity
  8
Ech.1_5
 62
     7
100
AcDbLine
 10
24162.14050876
 20
-2564.70157637
 30
0.0
 11
24162.14050876
 21
-2628.70157637
 31
0.0
  0
LWPOLYLINE
  5
237
100
AcDbEntity
  8
Ech.1_5
100
AcDbPolyline
 90
       14
 70
     0
 43
0.0
 10
24162.14050876
 20
-2630.97399412
 10
24162.14050876
 20
-2601.12868769
 10
24158.14050876
 20
-2597.12868769
 10
24162.14050876
 20
-2593.12868769
 10
24162.14050876
 20
-2558.12868769
 10
24155.14050876
 20
-2558.12868769
 10
24155.14050876
 20
-2552.12868769
 10
24152.64050876
 20
-2547.12868769
 10
24150.14050876
 20
-2552.12868769
 10
24150.14050876
 20
-2583.05761988
 10
24149.75990642
 20
-2584.97103704
 10
24143.60497485
 20
-2591.6642216
 10
24142.14050876
 20
-2595.1997555
 10
24142.14050876
 20
-2630.97399412
  0
LWPOLYLINE
  5
238
100
AcDbEntity
  8
Ech.1_5
 62
     7
  6
CONTINUOUS
370
    -3
100
AcDbPolyline
 90
       42
 70
     0
 43
0.0
 10
24174.85320413
 20
-2442.30023391
 10
24174.54502368
 20
-2437.27139497
 10
24174.26338951
 20
-2432.24812275
 10
24174.03484788
 20
-2427.23598397
 10
24173.88594507
 20
-2422.24054538
 10
24173.84322735
 20
-2417.26737368
 10
24173.93322811
 20
-2412.32203004
 10
24174.16587974
 20
-2407.40289586
 10
24174.50194447
 20
-2402.487087
 10
24174.893124
 20
-2397.54780074
 10
24175.29111999
 20
-2392.55823435
 10
24175.64763412
 20
-2387.49158512
 10
24175.91317041
 20
-2382.32193142
 10
24175.92165119
 20
-2377.10911855
 10
24175.29441572
 20
-2372.06938518
 10
24173.63020505
 20
-2367.43559499
 10
24170.59520512
 20
-2363.43967227
 10
24166.41387435
 20
-2360.30576518
 10
24161.58637576
 20
-2358.25418163
 10
24156.61374816
 20
-2357.5042457
 10
24151.77354686
 20
-2358.07630932
 10
24146.84680942
 20
-2359.54866407
 10
24141.66303375
 20
-2361.50312968
 10
24136.86274756
 20
-2363.96497559
 10
24133.43445183
 20
-2367.14973382
 10
24132.24067553
 20
-2371.23860098
 10
24132.91905039
 20
-2376.07538936
 10
24134.42330067
 20
-2381.31553657
 10
24135.69993965
 20
-2386.61250311
 10
24136.00294046
 20
-2391.71613133
 10
24135.4970454
 20
-2396.66176961
 10
24134.51440033
 20
-2401.53721937
 10
24133.28602308
 20
-2406.39304686
 10
24131.81378078
 20
-2411.19544554
 10
24130.06798193
 20
-2415.89898906
 10
24128.01893661
 20
-2420.45825246
 10
24125.65364372
 20
-2424.84274047
 10
24123.01693729
 20
-2429.0736966
 10
24120.16617124
 20
-2433.18356452
 10
24117.15869952
 20
-2437.20478794
 10
24114.05187605
 20
-2441.16981055
 10
24111.74700069
 20
-2444.0563216
  0
LWPOLYLINE
  5
239
100
AcDbEntity
  8
Ech.1_5
 62
   190
  6
CONTINUOUS
370
    -3
100
AcDbPolyline
 90
       72
 70
     0
 43
0.0
 10
24881.2269873
 20
-2048.33172848
 42
-0.4217818
 10
24859.04717886
 20
-2030.20246541
 10
24852.73950445
 20
-1958.38124667
 42
1.30322619
 10
24816.4325723
 20
-1971.59588927
 10
24857.7664029
 20
-2030.66862974
 42
-1.30322619
 10
24821.45947074
 20
-2043.88327234
 10
24815.15179633
 20
-1972.0620536
 42
1.30322619
 10
24778.84486418
 20
-1985.2766962
 10
24820.17869478
 20
-2044.34943667
 42
-1.30322619
 10
24783.87176262
 20
-2057.56407927
 10
24777.56408821
 20
-1985.74286053
 42
1.30322619
 10
24741.25715606
 20
-1998.95750313
 10
24782.59098666
 20
-2058.0302436
 42
-1.30322619
 10
24746.2840545
 20
-2071.2448862
 10
24739.9763801
 20
-1999.42366746
 42
1.30322619
 10
24703.66944794
 20
-2012.63831006
 10
24745.00327854
 20
-2071.71105053
 42
-1.30322619
 10
24708.69634638
 20
-2084.92569313
 10
24702.38867198
 20
-2013.10447439
 42
1.30322619
 10
24666.08173982
 20
-2026.31911699
 10
24707.41557042
 20
-2085.39185746
 42
-1.30322619
 10
24671.10863826
 20
-2098.60650006
 10
24664.80096386
 20
-2026.78528131
 42
1.30322619
 10
24628.4940317
 20
-2039.99992392
 10
24669.8278623
 20
-2099.07266439
 42
-1.30322619
 10
24633.52093014
 20
-2112.28730699
 10
24627.21325574
 20
-2040.46608824
 42
1.30322619
 10
24590.90632358
 20
-2053.68073085
 10
24632.24015418
 20
-2112.75347132
 42
-1.30322619
 10
24595.93322202
 20
-2125.96811392
 10
24589.62554762
 20
-2054.14689517
 42
1.30322619
 10
24553.31861546
 20
-2067.36153778
 10
24594.65244606
 20
-2126.43427825
 42
-1.30322619
 10
24558.3455139
 20
-2139.64892085
 10
24552.0378395
 20
-2067.8277021
 42
1.30322619
 10
24515.73090734
 20
-2081.04234471
 10
24557.06473794
 20
-2140.11508518
 42
-1.30322619
 10
24520.75780578
 20
-2153.32972778
 10
24514.45013138
 20
-2081.50850903
 42
1.30322619
 10
24478.14319922
 20
-2094.72315164
 10
24519.47702982
 20
-2153.79589211
 42
-1.30322619
 10
24483.17009766
 20
-2167.01053471
 10
24476.86242326
 20
-2095.18931596
 42
1.30322619
 10
24440.5554911
 20
-2108.40395857
 10
24481.8893217
 20
-2167.47669904
 42
-1.30322619
 10
24445.58238955
 20
-2180.69134164
 10
24439.27471514
 20
-2108.87012289
 42
1.30322619
 10
24402.96778298
 20
-2122.0847655
 10
24444.30161358
 20
-2181.15750597
 42
-1.30322619
 10
24407.99468143
 20
-2194.37214857
 10
24401.68700702
 20
-2122.55092982
 42
1.30322619
 10
24365.38007486
 20
-2135.76557243
 10
24406.71390546
 20
-2194.8383129
 42
-1.30322619
 10
24370.40697331
 20
-2208.0529555
 10
24364.0992989
 20
-2136.23173675
 42
1.30322619
 10
24327.79236675
 20
-2149.44637935
 10
24369.12619734
 20
-2208.51911983
 42
-1.30322619
 10
24332.81926519
 20
-2221.73376243
 10
24326.51159078
 20
-2149.91254368
 42
1.30322619
 10
24290.20465863
 20
-2163.12718628
 10
24331.53848922
 20
-2222.19992676
 42
-1.30322619
 10
24295.23155707
 20
-2235.41456936
 10
24288.92388266
 20
-2163.59335061
 42
1.30322619
 10
24252.61695051
 20
-2176.80799321
 10
24293.9507811
 20
-2235.88073369
 42
-1.30322619
 10
24257.64384895
 20
-2249.09537629
 10
24251.33617454
 20
-2177.27415754
 42
1.30322619
 10
24215.02924239
 20
-2190.48880014
 10
24256.36307298
 20
-2249.56154062
 42
-1.30322619
 10
24220.05614083
 20
-2262.77618322
 10
24213.74846642
 20
-2190.95496447
 42
0.8843018
 10
24174.07378527
 20
-2189.55059451
  0
LWPOLYLINE
  5
23A
100
AcDbEntity
  8
Ech.1_5
 62
   190
  6
CONTINUOUS
370
    -3
100
AcDbPolyline
 90
        3
 70
     0
 43
0.0
 10
24881.2269873
 20
-1929.62545111
 42
0.8226104
 10
24854.02028042
 20
-1957.91508234
 10
24881.2269873
 20
-1996.79787427
  0
LWPOLYLINE
  5
23B
100
AcDbEntity
  8
Ech.1_5
 62
   190
100
AcDbPolyline
 90
        5
 70
     0
 43
0.0
 10
23633.3354314
 20
-2763.19431767
 10
23767.76421039
 20
-2763.19431767
 10
23767.76421039
 20
-2819.91727649
 10
23633.3354314
 20
-2819.91727649
 10
23633.3354314
 20
-2763.19431767
  0
LWPOLYLINE
  5
23C
100
AcDbEntity
  8
Ech.1_5
 62
   190
100
AcDbPolyline
 90
        5
 70
     0
 43
0.0
 10
23651.61547718
 20
-2796.8511288
 10
23701.61547718
 20
-2796.8511288
 10
23701.61547718
 20
-2789.43599127
 10
23651.61547718
 20
-2789.43599127
 10
23651.61547718
 20
-2796.8511288
  0
LWPOLYLINE
  5
23D
100
AcDbEntity
  8
Ech.1_5
 62
   190
100
AcDbPolyline
 90
        5
 70
     0
 43
0.0
 10
23701.61547718
 20
-2796.8511288
 10
23751.61547718
 20
-2796.8511288
 10
23751.61547718
 20
-2789.43599127
 10
23701.61547718
 20
-2789.43599127
 10
23701.61547718
 20
-2796.8511288
  0
LWPOLYLINE
  5
23E
100
AcDbEntity
  8
Ech.1_5
 62
     3
370
    70
100
AcDbPolyline
 90
        4
 70
     0
 43
0.0
 10
23596.64208104
 20
-2720.56084688
 10
23583.65294762
 20
-2720.56084688
 10
23579.71821548
 20
-2714.88023392
 10
23566.23978548
 20
-2714.88023392
  0
LWPOLYLINE
  5
23F
100
AcDbEntity
  8
Ech.1_5
 62
   150
  6
CADWORK_22
370
    35
100
AcDbPolyline
 90
        3
 70
     0
 43
0.0
 38
2500.0
 10
24185.64042934
 20
-2463.67503173
 10
24185.64050876
 20
-2293.72509577
 10
24278.88019409
 20
-2293.12589468
  0
LWPOLYLINE
  5
240
100
AcDbEntity
  8
Ech.1_5
 62
     3
370
    70
100
AcDbPolyline
 90
        4
 70
     0
 43
0.0
 10
24393.51617865
 20
-2373.85443952
 10
24393.51617865
 20
-2360.8653061
 10
24399.19679161
 20
-2356.93057396
 10
24399.19679161
 20
-2343.45214395
  0
LWPOLYLINE
  5
241
100
AcDbEntity
  8
Ech.1_5
 62
     1
  6
CADWORK_22
 48
-5.0
370
    35
100
AcDbPolyline
 90
        3
 70
     0
 43
0.0
 10
24392.04989032
 20
-2356.70176178
 10
24392.04989032
 20
-2239.83555114
 10
24485.08059487
 20
-2205.87745239
  0
LWPOLYLINE
  5
242
100
AcDbEntity
  8
Ech.1_5
 62
     3
370
    70
100
AcDbPolyline
 90
        4
 70
     0
 43
0.0
 10
24503.67718555
 20
-2200.08613551
 10
24491.47139272
 20
-2204.52868079
 10
24489.71683802
 20
-2211.21246852
 10
24477.05125681
 20
-2215.82236308
  0
LWPOLYLINE
  5
243
100
AcDbEntity
  8
Ech.1_5
 62
   190
  6
CONTINUOUS
370
    -3
100
AcDbPolyline
 90
        5
 70
     0
 43
0.0
 10
24881.2269873
 20
-2061.69195713
 10
24881.2269873
 20
-2048.33172848
 10
24239.78855882
 20
-2282.38631894
 10
24243.89280054
 20
-2293.66263039
 10
24881.2269873
 20
-2061.69195713
  0
LWPOLYLINE
  5
244
100
AcDbEntity
  8
Ech.1_5
 62
     7
  6
CONTINUOUS
370
    -3
100
AcDbPolyline
 90
        6
 70
     0
 43
0.0
 10
24383.13643051
 20
-2340.72509577
 10
24203.14054335
 20
-2340.72509577
 10
24203.14057108
 20
-2385.72509577
 10
24383.13643051
 20
-2385.72509577
 10
24383.13643051
 20
-2341.78480455
 10
24383.13643051
 20
-2340.72509577
  0
LWPOLYLINE
  5
245
100
AcDbEntity
  8
Ech.1_5
 62
   190
  6
CONTINUOUS
370
    -3
100
AcDbPolyline
 90
        9
 70
     0
 43
0.0
 10
24324.82953893
 20
-2624.00191079
 10
24310.71959891
 20
-2659.9576108
 10
24327.20595299
 20
-2641.9792592
 10
24383.13643051
 20
-2641.9792592
 10
24383.13643051
 20
-2385.72509577
 10
24203.14058094
 20
-2385.72509577
 10
24203.14066146
 20
-2641.9792592
 10
24308.34403577
 20
-2641.9792592
 10
24324.82953893
 20
-2624.00191079
  0
LWPOLYLINE
  5
246
100
AcDbEntity
  8
Ech.1_5
 62
   190
  6
CONTINUOUS
370
    -3
100
AcDbPolyline
 90
       24
 70
     0
 43
0.0
 10
24014.46533677
 20
-2072.57382729
 10
24020.57425153
 20
-2095.34901058
 10
24044.30691583
 20
-2088.98327374
 10
24031.70265717
 20
-2036.78746678
 10
24022.25823871
 20
-2039.0681077
 10
24024.83593824
 20
-2049.74268291
 10
24007.8834179
 20
-2053.83638245
 10
24005.30571837
 20
-2043.16180725
 10
23995.86129991
 20
-2045.44244817
 10
23998.43899944
 20
-2056.11702337
 10
23975.32470106
 20
-2061.69867088
 10
23965.86091307
 20
-2022.50794464
 10
23962.19420122
 20
-2007.32363357
 10
23635.8067668
 20
-2086.13976626
 42
0.41421356
 10
23619.35894389
 20
-2113.06015835
 10
23627.25315914
 20
-2145.75108816
 10
23636.29549185
 20
-2183.19651557
 10
23656.59804519
 20
-2178.29384908
 10
23654.06479252
 20
-2167.80333386
 10
23669.84944959
 20
-2163.63251578
 10
23672.34486671
 20
-2173.96634927
 10
23682.80406454
 20
-2171.160912
 10
23680.62083202
 20
-2162.11987389
 10
24014.46533677
 20
-2072.57382729
  0
LWPOLYLINE
  5
247
100
AcDbEntity
  8
Ech.1_5
 62
   190
  6
CONTINUOUS
370
    -3
100
AcDbPolyline
 90
       26
 70
     0
 43
0.0
 10
24359.18200547
 20
-1972.10586705
 10
24382.91466976
 20
-1965.74013021
 10
24370.97528954
 20
-1916.29766776
 10
24360.98014124
 20
-1916.29766776
 10
24363.44369217
 20
-1926.49953938
 10
24346.49117184
 20
-1930.59323893
 10
24343.91347231
 20
-1919.91866372
 10
24334.46905385
 20
-1922.19930464
 10
24337.04675337
 20
-1932.87387985
 10
24313.98040459
 20
-1938.44394847
 10
24313.54356081
 20
-1936.63492389
 10
24313.48843608
 20
-1936.64823543
 10
24308.57417507
 20
-1916.29766776
 10
24167.38660452
 20
-1916.29766776
 10
23974.41452073
 20
-1962.89662274
 42
0.41421356
 10
23957.96669783
 20
-1989.81701483
 10
23962.19420122
 20
-2007.32363357
 10
23974.90324579
 20
-2059.95337205
 10
23995.20579913
 20
-2055.05070556
 10
23992.67254646
 20
-2044.56019033
 10
24008.45720353
 20
-2040.38937226
 10
24010.95262065
 20
-2050.72320575
 10
24021.41181847
 20
-2047.91776848
 10
24019.22858596
 20
-2038.87673037
 10
24353.07309071
 20
-1949.33068377
 10
24359.18200547
 20
-1972.10586705
  0
LWPOLYLINE
  5
248
100
AcDbEntity
  8
Ech.1_5
 62
   190
  6
CONTINUOUS
370
    -3
100
AcDbPolyline
 90
        9
 70
     0
 43
0.0
 10
24333.79098942
 20
-1931.74556894
 10
24331.25773675
 20
-1921.25505371
 10
24347.04239382
 20
-1917.08423563
 10
24349.53781094
 20
-1927.41806913
 10
24359.99700877
 20
-1924.61263186
 10
24357.98910881
 20
-1916.29766776
 10
24308.63251428
 20
-1916.29766776
 10
24313.54356081
 20
-1936.63492389
 10
24333.79098942
 20
-1931.74556894
  0
LWPOLYLINE
  5
249
100
AcDbEntity
  8
Ech.1_5
 62
   190
  6
CONTINUOUS
370
    -3
100
AcDbPolyline
 90
        6
 70
     0
 43
0.0
 10
24170.555363
 20
-2179.88380875
 10
24881.2269873
 20
-1921.22049117
 10
24881.2269873
 20
-1916.29766776
 10
24602.37189343
 20
-1916.29766776
 10
24136.35334866
 20
-2085.91454667
 10
24170.555363
 20
-2179.88380875
  0
LWPOLYLINE
  5
24A
100
AcDbEntity
  8
Ech.1_5
 62
   190
  6
CONTINUOUS
370
    -3
100
AcDbPolyline
 90
        5
 70
     0
 43
0.0
 10
24211.59778379
 20
-2292.64693311
 10
24881.2269873
 20
-2048.92183503
 10
24881.2269873
 20
-1921.22049117
 10
24170.555363
 20
-2179.88380875
 10
24211.59778379
 20
-2292.64693311
  0
LWPOLYLINE
  5
24B
100
AcDbEntity
  8
Ech.1_5
 62
   190
  6
CONTINUOUS
370
    -3
100
AcDbPolyline
 90
        5
 70
     0
 43
0.0
 10
24415.83845288
 20
-2382.19277472
 10
24881.2269873
 20
-2212.80520082
 10
24881.2269873
 20
-2127.13889014
 10
24388.30582487
 20
-2306.5475211
 10
24415.83845288
 20
-2382.19277472
  0
LWPOLYLINE
  5
24C
100
AcDbEntity
  8
Ech.1_5
 62
     7
  6
CONTINUOUS
370
    -3
100
AcDbPolyline
 90
        5
 70
     0
 43
0.0
 10
24413.72917025
 20
-2297.29418013
 10
24881.2269873
 20
-2127.13889014
 10
24881.2269873
 20
-2061.69195713
 10
24392.69493144
 20
-2239.50308395
 10
24413.72917025
 20
-2297.29418013
  0
LWPOLYLINE
  5
24D
100
AcDbEntity
  8
Ech.1_5
 62
   190
  6
CONTINUOUS
370
    -3
100
AcDbPolyline
 90
        7
 70
     0
 43
0.0
 10
23931.28366032
 20
-2394.67291912
 10
24881.2269873
 20
-2048.92182386
 10
24881.2269873
 20
-1916.29766776
 10
24602.37189343
 20
-1916.29766776
 10
23703.14054335
 20
-2243.59111291
 10
23703.14054335
 20
-2394.67291912
 10
23931.28366032
 20
-2394.67291912
  0
LWPOLYLINE
  5
24E
100
AcDbEntity
  8
Ech.1_5
 62
     7
  6
CONTINUOUS
370
    -3
100
AcDbPolyline
 90
        5
 70
     0
 43
0.0
 10
23714.09187344
 20
-2239.60515473
 10
24602.37189343
 20
-1916.29766776
 10
24523.42909752
 20
-1916.29766776
 10
23704.85732957
 20
-2214.23345397
 10
23714.09187344
 20
-2239.60515473
  0
LWPOLYLINE
  5
24F
100
AcDbEntity
  8
Ech.1_5
 62
     7
  6
CONTINUOUS
100
AcDbPolyline
 90
        4
 70
     0
 43
0.0
 10
23774.68112681
 20
-2192.04833362
 10
23796.45660233
 20
-2187.22411241
 10
23777.42279183
 20
-2198.84988129
 10
23774.68112681
 20
-2192.04833362
  0
LWPOLYLINE
  5
250
100
AcDbEntity
  8
Ech.1_5
 62
   190
  6
CONTINUOUS
370
    -3
100
AcDbPolyline
 90
        5
 70
     0
 43
0.0
 10
24395.32581974
 20
-2403.49325516
 10
24881.2269873
 20
-2226.63959473
 10
24881.2269873
 20
-2212.80528278
 10
24390.87955683
 20
-2391.27725147
 10
24395.32581974
 20
-2403.49325516
  0
LWPOLYLINE
  5
251
100
AcDbEntity
  8
Ech.1_5
 62
   190
  6
CONTINUOUS
370
    -3
100
AcDbPolyline
 90
       10
 70
     0
 43
0.0
 10
23768.89672369
 20
-2219.65782054
 10
23768.21268341
 20
-2217.7784353
 10
23717.12381065
 20
-2236.37326429
 10
23659.86010161
 20
-2243.90229675
 10
23659.86010161
 20
-2272.51011635
 10
23664.57682765
 20
-2267.24901954
 10
23661.86010161
 20
-2267.24901954
 10
23661.86010161
 20
-2245.65654967
 10
23717.60186352
 20
-2238.32762282
 10
23768.89672369
 20
-2219.65782054
  0
LWPOLYLINE
  5
252
100
AcDbEntity
  8
Ech.1_5
 62
   190
  6
CONTINUOUS
370
    -3
100
AcDbPolyline
 90
        5
 70
     0
 43
0.0
 10
24349.32211011
 20
-1950.93465696
 10
24311.78488789
 20
-1964.59708853
 10
24320.99686627
 20
-1989.90679111
 10
24358.53271378
 20
-1976.24058255
 10
24349.32211011
 20
-1950.93465696
  0
LWPOLYLINE
  5
253
100
AcDbEntity
  8
Ech.1_5
 62
   190
  6
CONTINUOUS
370
    -3
100
AcDbPolyline
 90
        5
 70
     0
 43
0.0
 10
24010.71435618
 20
-2074.17780049
 10
23973.12665135
 20
-2087.85860622
 10
23982.35103229
 20
-2113.20238457
 10
24019.93736056
 20
-2099.51779676
 10
24010.71435618
 20
-2074.17780049
  0
LWPOLYLINE
  5
254
100
AcDbEntity
  8
Ech.1_5
 62
   190
  6
CONTINUOUS
370
    -3
100
AcDbPolyline
 90
        5
 70
     0
 43
0.0
 10
23741.70735945
 20
-2147.60381241
 10
23705.63082277
 20
-2157.28050677
 10
23705.64794717
 20
-2213.9456026
 10
23758.37891499
 20
-2194.74709101
 10
23741.70735945
 20
-2147.60381241
  0
LWPOLYLINE
  5
255
100
AcDbEntity
  8
Ech.1_5
 62
   190
  6
CONTINUOUS
370
    -3
100
AcDbPolyline
 90
        5
 70
     0
 43
0.0
 10
24392.04989032
 20
-2457.42305076
 10
24432.04989032
 20
-2457.42305076
 10
24432.04989032
 20
-2412.42305076
 10
24392.04989032
 20
-2412.42305076
 10
24392.04989032
 20
-2457.42305076
  0
LWPOLYLINE
  5
256
100
AcDbEntity
  8
Ech.1_5
 62
   190
  6
CONTINUOUS
370
    -3
100
AcDbPolyline
 90
        5
 70
     0
 43
0.0
 10
24445.04972782
 20
-2392.42305076
 10
24432.04972782
 20
-2392.42305076
 10
24432.04977578
 20
-2641.9792592
 10
24445.04977578
 20
-2641.9792592
 10
24445.04972782
 20
-2392.42305076
  0
LWPOLYLINE
  5
257
100
AcDbEntity
  8
Ech.1_5
 62
   190
  6
CONTINUOUS
370
    -3
100
AcDbPolyline
 90
        5
 70
     0
 43
0.0
 10
24138.06345617
 20
-2090.61302842
 10
24129.60621573
 20
-2093.69119109
 10
24203.14054335
 20
-2295.72509577
 10
24211.59778379
 20
-2292.64693311
 10
24138.06345617
 20
-2090.61302842
  0
LWPOLYLINE
  5
258
100
AcDbEntity
  8
Ech.1_5
 62
     7
  6
CONTINUOUS
370
    -3
100
AcDbPolyline
 90
       10
 70
     0
 43
0.0
 10
23694.00456845
 20
-2448.08612916
 10
23703.14054335
 20
-2448.08612916
 10
23703.14054335
 20
-2425.5572369
 10
23703.14054335
 20
-2425.5572369
 10
23703.14054335
 20
-2411.47595106
 10
23703.14054335
 20
-2411.47595106
 10
23703.14054335
 20
-2243.59111291
 10
23681.14054335
 20
-2243.59111291
 10
23681.14054335
 20
-2435.22210406
 42
0.47612089
 10
23694.00456845
 20
-2448.08612916
  0
LWPOLYLINE
  5
259
100
AcDbEntity
  8
Ech.1_5
 62
     7
  6
CONTINUOUS
370
    -3
100
AcDbPolyline
 90
        5
 70
     0
 43
0.0
 10
24099.39210619
 20
-2333.4864487
 10
24136.97981102
 20
-2319.80564297
 10
24146.21435489
 20
-2345.17734373
 10
24108.62665006
 20
-2358.85814946
 10
24099.39210619
 20
-2333.4864487
  0
LWPOLYLINE
  5
25A
100
AcDbEntity
  8
Ech.1_5
 62
    32
  6
CONTINUOUS
370
    15
100
AcDbPolyline
 90
        5
 70
     0
 43
0.0
 10
24184.14039777
 20
-2331.20265053
 10
23937.93393897
 20
-2420.89678393
 10
23939.70016203
 20
-2430.8962731
 10
24184.14042122
 20
-2341.84556425
 10
24184.14039777
 20
-2331.20265053
  0
LWPOLYLINE
  5
25B
100
AcDbEntity
  8
Ech.1_5
 62
     7
  6
CONTINUOUS
370
    -3
100
AcDbPolyline
 90
        5
 70
     0
 43
0.0
 10
23870.89770726
 20
-2394.67291912
 10
23910.89770726
 20
-2394.67291912
 10
23910.89770726
 20
-2421.67291912
 10
23870.89770726
 20
-2421.67291912
 10
23870.89770726
 20
-2394.67291912
  0
LWPOLYLINE
  5
25C
100
AcDbEntity
  8
Ech.1_5
 62
    32
  6
CONTINUOUS
370
    15
100
AcDbPolyline
 90
        5
 70
     0
 43
0.0
 10
23706.20762256
 20
-2431.66330004
 10
23935.76113625
 20
-2431.59202874
 10
23933.99491315
 20
-2421.59253938
 10
23706.14054335
 20
-2421.66329792
 10
23706.20762256
 20
-2431.66330004
  0
LWPOLYLINE
  5
25D
100
AcDbEntity
  8
Ech.1_5
 62
     7
  6
CONTINUOUS
370
    -3
100
AcDbPolyline
 90
        5
 70
     0
 43
0.0
 10
23713.14054335
 20
-2394.67291912
 10
23753.14054335
 20
-2394.67291912
 10
23753.14054335
 20
-2421.67291912
 10
23713.14054335
 20
-2421.67291912
 10
23713.14054335
 20
-2394.67291912
  0
LWPOLYLINE
  5
25E
100
AcDbEntity
  8
Ech.1_5
 62
     7
  6
CONTINUOUS
370
    -3
100
AcDbPolyline
 90
        5
 70
     0
 43
0.0
 10
23949.04128686
 20
-2388.20967163
 10
23986.62899169
 20
-2374.5288659
 10
23995.86353556
 20
-2399.90056666
 10
23958.27583073
 20
-2413.58137239
 10
23949.04128686
 20
-2388.20967163
  0
LWPOLYLINE
  5
25F
100
AcDbEntity
  8
Ech.1_5
 62
   190
  6
CONTINUOUS
370
    -3
100
AcDbPolyline
 90
        6
 70
     0
 43
0.0
 10
24187.14050876
 20
-2376.46661413
 10
24183.14246736
 20
-2376.46661413
 10
24162.14050876
 20
-2376.46661413
 10
24162.14043062
 20
-2641.9792592
 10
24187.14143228
 20
-2641.9792592
 10
24187.14050876
 20
-2376.46661413
  0
LWPOLYLINE
  5
260
100
AcDbEntity
  8
Ech.1_5
 62
     7
  6
CONTINUOUS
370
    -3
100
AcDbPolyline
 90
        7
 70
     0
 43
0.0
 10
24361.86270736
 20
-2250.72509577
 10
24263.13643051
 20
-2286.65852189
 10
24263.13643051
 20
-2295.72509577
 10
24383.13643051
 20
-2295.72509577
 10
24383.13643051
 20
-2270.72509577
 10
24383.13643051
 20
-2250.72509577
 10
24361.86270736
 20
-2250.72509577
  0
LWPOLYLINE
  5
261
100
AcDbEntity
  8
Ech.1_5
 62
     7
  6
CONTINUOUS
370
    -3
100
AcDbPolyline
 90
        6
 70
     0
 43
0.0
 10
24383.13643051
 20
-2295.72509577
 10
24203.14054335
 20
-2295.72509577
 10
24203.14057108
 20
-2340.72509577
 10
24383.13643051
 20
-2340.72509577
 10
24383.13643051
 20
-2296.78480455
 10
24383.13643051
 20
-2295.72509577
  0
LWPOLYLINE
  5
262
100
AcDbEntity
  8
Ech.1_5
 62
     7
  6
CONTINUOUS
370
    -3
100
AcDbPolyline
 90
       27
 70
     0
 43
0.0
 10
24149.01389164
 20
-2573.84662558
 10
24149.14050876
 20
-2573.51215178
 10
24149.14050876
 20
-2546.12868769
 10
24156.14050876
 20
-2546.12868769
 10
24156.14050876
 20
-2555.12868769
 10
24162.14050876
 20
-2555.12868769
 10
24162.14050876
 20
-2528.12868769
 10
24158.14050876
 20
-2524.12868769
 10
24162.14050876
 20
-2520.12868769
 10
24162.14050876
 20
-2456.12868769
 10
24158.14050876
 20
-2452.12868769
 10
24162.14050876
 20
-2448.12868769
 10
24162.14050876
 20
-2413.12868769
 10
24155.14050876
 20
-2413.12868769
 10
24155.14050876
 20
-2407.12868769
 10
24152.64050876
 20
-2402.12868769
 10
24150.14050876
 20
-2407.12868769
 10
24150.14050876
 20
-2438.05761988
 10
24149.75990642
 20
-2439.97103704
 10
24143.60497485
 20
-2446.6642216
 10
24142.14050876
 20
-2450.1997555
 10
24142.14050876
 20
-2569.28649992
 10
24143.10083116
 20
-2570.91636856
 10
24147.83695201
 20
-2573.88771849
 10
24148.24895338
 20
-2574.12868769
 10
24148.56277087
 20
-2574.12868769
 10
24149.01389164
 20
-2573.84662558
  0
LWPOLYLINE
  5
263
100
AcDbEntity
  8
Ech.1_5
 62
     7
  6
CONTINUOUS
370
    -3
100
AcDbPolyline
 90
       17
 70
     0
 43
0.0
 10
24143.10083116
 20
-2425.91636856
 10
24147.83695201
 20
-2428.88771849
 10
24148.24895338
 20
-2429.12868769
 10
24148.56277087
 20
-2429.12868769
 10
24149.01389164
 20
-2428.84662558
 10
24149.14050876
 20
-2428.51215178
 10
24149.14050876
 20
-2401.12868769
 10
24156.14050876
 20
-2401.12868769
 10
24156.14050876
 20
-2410.12868769
 10
24162.14050876
 20
-2410.12868769
 10
24162.14050876
 20
-2383.12868769
 10
24158.14050876
 20
-2379.12868769
 10
24162.14050876
 20
-2375.12868769
 10
24162.14050876
 20
-2371.46661413
 10
24142.14050876
 20
-2371.46661413
 10
24142.14050876
 20
-2424.28649992
 10
24143.10083116
 20
-2425.91636856
  0
LWPOLYLINE
  5
264
100
AcDbEntity
  8
Ech.1_5
 62
     7
  6
CONTINUOUS
370
    -3
100
AcDbPolyline
 90
       15
 70
     0
 43
0.0
 10
24162.14050876
 20
-2593.12868769
 10
24162.14050876
 20
-2558.12868769
 10
24155.14050876
 20
-2558.12868769
 10
24155.14050876
 20
-2552.12868769
 10
24152.64050876
 20
-2547.12868769
 10
24150.14050876
 20
-2552.12868769
 10
24150.14050876
 20
-2583.05761988
 10
24149.75990642
 20
-2584.97103704
 10
24143.60497485
 20
-2591.6642216
 10
24142.14050876
 20
-2595.1997555
 10
24142.14050876
 20
-2641.9792592
 10
24162.14050876
 20
-2641.9792592
 10
24162.14050876
 20
-2601.12868769
 10
24158.14050876
 20
-2597.12868769
 10
24162.14050876
 20
-2593.12868769
  0
LWPOLYLINE
  5
265
100
AcDbEntity
  8
Ech.1_5
 62
     7
  6
CONTINUOUS
100
AcDbPolyline
 90
        4
 70
     0
 43
0.0
 10
24109.85895944
 20
-2441.71615755
 10
24096.63345046
 20
-2458.18356852
 10
24113.63504193
 20
-2446.39648566
 10
24109.85895944
 20
-2441.71615755
  0
LWPOLYLINE
  5
266
100
AcDbEntity
  8
Ech.1_5
 62
   190
  6
CONTINUOUS
370
     5
100
AcDbPolyline
 90
        5
 70
     0
 43
0.0
 10
23651.61547718
 20
-2796.8511288
 10
23701.61547718
 20
-2796.8511288
 10
23701.61547718
 20
-2789.43599127
 10
23651.61547718
 20
-2789.43599127
 10
23651.61547718
 20
-2796.8511288
  0
TEXT
  5
267
100
AcDbEntity
  8
Ech.1_5
 62
   190
100
AcDbText
 10
23662.90976981
 20
-2779.84998819
 30
0.0
 40
8.00000012
  1
Echelle en mm
  7
ARIAL
 50
0.0
 41
1.0
 51
0.0
100
AcDbText
  0
TEXT
  5
268
100
AcDbEntity
  8
Ech.1_5
 62
   190
100
AcDbText
 10
23648.92918506
 20
-2808.05982372
 30
0.0
 40
8.00000012
  1
0
  7
ARIAL
 50
0.0
 41
1.0
 51
0.0
100
AcDbText
  0
TEXT
  5
269
100
AcDbEntity
  8
Ech.1_5
 62
   190
100
AcDbText
 10
23735.52624295
 20
-2808.05982372
 30
0.0
 40
8.00000012
  1
100
  7
ARIAL
 50
0.0
 41
1.0
 51
0.0
100
AcDbText
  0
TEXT
  5
26A
100
AcDbEntity
  8
Ech.1_5
 62
   190
100
AcDbText
 10
23696.78581139
 20
-2808.05982372
 30
0.0
 40
8.00000012
  1
50
  7
ARIAL
 50
0.0
 41
1.0
 51
0.0
100
AcDbText
  0
INSERT
  5
26B
100
AcDbEntity
  8
Ech.1_5
 62
     0
370
    -3
100
AcDbBlockReference
  2
*D77
 10
0.0
 20
0.0
 30
0.0
  0
INSERT
  5
26C
100
AcDbEntity
  8
Ech.1_5
 62
     0
370
    -3
100
AcDbBlockReference
  2
*D78
 10
0.0
 20
0.0
 30
0.0
  0
ENDSEC
  0
SECTION
  2
OBJECTS
  0
DICTIONARY
  5
1
100
AcDbDictionary
  3
ACAD_GROUP
350
2
  3
ACAD_MLINESTYLE
350
3
  0
DICTIONARY
  5
2
102
{CDWK_REACTORS
330
1
102
}
100
AcDbDictionary
  0
DICTIONARY
  5
3
102
{CDWK_REACTORS
330
1
102
}
100
AcDbDictionary
  3
STANDARD
350
4
  0
MLINESTYLE
  5
4
102
{CDWK_REACTORS
330
3
102
}
100
AcDbMlineStyle
  2
STANDARD
 70
     0
  3

 62
     0
 51
90.0
 52
90.0
 71
     2
 49
0.5
 62
   256
  6
BYLAYER
 49
-0.5
 62
   256
  6
BYLAYER
  0
ENDSEC
  0
EOF
