  0
SECTION
  2
HEADER
  9
$ACADVER
  1
AC1014
  9
$DWGCODEPAGE
  3
ANSI_1252
  9
$INSBASE
 10
0.0
 20
0.0
 30
0.0
  9
$EXTMIN
 10
21904.88499256
 20
-2850.66955982
  9
$EXTMAX
 10
23259.88499256
 20
-1865.66955982
  9
$LIMMIN
 10
21904.88499256
 20
-2850.66955982
  9
$LIMMAX
 10
23259.88499256
 20
-1865.66955982
  9
$ORTHOMODE
 70
     0
  9
$REGENMODE
 70
     1
  9
$FILLMODE
 70
     1
  9
$QTEXTMODE
 70
     0
  9
$MIRRTEXT
 70
     1
  9
$DRAGMODE
 70
     2
  9
$LTSCALE
 40
5.0
  9
$OSMODE
 70
     0
  9
$ATTMODE
 70
     1
  9
$TEXTSIZE
 40
3.5
  9
$TRACEWID
 40
1.0
  9
$TEXTSTYLE
  7
STANDARD
  9
$CLAYER
  8
0
  9
$CELTYPE
  6
BYLAYER
  9
$CECOLOR
 62
   256
  9
$DIMSCALE
 40
1.0
  9
$DIMASZ
 40
2.0
  9
$DIMEXO
 40
5.0
  9
$DIMDLI
 40
10.0
  9
$DIMRND
 40
0.0
  9
$DIMDLE
 40
2.0
  9
$DIMEXE
 40
2.0
  9
$DIMTP
 40
0.0
  9
$DIMTM
 40
0.0
  9
$DIMTXT
 40
2.5
  9
$DIMCEN
 40
1.5
  9
$DIMTSZ
 40
0.0
  9
$DIMTOL
 70
     0
  9
$DIMLIM
 70
     0
  9
$DIMTIH
 70
     1
  9
$DIMTOH
 70
     0
  9
$DIMSE1
 70
     0
  9
$DIMSE2
 70
     0
  9
$DIMTAD
 70
     1
  9
$DIMZIN
 70
     8
  9
$DIMBLK
  1

  9
$DIMASO
 70
     1
  9
$DIMSHO
 70
     1
  9
$DIMPOST
  1

  9
$DIMAPOST
  1

  9
$DIMALT
 70
     0
  9
$DIMALTD
 70
     2
  9
$DIMALTF
 40
25.4
  9
$DIMLFAC
 40
1.0
  9
$DIMTOFL
 70
     0
  9
$DIMTVP
 40
0.0
  9
$DIMTIX
 70
     0
  9
$DIMSOXD
 70
     0
  9
$DIMSAH
 70
     0
  9
$DIMBLK1
  1

  9
$DIMBLK2
  1

  9
$DIMSTYLE
  2
*UNNAMED
  9
$DIMCLRD
 70
   190
  9
$DIMCLRE
 70
   190
  9
$DIMCLRT
 70
   190
  9
$DIMTFAC
 40
1.0
  9
$DIMGAP
 40
0.09
  9
$DIMUNIT
 70
     2
  9
$LUNITS
 70
     2
  9
$LUPREC
 70
     6
  9
$AXISMODE
 70
     0
  9
$AXISUNIT
 10
0.0
 20
0.0
  9
$SKETCHINC
 40
0.1
  9
$FILLETRAD
 40
0.0
  9
$AUNITS
 70
     0
  9
$AUPREC
 70
     0
  9
$MENU
  1
ACAD
  9
$ELEVATION
 40
0.0
  9
$PELEVATION
 40
0.0
  9
$THICKNESS
 40
0.0
  9
$LIMCHECK
 70
     0
  9
$BLIPMODE
 70
     1
  9
$CHAMFERA
 40
0.0
  9
$CHAMFERB
 40
0.0
  9
$SKPOLY
 70
     1
  9
$TDCREATE
 40
2457732.0000000000
  9
$TDUPDATE
 40
2457732.0000000000
  9
$TDINDWG
 40
0.0
  9
$TDUSRTIMER
 40
0.0
  9
$USRTIMER
 70
     1
  9
$ANGBASE
 50
0.0
  9
$ANGDIR
 70
     0
  9
$PDMODE
 70
     0
  9
$PDSIZE
 40
0.0
  9
$PLINEWID
 40
0.0
  9
$COORDS
 70
     2
  9
$SPLFRAME
 70
     0
  9
$SPLINETYPE
 70
     6
  9
$SPLINESEGS
 70
     8
  9
$ATTDIA
 70
     1
  9
$ATTREQ
 70
     1
  9
$HANDLING
 70
     1
  9
$HANDSEED
  5
     1EC
  9
$SURFTAB1
 70
     6
  9
$SURFTAB2
 70
     6
  9
$SURFTYPE
 70
     6
  9
$SURFU
 70
     6
  9
$SURFV
 70
     6
  9
$UCSNAME
  2

  9
$UCSORG
 10
0.0
 20
0.0
 30
0.0
  9
$UCSXDIR
 10
1.0
 20
0.0
 30
0.0
  9
$UCSYDIR
 10
0.0
 20
1.0
 30
0.0
  9
$PUCSNAME
  2

  9
$PUCSORG
 10
0.0
 20
0.0
 30
0.0
  9
$PUCSXDIR
 10
1.0
 20
0.0
 30
0.0
  9
$PUCSYDIR
 10
0.0
 20
1.0
 30
0.0
  9
$USERI1
 70
     0
  9
$USERI2
 70
     0
  9
$USERI3
 70
     0
  9
$USERI4
 70
     0
  9
$USERI5
 70
     0
  9
$USERR1
 40
0.0
  9
$USERR2
 40
0.0
  9
$USERR3
 40
0.0
  9
$USERR4
 40
0.0
  9
$USERR5
 40
0.0
  9
$WORLDVIEW
 70
     1
  9
$SHADEDGE
 70
     3
  9
$SHADEDIF
 70
    70
  9
$TILEMODE
 70
     1
  9
$MAXACTVP
 70
    16
  9
$PINSBASE
 10
0.0
 20
0.0
 30
0.0
  9
$PLIMCHECK
 70
     0
  9
$PEXTMIN
 10
1.0000000000000E+20
 20
1.0000000000000E+20
 30
1.0000000000000E+20
  9
$PEXTMAX
 10
-1.0000000000000E+20
 20
-1.0000000000000E+20
 30
-1.0000000000000E+20
  9
$PLIMMIN
 10
0.0
 20
0.0
  9
$UNITMODE
 70
     0
  9
$VISRETAIN
 70
     0
  9
$MEASUREMENT
 70
     1
  0
ENDSEC
  0
SECTION
  2
TABLES
  0
TABLE
  2
VPORT
  5
132
100
AcDbSymbolTable
 70
     1
  0
ENDTAB
  0
TABLE
  2
STYLE
  5
133
100
AcDbSymbolTable
 70
     3
  0
STYLE
  5
134
100
AcDbSymbolTableRecord
100
AcDbTextStyleTableRecord
  2
STANDARD
 70
     0
 40
0.0
 41
1.0
 50
0.0
 71
     0
 42
3.5
  3
MONOTXT
  4

  0
STYLE
  5
135
100
AcDbSymbolTableRecord
100
AcDbTextStyleTableRecord
  2
SYMAP
 70
     0
 40
0.0
 41
1.0
 50
0.0
 71
     0
 42
3.5
  3
SYMAP
  4

  0
STYLE
  5
136
100
AcDbSymbolTableRecord
100
AcDbTextStyleTableRecord
  2
CADWORK1
 70
     0
 40
0.0
 41
1.0
 50
0.0
 71
     0
 42
3.5
  3
MONOTXT
  4

  0
STYLE
  5
137
100
AcDbSymbolTableRecord
100
AcDbTextStyleTableRecord
  2
MONOTXT
 70
     0
 40
0.0
 41
1.0
 50
0.0
 71
     0
 42
3.5
  3
MONOTXT
  4

  0
STYLE
  5
138
100
AcDbSymbolTableRecord
100
AcDbTextStyleTableRecord
  2
ARIAL
 70
     0
 40
0.0
 41
1.0
 50
0.0
 71
     0
 42
3.5
  3

  4

1001
ACAD
1000
Arial
1071
        0
  0
ENDTAB
  0
TABLE
  2
LTYPE
  5
139
100
AcDbSymbolTable
 70
    16
  0
LTYPE
  5
13A
100
AcDbSymbolTableRecord
100
AcDbLinetypeTableRecord
  2
BYBLOCK
 70
    64
  3

 72
    65
 73
     0
 40
0.0
  0
LTYPE
  5
13B
100
AcDbSymbolTableRecord
100
AcDbLinetypeTableRecord
  2
BYLAYER
 70
    64
  3

 72
    65
 73
     0
 40
0.0
  0
LTYPE
  5
13C
100
AcDbSymbolTableRecord
100
AcDbLinetypeTableRecord
  2
CONTINUOUS
 70
    64
  3
Solid line
 72
    65
 73
     0
 40
0.0
  0
LTYPE
  5
13D
100
AcDbSymbolTableRecord
100
AcDbLinetypeTableRecord
  2
DOT2
 70
    64
  3
...............................................
 72
    65
 73
     2
 40
1.25
 49
0.0
 74
     0
 49
-1.25
 74
     0
  0
LTYPE
  5
13E
100
AcDbSymbolTableRecord
100
AcDbLinetypeTableRecord
  2
CADWORK_13
 70
    64
  3
13 =======================================
 72
    65
 73
     2
 40
4.0
 49
2.0
 74
     0
 49
-2.0
 74
     0
  0
LTYPE
  5
13F
100
AcDbSymbolTableRecord
100
AcDbLinetypeTableRecord
  2
DASHDOT
 70
    64
  3
 __ . __ . __ . __ . __ . __ . __ . __ . __ . __
 72
    65
 73
     4
 40
10.0
 49
5.0
 74
     0
 49
-2.5
 74
     0
 49
0.0
 74
     0
 49
-2.5
 74
     0
  0
LTYPE
  5
140
100
AcDbSymbolTableRecord
100
AcDbLinetypeTableRecord
  2
CENTER
 70
    64
  3
 ____ _ ____ _ ____ _ ____ _ ____ _ ____ _ ____
 72
    65
 73
     4
 40
20.0
 49
12.5
 74
     0
 49
-2.5
 74
     0
 49
2.5
 74
     0
 49
-2.5
 74
     0
  0
LTYPE
  5
141
100
AcDbSymbolTableRecord
100
AcDbLinetypeTableRecord
  2
DASHEDX2
 70
    64
  3
____  ____  ____  ____  ____  ____  ____  ____
 72
    65
 73
     2
 40
3.75
 49
2.5
 74
     0
 49
-1.25
 74
     0
  0
LTYPE
  5
142
100
AcDbSymbolTableRecord
100
AcDbLinetypeTableRecord
  2
CADWORK_22
 70
    64
  3
22 =======================================
 72
    65
 73
     0
 40
0.0
  0
LTYPE
  5
143
100
AcDbSymbolTableRecord
100
AcDbLinetypeTableRecord
  2
DAL
 70
    64
  3
Solid line (for MAPS)
 72
    65
 73
     0
 40
0.0
  0
LTYPE
  5
144
100
AcDbSymbolTableRecord
100
AcDbLinetypeTableRecord
  2
MUR
 70
    64
  3
Solid line (for MAPS)
 72
    65
 73
     0
 40
0.0
  0
LTYPE
  5
145
100
AcDbSymbolTableRecord
100
AcDbLinetypeTableRecord
  2
SOM
 70
    64
  3
Solid line (for MAPS)
 72
    65
 73
     0
 40
0.0
  0
LTYPE
  5
146
100
AcDbSymbolTableRecord
100
AcDbLinetypeTableRecord
  2
COL
 70
    64
  3
Solid line (for MAPS)
 72
    65
 73
     0
 40
0.0
  0
LTYPE
  5
147
100
AcDbSymbolTableRecord
100
AcDbLinetypeTableRecord
  2
LGN
 70
    64
  3
Solid line (for MAPS)
 72
    65
 73
     0
 40
0.0
  0
LTYPE
  5
148
100
AcDbSymbolTableRecord
100
AcDbLinetypeTableRecord
  2
PNT
 70
    64
  3
Solid line (for MAPS)
 72
    65
 73
     0
 40
0.0
  0
ENDTAB
  0
TABLE
  2
LAYER
  5
149
100
AcDbSymbolTable
 70
    32
  0
LAYER
  5
14A
100
AcDbSymbolTableRecord
100
AcDbLayerTableRecord
  2
Standard
 70
     0
 62
     7
  6
CONTINUOUS
370
    -3
  0
LAYER
  5
14B
100
AcDbSymbolTableRecord
100
AcDbLayerTableRecord
  2
Ech.1_1
 70
     0
 62
     7
  6
CONTINUOUS
370
    -3
  0
LAYER
  5
14C
100
AcDbSymbolTableRecord
100
AcDbLayerTableRecord
  2
Ech.1_2
 70
     0
 62
     7
  6
CONTINUOUS
370
    -3
  0
LAYER
  5
14D
100
AcDbSymbolTableRecord
100
AcDbLayerTableRecord
  2
Ech.1_5
 70
     0
 62
     7
  6
CONTINUOUS
370
    -3
  0
LAYER
  5
14E
100
AcDbSymbolTableRecord
100
AcDbLayerTableRecord
  2
Ech.1_10
 70
     0
 62
     7
  6
CONTINUOUS
370
    -3
  0
LAYER
  5
14F
100
AcDbSymbolTableRecord
100
AcDbLayerTableRecord
  2
Ech.1_20
 70
     0
 62
     7
  6
CONTINUOUS
370
    -3
  0
LAYER
  5
150
100
AcDbSymbolTableRecord
100
AcDbLayerTableRecord
  2
Ech.1_25
 70
     0
 62
     7
  6
CONTINUOUS
370
    -3
  0
LAYER
  5
151
100
AcDbSymbolTableRecord
100
AcDbLayerTableRecord
  2
Ech.1_33
 70
     0
 62
     7
  6
CONTINUOUS
370
    -3
  0
LAYER
  5
152
100
AcDbSymbolTableRecord
100
AcDbLayerTableRecord
  2
Ech.1_50
 70
     0
 62
     7
  6
CONTINUOUS
370
    -3
  0
LAYER
  5
153
100
AcDbSymbolTableRecord
100
AcDbLayerTableRecord
  2
Ech.1_75
 70
     0
 62
     7
  6
CONTINUOUS
370
    -3
  0
LAYER
  5
154
100
AcDbSymbolTableRecord
100
AcDbLayerTableRecord
  2
Ech.1_100
 70
     0
 62
     7
  6
CONTINUOUS
370
    -3
  0
LAYER
  5
155
100
AcDbSymbolTableRecord
100
AcDbLayerTableRecord
  2
Ech.1_200
 70
     0
 62
     7
  6
CONTINUOUS
370
    -3
  0
LAYER
  5
156
100
AcDbSymbolTableRecord
100
AcDbLayerTableRecord
  2
Ech.1_500
 70
     0
 62
     7
  6
CONTINUOUS
370
    -3
  0
LAYER
  5
157
100
AcDbSymbolTableRecord
100
AcDbLayerTableRecord
  2
Ech.1_1000
 70
     0
 62
     7
  6
CONTINUOUS
370
    -3
  0
LAYER
  5
158
100
AcDbSymbolTableRecord
100
AcDbLayerTableRecord
  2
Cadres traceur
 70
     0
 62
     7
  6
CONTINUOUS
370
    18
  0
LAYER
  5
159
100
AcDbSymbolTableRecord
100
AcDbLayerTableRecord
  2
Cadres laser
 70
     0
 62
     7
  6
CONTINUOUS
370
    18
  0
LAYER
  5
15A
100
AcDbSymbolTableRecord
100
AcDbLayerTableRecord
  2
Légende d_aide
 70
     0
 62
     7
  6
CONTINUOUS
370
    18
  0
LAYER
  5
15B
100
AcDbSymbolTableRecord
100
AcDbLayerTableRecord
  2
hachures ok
 70
     0
 62
     7
  6
CONTINUOUS
370
    18
  0
LAYER
  5
15C
100
AcDbSymbolTableRecord
100
AcDbLayerTableRecord
  2
ossature bois
 70
     0
 62
     7
  6
CONTINUOUS
370
    18
  0
LAYER
  5
15D
100
AcDbSymbolTableRecord
100
AcDbLayerTableRecord
  2
VR
 70
     0
 62
     7
  6
CONTINUOUS
370
    25
  0
LAYER
  5
15E
100
AcDbSymbolTableRecord
100
AcDbLayerTableRecord
  2
Calque1
 70
     0
 62
     7
  6
CONTINUOUS
370
     9
  0
LAYER
  5
15F
100
AcDbSymbolTableRecord
100
AcDbLayerTableRecord
  2
0
 70
     0
 62
     7
  6
CONTINUOUS
370
    -3
  0
LAYER
  5
160
100
AcDbSymbolTableRecord
100
AcDbLayerTableRecord
  2
menuiserie
 70
     0
 62
     7
  6
CONTINUOUS
370
    -3
  0
LAYER
  5
161
100
AcDbSymbolTableRecord
100
AcDbLayerTableRecord
  2
cotation
 70
     0
 62
   250
  6
CONTINUOUS
370
     9
  0
LAYER
  5
162
100
AcDbSymbolTableRecord
100
AcDbLayerTableRecord
  2
Defpoints
 70
     0
 62
    10
  6
CONTINUOUS
370
    -3
  0
LAYER
  5
163
100
AcDbSymbolTableRecord
100
AcDbLayerTableRecord
  2
HACHURE
 70
     0
 62
   254
  6
CONTINUOUS
370
    25
  0
LAYER
  5
164
100
AcDbSymbolTableRecord
100
AcDbLayerTableRecord
  2
mat1
 70
     0
 62
     7
  6
CONTINUOUS
370
    30
  0
LAYER
  5
165
100
AcDbSymbolTableRecord
100
AcDbLayerTableRecord
  2
mat2
 70
     0
 62
     7
  6
CONTINUOUS
370
     5
  0
LAYER
  5
166
100
AcDbSymbolTableRecord
100
AcDbLayerTableRecord
  2
hach
 70
     0
 62
     8
  6
CONTINUOUS
370
     5
  0
LAYER
  5
167
100
AcDbSymbolTableRecord
100
AcDbLayerTableRecord
  2
menuiseries
 70
     0
 62
     7
  6
CONTINUOUS
370
     9
  0
LAYER
  5
168
100
AcDbSymbolTableRecord
100
AcDbLayerTableRecord
  2
BétonMétal
 70
     0
 62
     7
  6
CONTINUOUS
370
    80
  0
LAYER
  5
169
100
AcDbSymbolTableRecord
100
AcDbLayerTableRecord
  2
bois
 70
     0
 62
     7
  6
CONTINUOUS
370
    60
  0
ENDTAB
  0
TABLE
  2
VIEW
  5
16A
100
AcDbSymbolTable
 70
     0
  0
ENDTAB
  0
TABLE
  2
UCS
  5
16B
100
AcDbSymbolTable
 70
     0
  0
ENDTAB
  0
TABLE
  2
APPID
  5
16C
100
AcDbSymbolTable
 70
     1
  0
APPID
  5
16D
100
AcDbSymbolTableRecord
100
AcDbRegAppTableRecord
  2
ACAD
 70
     0
  0
ENDTAB
  0
TABLE
  2
DIMSTYLE
  5
16E
100
AcDbSymbolTable
 70
     0
  0
ENDTAB
  0
TABLE
  2
BLOCK_RECORD
  5
16F
100
AcDbSymbolTable
 70
     0
  0
BLOCK_RECORD
  5
170
100
AcDbSymbolTableRecord
100
AcDbBlockTableRecord
  2
*MODEL_SPACE
  0
BLOCK_RECORD
  5
171
100
AcDbSymbolTableRecord
100
AcDbBlockTableRecord
  2
*PAPER_SPACE
  0
BLOCK_RECORD
  5
172
100
AcDbSymbolTableRecord
100
AcDbBlockTableRecord
  2
CDWK_EXTR_0
  0
BLOCK_RECORD
  5
173
100
AcDbSymbolTableRecord
100
AcDbBlockTableRecord
  2
CDWK_EXTR_1D
  0
BLOCK_RECORD
  5
174
100
AcDbSymbolTableRecord
100
AcDbBlockTableRecord
  2
CDWK_EXTR_1G
  0
BLOCK_RECORD
  5
175
100
AcDbSymbolTableRecord
100
AcDbBlockTableRecord
  2
CDWK_EXTR_2
  0
BLOCK_RECORD
  5
176
100
AcDbSymbolTableRecord
100
AcDbBlockTableRecord
  2
CDWK_EXTR_3
  0
BLOCK_RECORD
  5
177
100
AcDbSymbolTableRecord
100
AcDbBlockTableRecord
  2
CDWK_EXTR_4
  0
BLOCK_RECORD
  5
178
100
AcDbSymbolTableRecord
100
AcDbBlockTableRecord
  2
CDWK_PTTYP0
  0
BLOCK_RECORD
  5
179
100
AcDbSymbolTableRecord
100
AcDbBlockTableRecord
  2
*D73
  0
BLOCK_RECORD
  5
17A
100
AcDbSymbolTableRecord
100
AcDbBlockTableRecord
  2
*D74
  0
ENDTAB
  0
ENDSEC
  0
SECTION
  2
BLOCKS
  0
BLOCK
  5
17B
100
AcDbEntity
  8
0
100
AcDbBlockBegin
  2
*MODEL_SPACE
 70
     0
 10
0.0
 20
0.0
 30
0.0
  3
*MODEL_SPACE
  1

  0
ENDBLK
  5
17C
100
AcDbEntity
100
AcDbBlockEnd
  0
BLOCK
  5
17D
100
AcDbEntity
  8
0
100
AcDbBlockBegin
  2
*PAPER_SPACE
 70
     0
 10
0.0
 20
0.0
 30
0.0
  3
*PAPER_SPACE
  1

  0
ENDBLK
  5
17E
100
AcDbEntity
100
AcDbBlockEnd
  0
BLOCK
  5
17F
100
AcDbEntity
  8
0
100
AcDbBlockBegin
  2
CDWK_EXTR_0
 70
     0
 10
0.0
 20
0.0
 30
0.0
  3
CDWK_EXTR_0
  1

  4
Cadwork line-extremity
  0
LINE
  5
180
100
AcDbEntity
  8
0
 62
     0
370
    -2
100
AcDbLine
 10
0.0
 20
0.0
 30
0.0
 11
2.0
 21
0.5
 31
0.0
  0
LINE
  5
181
100
AcDbEntity
  8
0
 62
     0
370
    -2
100
AcDbLine
 10
0.0
 20
0.0
 30
0.0
 11
2.0
 21
-0.5
 31
0.0
  0
LINE
  5
182
100
AcDbEntity
  8
0
 62
     0
370
    -2
100
AcDbLine
 10
2.0
 20
0.5
 30
0.0
 11
2.0
 21
-0.5
 31
0.0
  0
ENDBLK
  5
183
100
AcDbEntity
100
AcDbBlockEnd
  0
BLOCK
  5
184
100
AcDbEntity
  8
0
100
AcDbBlockBegin
  2
CDWK_EXTR_1D
 70
     0
 10
0.0
 20
0.0
 30
0.0
  3
CDWK_EXTR_1D
  1

  4
Cadwork line-extremity
  0
LINE
  5
185
100
AcDbEntity
  8
0
 62
     0
370
    -2
100
AcDbLine
 10
0.0
 20
0.0
 30
0.0
 11
0.0
 21
1.0
 31
0.0
  0
LINE
  5
186
100
AcDbEntity
  8
0
 62
     0
370
    -2
100
AcDbLine
 10
0.0
 20
1.0
 30
0.0
 11
0.5
 21
1.5
 31
0.0
  0
LINE
  5
187
100
AcDbEntity
  8
0
 62
     0
370
    -2
100
AcDbLine
 10
0.5
 20
1.5
 30
0.0
 11
1.5
 21
1.5
 31
0.0
  0
ENDBLK
  5
188
100
AcDbEntity
100
AcDbBlockEnd
  0
BLOCK
  5
189
100
AcDbEntity
  8
0
100
AcDbBlockBegin
  2
CDWK_EXTR_1G
 70
     0
 10
0.0
 20
0.0
 30
0.0
  3
CDWK_EXTR_1G
  1

  4
Cadwork line-extremity
  0
LINE
  5
18A
100
AcDbEntity
  8
0
 62
     0
370
    -2
100
AcDbLine
 10
0.0
 20
0.0
 30
0.0
 11
0.0
 21
-1.0
 31
0.0
  0
LINE
  5
18B
100
AcDbEntity
  8
0
 62
     0
370
    -2
100
AcDbLine
 10
0.0
 20
-1.0
 30
0.0
 11
0.5
 21
-1.5
 31
0.0
  0
LINE
  5
18C
100
AcDbEntity
  8
0
 62
     0
370
    -2
100
AcDbLine
 10
0.5
 20
-1.5
 30
0.0
 11
1.5
 21
-1.5
 31
0.0
  0
ENDBLK
  5
18D
100
AcDbEntity
100
AcDbBlockEnd
  0
BLOCK
  5
18E
100
AcDbEntity
  8
0
100
AcDbBlockBegin
  2
CDWK_EXTR_2
 70
     0
 10
0.0
 20
0.0
 30
0.0
  3
CDWK_EXTR_2
  1

  4
Cadwork line-extremity
  0
SOLID
  5
18F
100
AcDbEntity
  8
0
 62
     0
100
AcDbTrace
 10
0.0
 20
0.0
 11
2.0
 21
0.5
 12
2.0
 22
-0.5
 13
2.0
 23
-0.5
  0
ENDBLK
  5
190
100
AcDbEntity
100
AcDbBlockEnd
  0
BLOCK
  5
191
100
AcDbEntity
  8
0
100
AcDbBlockBegin
  2
CDWK_EXTR_3
 70
     0
 10
0.0
 20
0.0
 30
0.0
  3
CDWK_EXTR_3
  1

  4
Cadwork line-extremity
  0
SOLID
  5
192
100
AcDbEntity
  8
0
 62
     0
100
AcDbTrace
 10
0.0
 20
0.0
 11
2.0
 21
0.5
 12
2.0
 22
-0.5
 13
2.0
 23
-0.5
  0
LINE
  5
193
100
AcDbEntity
  8
0
 62
     0
370
    -2
100
AcDbLine
 10
0.0
 20
1.0
 30
0.0
 11
0.0
 21
-1.0
 31
0.0
  0
ENDBLK
  5
194
100
AcDbEntity
100
AcDbBlockEnd
  0
BLOCK
  5
195
100
AcDbEntity
  8
0
100
AcDbBlockBegin
  2
CDWK_EXTR_4
 70
     0
 10
0.0
 20
0.0
 30
0.0
  3
CDWK_EXTR_4
  1

  4
Cadwork line-extremity
  0
HATCH
  5
196
100
AcDbEntity
  8
0
 62
     0
370
    -2
100
AcDbHatch
 10
0.0
 20
0.0
 30
0.0
210
0.0
220
0.0
230
1.0
  2
SOLID
 70
     1
 71
     0
 91
        1
 92
        1
 93
        1
 72
     2
 10
0.0
 20
0.0
 40
0.5
 50
0.0
 51
360.0
 73
     1
 97
        0
 75
     0
 76
     1
 98
        1
 10
0.0
 20
0.0
  0
ENDBLK
  5
197
100
AcDbEntity
100
AcDbBlockEnd
  0
BLOCK
  5
198
100
AcDbEntity
  8
0
100
AcDbBlockBegin
  2
CDWK_PTTYP0
 70
     0
 10
0.0
 20
0.0
 30
0.0
  3
CDWK_PTTYP0
  1

  4
Cadwork point
  0
POINT
  5
199
100
AcDbEntity
  8
0
 62
     0
100
AcDbPoint
 10
0.0
 20
0.0
 30
0.0
  0
ENDBLK
  5
19A
100
AcDbEntity
100
AcDbBlockEnd
  0
BLOCK
  5
19B
100
AcDbEntity
  8
Ech.1_5
100
AcDbBlockBegin
  2
*D73
 70
     1
 10
0.0
 20
0.0
 30
0.0
  3
*D73
  1

  4
Cadwork dimension
  0
TEXT
  5
19C
100
AcDbEntity
  8
Ech.1_5
 62
   190
370
    18
100
AcDbText
 10
23104.47365997
 20
-2223.25731722
 30
0.0
 40
25.0
  1
2/3*
  7
ARIAL
 50
89.9999975
 41
1.0
 51
0.0
100
AcDbText
  0
LINE
  5
19D
100
AcDbEntity
  8
Ech.1_5
 62
   190
370
    -2
100
AcDbLine
 10
23114.47365997
 20
-2093.00217977
 30
0.0
 11
23057.04545269
 21
-2093.00217977
 31
0.0
  0
LINE
  5
19E
100
AcDbEntity
  8
Ech.1_5
 62
   190
370
    -2
100
AcDbLine
 10
23114.47365997
 20
-2325.00217977
 30
0.0
 11
23057.04545269
 21
-2325.00217977
 31
0.0
  0
LINE
  5
19F
100
AcDbEntity
  8
Ech.1_5
 62
   190
370
    -2
100
AcDbLine
 10
23109.47365997
 20
-2088.00217977
 30
0.0
 11
23109.47365997
 21
-2330.00217977
 31
0.0
  0
LINE
  5
1A0
100
AcDbEntity
  8
Ech.1_5
 62
   190
370
    -2
100
AcDbLine
 10
23106.97365997
 20
-2090.50217977
 30
0.0
 11
23111.97365997
 21
-2095.50217977
 31
0.0
  0
LINE
  5
1A1
100
AcDbEntity
  8
Ech.1_5
 62
   190
370
    -2
100
AcDbLine
 10
23106.97365997
 20
-2322.50217977
 30
0.0
 11
23111.97365997
 21
-2327.50217977
 31
0.0
  0
ENDBLK
  5
1A2
100
AcDbEntity
100
AcDbBlockEnd
  0
BLOCK
  5
1A3
100
AcDbEntity
  8
Ech.1_5
100
AcDbBlockBegin
  2
*D74
 70
     1
 10
0.0
 20
0.0
 30
0.0
  3
*D74
  1

  4
Cadwork dimension
  0
TEXT
  5
1A4
100
AcDbEntity
  8
Ech.1_5
 62
   190
370
    18
100
AcDbText
 10
23104.47365997
 20
-2425.75729323
 30
0.0
 40
25.0
  1
1/3*
  7
ARIAL
 50
89.9999975
 41
1.0
 51
0.0
100
AcDbText
  0
LINE
  5
1A5
100
AcDbEntity
  8
Ech.1_5
 62
   190
370
    -2
100
AcDbLine
 10
23114.47365997
 20
-2325.00217977
 30
0.0
 11
23057.04545269
 21
-2325.00217977
 31
0.0
  0
LINE
  5
1A6
100
AcDbEntity
  8
Ech.1_5
 62
   190
370
    -2
100
AcDbLine
 10
23114.47365997
 20
-2498.00213181
 30
0.0
 11
23057.04545269
 21
-2498.00213181
 31
0.0
  0
LINE
  5
1A7
100
AcDbEntity
  8
Ech.1_5
 62
   190
370
    -2
100
AcDbLine
 10
23109.47365997
 20
-2320.00217977
 30
0.0
 11
23109.47365997
 21
-2503.00213181
 31
0.0
  0
LINE
  5
1A8
100
AcDbEntity
  8
Ech.1_5
 62
   190
370
    -2
100
AcDbLine
 10
23106.97365997
 20
-2322.50217977
 30
0.0
 11
23111.97365997
 21
-2327.50217977
 31
0.0
  0
LINE
  5
1A9
100
AcDbEntity
  8
Ech.1_5
 62
   190
370
    -2
100
AcDbLine
 10
23106.97365997
 20
-2495.50213181
 30
0.0
 11
23111.97365997
 21
-2500.50213181
 31
0.0
  0
ENDBLK
  5
1AA
100
AcDbEntity
100
AcDbBlockEnd
  0
ENDSEC
  0
SECTION
  2
ENTITIES
  0
LWPOLYLINE
  5
1AB
102
{ACAD_REACTORS
330
1AC
102
}
100
AcDbEntity
  8
Ech.1_5
 62
     7
  6
CONTINUOUS
370
    -3
100
AcDbPolyline
 90
        4
 70
     1
 43
0.0
 10
22298.04545269
 20
-2313.00217977
 10
22298.04545269
 20
-2325.00217977
 10
23042.04545269
 20
-2325.00217977
 10
23042.04545269
 20
-2313.00217977
  0
HATCH
  5
1AC
100
AcDbEntity
  8
Ech.1_5
 62
   190
  6
CONTINUOUS
100
AcDbHatch
 10
0.0
 20
0.0
 30
0.0
210
0.0
220
0.0
230
1.0
  2
CDWK10A
 70
     0
 71
     1
 91
        1
 92
        7
 72
     0
 73
     1
 93
        4
 10
22298.04545269
 20
-2313.00217977
 10
22298.04545269
 20
-2325.00217977
 10
23042.04545269
 20
-2325.00217977
 10
23042.04545269
 20
-2313.00217977
 97
        1
330
1AB
 75
     0
 76
     2
 52
0.0
 41
1.0
 77
     0
 78
     3
 53
45.0
 43
0.0
 44
0.0
 45
0.0
 46
42.00000167
 79
     0
 53
45.0
 43
0.0
 44
10.80000043
 45
0.0
 46
42.00000167
 79
     0
 53
45.0
 43
0.0
 44
21.60000086
 45
0.0
 46
42.00000167
 79
     0
 47
0.775229
 98
        1
 10
0.0
 20
0.0
  0
LWPOLYLINE
  5
1AD
100
AcDbEntity
  8
Ech.1_5
 62
   190
  6
CONTINUOUS
370
    -3
100
AcDbPolyline
 90
        6
 70
     0
 43
0.0
 10
23042.04545269
 20
-2519.63709958
 10
23041.96560929
 20
-2233.75165184
 10
23023.98400171
 20
-2217.27079449
 10
23059.94334646
 20
-2231.37144327
 10
23041.96073547
 20
-2214.88973525
 10
23042.04545269
 20
-1955.00217977
  0
LWPOLYLINE
  5
1AE
102
{ACAD_REACTORS
330
1AF
102
}
100
AcDbEntity
  8
Ech.1_5
 62
     7
  6
CONTINUOUS
370
    -3
100
AcDbPolyline
 90
        4
 70
     1
 43
0.0
 10
22296.04545269
 20
-2313.00217977
 10
22296.04545269
 20
-2325.00217977
 10
22102.04545269
 20
-2325.00217977
 10
22102.04545269
 20
-2313.00217977
  0
HATCH
  5
1AF
100
AcDbEntity
  8
Ech.1_5
 62
   190
  6
CONTINUOUS
100
AcDbHatch
 10
0.0
 20
0.0
 30
0.0
210
0.0
220
0.0
230
1.0
  2
CDWK10A
 70
     0
 71
     1
 91
        1
 92
        7
 72
     0
 73
     1
 93
        4
 10
22296.04545269
 20
-2313.00217977
 10
22296.04545269
 20
-2325.00217977
 10
22102.04545269
 20
-2325.00217977
 10
22102.04545269
 20
-2313.00217977
 97
        1
330
1AE
 75
     0
 76
     2
 52
0.0
 41
1.0
 77
     0
 78
     3
 53
45.0
 43
0.0
 44
0.0
 45
0.0
 46
42.00000167
 79
     0
 53
45.0
 43
0.0
 44
10.80000043
 45
0.0
 46
42.00000167
 79
     0
 53
45.0
 43
0.0
 44
21.60000086
 45
0.0
 46
42.00000167
 79
     0
 47
0.775229
 98
        1
 10
0.0
 20
0.0
  0
LWPOLYLINE
  5
1B0
100
AcDbEntity
  8
Ech.1_5
 62
   190
  6
CONTINUOUS
370
    -3
100
AcDbPolyline
 90
        6
 70
     0
 43
0.0
 10
22102.04545269
 20
-2519.63709958
 10
22102.1252961
 20
-2233.75165184
 10
22120.10690367
 20
-2217.27079449
 10
22084.14755892
 20
-2231.37144327
 10
22102.13016992
 20
-2214.88973525
 10
22102.04545269
 20
-1955.00217977
  0
LWPOLYLINE
  5
1B1
100
AcDbEntity
  8
Ech.1_5
 62
     5
  6
CONTINUOUS
370
    -3
100
AcDbPolyline
 90
        5
 70
     0
 43
0.0
 10
22244.54545269
 20
-2325.00217977
 10
22244.54546883
 20
-2405.00218857
 10
22304.54546883
 20
-2405.03446539
 10
22304.54545269
 20
-2325.03445659
 10
22244.54545269
 20
-2325.00217977
  0
LWPOLYLINE
  5
1B2
100
AcDbEntity
  8
Ech.1_5
 62
     5
  6
CONTINUOUS
370
    -3
100
AcDbPolyline
 90
        5
 70
     0
 43
0.0
 10
22899.54544734
 20
-2067.98379112
 10
22899.54545279
 20
-2094.98783451
 10
22939.5454635
 20
-2095.01652503
 10
22939.54545805
 20
-2068.01248163
 10
22899.54544734
 20
-2067.98379112
  0
LWPOLYLINE
  5
1B3
100
AcDbEntity
  8
Ech.1_5
 62
     5
  6
CONTINUOUS
370
    -3
100
AcDbPolyline
 90
        5
 70
     0
 43
0.0
 10
22889.54545269
 20
-2325.00217977
 10
22889.54546883
 20
-2405.00218857
 10
22949.54546883
 20
-2405.03446539
 10
22949.54545269
 20
-2325.03445659
 10
22889.54545269
 20
-2325.00217977
  0
LWPOLYLINE
  5
1B4
100
AcDbEntity
  8
Ech.1_5
 62
     5
  6
CONTINUOUS
370
    -3
100
AcDbPolyline
 90
        5
 70
     0
 43
0.0
 10
22254.54544189
 20
-2067.98379112
 10
22254.54544734
 20
-2094.98783451
 10
22294.54545805
 20
-2095.01652503
 10
22294.5454526
 20
-2068.01248163
 10
22254.54544189
 20
-2067.98379112
  0
LWPOLYLINE
  5
1B5
102
{ACAD_REACTORS
330
1B6
102
}
100
AcDbEntity
  8
Ech.1_5
 62
     7
  6
CONTINUOUS
370
    -3
100
AcDbPolyline
 90
        4
 70
     1
 43
0.0
 10
22102.05672224
 20
-2498.00217977
 10
23042.04545269
 20
-2498.00213181
 10
23042.04545269
 20
-2485.00213181
 10
22102.05656545
 20
-2485.00217977
  0
HATCH
  5
1B6
100
AcDbEntity
  8
Ech.1_5
 62
   190
  6
CONTINUOUS
100
AcDbHatch
 10
0.0
 20
0.0
 30
0.0
210
0.0
220
0.0
230
1.0
  2
DOTS2
 70
     0
 71
     1
 91
        1
 92
        7
 72
     0
 73
     1
 93
        4
 10
22102.05672224
 20
-2498.00217977
 10
23042.04545269
 20
-2498.00213181
 10
23042.04545269
 20
-2485.00213181
 10
22102.05656545
 20
-2485.00217977
 97
        1
330
1B5
 75
     0
 76
     2
 52
0.0
 41
4.72440952
 77
     0
 78
     1
 53
0.0
 43
0.0
 44
0.0
 45
3.75
 46
3.535
 79
     2
 49
0.0
 49
-3.535
 47
0.775229
 98
        1
 10
0.0
 20
0.0
  0
LINE
  5
1B7
100
AcDbEntity
  8
Ech.1_5
 48
0.2
100
AcDbLine
 10
22305.54545269
 20
-2460.56220237
 30
0.0
 11
22305.54545269
 21
-2350.00217977
 31
0.0
  0
LINE
  5
1B8
100
AcDbEntity
  8
Ech.1_5
  6
DASHEDX2
 48
0.2
100
AcDbLine
 10
22305.54545269
 20
-2460.56220237
 30
0.0
 11
22305.54545269
 21
-2484.49366841
 31
0.0
  0
LINE
  5
1B9
100
AcDbEntity
  8
Ech.1_5
 48
0.2
100
AcDbLine
 10
22950.54545269
 20
-2460.56220237
 30
0.0
 11
22950.54545269
 21
-2350.00217977
 31
0.0
  0
LINE
  5
1BA
100
AcDbEntity
  8
Ech.1_5
  6
DASHEDX2
 48
0.2
100
AcDbLine
 10
22950.54545269
 20
-2460.56220237
 30
0.0
 11
22950.54545269
 21
-2484.49366841
 31
0.0
  0
LWPOLYLINE
  5
1BB
100
AcDbEntity
  8
Ech.1_5
 62
   190
  6
CONTINUOUS
370
    -3
100
AcDbPolyline
 90
      140
 70
     0
 43
0.0
 10
22102.10836752
 20
-2471.6687807
 42
1.14028181
 10
22128.32068405
 20
-2468.2178566
 10
22115.8960133
 20
-2421.78642538
 42
-1.30322619
 10
22141.65400577
 20
-2421.78642623
 10
22129.22933196
 20
-2468.21785663
 42
1.30322619
 10
22154.98732443
 20
-2468.21785747
 10
22142.56265367
 20
-2421.78642626
 42
-1.30322619
 10
22168.32064614
 20
-2421.78642711
 10
22155.89597233
 20
-2468.2178575
 42
1.30322619
 10
22181.6539648
 20
-2468.21785835
 10
22169.22929404
 20
-2421.78642714
 42
-1.30322619
 10
22194.98728651
 20
-2421.78642798
 10
22182.5626127
 20
-2468.21785838
 42
1.30322619
 10
22208.32060517
 20
-2468.21785923
 10
22195.89593441
 20
-2421.78642801
 42
-1.30322619
 10
22221.65392688
 20
-2421.78642886
 10
22209.22925307
 20
-2468.21785926
 42
1.30322619
 10
22234.98724554
 20
-2468.2178601
 10
22222.56257478
 20
-2421.78642889
 42
-1.30322619
 10
22248.32056726
 20
-2421.78642974
 10
22235.89589344
 20
-2468.21786013
 42
1.30322619
 10
22261.65388591
 20
-2468.21786098
 10
22249.22921516
 20
-2421.78642977
 42
-1.30322619
 10
22274.98720763
 20
-2421.78643061
 10
22262.56253381
 20
-2468.21786101
 42
1.30322619
 10
22288.32052629
 20
-2468.21786186
 10
22275.89585553
 20
-2421.78643064
 42
-1.30322619
 10
22301.653848
 20
-2421.78643149
 10
22289.22917419
 20
-2468.21786189
 42
1.30322619
 10
22314.98716666
 20
-2468.21786274
 10
22302.5624959
 20
-2421.78643152
 42
-1.30322619
 10
22328.32048837
 20
-2421.78643237
 10
22315.89581456
 20
-2468.21786277
 42
1.30322619
 10
22341.65380703
 20
-2468.21786361
 10
22329.22913627
 20
-2421.7864324
 42
-1.30322619
 10
22354.98712874
 20
-2421.78643325
 10
22342.56245493
 20
-2468.21786364
 42
1.30322619
 10
22368.3204474
 20
-2468.21786449
 10
22355.89577664
 20
-2421.78643328
 42
-1.30322619
 10
22381.65376912
 20
-2421.78643412
 10
22369.2290953
 20
-2468.21786452
 42
1.30322619
 10
22394.98708777
 20
-2468.21786537
 10
22382.56241702
 20
-2421.78643415
 42
-1.30322619
 10
22408.32040949
 20
-2421.786435
 10
22395.89573567
 20
-2468.2178654
 42
1.30322619
 10
22421.65372815
 20
-2468.21786625
 10
22409.22905739
 20
-2421.78643503
 42
-1.30322619
 10
22434.98704986
 20
-2421.78643588
 10
22422.56237605
 20
-2468.21786628
 42
1.30322619
 10
22448.32036852
 20
-2468.21786712
 10
22435.89569776
 20
-2421.78643591
 42
-1.30322619
 10
22461.65369023
 20
-2421.78643676
 10
22449.22901642
 20
-2468.21786715
 42
1.30322619
 10
22474.98700889
 20
-2468.217868
 10
22462.56233813
 20
-2421.78643679
 42
-1.30322619
 10
22488.3203306
 20
-2421.78643763
 10
22475.89565679
 20
-2468.21786803
 42
1.30322619
 10
22501.65364926
 20
-2468.21786888
 10
22489.2289785
 20
-2421.78643766
 42
-1.30322619
 10
22514.98697097
 20
-2421.78643851
 10
22502.56229716
 20
-2468.21786891
 42
1.30322619
 10
22528.32028963
 20
-2468.21786975
 10
22515.89561888
 20
-2421.78643854
 42
-1.30322619
 10
22541.65361135
 20
-2421.78643939
 10
22529.22893753
 20
-2468.21786978
 42
1.30322619
 10
22554.98693001
 20
-2468.21787063
 10
22542.56225925
 20
-2421.78643942
 42
-1.30322619
 10
22568.32025172
 20
-2421.78644026
 10
22555.89557791
 20
-2468.21787066
 42
1.30322619
 10
22581.65357038
 20
-2468.21787151
 10
22569.22889962
 20
-2421.78644029
 42
-1.30322619
 10
22594.98689209
 20
-2421.78644114
 10
22582.56221828
 20
-2468.21787154
 42
1.30322619
 10
22608.32021075
 20
-2468.21787239
 10
22595.89553999
 20
-2421.78644117
 42
-1.30322619
 10
22621.65353246
 20
-2421.78644202
 10
22609.22885865
 20
-2468.21787242
 42
1.30322619
 10
22634.98685112
 20
-2468.21787326
 10
22622.56218036
 20
-2421.78644205
 42
-1.30322619
 10
22648.32017283
 20
-2421.7864429
 10
22635.89549902
 20
-2468.21787329
 42
1.30322619
 10
22661.65349149
 20
-2468.21787414
 10
22649.22882073
 20
-2421.78644293
 42
-1.30322619
 10
22674.98681321
 20
-2421.78644377
 10
22662.56213939
 20
-2468.21787417
 42
1.30322619
 10
22688.32013186
 20
-2468.21787502
 10
22675.89546111
 20
-2421.7864438
 42
-1.30322619
 10
22701.65345358
 20
-2421.78644465
 10
22689.22877977
 20
-2468.21787505
 42
1.30322619
 10
22714.98677224
 20
-2468.2178759
 10
22702.56210148
 20
-2421.78644468
 42
-1.30322619
 10
22728.32009395
 20
-2421.78644553
 10
22715.89542014
 20
-2468.21787593
 42
1.30322619
 10
22741.65341261
 20
-2468.21787677
 10
22729.22874185
 20
-2421.78644556
 42
-1.30322619
 10
22754.98673432
 20
-2421.78644641
 10
22742.56206051
 20
-2468.2178768
 42
1.30322619
 10
22768.32005298
 20
-2468.21787765
 10
22755.89538222
 20
-2421.78644644
 42
-1.30322619
 10
22781.65337469
 20
-2421.78644728
 10
22769.22870088
 20
-2468.21787768
 42
1.30322619
 10
22794.98669335
 20
-2468.21787853
 10
22782.56202259
 20
-2421.78644731
 42
-1.30322619
 10
22808.32001507
 20
-2421.78644816
 10
22795.89534125
 20
-2468.21787856
 42
1.30322619
 10
22821.65333372
 20
-2468.2178794
 10
22809.22866297
 20
-2421.78644819
 42
-1.30322619
 10
22834.98665544
 20
-2421.78644904
 10
22822.56198163
 20
-2468.21787943
 42
1.30322619
 10
22848.3199741
 20
-2468.21788028
 10
22835.89530334
 20
-2421.78644907
 42
-1.30322619
 10
22861.65329581
 20
-2421.78644991
 10
22849.228622
 20
-2468.21788031
 42
1.30322619
 10
22874.98661447
 20
-2468.21788116
 10
22862.56194371
 20
-2421.78644994
 42
-1.30322619
 10
22888.31993618
 20
-2421.78645079
 10
22875.89526237
 20
-2468.21788119
 42
1.30322619
 10
22901.65325484
 20
-2468.21788204
 10
22889.22858408
 20
-2421.78645082
 42
-1.30322619
 10
22914.98657655
 20
-2421.78645167
 10
22902.56190274
 20
-2468.21788207
 42
1.30322619
 10
22928.31989521
 20
-2468.21788291
 10
22915.89522445
 20
-2421.7864517
 42
-1.30322619
 10
22941.65321693
 20
-2421.78645255
 10
22929.22854311
 20
-2468.21788294
 42
1.30322619
 10
22954.98653558
 20
-2468.21788379
 10
22942.56186483
 20
-2421.78645258
 42
-1.30322619
 10
22968.3198573
 20
-2421.78645342
 10
22955.89518348
 20
-2468.21788382
 42
1.30322619
 10
22981.65317596
 20
-2468.21788467
 10
22969.2285052
 20
-2421.78645345
 42
-1.30322619
 10
22994.98649767
 20
-2421.7864543
 10
22982.56182386
 20
-2468.2178847
 42
1.30322619
 10
23008.31981633
 20
-2468.21788555
 10
22995.89514557
 20
-2421.78645433
 42
-1.30322619
 10
23021.65313804
 20
-2421.78645518
 10
23009.22846423
 20
-2468.21788558
 42
1.30322619
 10
23034.9864567
 20
-2468.21788642
 10
23022.56178594
 20
-2421.78645521
 42
-0.66624232
 10
23042.04545527
 20
-2406.75296954
  0
LWPOLYLINE
  5
1BC
100
AcDbEntity
  8
Ech.1_5
 62
   190
  6
CONTINUOUS
370
    -3
100
AcDbPolyline
 90
      112
 70
     0
 43
0.0
 10
23042.04545269
 20
-2109.66884644
 42
1.14028181
 10
23009.28002486
 20
-2113.9825069
 10
23024.81088053
 20
-2172.02185264
 42
-1.30322619
 10
22992.61335819
 20
-2172.02185264
 10
23008.14421386
 20
-2113.9825069
 42
1.30322619
 10
22975.94669152
 20
-2113.9825069
 10
22991.4775472
 20
-2172.02185264
 42
-1.30322619
 10
22959.28002486
 20
-2172.02185264
 10
22974.81088053
 20
-2113.9825069
 42
1.30322619
 10
22942.61335819
 20
-2113.9825069
 10
22958.14421386
 20
-2172.02185264
 42
-1.30322619
 10
22925.94669152
 20
-2172.02185264
 10
22941.4775472
 20
-2113.9825069
 42
1.30322619
 10
22909.28002486
 20
-2113.9825069
 10
22924.81088053
 20
-2172.02185264
 42
-1.30322619
 10
22892.61335819
 20
-2172.02185264
 10
22908.14421386
 20
-2113.9825069
 42
1.30322619
 10
22875.94669152
 20
-2113.9825069
 10
22891.4775472
 20
-2172.02185264
 42
-1.30322619
 10
22859.28002486
 20
-2172.02185264
 10
22874.81088053
 20
-2113.9825069
 42
1.30322619
 10
22842.61335819
 20
-2113.9825069
 10
22858.14421386
 20
-2172.02185264
 42
-1.30322619
 10
22825.94669152
 20
-2172.02185264
 10
22841.4775472
 20
-2113.9825069
 42
1.30322619
 10
22809.28002486
 20
-2113.9825069
 10
22824.81088053
 20
-2172.02185264
 42
-1.30322619
 10
22792.61335819
 20
-2172.02185264
 10
22808.14421386
 20
-2113.9825069
 42
1.30322619
 10
22775.94669152
 20
-2113.9825069
 10
22791.4775472
 20
-2172.02185264
 42
-1.30322619
 10
22759.28002486
 20
-2172.02185264
 10
22774.81088053
 20
-2113.9825069
 42
1.30322619
 10
22742.61335819
 20
-2113.9825069
 10
22758.14421386
 20
-2172.02185264
 42
-1.30322619
 10
22725.94669152
 20
-2172.02185264
 10
22741.4775472
 20
-2113.9825069
 42
1.30322619
 10
22709.28002486
 20
-2113.9825069
 10
22724.81088053
 20
-2172.02185264
 42
-1.30322619
 10
22692.61335819
 20
-2172.02185264
 10
22708.14421386
 20
-2113.9825069
 42
1.30322619
 10
22675.94669152
 20
-2113.9825069
 10
22691.4775472
 20
-2172.02185264
 42
-1.30322619
 10
22659.28002486
 20
-2172.02185264
 10
22674.81088053
 20
-2113.9825069
 42
1.30322619
 10
22642.61335819
 20
-2113.9825069
 10
22658.14421386
 20
-2172.02185264
 42
-1.30322619
 10
22625.94669152
 20
-2172.02185264
 10
22641.4775472
 20
-2113.9825069
 42
1.30322619
 10
22609.28002486
 20
-2113.9825069
 10
22624.81088053
 20
-2172.02185264
 42
-1.30322619
 10
22592.61335819
 20
-2172.02185264
 10
22608.14421386
 20
-2113.9825069
 42
1.30322619
 10
22575.94669152
 20
-2113.9825069
 10
22591.4775472
 20
-2172.02185264
 42
-1.30322619
 10
22559.28002486
 20
-2172.02185264
 10
22574.81088053
 20
-2113.9825069
 42
1.30322619
 10
22542.61335819
 20
-2113.9825069
 10
22558.14421386
 20
-2172.02185264
 42
-1.30322619
 10
22525.94669152
 20
-2172.02185264
 10
22541.4775472
 20
-2113.9825069
 42
1.30322619
 10
22509.28002486
 20
-2113.9825069
 10
22524.81088053
 20
-2172.02185264
 42
-1.30322619
 10
22492.61335819
 20
-2172.02185264
 10
22508.14421386
 20
-2113.9825069
 42
1.30322619
 10
22475.94669152
 20
-2113.9825069
 10
22491.4775472
 20
-2172.02185264
 42
-1.30322619
 10
22459.28002486
 20
-2172.02185264
 10
22474.81088053
 20
-2113.9825069
 42
1.30322619
 10
22442.61335819
 20
-2113.9825069
 10
22458.14421386
 20
-2172.02185264
 42
-1.30322619
 10
22425.94669152
 20
-2172.02185264
 10
22441.4775472
 20
-2113.9825069
 42
1.30322619
 10
22409.28002486
 20
-2113.9825069
 10
22424.81088053
 20
-2172.02185264
 42
-1.30322619
 10
22392.61335819
 20
-2172.02185264
 10
22408.14421386
 20
-2113.9825069
 42
1.30322619
 10
22375.94669152
 20
-2113.9825069
 10
22391.4775472
 20
-2172.02185264
 42
-1.30322619
 10
22359.28002486
 20
-2172.02185264
 10
22374.81088053
 20
-2113.9825069
 42
1.30322619
 10
22342.61335819
 20
-2113.9825069
 10
22358.14421386
 20
-2172.02185264
 42
-1.30322619
 10
22325.94669152
 20
-2172.02185264
 10
22341.4775472
 20
-2113.9825069
 42
1.30322619
 10
22309.28002486
 20
-2113.9825069
 10
22324.81088053
 20
-2172.02185264
 42
-1.30322619
 10
22292.61335819
 20
-2172.02185264
 10
22308.14421386
 20
-2113.9825069
 42
1.30322619
 10
22275.94669152
 20
-2113.9825069
 10
22291.4775472
 20
-2172.02185264
 42
-1.30322619
 10
22259.28002486
 20
-2172.02185264
 10
22274.81088053
 20
-2113.9825069
 42
1.30322619
 10
22242.61335819
 20
-2113.9825069
 10
22258.14421386
 20
-2172.02185264
 42
-1.30322619
 10
22225.94669152
 20
-2172.02185264
 10
22241.4775472
 20
-2113.9825069
 42
1.30322619
 10
22209.28002486
 20
-2113.9825069
 10
22224.81088053
 20
-2172.02185264
 42
-1.30322619
 10
22192.61335819
 20
-2172.02185264
 10
22208.14421386
 20
-2113.9825069
 42
1.30322619
 10
22175.94669152
 20
-2113.9825069
 10
22191.4775472
 20
-2172.02185264
 42
-1.30322619
 10
22159.28002486
 20
-2172.02185264
 10
22174.81088053
 20
-2113.9825069
 42
1.30322619
 10
22142.61335819
 20
-2113.9825069
 10
22158.14421386
 20
-2172.02185264
 42
-1.30322619
 10
22125.94669152
 20
-2172.02185264
 10
22141.4775472
 20
-2113.9825069
 42
1.30322619
 10
22109.28002486
 20
-2113.9825069
 10
22124.81088053
 20
-2172.02185264
 42
-0.62710473
 10
22102.10152064
 20
-2191.63511318
  0
LWPOLYLINE
  5
1BD
100
AcDbEntity
  8
Ech.1_5
 62
   190
  6
CONTINUOUS
370
    -3
100
AcDbPolyline
 90
       92
 70
     0
 43
0.0
 10
23042.04545269
 20
-2213.00217977
 42
1.14028181
 10
23002.72693929
 20
-2218.17857233
 10
23021.3639661
 20
-2287.82578721
 42
-1.30322619
 10
22982.72693929
 20
-2287.82578721
 10
23001.3639661
 20
-2218.17857233
 42
1.30322619
 10
22962.72693929
 20
-2218.17857233
 10
22981.3639661
 20
-2287.82578721
 42
-1.30322619
 10
22942.72693929
 20
-2287.82578721
 10
22961.3639661
 20
-2218.17857233
 42
1.30322619
 10
22922.72693929
 20
-2218.17857233
 10
22941.3639661
 20
-2287.82578721
 42
-1.30322619
 10
22902.72693929
 20
-2287.82578721
 10
22921.3639661
 20
-2218.17857233
 42
1.30322619
 10
22882.72693929
 20
-2218.17857233
 10
22901.3639661
 20
-2287.82578721
 42
-1.30322619
 10
22862.72693929
 20
-2287.82578721
 10
22881.3639661
 20
-2218.17857233
 42
1.30322619
 10
22842.72693929
 20
-2218.17857233
 10
22861.3639661
 20
-2287.82578721
 42
-1.30322619
 10
22822.72693929
 20
-2287.82578721
 10
22841.3639661
 20
-2218.17857233
 42
1.30322619
 10
22802.72693929
 20
-2218.17857233
 10
22821.3639661
 20
-2287.82578721
 42
-1.30322619
 10
22782.72693929
 20
-2287.82578721
 10
22801.3639661
 20
-2218.17857233
 42
1.30322619
 10
22762.72693929
 20
-2218.17857233
 10
22781.3639661
 20
-2287.82578721
 42
-1.30322619
 10
22742.72693929
 20
-2287.82578721
 10
22761.3639661
 20
-2218.17857233
 42
1.30322619
 10
22722.72693929
 20
-2218.17857233
 10
22741.3639661
 20
-2287.82578721
 42
-1.30322619
 10
22702.72693929
 20
-2287.82578721
 10
22721.3639661
 20
-2218.17857233
 42
1.30322619
 10
22682.72693929
 20
-2218.17857233
 10
22701.3639661
 20
-2287.82578721
 42
-1.30322619
 10
22662.72693929
 20
-2287.82578721
 10
22681.3639661
 20
-2218.17857233
 42
1.30322619
 10
22642.72693929
 20
-2218.17857233
 10
22661.3639661
 20
-2287.82578721
 42
-1.30322619
 10
22622.72693929
 20
-2287.82578721
 10
22641.3639661
 20
-2218.17857233
 42
1.30322619
 10
22602.72693929
 20
-2218.17857233
 10
22621.3639661
 20
-2287.82578721
 42
-1.30322619
 10
22582.72693929
 20
-2287.82578721
 10
22601.3639661
 20
-2218.17857233
 42
1.30322619
 10
22562.72693929
 20
-2218.17857233
 10
22581.3639661
 20
-2287.82578721
 42
-1.30322619
 10
22542.72693929
 20
-2287.82578721
 10
22561.3639661
 20
-2218.17857233
 42
1.30322619
 10
22522.72693929
 20
-2218.17857233
 10
22541.3639661
 20
-2287.82578721
 42
-1.30322619
 10
22502.72693929
 20
-2287.82578721
 10
22521.3639661
 20
-2218.17857233
 42
1.30322619
 10
22482.72693929
 20
-2218.17857233
 10
22501.3639661
 20
-2287.82578721
 42
-1.30322619
 10
22462.72693929
 20
-2287.82578721
 10
22481.3639661
 20
-2218.17857233
 42
1.30322619
 10
22442.72693929
 20
-2218.17857233
 10
22461.3639661
 20
-2287.82578721
 42
-1.30322619
 10
22422.72693929
 20
-2287.82578721
 10
22441.3639661
 20
-2218.17857233
 42
1.30322619
 10
22402.72693929
 20
-2218.17857233
 10
22421.3639661
 20
-2287.82578721
 42
-1.30322619
 10
22382.72693929
 20
-2287.82578721
 10
22401.3639661
 20
-2218.17857233
 42
1.30322619
 10
22362.72693929
 20
-2218.17857233
 10
22381.3639661
 20
-2287.82578721
 42
-1.30322619
 10
22342.72693929
 20
-2287.82578721
 10
22361.3639661
 20
-2218.17857233
 42
1.30322619
 10
22322.72693929
 20
-2218.17857233
 10
22341.3639661
 20
-2287.82578721
 42
-1.30322619
 10
22302.72693929
 20
-2287.82578721
 10
22321.3639661
 20
-2218.17857233
 42
1.30322619
 10
22282.72693929
 20
-2218.17857233
 10
22301.3639661
 20
-2287.82578721
 42
-1.30322619
 10
22262.72693929
 20
-2287.82578721
 10
22281.3639661
 20
-2218.17857233
 42
1.30322619
 10
22242.72693929
 20
-2218.17857233
 10
22261.3639661
 20
-2287.82578721
 42
-1.30322619
 10
22222.72693929
 20
-2287.82578721
 10
22241.3639661
 20
-2218.17857233
 42
1.30322619
 10
22202.72693929
 20
-2218.17857233
 10
22221.3639661
 20
-2287.82578721
 42
-1.30322619
 10
22182.72693929
 20
-2287.82578721
 10
22201.3639661
 20
-2218.17857233
 42
1.30322619
 10
22162.72693929
 20
-2218.17857233
 10
22181.3639661
 20
-2287.82578721
 42
-1.30322619
 10
22142.72693929
 20
-2287.82578721
 10
22161.3639661
 20
-2218.17857233
 42
1.30322619
 10
22122.72693929
 20
-2218.17857233
 10
22141.3639661
 20
-2287.82578721
 42
-1.12870555
 10
22102.04955177
 20
-2293.40708243
  0
LWPOLYLINE
  5
1BE
100
AcDbEntity
  8
Ech.1_5
 62
   190
  6
CONTINUOUS
370
    -3
100
AcDbPolyline
 90
        4
 70
     0
 43
0.0
 10
22297.04545269
 20
-2313.00217977
 10
22342.04545269
 20
-2093.00217977
 10
22297.04545269
 20
-2093.00217977
 10
22342.04545269
 20
-2313.00217977
  0
LWPOLYLINE
  5
1BF
100
AcDbEntity
  8
Ech.1_5
 62
     5
  6
CONTINUOUS
370
    -3
100
AcDbPolyline
 90
        5
 70
     0
 43
0.0
 10
22297.04545269
 20
-2093.00217977
 10
22297.04545269
 20
-2313.00217977
 10
22342.04545269
 20
-2313.00217977
 10
22342.04545269
 20
-2093.00217977
 10
22297.04545269
 20
-2093.00217977
  0
LWPOLYLINE
  5
1C0
100
AcDbEntity
  8
Ech.1_5
 62
   190
  6
CONTINUOUS
370
    -3
100
AcDbPolyline
 90
        4
 70
     0
 43
0.0
 10
22297.04545269
 20
-2313.00217977
 10
22252.04545269
 20
-2093.00217977
 10
22297.04545269
 20
-2093.00217977
 10
22252.04545269
 20
-2313.00217977
  0
LWPOLYLINE
  5
1C1
100
AcDbEntity
  8
Ech.1_5
 62
     5
  6
CONTINUOUS
370
    -3
100
AcDbPolyline
 90
        5
 70
     0
 43
0.0
 10
22297.04545269
 20
-2093.00217977
 10
22297.04545269
 20
-2313.00217977
 10
22252.04545269
 20
-2313.00217977
 10
22252.04545269
 20
-2093.00217977
 10
22297.04545269
 20
-2093.00217977
  0
LWPOLYLINE
  5
1C2
100
AcDbEntity
  8
Ech.1_5
 62
   190
  6
CONTINUOUS
370
    -3
100
AcDbPolyline
 90
        4
 70
     0
 43
0.0
 10
22897.04545269
 20
-2313.00217977
 10
22942.04545269
 20
-2093.00217977
 10
22897.04545269
 20
-2093.00217977
 10
22942.04545269
 20
-2313.00217977
  0
LWPOLYLINE
  5
1C3
100
AcDbEntity
  8
Ech.1_5
 62
     5
  6
CONTINUOUS
370
    -3
100
AcDbPolyline
 90
        5
 70
     0
 43
0.0
 10
22897.04545269
 20
-2093.00217977
 10
22897.04545269
 20
-2313.00217977
 10
22942.04545269
 20
-2313.00217977
 10
22942.04545269
 20
-2093.00217977
 10
22897.04545269
 20
-2093.00217977
  0
LWPOLYLINE
  5
1C4
100
AcDbEntity
  8
Ech.1_5
 62
   190
  6
CONTINUOUS
370
    -3
100
AcDbPolyline
 90
        5
 70
     0
 43
0.0
 10
21904.88499256
 20
-2850.66955982
 10
23259.88499256
 20
-2850.66955982
 10
23259.88499256
 20
-1865.66955982
 10
21904.88499256
 20
-1865.66955982
 10
21904.88499256
 20
-2850.66955982
  0
LWPOLYLINE
  5
1C5
100
AcDbEntity
  8
Ech.1_5
 62
   190
100
AcDbPolyline
 90
        5
 70
     0
 43
0.0
 10
22001.64901516
 20
-2756.79021372
 10
22136.07779414
 20
-2756.79021372
 10
22136.07779414
 20
-2813.51317253
 10
22001.64901516
 20
-2813.51317253
 10
22001.64901516
 20
-2756.79021372
  0
LWPOLYLINE
  5
1C6
100
AcDbEntity
  8
Ech.1_5
 62
   190
100
AcDbPolyline
 90
        5
 70
     0
 43
0.0
 10
22019.92906094
 20
-2790.44702485
 10
22069.92906094
 20
-2790.44702485
 10
22069.92906094
 20
-2783.03188731
 10
22019.92906094
 20
-2783.03188731
 10
22019.92906094
 20
-2790.44702485
  0
LWPOLYLINE
  5
1C7
100
AcDbEntity
  8
Ech.1_5
 62
   190
100
AcDbPolyline
 90
        5
 70
     0
 43
0.0
 10
22069.92906094
 20
-2790.44702485
 10
22119.92906094
 20
-2790.44702485
 10
22119.92906094
 20
-2783.03188731
 10
22069.92906094
 20
-2783.03188731
 10
22069.92906094
 20
-2790.44702485
  0
LWPOLYLINE
  5
1C8
100
AcDbEntity
  8
Ech.1_5
 62
     3
370
    70
100
AcDbPolyline
 90
        4
 70
     0
 43
0.0
 10
21964.9556648
 20
-2714.15674292
 10
21951.96653138
 20
-2714.15674292
 10
21948.03179924
 20
-2708.47612996
 10
21934.55336924
 20
-2708.47612996
  0
LINE
  5
1C9
100
AcDbEntity
  8
Ech.1_5
 62
   150
  6
CADWORK_22
370
    35
100
AcDbLine
 10
22102.04545269
 20
-2093.00217977
 30
2500.0
 11
23042.04545269
 21
-2093.00217977
 31
2500.0
  0
LWPOLYLINE
  5
1CA
100
AcDbEntity
  8
Ech.1_5
 62
     3
370
    70
100
AcDbPolyline
 90
        4
 70
     0
 43
0.0
 10
22297.04545269
 20
-2331.98129191
 10
22310.03458611
 20
-2331.98129191
 10
22313.96931825
 20
-2326.30067895
 10
22327.44774825
 20
-2326.30067895
  0
LWPOLYLINE
  5
1CB
100
AcDbEntity
  8
Ech.1_5
 62
     3
370
    70
100
AcDbPolyline
 90
        4
 70
     0
 43
0.0
 10
22297.04545269
 20
-2331.98129191
 10
22284.05631927
 20
-2331.98129191
 10
22280.12158713
 20
-2326.30067895
 10
22266.64315713
 20
-2326.30067895
  0
LWPOLYLINE
  5
1CC
100
AcDbEntity
  8
Ech.1_5
 62
   190
  6
CONTINUOUS
370
    -3
100
AcDbPolyline
 90
        5
 70
     0
 43
0.0
 10
22102.04955177
 20
-2193.00217977
 10
22252.04545269
 20
-2193.00217977
 10
22252.04545269
 20
-2093.00217977
 10
22102.10152064
 20
-2093.00217977
 10
22102.04955177
 20
-2193.00217977
  0
LWPOLYLINE
  5
1CD
100
AcDbEntity
  8
Ech.1_5
 62
   190
  6
CONTINUOUS
370
    -3
100
AcDbPolyline
 90
       10
 70
     0
 43
0.0
 10
22120.10690367
 20
-2217.27079449
 10
22102.1252961
 20
-2233.75165184
 10
22102.04545269
 20
-2313.00217977
 10
22252.04545269
 20
-2313.00217977
 10
22252.04545269
 20
-2193.00217977
 10
22102.04955177
 20
-2193.00217977
 10
22102.13016992
 20
-2214.88973525
 10
22084.14755892
 20
-2231.37144327
 10
22120.10690367
 20
-2217.27079449
 10
22120.10690367
 20
-2217.27079449
  0
LWPOLYLINE
  5
1CE
100
AcDbEntity
  8
Ech.1_5
 62
   190
  6
CONTINUOUS
370
    -3
100
AcDbPolyline
 90
        9
 70
     0
 43
0.0
 10
23041.96560929
 20
-2233.75165184
 10
23023.98400171
 20
-2217.27079449
 10
23059.94334646
 20
-2231.37144327
 10
23041.96073547
 20
-2214.88973525
 10
23042.04545269
 20
-2193.00217977
 10
22342.04545269
 20
-2193.00217977
 10
22342.04545269
 20
-2313.00217977
 10
23042.04545269
 20
-2313.00217977
 10
23041.96560929
 20
-2233.75165184
  0
LWPOLYLINE
  5
1CF
100
AcDbEntity
  8
Ech.1_5
 62
   190
  6
CONTINUOUS
370
    -3
100
AcDbPolyline
 90
        5
 70
     0
 43
0.0
 10
22342.04545269
 20
-2193.00217977
 10
23042.04545269
 20
-2193.00217977
 10
23042.04545269
 20
-2093.00217977
 10
22342.04545269
 20
-2093.00217977
 10
22342.04545269
 20
-2193.00217977
  0
LWPOLYLINE
  5
1D0
100
AcDbEntity
  8
Ech.1_5
 62
   190
  6
CONTINUOUS
370
    -3
100
AcDbPolyline
 90
        5
 70
     0
 43
0.0
 10
22102.07690989
 20
-2405.00217977
 10
22102.10836708
 20
-2485.00210089
 10
23042.04545269
 20
-2485.00213181
 10
23042.0139955
 20
-2405.00221069
 10
22102.07690989
 20
-2405.00217977
  0
LWPOLYLINE
  5
1D1
100
AcDbEntity
  8
Ech.1_5
 62
   190
  6
CONTINUOUS
370
    -3
100
AcDbPolyline
 90
        5
 70
     0
 43
0.0
 10
22298.04545269
 20
-2313.00217977
 10
22298.04545269
 20
-2325.00217977
 10
23042.04545269
 20
-2325.00217977
 10
23042.04545269
 20
-2313.00217977
 10
22298.04545269
 20
-2313.00217977
  0
LWPOLYLINE
  5
1D2
100
AcDbEntity
  8
Ech.1_5
 62
   190
  6
CONTINUOUS
370
    -3
100
AcDbPolyline
 90
        5
 70
     0
 43
0.0
 10
22296.04545269
 20
-2313.00217977
 10
22296.04545269
 20
-2325.00217977
 10
22102.04545269
 20
-2325.00217977
 10
22102.04545269
 20
-2313.00217977
 10
22296.04545269
 20
-2313.00217977
  0
LWPOLYLINE
  5
1D3
100
AcDbEntity
  8
Ech.1_5
 62
   190
  6
CONTINUOUS
370
    -3
100
AcDbPolyline
 90
        5
 70
     0
 43
0.0
 10
22244.54545269
 20
-2325.00217977
 10
22244.54546883
 20
-2405.00218857
 10
22304.54546883
 20
-2405.03446539
 10
22304.54545269
 20
-2325.03445659
 10
22244.54545269
 20
-2325.00217977
  0
LWPOLYLINE
  5
1D4
100
AcDbEntity
  8
Ech.1_5
 62
   190
  6
CONTINUOUS
370
    -3
100
AcDbPolyline
 90
        5
 70
     0
 43
0.0
 10
22244.54545269
 20
-2325.00217977
 10
22244.54546883
 20
-2405.00218857
 10
22304.54546883
 20
-2405.03446539
 10
22304.54545269
 20
-2325.03445659
 10
22244.54545269
 20
-2325.00217977
  0
LWPOLYLINE
  5
1D5
100
AcDbEntity
  8
Ech.1_5
 62
   190
  6
CONTINUOUS
370
    -3
100
AcDbPolyline
 90
        5
 70
     0
 43
0.0
 10
22899.54544734
 20
-2067.98379112
 10
22899.54545279
 20
-2094.98783451
 10
22939.5454635
 20
-2095.01652503
 10
22939.54545805
 20
-2068.01248163
 10
22899.54544734
 20
-2067.98379112
  0
LWPOLYLINE
  5
1D6
100
AcDbEntity
  8
Ech.1_5
 62
   190
  6
CONTINUOUS
370
    -3
100
AcDbPolyline
 90
        5
 70
     0
 43
0.0
 10
22899.54544734
 20
-2067.98379112
 10
22899.54545279
 20
-2094.98783451
 10
22939.5454635
 20
-2095.01652503
 10
22939.54545805
 20
-2068.01248163
 10
22899.54544734
 20
-2067.98379112
  0
LWPOLYLINE
  5
1D7
100
AcDbEntity
  8
Ech.1_5
 62
   190
  6
CONTINUOUS
370
    -3
100
AcDbPolyline
 90
        5
 70
     0
 43
0.0
 10
22889.54545269
 20
-2325.00217977
 10
22889.54546883
 20
-2405.00218857
 10
22949.54546883
 20
-2405.03446539
 10
22949.54545269
 20
-2325.03445659
 10
22889.54545269
 20
-2325.00217977
  0
LWPOLYLINE
  5
1D8
100
AcDbEntity
  8
Ech.1_5
 62
   190
  6
CONTINUOUS
370
    -3
100
AcDbPolyline
 90
        5
 70
     0
 43
0.0
 10
22889.54545269
 20
-2325.00217977
 10
22889.54546883
 20
-2405.00218857
 10
22949.54546883
 20
-2405.03446539
 10
22949.54545269
 20
-2325.03445659
 10
22889.54545269
 20
-2325.00217977
  0
LWPOLYLINE
  5
1D9
100
AcDbEntity
  8
Ech.1_5
 62
   190
  6
CONTINUOUS
370
    -3
100
AcDbPolyline
 90
        5
 70
     0
 43
0.0
 10
22254.54544189
 20
-2067.98379112
 10
22254.54544734
 20
-2094.98783451
 10
22294.54545805
 20
-2095.01652503
 10
22294.5454526
 20
-2068.01248163
 10
22254.54544189
 20
-2067.98379112
  0
LWPOLYLINE
  5
1DA
100
AcDbEntity
  8
Ech.1_5
 62
   190
  6
CONTINUOUS
370
    -3
100
AcDbPolyline
 90
        5
 70
     0
 43
0.0
 10
22254.54544189
 20
-2067.98379112
 10
22254.54544734
 20
-2094.98783451
 10
22294.54545805
 20
-2095.01652503
 10
22294.5454526
 20
-2068.01248163
 10
22254.54544189
 20
-2067.98379112
  0
LWPOLYLINE
  5
1DB
100
AcDbEntity
  8
Ech.1_5
 62
     7
  6
CONTINUOUS
370
    -3
100
AcDbPolyline
 90
        6
 70
     0
 43
0.0
 10
23042.00861399
 20
-2041.01248163
 10
22102.08229139
 20
-2041.01248163
 10
22102.08229139
 20
-2068.01248163
 10
22474.41504369
 20
-2068.01248163
 10
23042.00861399
 20
-2068.01248163
 10
23042.00861399
 20
-2041.01248163
  0
LWPOLYLINE
  5
1DC
100
AcDbEntity
  8
Ech.1_5
 62
   190
  6
CONTINUOUS
370
    -3
100
AcDbPolyline
 90
       22
 70
     0
 43
0.0
 10
22456.95339058
 20
-1981.67989559
 42
-0.5436568
 10
22578.16765814
 20
-2026.67677044
 42
0.35131149
 10
22592.80799801
 20
-2038.41173622
 10
22691.10048075
 20
-2038.41173622
 10
22696.47942522
 20
-2011.8563969
 10
22684.70242836
 20
-2011.8563969
 10
22679.3234839
 20
-2023.91173622
 10
22665.66343602
 20
-2023.91173622
 10
22665.66343602
 20
-2011.8563969
 10
22653.88643916
 20
-2011.8563969
 10
22653.88643916
 20
-2023.91173622
 10
22596.0795771
 20
-2023.91173622
 42
-0.37555118
 10
22588.64659223
 20
-2017.41210407
 42
0.74707677
 10
22416.94255001
 20
-2018.6963698
 10
22413.94729197
 20
-2018.6963698
 10
22413.94729197
 20
-2020.41524167
 10
22431.34030954
 20
-2020.41524167
 42
-0.03525917
 10
22433.25002476
 20
-2010.44834977
 10
22447.82613358
 20
-2010.44834977
 10
22447.82613358
 20
-2020.41524167
 10
22453.22249062
 20
-2020.41524167
 10
22456.95339058
 20
-1981.67989559
  0
LWPOLYLINE
  5
1DD
100
AcDbEntity
  8
Ech.1_5
 62
   190
  6
CONTINUOUS
370
    -3
100
AcDbPolyline
 90
       22
 70
     0
 43
0.0
 10
22797.23509235
 20
-2026.67677044
 42
0.35131149
 10
22811.87543222
 20
-2038.41173622
 10
22910.16791497
 20
-2038.41173622
 10
22915.54685943
 20
-2011.8563969
 10
22903.76986257
 20
-2011.8563969
 10
22898.39091811
 20
-2023.91173622
 10
22884.73087024
 20
-2023.91173622
 10
22884.73087024
 20
-2011.8563969
 10
22872.95387338
 20
-2011.8563969
 10
22872.95387338
 20
-2023.91173622
 10
22815.14701132
 20
-2023.91173622
 42
-0.37555118
 10
22807.71402644
 20
-2017.41210407
 42
0.74707677
 10
22636.00998422
 20
-2018.6963698
 10
22633.01472618
 20
-2018.6963698
 10
22633.01472618
 20
-2020.41524167
 10
22650.40774375
 20
-2020.41524167
 42
-0.03525917
 10
22652.31745897
 20
-2010.44834977
 10
22666.8935678
 20
-2010.44834977
 10
22666.8935678
 20
-2020.41524167
 10
22672.28992483
 20
-2020.41524167
 10
22676.02082479
 20
-1981.67989559
 42
-0.5436568
 10
22797.23509235
 20
-2026.67677044
  0
LWPOLYLINE
  5
1DE
100
AcDbEntity
  8
Ech.1_5
 62
   190
  6
CONTINUOUS
370
    -3
100
AcDbPolyline
 90
       16
 70
     0
 43
0.0
 10
23030.94286644
 20
-2038.41173622
 10
23042.00861399
 20
-2038.41173622
 10
23042.00861399
 20
-2023.91173622
 10
23034.21444553
 20
-2023.91173622
 42
-0.37555118
 10
23026.78146065
 20
-2017.41210407
 42
0.74707677
 10
22855.07741843
 20
-2018.6963698
 10
22852.08216039
 20
-2018.6963698
 10
22852.08216039
 20
-2020.41524167
 10
22869.47517796
 20
-2020.41524167
 42
-0.03525917
 10
22871.38489318
 20
-2010.44834977
 10
22885.96100201
 20
-2010.44834977
 10
22885.96100201
 20
-2020.41524167
 10
22891.35735905
 20
-2020.41524167
 10
22895.088259
 20
-1981.67989559
 42
-0.5436568
 10
23016.30252657
 20
-2026.67677044
 42
0.35131149
 10
23030.94286644
 20
-2038.41173622
  0
LWPOLYLINE
  5
1DF
100
AcDbEntity
  8
Ech.1_5
 62
   190
  6
CONTINUOUS
370
    -3
100
AcDbPolyline
 90
       22
 70
     0
 43
0.0
 10
22237.88595636
 20
-1981.67989559
 42
-0.5436568
 10
22359.10022393
 20
-2026.67677044
 42
0.35131149
 10
22373.7405638
 20
-2038.41173622
 10
22472.03304654
 20
-2038.41173622
 10
22477.411991
 20
-2011.8563969
 10
22465.63499415
 20
-2011.8563969
 10
22460.25604968
 20
-2023.91173622
 10
22446.59600181
 20
-2023.91173622
 10
22446.59600181
 20
-2011.8563969
 10
22434.81900495
 20
-2011.8563969
 10
22434.81900495
 20
-2023.91173622
 10
22377.01214289
 20
-2023.91173622
 42
-0.37555118
 10
22369.57915801
 20
-2017.41210407
 42
0.74707677
 10
22197.87511579
 20
-2018.6963698
 10
22194.87985775
 20
-2018.6963698
 10
22194.87985775
 20
-2020.41524167
 10
22212.27287532
 20
-2020.41524167
 42
-0.03525917
 10
22214.18259054
 20
-2010.44834977
 10
22228.75869937
 20
-2010.44834977
 10
22228.75869937
 20
-2020.41524167
 10
22234.15505641
 20
-2020.41524167
 10
22237.88595636
 20
-1981.67989559
  0
LWPOLYLINE
  5
1E0
100
AcDbEntity
  8
Ech.1_5
 62
   190
  6
CONTINUOUS
370
    -3
100
AcDbPolyline
 90
       15
 70
     0
 43
0.0
 10
22154.67312958
 20
-2038.41173622
 10
22252.96561233
 20
-2038.41173622
 10
22258.34455679
 20
-2011.8563969
 10
22246.56755993
 20
-2011.8563969
 10
22241.18861547
 20
-2023.91173622
 10
22227.5285676
 20
-2023.91173622
 10
22227.5285676
 20
-2011.8563969
 10
22215.75157074
 20
-2011.8563969
 10
22215.75157074
 20
-2023.91173622
 10
22157.94470868
 20
-2023.91173622
 42
-0.37555118
 10
22150.5117238
 20
-2017.41210407
 42
0.2150594
 10
22102.04545269
 20
-1962.00602186
 10
22102.04545269
 20
-1975.98930506
 42
-0.21508701
 10
22140.03278971
 20
-2026.67677044
 42
0.35131149
 10
22154.67312958
 20
-2038.41173622
  0
LWPOLYLINE
  5
1E1
100
AcDbEntity
  8
Ech.1_5
 62
   190
  6
CONTINUOUS
370
    -3
100
AcDbPolyline
 90
        5
 70
     0
 43
0.0
 10
22102.05656545
 20
-2485.00217977
 10
22102.05656545
 20
-2498.00217977
 10
23042.04545269
 20
-2498.00213181
 10
23042.04545269
 20
-2485.00213181
 10
22102.05656545
 20
-2485.00217977
  0
LWPOLYLINE
  5
1E2
100
AcDbEntity
  8
Ech.1_5
 62
     7
  6
CONTINUOUS
370
    -3
100
AcDbPolyline
 90
       12
 70
     0
 43
0.0
 10
22317.04545269
 20
-2093.00217977
 10
22297.04545269
 20
-2093.00217977
 10
22297.04545269
 20
-2155.99821969
 10
22297.04548864
 20
-2192.67997254
 10
22297.04545269
 20
-2201.66592181
 10
22297.04545269
 20
-2201.67991579
 10
22297.04545269
 20
-2210.046249
 10
22297.04545269
 20
-2313.00217977
 10
22312.39965481
 20
-2313.00233247
 10
22342.04545269
 20
-2313.00217977
 10
22342.04545269
 20
-2093.00217977
 10
22317.04545269
 20
-2093.00217977
  0
LWPOLYLINE
  5
1E3
100
AcDbEntity
  8
Ech.1_5
 62
     7
  6
CONTINUOUS
370
    -3
100
AcDbPolyline
 90
       12
 70
     0
 43
0.0
 10
22277.04545269
 20
-2093.00217977
 10
22297.04545269
 20
-2093.00217977
 10
22297.04545269
 20
-2155.99821969
 10
22297.04541675
 20
-2192.67997254
 10
22297.04545269
 20
-2201.66592181
 10
22297.04545269
 20
-2201.67991579
 10
22297.04545269
 20
-2210.046249
 10
22297.04545269
 20
-2313.00217977
 10
22281.69125058
 20
-2313.00233247
 10
22252.04545269
 20
-2313.00217977
 10
22252.04545269
 20
-2093.00217977
 10
22277.04545269
 20
-2093.00217977
  0
LWPOLYLINE
  5
1E4
100
AcDbEntity
  8
Ech.1_5
 62
     7
  6
CONTINUOUS
370
    -3
100
AcDbPolyline
 90
       12
 70
     0
 43
0.0
 10
22917.04545269
 20
-2093.00217977
 10
22897.04545269
 20
-2093.00217977
 10
22897.04545269
 20
-2155.99821969
 10
22897.04548864
 20
-2192.67997254
 10
22897.04545269
 20
-2201.66592181
 10
22897.04545269
 20
-2201.67991579
 10
22897.04545269
 20
-2210.046249
 10
22897.04545269
 20
-2313.00217977
 10
22912.39965481
 20
-2313.00233247
 10
22942.04545269
 20
-2313.00217977
 10
22942.04545269
 20
-2093.00217977
 10
22917.04545269
 20
-2093.00217977
  0
LWPOLYLINE
  5
1E5
100
AcDbEntity
  8
Ech.1_5
 62
   190
  6
CONTINUOUS
370
     5
100
AcDbPolyline
 90
        5
 70
     0
 43
0.0
 10
22019.92906094
 20
-2790.44702485
 10
22069.92906094
 20
-2790.44702485
 10
22069.92906094
 20
-2783.03188731
 10
22019.92906094
 20
-2783.03188731
 10
22019.92906094
 20
-2790.44702485
  0
TEXT
  5
1E6
100
AcDbEntity
  8
Ech.1_5
 62
   190
100
AcDbText
 10
22031.22335357
 20
-2773.44588423
 30
0.0
 40
8.00000012
  1
Echelle en mm
  7
ARIAL
 50
0.0
 41
1.0
 51
0.0
100
AcDbText
  0
TEXT
  5
1E7
100
AcDbEntity
  8
Ech.1_5
 62
   190
100
AcDbText
 10
22017.24276882
 20
-2801.65571976
 30
0.0
 40
8.00000012
  1
0
  7
ARIAL
 50
0.0
 41
1.0
 51
0.0
100
AcDbText
  0
TEXT
  5
1E8
100
AcDbEntity
  8
Ech.1_5
 62
   190
100
AcDbText
 10
22103.83982671
 20
-2801.65571976
 30
0.0
 40
8.00000012
  1
100
  7
ARIAL
 50
0.0
 41
1.0
 51
0.0
100
AcDbText
  0
TEXT
  5
1E9
100
AcDbEntity
  8
Ech.1_5
 62
   190
100
AcDbText
 10
22065.09939515
 20
-2801.65571976
 30
0.0
 40
8.00000012
  1
50
  7
ARIAL
 50
0.0
 41
1.0
 51
0.0
100
AcDbText
  0
INSERT
  5
1EA
100
AcDbEntity
  8
Ech.1_5
 62
     0
370
    -3
100
AcDbBlockReference
  2
*D73
 10
0.0
 20
0.0
 30
0.0
  0
INSERT
  5
1EB
100
AcDbEntity
  8
Ech.1_5
 62
     0
370
    -3
100
AcDbBlockReference
  2
*D74
 10
0.0
 20
0.0
 30
0.0
  0
ENDSEC
  0
SECTION
  2
OBJECTS
  0
DICTIONARY
  5
1
100
AcDbDictionary
  3
ACAD_GROUP
350
2
  3
ACAD_MLINESTYLE
350
3
  0
DICTIONARY
  5
2
102
{CDWK_REACTORS
330
1
102
}
100
AcDbDictionary
  0
DICTIONARY
  5
3
102
{CDWK_REACTORS
330
1
102
}
100
AcDbDictionary
  3
STANDARD
350
4
  0
MLINESTYLE
  5
4
102
{CDWK_REACTORS
330
3
102
}
100
AcDbMlineStyle
  2
STANDARD
 70
     0
  3

 62
     0
 51
90.0
 52
90.0
 71
     2
 49
0.5
 62
   256
  6
BYLAYER
 49
-0.5
 62
   256
  6
BYLAYER
  0
ENDSEC
  0
EOF
