  0
SECTION
  2
HEADER
  9
$ACADVER
  1
AC1015
  9
$ACADMAINTVER
 70
    20
  9
$DWGCODEPAGE
  3
ANSI_1252
  9
$INSBASE
 10
0.0
 20
0.0
 30
0.0
  9
$EXTMIN
 10
50191.92090614
 20
10217.25176834
 30
0.0
  9
$EXTMAX
 10
51546.92090614
 20
11202.25176834
 30
2500.0
  9
$LIMMIN
 10
0.0
 20
0.0
  9
$LIMMAX
 10
57061.45779796
 20
11202.25176834
  9
$ORTHOMODE
 70
     0
  9
$REGENMODE
 70
     1
  9
$FILLMODE
 70
     1
  9
$QTEXTMODE
 70
     0
  9
$MIRRTEXT
 70
     1
  9
$LTSCALE
 40
5.0
  9
$ATTMODE
 70
     1
  9
$TEXTSIZE
 40
3.5
  9
$TRACEWID
 40
1.0
  9
$TEXTSTYLE
  7
STANDARD
  9
$CLAYER
  8
0
  9
$CELTYPE
  6
BYLAYER
  9
$CECOLOR
 62
   256
  9
$CELTSCALE
 40
1.0
  9
$DISPSILH
 70
     0
  9
$DIMSCALE
 40
1.0
  9
$DIMASZ
 40
2.0
  9
$DIMEXO
 40
5.0
  9
$DIMDLI
 40
10.0
  9
$DIMRND
 40
0.0
  9
$DIMDLE
 40
2.0
  9
$DIMEXE
 40
2.0
  9
$DIMTP
 40
0.0
  9
$DIMTM
 40
0.0
  9
$DIMTXT
 40
2.5
  9
$DIMCEN
 40
1.5
  9
$DIMTSZ
 40
0.0
  9
$DIMTOL
 70
     0
  9
$DIMLIM
 70
     0
  9
$DIMTIH
 70
     1
  9
$DIMTOH
 70
     0
  9
$DIMSE1
 70
     0
  9
$DIMSE2
 70
     0
  9
$DIMTAD
 70
     1
  9
$DIMZIN
 70
     8
  9
$DIMBLK
  1

  9
$DIMASO
 70
     1
  9
$DIMSHO
 70
     1
  9
$DIMPOST
  1

  9
$DIMAPOST
  1

  9
$DIMALT
 70
     0
  9
$DIMALTD
 70
     2
  9
$DIMALTF
 40
25.4
  9
$DIMLFAC
 40
1.0
  9
$DIMTOFL
 70
     0
  9
$DIMTVP
 40
0.0
  9
$DIMTIX
 70
     0
  9
$DIMSOXD
 70
     0
  9
$DIMSAH
 70
     0
  9
$DIMBLK1
  1

  9
$DIMBLK2
  1

  9
$DIMSTYLE
  2
Standard
  9
$DIMCLRD
 70
   190
  9
$DIMCLRE
 70
   190
  9
$DIMCLRT
 70
   190
  9
$DIMTFAC
 40
1.0
  9
$DIMGAP
 40
0.09
  9
$DIMJUST
 70
     0
  9
$DIMSD1
 70
     0
  9
$DIMSD2
 70
     0
  9
$DIMTOLJ
 70
     1
  9
$DIMTZIN
 70
     0
  9
$DIMALTZ
 70
     0
  9
$DIMALTTZ
 70
     0
  9
$DIMUPT
 70
     0
  9
$DIMDEC
 70
     4
  9
$DIMTDEC
 70
     4
  9
$DIMALTU
 70
     2
  9
$DIMALTTD
 70
     2
  9
$DIMTXSTY
  7
STANDARD
  9
$DIMAUNIT
 70
     0
  9
$DIMADEC
 70
     0
  9
$DIMALTRND
 40
0.0
  9
$DIMAZIN
 70
     0
  9
$DIMDSEP
 70
    46
  9
$DIMATFIT
 70
     3
  9
$DIMFRAC
 70
     0
  9
$DIMLDRBLK
  1

  9
$DIMLUNIT
 70
     2
  9
$DIMLWD
 70
    -2
  9
$DIMLWE
 70
    -2
  9
$DIMTMOVE
 70
     0
  9
$LUNITS
 70
     2
  9
$LUPREC
 70
     6
  9
$SKETCHINC
 40
0.1
  9
$FILLETRAD
 40
0.0
  9
$AUNITS
 70
     0
  9
$AUPREC
 70
     0
  9
$MENU
  1
ACAD
  9
$ELEVATION
 40
0.0
  9
$PELEVATION
 40
0.0
  9
$THICKNESS
 40
0.0
  9
$LIMCHECK
 70
     0
  9
$CHAMFERA
 40
0.0
  9
$CHAMFERB
 40
0.0
  9
$CHAMFERC
 40
0.0
  9
$CHAMFERD
 40
0.0
  9
$SKPOLY
 70
     1
  9
$TDCREATE
 40
2456467.000000000
  9
$TDUCREATE
 40
2456466.916666667
  9
$TDUPDATE
 40
2456468.500277072
  9
$TDUUPDATE
 40
2456468.416943739
  9
$TDINDWG
 40
0.0004719676
  9
$TDUSRTIMER
 40
0.0004717824
  9
$USRTIMER
 70
     1
  9
$ANGBASE
 50
0.0
  9
$ANGDIR
 70
     0
  9
$PDMODE
 70
     0
  9
$PDSIZE
 40
0.0
  9
$PLINEWID
 40
0.0
  9
$SPLFRAME
 70
     0
  9
$SPLINETYPE
 70
     6
  9
$SPLINESEGS
 70
     8
  9
$HANDSEED
  5
553
  9
$SURFTAB1
 70
     6
  9
$SURFTAB2
 70
     6
  9
$SURFTYPE
 70
     6
  9
$SURFU
 70
     6
  9
$SURFV
 70
     6
  9
$UCSBASE
  2

  9
$UCSNAME
  2

  9
$UCSORG
 10
0.0
 20
0.0
 30
0.0
  9
$UCSXDIR
 10
1.0
 20
0.0
 30
0.0
  9
$UCSYDIR
 10
0.0
 20
1.0
 30
0.0
  9
$UCSORTHOREF
  2

  9
$UCSORTHOVIEW
 70
     0
  9
$UCSORGTOP
 10
0.0
 20
0.0
 30
0.0
  9
$UCSORGBOTTOM
 10
0.0
 20
0.0
 30
0.0
  9
$UCSORGLEFT
 10
0.0
 20
0.0
 30
0.0
  9
$UCSORGRIGHT
 10
0.0
 20
0.0
 30
0.0
  9
$UCSORGFRONT
 10
0.0
 20
0.0
 30
0.0
  9
$UCSORGBACK
 10
0.0
 20
0.0
 30
0.0
  9
$PUCSBASE
  2

  9
$PUCSNAME
  2

  9
$PUCSORG
 10
0.0
 20
0.0
 30
0.0
  9
$PUCSXDIR
 10
1.0
 20
0.0
 30
0.0
  9
$PUCSYDIR
 10
0.0
 20
1.0
 30
0.0
  9
$PUCSORTHOREF
  2

  9
$PUCSORTHOVIEW
 70
     0
  9
$PUCSORGTOP
 10
0.0
 20
0.0
 30
0.0
  9
$PUCSORGBOTTOM
 10
0.0
 20
0.0
 30
0.0
  9
$PUCSORGLEFT
 10
0.0
 20
0.0
 30
0.0
  9
$PUCSORGRIGHT
 10
0.0
 20
0.0
 30
0.0
  9
$PUCSORGFRONT
 10
0.0
 20
0.0
 30
0.0
  9
$PUCSORGBACK
 10
0.0
 20
0.0
 30
0.0
  9
$USERI1
 70
     0
  9
$USERI2
 70
     0
  9
$USERI3
 70
     0
  9
$USERI4
 70
     0
  9
$USERI5
 70
     0
  9
$USERR1
 40
0.0
  9
$USERR2
 40
0.0
  9
$USERR3
 40
0.0
  9
$USERR4
 40
0.0
  9
$USERR5
 40
0.0
  9
$WORLDVIEW
 70
     1
  9
$SHADEDGE
 70
     3
  9
$SHADEDIF
 70
    70
  9
$TILEMODE
 70
     1
  9
$MAXACTVP
 70
    16
  9
$PINSBASE
 10
0.0
 20
0.0
 30
0.0
  9
$PLIMCHECK
 70
     0
  9
$PEXTMIN
 10
1.000000000000000E+20
 20
1.000000000000000E+20
 30
1.000000000000000E+20
  9
$PEXTMAX
 10
-1.000000000000000E+20
 20
-1.000000000000000E+20
 30
-1.000000000000000E+20
  9
$PLIMMIN
 10
0.0
 20
0.0
  9
$PLIMMAX
 10
12.0
 20
9.0
  9
$UNITMODE
 70
     0
  9
$VISRETAIN
 70
     0
  9
$PLINEGEN
 70
     0
  9
$PSLTSCALE
 70
     1
  9
$TREEDEPTH
 70
  3020
  9
$CMLSTYLE
  2
STANDARD
  9
$CMLJUST
 70
     0
  9
$CMLSCALE
 40
1.0
  9
$PROXYGRAPHICS
 70
     1
  9
$MEASUREMENT
 70
     1
  9
$CELWEIGHT
370
    -1
  9
$ENDCAPS
280
     0
  9
$JOINSTYLE
280
     0
  9
$LWDISPLAY
290
     0
  9
$INSUNITS
 70
     0
  9
$HYPERLINKBASE
  1

  9
$STYLESHEET
  1

  9
$XEDIT
290
     1
  9
$CEPSNTYPE
380
     0
  9
$PSTYLEMODE
290
     1
  9
$FINGERPRINTGUID
  2
{0FEB0210-4DA8-4141-A196-02CCEE1AEC2A}
  9
$VERSIONGUID
  2
{F48AD6EA-546D-48A5-B0E3-BACB8383965A}
  9
$EXTNAMES
290
     1
  9
$PSVPSCALE
 40
0.0
  9
$OLESTARTUP
290
     0
  0
ENDSEC
  0
SECTION
  2
CLASSES
  0
CLASS
  1
ACDBDICTIONARYWDFLT
  2
AcDbDictionaryWithDefault
  3
ObjectDBX Classes
 90
        0
280
     0
281
     0
  0
CLASS
  1
MATERIAL
  2
AcDbMaterial
  3
ObjectDBX Classes
 90
     1153
280
     0
281
     0
  0
CLASS
  1
VISUALSTYLE
  2
AcDbVisualStyle
  3
ObjectDBX Classes
 90
     4095
280
     0
281
     0
  0
CLASS
  1
TABLESTYLE
  2
AcDbTableStyle
  3
ObjectDBX Classes
 90
     4095
280
     0
281
     0
  0
CLASS
  1
SCALE
  2
AcDbScale
  3
ObjectDBX Classes
 90
     1153
280
     0
281
     0
  0
CLASS
  1
MLEADERSTYLE
  2
AcDbMLeaderStyle
  3
ACDB_MLEADERSTYLE_CLASS
 90
     4095
280
     0
281
     0
  0
CLASS
  1
DICTIONARYVAR
  2
AcDbDictionaryVar
  3
ObjectDBX Classes
 90
        0
280
     0
281
     0
  0
CLASS
  1
CELLSTYLEMAP
  2
AcDbCellStyleMap
  3
ObjectDBX Classes
 90
     1152
280
     0
281
     0
  0
CLASS
  1
ACDBPLACEHOLDER
  2
AcDbPlaceHolder
  3
ObjectDBX Classes
 90
        0
280
     0
281
     0
  0
CLASS
  1
LAYOUT
  2
AcDbLayout
  3
ObjectDBX Classes
 90
        0
280
     0
281
     0
  0
ENDSEC
  0
SECTION
  2
TABLES
  0
TABLE
  2
VPORT
  5
A7
330
0
100
AcDbSymbolTable
 70
     1
  0
VPORT
  5
4CE
330
A7
100
AcDbSymbolTableRecord
100
AcDbViewportTableRecord
  2
*Active
 70
     0
 10
0.0
 20
0.0
 11
1.0
 21
1.0
 12
50869.42090614
 22
10709.75176834
 13
0.0
 23
0.0
 14
1.0
 24
1.0
 15
0.0
 25
0.0
 16
0.0
 26
0.0
 36
1.0
 17
0.0
 27
0.0
 37
0.0
 40
992.5478927203075
 41
2.015345268542199
 42
50.0
 43
0.0
 44
0.0
 50
0.0
 51
0.0
 71
     0
 72
  1000
 73
     1
 74
     3
 75
     0
 76
     0
 77
     0
 78
     0
281
     0
 65
     1
110
0.0
120
0.0
130
0.0
111
1.0
121
0.0
131
0.0
112
0.0
122
1.0
132
0.0
 79
     0
146
0.0
  0
ENDTAB
  0
TABLE
  2
LTYPE
  5
AD
330
0
100
AcDbSymbolTable
 70
    12
  0
LTYPE
  5
AE
330
AD
100
AcDbSymbolTableRecord
100
AcDbLinetypeTableRecord
  2
BYBLOCK
 70
     0
  3

 72
    65
 73
     0
 40
0.0
  0
LTYPE
  5
AF
330
AD
100
AcDbSymbolTableRecord
100
AcDbLinetypeTableRecord
  2
BYLAYER
 70
     0
  3

 72
    65
 73
     0
 40
0.0
  0
LTYPE
  5
B0
330
AD
100
AcDbSymbolTableRecord
100
AcDbLinetypeTableRecord
  2
CONTINUOUS
 70
     0
  3
Solid line
 72
    65
 73
     0
 40
0.0
  0
LTYPE
  5
B1
330
AD
100
AcDbSymbolTableRecord
100
AcDbLinetypeTableRecord
  2
DOT
 70
     0
  3
. . . . . . . . . . . . . . . . . . . . . . . .
 72
    65
 73
     2
 40
2.5
 49
0.0
 74
     0
 49
-2.5
 74
     0
  0
LTYPE
  5
B2
330
AD
100
AcDbSymbolTableRecord
100
AcDbLinetypeTableRecord
  2
HIDDEN
 70
     0
  3
__ __ __ __ __ __ __ __ __ __ __ __ __ __ __ __
 72
    65
 73
     2
 40
1.875
 49
1.25
 74
     0
 49
-0.625
 74
     0
  0
LTYPE
  5
B3
330
AD
100
AcDbSymbolTableRecord
100
AcDbLinetypeTableRecord
  2
DASHDOT
 70
     0
  3
 __ . __ . __ . __ . __ . __ . __ . __ . __ . __
 72
    65
 73
     4
 40
10.0
 49
5.0
 74
     0
 49
-2.5
 74
     0
 49
0.0
 74
     0
 49
-2.5
 74
     0
  0
LTYPE
  5
B4
330
AD
100
AcDbSymbolTableRecord
100
AcDbLinetypeTableRecord
  2
DASHEDX2
 70
     0
  3
____  ____  ____  ____  ____  ____  ____  ____
 72
    65
 73
     2
 40
3.75
 49
2.5
 74
     0
 49
-1.25
 74
     0
  0
LTYPE
  5
B5
330
AD
100
AcDbSymbolTableRecord
100
AcDbLinetypeTableRecord
  2
CADWORK_22
 70
     0
  3
22 =======================================
 72
    65
 73
     0
 40
0.0
  0
LTYPE
  5
B6
330
AD
100
AcDbSymbolTableRecord
100
AcDbLinetypeTableRecord
  2
DAL
 70
     0
  3
Solid line (for MAPS)
 72
    65
 73
     0
 40
0.0
  0
LTYPE
  5
B7
330
AD
100
AcDbSymbolTableRecord
100
AcDbLinetypeTableRecord
  2
MUR
 70
     0
  3
Solid line (for MAPS)
 72
    65
 73
     0
 40
0.0
  0
LTYPE
  5
B8
330
AD
100
AcDbSymbolTableRecord
100
AcDbLinetypeTableRecord
  2
SOM
 70
     0
  3
Solid line (for MAPS)
 72
    65
 73
     0
 40
0.0
  0
LTYPE
  5
B9
330
AD
100
AcDbSymbolTableRecord
100
AcDbLinetypeTableRecord
  2
COL
 70
     0
  3
Solid line (for MAPS)
 72
    65
 73
     0
 40
0.0
  0
LTYPE
  5
BA
330
AD
100
AcDbSymbolTableRecord
100
AcDbLinetypeTableRecord
  2
LGN
 70
     0
  3
Solid line (for MAPS)
 72
    65
 73
     0
 40
0.0
  0
LTYPE
  5
BB
330
AD
100
AcDbSymbolTableRecord
100
AcDbLinetypeTableRecord
  2
PNT
 70
     0
  3
Solid line (for MAPS)
 72
    65
 73
     0
 40
0.0
  0
ENDTAB
  0
TABLE
  2
LAYER
  5
BC
330
0
100
AcDbSymbolTable
 70
    32
  0
LAYER
  5
BD
102
{ACAD_XDICTIONARY
360
4D2
102
}
330
BC
100
AcDbSymbolTableRecord
100
AcDbLayerTableRecord
  2
STANDARD
 70
     0
 62
     7
  6
CONTINUOUS
370
    -3
390
47D
  0
LAYER
  5
BE
102
{ACAD_XDICTIONARY
360
4D4
102
}
330
BC
100
AcDbSymbolTableRecord
100
AcDbLayerTableRecord
  2
Ech.1_1
 70
     0
 62
     7
  6
CONTINUOUS
370
    -3
390
47D
  0
LAYER
  5
BF
102
{ACAD_XDICTIONARY
360
4D6
102
}
330
BC
100
AcDbSymbolTableRecord
100
AcDbLayerTableRecord
  2
Ech.1_2
 70
     0
 62
     7
  6
CONTINUOUS
370
    -3
390
47D
  0
LAYER
  5
C0
102
{ACAD_XDICTIONARY
360
4D8
102
}
330
BC
100
AcDbSymbolTableRecord
100
AcDbLayerTableRecord
  2
Ech.1_5
 70
     0
 62
     7
  6
CONTINUOUS
370
    -3
390
47D
  0
LAYER
  5
C1
102
{ACAD_XDICTIONARY
360
4DA
102
}
330
BC
100
AcDbSymbolTableRecord
100
AcDbLayerTableRecord
  2
Ech.1_10
 70
     0
 62
     7
  6
CONTINUOUS
370
    -3
390
47D
  0
LAYER
  5
C2
102
{ACAD_XDICTIONARY
360
4DC
102
}
330
BC
100
AcDbSymbolTableRecord
100
AcDbLayerTableRecord
  2
Ech.1_20
 70
     0
 62
     7
  6
CONTINUOUS
370
    -3
390
47D
  0
LAYER
  5
C3
102
{ACAD_XDICTIONARY
360
4DE
102
}
330
BC
100
AcDbSymbolTableRecord
100
AcDbLayerTableRecord
  2
Ech.1_25
 70
     0
 62
     7
  6
CONTINUOUS
370
    -3
390
47D
  0
LAYER
  5
C4
102
{ACAD_XDICTIONARY
360
4E0
102
}
330
BC
100
AcDbSymbolTableRecord
100
AcDbLayerTableRecord
  2
Ech.1_33
 70
     0
 62
     7
  6
CONTINUOUS
370
    -3
390
47D
  0
LAYER
  5
C5
102
{ACAD_XDICTIONARY
360
4E2
102
}
330
BC
100
AcDbSymbolTableRecord
100
AcDbLayerTableRecord
  2
Ech.1_50
 70
     0
 62
     7
  6
CONTINUOUS
370
    -3
390
47D
  0
LAYER
  5
C6
102
{ACAD_XDICTIONARY
360
4E4
102
}
330
BC
100
AcDbSymbolTableRecord
100
AcDbLayerTableRecord
  2
Ech.1_75
 70
     0
 62
     7
  6
CONTINUOUS
370
    -3
390
47D
  0
LAYER
  5
C7
102
{ACAD_XDICTIONARY
360
4E6
102
}
330
BC
100
AcDbSymbolTableRecord
100
AcDbLayerTableRecord
  2
Ech.1_100
 70
     0
 62
     7
  6
CONTINUOUS
370
    -3
390
47D
  0
LAYER
  5
C8
102
{ACAD_XDICTIONARY
360
4E8
102
}
330
BC
100
AcDbSymbolTableRecord
100
AcDbLayerTableRecord
  2
Ech.1_200
 70
     0
 62
     7
  6
CONTINUOUS
370
    -3
390
47D
  0
LAYER
  5
C9
102
{ACAD_XDICTIONARY
360
4EA
102
}
330
BC
100
AcDbSymbolTableRecord
100
AcDbLayerTableRecord
  2
Ech.1_500
 70
     0
 62
     7
  6
CONTINUOUS
370
    -3
390
47D
  0
LAYER
  5
CA
102
{ACAD_XDICTIONARY
360
4EC
102
}
330
BC
100
AcDbSymbolTableRecord
100
AcDbLayerTableRecord
  2
Ech.1_1000
 70
     0
 62
     7
  6
CONTINUOUS
370
    -3
390
47D
  0
LAYER
  5
CB
102
{ACAD_XDICTIONARY
360
4EE
102
}
330
BC
100
AcDbSymbolTableRecord
100
AcDbLayerTableRecord
  2
Cadres traceur
 70
     0
 62
     7
  6
CONTINUOUS
370
    -3
390
47D
  0
LAYER
  5
CC
102
{ACAD_XDICTIONARY
360
4F0
102
}
330
BC
100
AcDbSymbolTableRecord
100
AcDbLayerTableRecord
  2
Cadres laser
 70
     0
 62
     7
  6
CONTINUOUS
370
    -3
390
47D
  0
LAYER
  5
CD
102
{ACAD_XDICTIONARY
360
4F2
102
}
330
BC
100
AcDbSymbolTableRecord
100
AcDbLayerTableRecord
  2
Légende d_aide
 70
     0
 62
     7
  6
CONTINUOUS
370
    -3
390
47D
  0
LAYER
  5
CE
102
{ACAD_XDICTIONARY
360
4F4
102
}
330
BC
100
AcDbSymbolTableRecord
100
AcDbLayerTableRecord
  2
hachures ok
 70
     0
 62
     7
  6
CONTINUOUS
370
    -3
390
47D
  0
LAYER
  5
CF
102
{ACAD_XDICTIONARY
360
4F6
102
}
330
BC
100
AcDbSymbolTableRecord
100
AcDbLayerTableRecord
  2
ossature bois
 70
     0
 62
     7
  6
CONTINUOUS
370
    -3
390
47D
  0
LAYER
  5
D0
102
{ACAD_XDICTIONARY
360
4F8
102
}
330
BC
100
AcDbSymbolTableRecord
100
AcDbLayerTableRecord
  2
VR
 70
     0
 62
     7
  6
CONTINUOUS
370
    -3
390
47D
  0
LAYER
  5
D1
102
{ACAD_XDICTIONARY
360
4FA
102
}
330
BC
100
AcDbSymbolTableRecord
100
AcDbLayerTableRecord
  2
CALQUE1
 70
     0
 62
     7
  6
CONTINUOUS
370
    -3
390
47D
  0
LAYER
  5
D2
330
BC
100
AcDbSymbolTableRecord
100
AcDbLayerTableRecord
  2
0
 70
     0
 62
     7
  6
CONTINUOUS
370
    -3
390
47D
  0
LAYER
  5
D3
102
{ACAD_XDICTIONARY
360
4FC
102
}
330
BC
100
AcDbSymbolTableRecord
100
AcDbLayerTableRecord
  2
MENUISERIE
 70
     0
 62
     7
  6
CONTINUOUS
370
    -3
390
47D
  0
LAYER
  5
D4
102
{ACAD_XDICTIONARY
360
4FE
102
}
330
BC
100
AcDbSymbolTableRecord
100
AcDbLayerTableRecord
  2
COTATION
 70
     0
 62
   250
  6
CONTINUOUS
370
    -3
390
47D
  0
LAYER
  5
D5
330
BC
100
AcDbSymbolTableRecord
100
AcDbLayerTableRecord
  2
DEFPOINTS
 70
     0
 62
    10
  6
CONTINUOUS
290
     0
370
    -3
390
47D
  0
LAYER
  5
D6
102
{ACAD_XDICTIONARY
360
500
102
}
330
BC
100
AcDbSymbolTableRecord
100
AcDbLayerTableRecord
  2
HACHURE
 70
     0
 62
   254
  6
CONTINUOUS
370
    -3
390
47D
  0
LAYER
  5
D7
102
{ACAD_XDICTIONARY
360
502
102
}
330
BC
100
AcDbSymbolTableRecord
100
AcDbLayerTableRecord
  2
MAT1
 70
     0
 62
     7
  6
CONTINUOUS
370
    -3
390
47D
  0
LAYER
  5
D8
102
{ACAD_XDICTIONARY
360
504
102
}
330
BC
100
AcDbSymbolTableRecord
100
AcDbLayerTableRecord
  2
MAT2
 70
     0
 62
     7
  6
CONTINUOUS
370
    -3
390
47D
  0
LAYER
  5
D9
102
{ACAD_XDICTIONARY
360
506
102
}
330
BC
100
AcDbSymbolTableRecord
100
AcDbLayerTableRecord
  2
HACH
 70
     0
 62
     8
  6
CONTINUOUS
370
    -3
390
47D
  0
LAYER
  5
DA
102
{ACAD_XDICTIONARY
360
508
102
}
330
BC
100
AcDbSymbolTableRecord
100
AcDbLayerTableRecord
  2
MENUISERIES
 70
     0
 62
     7
  6
CONTINUOUS
370
    -3
390
47D
  0
LAYER
  5
DB
102
{ACAD_XDICTIONARY
360
50A
102
}
330
BC
100
AcDbSymbolTableRecord
100
AcDbLayerTableRecord
  2
BÉTONMÉTAL
 70
     0
 62
     7
  6
CONTINUOUS
370
    -3
390
47D
  0
LAYER
  5
DC
102
{ACAD_XDICTIONARY
360
50C
102
}
330
BC
100
AcDbSymbolTableRecord
100
AcDbLayerTableRecord
  2
BOIS
 70
     0
 62
     7
  6
CONTINUOUS
370
    -3
390
47D
  0
ENDTAB
  0
TABLE
  2
STYLE
  5
A8
330
0
100
AcDbSymbolTable
 70
     4
  0
STYLE
  5
A9
330
A8
100
AcDbSymbolTableRecord
100
AcDbTextStyleTableRecord
  2
STANDARD
 70
     0
 40
0.0
 41
1.0
 50
0.0
 71
     0
 42
3.5
  3
MONOTXT
  4

  0
STYLE
  5
AA
330
A8
100
AcDbSymbolTableRecord
100
AcDbTextStyleTableRecord
  2
CADWORK1
 70
     0
 40
0.0
 41
1.0
 50
0.0
 71
     0
 42
3.5
  3
MONOTXT
  4

  0
STYLE
  5
AB
330
A8
100
AcDbSymbolTableRecord
100
AcDbTextStyleTableRecord
  2
MONOTXT
 70
     0
 40
0.0
 41
1.0
 50
0.0
 71
     0
 42
3.5
  3
MONOTXT
  4

  0
STYLE
  5
AC
330
A8
100
AcDbSymbolTableRecord
100
AcDbTextStyleTableRecord
  2
ARIAL
 70
     0
 40
0.0
 41
1.0
 50
0.0
 71
     0
 42
3.5
  3

  4

1001
ACAD
1000
Arial
1071
        0
  0
ENDTAB
  0
TABLE
  2
VIEW
  5
DD
330
0
100
AcDbSymbolTable
 70
     1
  0
ENDTAB
  0
TABLE
  2
UCS
  5
DE
330
0
100
AcDbSymbolTable
 70
     0
  0
ENDTAB
  0
TABLE
  2
APPID
  5
DF
330
0
100
AcDbSymbolTable
 70
     2
  0
APPID
  5
E0
330
DF
100
AcDbSymbolTableRecord
100
AcDbRegAppTableRecord
  2
ACAD
 70
     0
  0
APPID
  5
54E
330
DF
100
AcDbSymbolTableRecord
100
AcDbRegAppTableRecord
  2
ACAD_MLEADERVER
 70
     0
  0
ENDTAB
  0
TABLE
  2
DIMSTYLE
  5
E1
330
0
100
AcDbSymbolTable
 70
     1
100
AcDbDimStyleTable
 71
     0
  0
DIMSTYLE
105
4C7
330
E1
100
AcDbSymbolTableRecord
100
AcDbDimStyleTableRecord
  2
Standard
 70
     0
340
A9
  0
ENDTAB
  0
TABLE
  2
BLOCK_RECORD
  5
E2
330
0
100
AcDbSymbolTable
 70
    62
  0
BLOCK_RECORD
  5
E3
330
E2
100
AcDbSymbolTableRecord
100
AcDbBlockTableRecord
  2
*MODEL_SPACE
340
4CA
  0
BLOCK_RECORD
  5
E4
330
E2
100
AcDbSymbolTableRecord
100
AcDbBlockTableRecord
  2
*PAPER_SPACE
340
4CB
  0
BLOCK_RECORD
  5
E5
330
E2
100
AcDbSymbolTableRecord
100
AcDbBlockTableRecord
  2
CDWK_EXTR_0
340
0
  0
BLOCK_RECORD
  5
E6
330
E2
100
AcDbSymbolTableRecord
100
AcDbBlockTableRecord
  2
CDWK_EXTR_1D
340
0
  0
BLOCK_RECORD
  5
E7
330
E2
100
AcDbSymbolTableRecord
100
AcDbBlockTableRecord
  2
CDWK_EXTR_1G
340
0
  0
BLOCK_RECORD
  5
E8
330
E2
100
AcDbSymbolTableRecord
100
AcDbBlockTableRecord
  2
CDWK_EXTR_2
340
0
  0
BLOCK_RECORD
  5
E9
330
E2
100
AcDbSymbolTableRecord
100
AcDbBlockTableRecord
  2
CDWK_EXTR_3
340
0
  0
BLOCK_RECORD
  5
EA
330
E2
100
AcDbSymbolTableRecord
100
AcDbBlockTableRecord
  2
CDWK_EXTR_4
340
0
  0
BLOCK_RECORD
  5
EB
330
E2
100
AcDbSymbolTableRecord
100
AcDbBlockTableRecord
  2
CDWK_PTTYP0
340
0
  0
BLOCK_RECORD
  5
EC
330
E2
100
AcDbSymbolTableRecord
100
AcDbBlockTableRecord
  2
CDWK_PTTYP1
340
0
  0
BLOCK_RECORD
  5
ED
330
E2
100
AcDbSymbolTableRecord
100
AcDbBlockTableRecord
  2
CDWK_PTTYP2
340
0
  0
BLOCK_RECORD
  5
EE
330
E2
100
AcDbSymbolTableRecord
100
AcDbBlockTableRecord
  2
CDWK_PTTYP3
340
0
  0
BLOCK_RECORD
  5
EF
330
E2
100
AcDbSymbolTableRecord
100
AcDbBlockTableRecord
  2
CDWK_PTTYP4
340
0
  0
BLOCK_RECORD
  5
F0
330
E2
100
AcDbSymbolTableRecord
100
AcDbBlockTableRecord
  2
CDWK_PTTYP5
340
0
  0
BLOCK_RECORD
  5
F1
330
E2
100
AcDbSymbolTableRecord
100
AcDbBlockTableRecord
  2
CDWK_PTTYP6
340
0
  0
BLOCK_RECORD
  5
F2
330
E2
100
AcDbSymbolTableRecord
100
AcDbBlockTableRecord
  2
CDWK_PTTYP7
340
0
  0
BLOCK_RECORD
  5
F3
330
E2
100
AcDbSymbolTableRecord
100
AcDbBlockTableRecord
  2
CDWK_PTTYP8
340
0
  0
BLOCK_RECORD
  5
F4
330
E2
100
AcDbSymbolTableRecord
100
AcDbBlockTableRecord
  2
CDWK_PTTYP9
340
0
  0
BLOCK_RECORD
  5
F5
330
E2
100
AcDbSymbolTableRecord
100
AcDbBlockTableRecord
  2
CDWK_PTTYP10
340
0
  0
BLOCK_RECORD
  5
F6
330
E2
100
AcDbSymbolTableRecord
100
AcDbBlockTableRecord
  2
CDWK_PTTYP11
340
0
  0
BLOCK_RECORD
  5
F7
330
E2
100
AcDbSymbolTableRecord
100
AcDbBlockTableRecord
  2
CDWK_PTTYP12
340
0
  0
BLOCK_RECORD
  5
F8
330
E2
100
AcDbSymbolTableRecord
100
AcDbBlockTableRecord
  2
CDWK_PTTYP13
340
0
  0
BLOCK_RECORD
  5
F9
330
E2
100
AcDbSymbolTableRecord
100
AcDbBlockTableRecord
  2
CDWK_PTTYP14
340
0
  0
BLOCK_RECORD
  5
FA
330
E2
100
AcDbSymbolTableRecord
100
AcDbBlockTableRecord
  2
CDWK_PTTYP15
340
0
  0
BLOCK_RECORD
  5
FB
330
E2
100
AcDbSymbolTableRecord
100
AcDbBlockTableRecord
  2
CDWK_PTTYP16
340
0
  0
BLOCK_RECORD
  5
FC
330
E2
100
AcDbSymbolTableRecord
100
AcDbBlockTableRecord
  2
CDWK_PTTYP17
340
0
  0
BLOCK_RECORD
  5
FD
330
E2
100
AcDbSymbolTableRecord
100
AcDbBlockTableRecord
  2
CDWK_PTTYP18
340
0
  0
BLOCK_RECORD
  5
FE
330
E2
100
AcDbSymbolTableRecord
100
AcDbBlockTableRecord
  2
CDWK_PTTYP19
340
0
  0
BLOCK_RECORD
  5
FF
330
E2
100
AcDbSymbolTableRecord
100
AcDbBlockTableRecord
  2
CDWK_PTTYP20
340
0
  0
BLOCK_RECORD
  5
100
330
E2
100
AcDbSymbolTableRecord
100
AcDbBlockTableRecord
  2
CDWK_PTTYP21
340
0
  0
BLOCK_RECORD
  5
101
330
E2
100
AcDbSymbolTableRecord
100
AcDbBlockTableRecord
  2
CDWK_PTTYP22
340
0
  0
BLOCK_RECORD
  5
102
330
E2
100
AcDbSymbolTableRecord
100
AcDbBlockTableRecord
  2
CDWK_PTTYP23
340
0
  0
BLOCK_RECORD
  5
103
330
E2
100
AcDbSymbolTableRecord
100
AcDbBlockTableRecord
  2
CDWK_PTTYP24
340
0
  0
BLOCK_RECORD
  5
104
330
E2
100
AcDbSymbolTableRecord
100
AcDbBlockTableRecord
  2
CDWK_PTTYP25
340
0
  0
BLOCK_RECORD
  5
105
330
E2
100
AcDbSymbolTableRecord
100
AcDbBlockTableRecord
  2
CDWK_PTTYP26
340
0
  0
BLOCK_RECORD
  5
106
330
E2
100
AcDbSymbolTableRecord
100
AcDbBlockTableRecord
  2
CDWK_PTTYP27
340
0
  0
BLOCK_RECORD
  5
107
330
E2
100
AcDbSymbolTableRecord
100
AcDbBlockTableRecord
  2
CDWK_PTTYP28
340
0
  0
BLOCK_RECORD
  5
108
330
E2
100
AcDbSymbolTableRecord
100
AcDbBlockTableRecord
  2
CDWK_PTTYP29
340
0
  0
BLOCK_RECORD
  5
109
330
E2
100
AcDbSymbolTableRecord
100
AcDbBlockTableRecord
  2
CDWK_PTTYP30
340
0
  0
BLOCK_RECORD
  5
10A
330
E2
100
AcDbSymbolTableRecord
100
AcDbBlockTableRecord
  2
CDWK_PTTYP31
340
0
  0
BLOCK_RECORD
  5
10B
330
E2
100
AcDbSymbolTableRecord
100
AcDbBlockTableRecord
  2
CDWK_PTTYP32
340
0
  0
BLOCK_RECORD
  5
10C
330
E2
100
AcDbSymbolTableRecord
100
AcDbBlockTableRecord
  2
CDWK_PTTYP33
340
0
  0
BLOCK_RECORD
  5
10D
330
E2
100
AcDbSymbolTableRecord
100
AcDbBlockTableRecord
  2
CDWK_PTTYP34
340
0
  0
BLOCK_RECORD
  5
10E
330
E2
100
AcDbSymbolTableRecord
100
AcDbBlockTableRecord
  2
CDWK_PTTYP35
340
0
  0
BLOCK_RECORD
  5
10F
330
E2
100
AcDbSymbolTableRecord
100
AcDbBlockTableRecord
  2
CDWK_PTTYP36
340
0
  0
BLOCK_RECORD
  5
110
330
E2
100
AcDbSymbolTableRecord
100
AcDbBlockTableRecord
  2
CDWK_PTTYP37
340
0
  0
BLOCK_RECORD
  5
111
330
E2
100
AcDbSymbolTableRecord
100
AcDbBlockTableRecord
  2
CDWK_PTTYP38
340
0
  0
BLOCK_RECORD
  5
112
330
E2
100
AcDbSymbolTableRecord
100
AcDbBlockTableRecord
  2
*X45
340
0
102
{BLKREFS
331
3D4
102
}
  0
BLOCK_RECORD
  5
113
330
E2
100
AcDbSymbolTableRecord
100
AcDbBlockTableRecord
  2
*X46
340
0
102
{BLKREFS
331
3D5
102
}
  0
BLOCK_RECORD
  5
114
330
E2
100
AcDbSymbolTableRecord
100
AcDbBlockTableRecord
  2
*X47
340
0
102
{BLKREFS
331
3D6
102
}
  0
BLOCK_RECORD
  5
115
330
E2
100
AcDbSymbolTableRecord
100
AcDbBlockTableRecord
  2
*X48
340
0
102
{BLKREFS
331
3D7
102
}
  0
BLOCK_RECORD
  5
116
330
E2
100
AcDbSymbolTableRecord
100
AcDbBlockTableRecord
  2
*X49
340
0
102
{BLKREFS
331
3D8
102
}
  0
BLOCK_RECORD
  5
117
330
E2
100
AcDbSymbolTableRecord
100
AcDbBlockTableRecord
  2
*X50
340
0
102
{BLKREFS
331
3D9
102
}
  0
BLOCK_RECORD
  5
118
330
E2
100
AcDbSymbolTableRecord
100
AcDbBlockTableRecord
  2
*X51
340
0
102
{BLKREFS
331
3DA
102
}
  0
BLOCK_RECORD
  5
119
330
E2
100
AcDbSymbolTableRecord
100
AcDbBlockTableRecord
  2
*X52
340
0
102
{BLKREFS
331
3DB
102
}
  0
BLOCK_RECORD
  5
11A
330
E2
100
AcDbSymbolTableRecord
100
AcDbBlockTableRecord
  2
*X53
340
0
102
{BLKREFS
331
3DC
102
}
  0
BLOCK_RECORD
  5
11B
330
E2
100
AcDbSymbolTableRecord
100
AcDbBlockTableRecord
  2
*X54
340
0
102
{BLKREFS
331
3DD
102
}
  0
BLOCK_RECORD
  5
11C
330
E2
100
AcDbSymbolTableRecord
100
AcDbBlockTableRecord
  2
*X55
340
0
102
{BLKREFS
331
3DE
102
}
  0
BLOCK_RECORD
  5
11D
330
E2
100
AcDbSymbolTableRecord
100
AcDbBlockTableRecord
  2
*D56
340
0
102
{BLKREFS
331
477
102
}
  0
BLOCK_RECORD
  5
11E
330
E2
100
AcDbSymbolTableRecord
100
AcDbBlockTableRecord
  2
*D57
340
0
102
{BLKREFS
331
478
102
}
  0
BLOCK_RECORD
  5
11F
330
E2
100
AcDbSymbolTableRecord
100
AcDbBlockTableRecord
  2
A$C42653196
340
0
  0
BLOCK_RECORD
  5
120
330
E2
100
AcDbSymbolTableRecord
100
AcDbBlockTableRecord
  2
A$C3F0A7B51
340
0
  0
BLOCK_RECORD
  5
121
330
E2
100
AcDbSymbolTableRecord
100
AcDbBlockTableRecord
  2
PROFIL_L
340
0
  0
BLOCK_RECORD
  5
122
330
E2
100
AcDbSymbolTableRecord
100
AcDbBlockTableRecord
  2
A$C4DC86443
340
0
  0
ENDTAB
  0
ENDSEC
  0
SECTION
  2
BLOCKS
  0
BLOCK
  5
123
330
E3
100
AcDbEntity
  8
0
100
AcDbBlockBegin
  2
*MODEL_SPACE
 70
     0
 10
0.0
 20
0.0
 30
0.0
  3
*MODEL_SPACE
  1

  0
ENDBLK
  5
124
330
E3
100
AcDbEntity
  8
0
100
AcDbBlockEnd
  0
BLOCK
  5
125
330
E4
100
AcDbEntity
 67
     1
  8
0
100
AcDbBlockBegin
  2
*PAPER_SPACE
 70
     0
 10
0.0
 20
0.0
 30
0.0
  3
*PAPER_SPACE
  1

  0
ENDBLK
  5
126
330
E4
100
AcDbEntity
 67
     1
  8
0
100
AcDbBlockEnd
  0
BLOCK
  5
127
330
E5
100
AcDbEntity
  8
0
100
AcDbBlockBegin
  2
CDWK_EXTR_0
 70
     0
 10
0.0
 20
0.0
 30
0.0
  3
CDWK_EXTR_0
  1

  0
LINE
  5
128
330
E5
100
AcDbEntity
  8
0
 62
     0
370
    -2
100
AcDbLine
 10
0.0
 20
0.0
 30
0.0
 11
2.0
 21
0.5
 31
0.0
  0
LINE
  5
129
330
E5
100
AcDbEntity
  8
0
 62
     0
370
    -2
100
AcDbLine
 10
0.0
 20
0.0
 30
0.0
 11
2.0
 21
-0.5
 31
0.0
  0
LINE
  5
12A
330
E5
100
AcDbEntity
  8
0
 62
     0
370
    -2
100
AcDbLine
 10
2.0
 20
0.5
 30
0.0
 11
2.0
 21
-0.5
 31
0.0
  0
ENDBLK
  5
12B
330
E5
100
AcDbEntity
  8
0
100
AcDbBlockEnd
  0
BLOCK
  5
12C
330
E6
100
AcDbEntity
  8
0
100
AcDbBlockBegin
  2
CDWK_EXTR_1D
 70
     0
 10
0.0
 20
0.0
 30
0.0
  3
CDWK_EXTR_1D
  1

  0
LINE
  5
12D
330
E6
100
AcDbEntity
  8
0
 62
     0
370
    -2
100
AcDbLine
 10
0.0
 20
0.0
 30
0.0
 11
0.0
 21
1.0
 31
0.0
  0
LINE
  5
12E
330
E6
100
AcDbEntity
  8
0
 62
     0
370
    -2
100
AcDbLine
 10
0.0
 20
1.0
 30
0.0
 11
0.5
 21
1.5
 31
0.0
  0
LINE
  5
12F
330
E6
100
AcDbEntity
  8
0
 62
     0
370
    -2
100
AcDbLine
 10
0.5
 20
1.5
 30
0.0
 11
1.5
 21
1.5
 31
0.0
  0
ENDBLK
  5
130
330
E6
100
AcDbEntity
  8
0
100
AcDbBlockEnd
  0
BLOCK
  5
131
330
E7
100
AcDbEntity
  8
0
100
AcDbBlockBegin
  2
CDWK_EXTR_1G
 70
     0
 10
0.0
 20
0.0
 30
0.0
  3
CDWK_EXTR_1G
  1

  0
LINE
  5
132
330
E7
100
AcDbEntity
  8
0
 62
     0
370
    -2
100
AcDbLine
 10
0.0
 20
0.0
 30
0.0
 11
0.0
 21
-1.0
 31
0.0
  0
LINE
  5
133
330
E7
100
AcDbEntity
  8
0
 62
     0
370
    -2
100
AcDbLine
 10
0.0
 20
-1.0
 30
0.0
 11
0.5
 21
-1.5
 31
0.0
  0
LINE
  5
134
330
E7
100
AcDbEntity
  8
0
 62
     0
370
    -2
100
AcDbLine
 10
0.5
 20
-1.5
 30
0.0
 11
1.5
 21
-1.5
 31
0.0
  0
ENDBLK
  5
135
330
E7
100
AcDbEntity
  8
0
100
AcDbBlockEnd
  0
BLOCK
  5
136
330
E8
100
AcDbEntity
  8
0
100
AcDbBlockBegin
  2
CDWK_EXTR_2
 70
     0
 10
0.0
 20
0.0
 30
0.0
  3
CDWK_EXTR_2
  1

  0
SOLID
  5
137
330
E8
100
AcDbEntity
  8
0
 62
     0
100
AcDbTrace
 10
0.0
 20
0.0
 30
0.0
 11
2.0
 21
0.5
 31
0.0
 12
2.0
 22
-0.5
 32
0.0
 13
2.0
 23
-0.5
 33
0.0
  0
ENDBLK
  5
138
330
E8
100
AcDbEntity
  8
0
100
AcDbBlockEnd
  0
BLOCK
  5
139
330
E9
100
AcDbEntity
  8
0
100
AcDbBlockBegin
  2
CDWK_EXTR_3
 70
     0
 10
0.0
 20
0.0
 30
0.0
  3
CDWK_EXTR_3
  1

  0
SOLID
  5
13A
330
E9
100
AcDbEntity
  8
0
 62
     0
100
AcDbTrace
 10
0.0
 20
0.0
 30
0.0
 11
2.0
 21
0.5
 31
0.0
 12
2.0
 22
-0.5
 32
0.0
 13
2.0
 23
-0.5
 33
0.0
  0
LINE
  5
13B
330
E9
100
AcDbEntity
  8
0
 62
     0
370
    -2
100
AcDbLine
 10
0.0
 20
1.0
 30
0.0
 11
0.0
 21
-1.0
 31
0.0
  0
ENDBLK
  5
13C
330
E9
100
AcDbEntity
  8
0
100
AcDbBlockEnd
  0
BLOCK
  5
13D
330
EA
100
AcDbEntity
  8
0
100
AcDbBlockBegin
  2
CDWK_EXTR_4
 70
     0
 10
0.0
 20
0.0
 30
0.0
  3
CDWK_EXTR_4
  1

  0
HATCH
  5
13E
330
EA
100
AcDbEntity
  8
0
 62
     0
370
    20
100
AcDbHatch
 10
0.0
 20
0.0
 30
0.0
210
0.0
220
0.0
230
1.0
  2
SOLID
 70
     1
 71
     0
 91
        1
 92
        1
 93
        1
 72
     2
 10
0.0
 20
0.0
 40
0.5
 50
0.0
 51
360.0
 73
     1
 97
        0
 75
     0
 76
     1
 98
        1
 10
0.0
 20
0.0
  0
ENDBLK
  5
13F
330
EA
100
AcDbEntity
  8
0
100
AcDbBlockEnd
  0
BLOCK
  5
140
330
EB
100
AcDbEntity
  8
0
100
AcDbBlockBegin
  2
CDWK_PTTYP0
 70
     0
 10
0.0
 20
0.0
 30
0.0
  3
CDWK_PTTYP0
  1

  0
POINT
  5
141
330
EB
100
AcDbEntity
  8
0
 62
     0
100
AcDbPoint
 10
0.0
 20
0.0
 30
0.0
  0
ENDBLK
  5
142
330
EB
100
AcDbEntity
  8
0
100
AcDbBlockEnd
  0
BLOCK
  5
143
330
EC
100
AcDbEntity
  8
0
100
AcDbBlockBegin
  2
CDWK_PTTYP1
 70
     0
 10
0.0
 20
0.0
 30
0.0
  3
CDWK_PTTYP1
  1

  0
LINE
  5
144
330
EC
100
AcDbEntity
  8
0
 62
     0
370
    -2
100
AcDbLine
 10
-0.5
 20
0.5
 30
0.0
 11
0.5
 21
0.5
 31
0.0
  0
LINE
  5
145
330
EC
100
AcDbEntity
  8
0
 62
     0
370
    -2
100
AcDbLine
 10
0.5
 20
0.5
 30
0.0
 11
0.5
 21
-0.5
 31
0.0
  0
LINE
  5
146
330
EC
100
AcDbEntity
  8
0
 62
     0
370
    -2
100
AcDbLine
 10
0.5
 20
-0.5
 30
0.0
 11
-0.5
 21
-0.5
 31
0.0
  0
LINE
  5
147
330
EC
100
AcDbEntity
  8
0
 62
     0
370
    -2
100
AcDbLine
 10
-0.5
 20
-0.5
 30
0.0
 11
-0.5
 21
0.5
 31
0.0
  0
ENDBLK
  5
148
330
EC
100
AcDbEntity
  8
0
100
AcDbBlockEnd
  0
BLOCK
  5
149
330
ED
100
AcDbEntity
  8
0
100
AcDbBlockBegin
  2
CDWK_PTTYP2
 70
     0
 10
0.0
 20
0.0
 30
0.0
  3
CDWK_PTTYP2
  1

  0
LINE
  5
14A
330
ED
100
AcDbEntity
  8
0
 62
     0
370
    -2
100
AcDbLine
 10
0.0
 20
0.5
 30
0.0
 11
0.0
 21
-0.5
 31
0.0
  0
LINE
  5
14B
330
ED
100
AcDbEntity
  8
0
 62
     0
370
    -2
100
AcDbLine
 10
-0.5
 20
0.0
 30
0.0
 11
0.5
 21
0.0
 31
0.0
  0
ENDBLK
  5
14C
330
ED
100
AcDbEntity
  8
0
100
AcDbBlockEnd
  0
BLOCK
  5
14D
330
EE
100
AcDbEntity
  8
0
100
AcDbBlockBegin
  2
CDWK_PTTYP3
 70
     0
 10
0.0
 20
0.0
 30
0.0
  3
CDWK_PTTYP3
  1

  0
CIRCLE
  5
14E
330
EE
100
AcDbEntity
  8
0
 62
     0
370
    -2
100
AcDbCircle
 10
0.0
 20
0.0
 30
0.0
 40
0.5
  0
ENDBLK
  5
14F
330
EE
100
AcDbEntity
  8
0
100
AcDbBlockEnd
  0
BLOCK
  5
150
330
EF
100
AcDbEntity
  8
0
100
AcDbBlockBegin
  2
CDWK_PTTYP4
 70
     0
 10
0.0
 20
0.0
 30
0.0
  3
CDWK_PTTYP4
  1

  0
HATCH
  5
151
330
EF
100
AcDbEntity
  8
0
 62
     0
370
    20
100
AcDbHatch
 10
0.0
 20
0.0
 30
0.0
210
0.0
220
0.0
230
1.0
  2
SOLID
 70
     1
 71
     0
 91
        1
 92
        1
 93
        1
 72
     2
 10
0.0
 20
0.0
 40
0.5
 50
0.0
 51
360.0
 73
     1
 97
        0
 75
     0
 76
     1
 98
        1
 10
0.0
 20
0.0
  0
ENDBLK
  5
152
330
EF
100
AcDbEntity
  8
0
100
AcDbBlockEnd
  0
BLOCK
  5
153
330
F0
100
AcDbEntity
  8
0
100
AcDbBlockBegin
  2
CDWK_PTTYP5
 70
     0
 10
0.0
 20
0.0
 30
0.0
  3
CDWK_PTTYP5
  1

  0
LINE
  5
154
330
F0
100
AcDbEntity
  8
0
 62
     0
370
    -2
100
AcDbLine
 10
-0.5
 20
0.5
 30
0.0
 11
0.5
 21
0.5
 31
0.0
  0
LINE
  5
155
330
F0
100
AcDbEntity
  8
0
 62
     0
370
    -2
100
AcDbLine
 10
0.5
 20
0.5
 30
0.0
 11
0.5
 21
-0.5
 31
0.0
  0
LINE
  5
156
330
F0
100
AcDbEntity
  8
0
 62
     0
370
    -2
100
AcDbLine
 10
0.5
 20
-0.5
 30
0.0
 11
-0.5
 21
-0.5
 31
0.0
  0
LINE
  5
157
330
F0
100
AcDbEntity
  8
0
 62
     0
370
    -2
100
AcDbLine
 10
-0.5
 20
-0.5
 30
0.0
 11
-0.5
 21
0.5
 31
0.0
  0
SOLID
  5
158
330
F0
100
AcDbEntity
  8
0
 62
     0
100
AcDbTrace
 10
-0.5
 20
-0.5
 30
0.0
 11
-0.5
 21
0.0
 31
0.0
 12
0.0
 22
-0.5
 32
0.0
 13
0.0
 23
0.0
 33
0.0
  0
SOLID
  5
159
330
F0
100
AcDbEntity
  8
0
 62
     0
100
AcDbTrace
 10
0.0
 20
0.0
 30
0.0
 11
0.0
 21
0.5
 31
0.0
 12
0.5
 22
0.0
 32
0.0
 13
0.5
 23
0.5
 33
0.0
  0
ENDBLK
  5
15A
330
F0
100
AcDbEntity
  8
0
100
AcDbBlockEnd
  0
BLOCK
  5
15B
330
F1
100
AcDbEntity
  8
0
100
AcDbBlockBegin
  2
CDWK_PTTYP6
 70
     0
 10
0.0
 20
0.0
 30
0.0
  3
CDWK_PTTYP6
  1

  0
LINE
  5
15C
330
F1
100
AcDbEntity
  8
0
 62
     0
370
    -2
100
AcDbLine
 10
-0.5
 20
0.5
 30
0.0
 11
0.5
 21
0.5
 31
0.0
  0
LINE
  5
15D
330
F1
100
AcDbEntity
  8
0
 62
     0
370
    -2
100
AcDbLine
 10
0.5
 20
0.5
 30
0.0
 11
0.5
 21
-0.5
 31
0.0
  0
LINE
  5
15E
330
F1
100
AcDbEntity
  8
0
 62
     0
370
    -2
100
AcDbLine
 10
0.5
 20
-0.5
 30
0.0
 11
-0.5
 21
-0.5
 31
0.0
  0
LINE
  5
15F
330
F1
100
AcDbEntity
  8
0
 62
     0
370
    -2
100
AcDbLine
 10
-0.5
 20
-0.5
 30
0.0
 11
-0.5
 21
0.5
 31
0.0
  0
SOLID
  5
160
330
F1
100
AcDbEntity
  8
0
 62
     0
100
AcDbTrace
 10
-0.5
 20
-0.5
 30
0.0
 11
-0.5
 21
0.5
 31
0.0
 12
0.5
 22
0.5
 32
0.0
 13
0.5
 23
0.5
 33
0.0
  0
ENDBLK
  5
161
330
F1
100
AcDbEntity
  8
0
100
AcDbBlockEnd
  0
BLOCK
  5
162
330
F2
100
AcDbEntity
  8
0
100
AcDbBlockBegin
  2
CDWK_PTTYP7
 70
     0
 10
0.0
 20
0.0
 30
0.0
  3
CDWK_PTTYP7
  1

  0
LINE
  5
163
330
F2
100
AcDbEntity
  8
0
 62
     0
370
    -2
100
AcDbLine
 10
-0.5
 20
0.5
 30
0.0
 11
0.5
 21
0.5
 31
0.0
  0
LINE
  5
164
330
F2
100
AcDbEntity
  8
0
 62
     0
370
    -2
100
AcDbLine
 10
0.5
 20
0.5
 30
0.0
 11
0.5
 21
-0.5
 31
0.0
  0
LINE
  5
165
330
F2
100
AcDbEntity
  8
0
 62
     0
370
    -2
100
AcDbLine
 10
0.5
 20
-0.5
 30
0.0
 11
-0.5
 21
-0.5
 31
0.0
  0
LINE
  5
166
330
F2
100
AcDbEntity
  8
0
 62
     0
370
    -2
100
AcDbLine
 10
-0.5
 20
-0.5
 30
0.0
 11
-0.5
 21
0.5
 31
0.0
  0
LINE
  5
167
330
F2
100
AcDbEntity
  8
0
 62
     0
370
    -2
100
AcDbLine
 10
0.0
 20
0.5
 30
0.0
 11
0.0
 21
-0.5
 31
0.0
  0
LINE
  5
168
330
F2
100
AcDbEntity
  8
0
 62
     0
370
    -2
100
AcDbLine
 10
-0.5
 20
0.0
 30
0.0
 11
0.5
 21
0.0
 31
0.0
  0
ENDBLK
  5
169
330
F2
100
AcDbEntity
  8
0
100
AcDbBlockEnd
  0
BLOCK
  5
16A
330
F3
100
AcDbEntity
  8
0
100
AcDbBlockBegin
  2
CDWK_PTTYP8
 70
     0
 10
0.0
 20
0.0
 30
0.0
  3
CDWK_PTTYP8
  1

  0
SOLID
  5
16B
330
F3
100
AcDbEntity
  8
0
 62
     0
100
AcDbTrace
 10
-0.5
 20
0.5
 30
0.0
 11
0.5
 21
0.5
 31
0.0
 12
-0.5
 22
-0.5
 32
0.0
 13
0.5
 23
-0.5
 33
0.0
  0
ENDBLK
  5
16C
330
F3
100
AcDbEntity
  8
0
100
AcDbBlockEnd
  0
BLOCK
  5
16D
330
F4
100
AcDbEntity
  8
0
100
AcDbBlockBegin
  2
CDWK_PTTYP9
 70
     0
 10
0.0
 20
0.0
 30
0.0
  3
CDWK_PTTYP9
  1

  0
CIRCLE
  5
16E
330
F4
100
AcDbEntity
  8
0
 62
     0
370
    -2
100
AcDbCircle
 10
0.0
 20
0.0
 30
0.0
 40
0.5
  0
CIRCLE
  5
16F
330
F4
100
AcDbEntity
  8
0
 62
     0
370
    -2
100
AcDbCircle
 10
0.0
 20
0.0
 30
0.0
 40
0.16666667
  0
ENDBLK
  5
170
330
F4
100
AcDbEntity
  8
0
100
AcDbBlockEnd
  0
BLOCK
  5
171
330
F5
100
AcDbEntity
  8
0
100
AcDbBlockBegin
  2
CDWK_PTTYP10
 70
     0
 10
0.0
 20
0.0
 30
0.0
  3
CDWK_PTTYP10
  1

  0
CIRCLE
  5
172
330
F5
100
AcDbEntity
  8
0
 62
     0
370
    -2
100
AcDbCircle
 10
0.0
 20
0.0
 30
0.0
 40
0.5
  0
ENDBLK
  5
173
330
F5
100
AcDbEntity
  8
0
100
AcDbBlockEnd
  0
BLOCK
  5
174
330
F6
100
AcDbEntity
  8
0
100
AcDbBlockBegin
  2
CDWK_PTTYP11
 70
     0
 10
0.0
 20
0.0
 30
0.0
  3
CDWK_PTTYP11
  1

  0
CIRCLE
  5
175
330
F6
100
AcDbEntity
  8
0
 62
     0
370
    -2
100
AcDbCircle
 10
0.0
 20
0.0
 30
0.0
 40
0.5
  0
CIRCLE
  5
176
330
F6
100
AcDbEntity
  8
0
 62
     0
370
    -2
100
AcDbCircle
 10
0.0
 20
0.0
 30
0.0
 40
0.25
  0
ENDBLK
  5
177
330
F6
100
AcDbEntity
  8
0
100
AcDbBlockEnd
  0
BLOCK
  5
178
330
F7
100
AcDbEntity
  8
0
100
AcDbBlockBegin
  2
CDWK_PTTYP12
 70
     0
 10
0.0
 20
0.0
 30
0.0
  3
CDWK_PTTYP12
  1

  0
CIRCLE
  5
179
330
F7
100
AcDbEntity
  8
0
 62
     0
370
    -2
100
AcDbCircle
 10
0.0
 20
0.0
 30
0.0
 40
0.5
  0
CIRCLE
  5
17A
330
F7
100
AcDbEntity
  8
0
 62
     0
370
    -2
100
AcDbCircle
 10
0.25
 20
0.0
 30
0.0
 40
0.25
  0
ENDBLK
  5
17B
330
F7
100
AcDbEntity
  8
0
100
AcDbBlockEnd
  0
BLOCK
  5
17C
330
F8
100
AcDbEntity
  8
0
100
AcDbBlockBegin
  2
CDWK_PTTYP13
 70
     0
 10
0.0
 20
0.0
 30
0.0
  3
CDWK_PTTYP13
  1

  0
CIRCLE
  5
17D
330
F8
100
AcDbEntity
  8
0
 62
     0
370
    -2
100
AcDbCircle
 10
0.0
 20
0.0
 30
0.0
 40
0.5
  0
CIRCLE
  5
17E
330
F8
100
AcDbEntity
  8
0
 62
     0
370
    -2
100
AcDbCircle
 10
0.25
 20
0.0
 30
0.0
 40
0.25
  0
CIRCLE
  5
17F
330
F8
100
AcDbEntity
  8
0
 62
     0
370
    -2
100
AcDbCircle
 10
-0.25
 20
0.0
 30
0.0
 40
0.25
  0
ENDBLK
  5
180
330
F8
100
AcDbEntity
  8
0
100
AcDbBlockEnd
  0
BLOCK
  5
181
330
F9
100
AcDbEntity
  8
0
100
AcDbBlockBegin
  2
CDWK_PTTYP14
 70
     0
 10
0.0
 20
0.0
 30
0.0
  3
CDWK_PTTYP14
  1

  0
POINT
  5
182
330
F9
100
AcDbEntity
  8
0
 62
     0
100
AcDbPoint
 10
0.0
 20
0.0
 30
0.0
  0
ENDBLK
  5
183
330
F9
100
AcDbEntity
  8
0
100
AcDbBlockEnd
  0
BLOCK
  5
184
330
FA
100
AcDbEntity
  8
0
100
AcDbBlockBegin
  2
CDWK_PTTYP15
 70
     0
 10
0.0
 20
0.0
 30
0.0
  3
CDWK_PTTYP15
  1

  0
POINT
  5
185
330
FA
100
AcDbEntity
  8
0
 62
     0
100
AcDbPoint
 10
0.0
 20
0.0
 30
0.0
  0
ENDBLK
  5
186
330
FA
100
AcDbEntity
  8
0
100
AcDbBlockEnd
  0
BLOCK
  5
187
330
FB
100
AcDbEntity
  8
0
100
AcDbBlockBegin
  2
CDWK_PTTYP16
 70
     0
 10
0.0
 20
0.0
 30
0.0
  3
CDWK_PTTYP16
  1

  0
LINE
  5
188
330
FB
100
AcDbEntity
  8
0
 62
     0
370
    -2
100
AcDbLine
 10
-0.5
 20
-0.28867513
 30
0.0
 11
0.5
 21
-0.28867513
 31
0.0
  0
LINE
  5
189
330
FB
100
AcDbEntity
  8
0
 62
     0
370
    -2
100
AcDbLine
 10
0.5
 20
-0.28867513
 30
0.0
 11
0.0
 21
0.5773502700000001
 31
0.0
  0
LINE
  5
18A
330
FB
100
AcDbEntity
  8
0
 62
     0
370
    -2
100
AcDbLine
 10
0.0
 20
0.5773502700000001
 30
0.0
 11
-0.5
 21
-0.28867513
 31
0.0
  0
CIRCLE
  5
18B
330
FB
100
AcDbEntity
  8
0
 62
     0
370
    -2
100
AcDbCircle
 10
0.0
 20
0.0
 30
0.0
 40
0.28867513
  0
ENDBLK
  5
18C
330
FB
100
AcDbEntity
  8
0
100
AcDbBlockEnd
  0
BLOCK
  5
18D
330
FC
100
AcDbEntity
  8
0
100
AcDbBlockBegin
  2
CDWK_PTTYP17
 70
     0
 10
0.0
 20
0.0
 30
0.0
  3
CDWK_PTTYP17
  1

  0
CIRCLE
  5
18E
330
FC
100
AcDbEntity
  8
0
 62
     0
370
    -2
100
AcDbCircle
 10
0.0
 20
0.0
 30
0.0
 40
0.5
  0
HATCH
  5
18F
330
FC
100
AcDbEntity
  8
0
 62
     0
370
   211
100
AcDbHatch
 10
0.0
 20
0.0
 30
0.0
210
0.0
220
0.0
230
1.0
  2
SOLID
 70
     1
 71
     0
 91
        1
 92
        1
 93
        1
 72
     2
 10
0.0
 20
0.0
 40
0.25
 50
0.0
 51
360.0
 73
     1
 97
        0
 75
     0
 76
     1
 98
        1
 10
0.0
 20
0.0
  0
ENDBLK
  5
190
330
FC
100
AcDbEntity
  8
0
100
AcDbBlockEnd
  0
BLOCK
  5
191
330
FD
100
AcDbEntity
  8
0
100
AcDbBlockBegin
  2
CDWK_PTTYP18
 70
     0
 10
0.0
 20
0.0
 30
0.0
  3
CDWK_PTTYP18
  1

  0
CIRCLE
  5
192
330
FD
100
AcDbEntity
  8
0
 62
     0
370
    -2
100
AcDbCircle
 10
0.0
 20
0.0
 30
0.0
 40
0.5
  0
CIRCLE
  5
193
330
FD
100
AcDbEntity
  8
0
 62
     0
370
    -2
100
AcDbCircle
 10
0.0
 20
0.0
 30
0.0
 40
0.2
  0
ENDBLK
  5
194
330
FD
100
AcDbEntity
  8
0
100
AcDbBlockEnd
  0
BLOCK
  5
195
330
FE
100
AcDbEntity
  8
0
100
AcDbBlockBegin
  2
CDWK_PTTYP19
 70
     0
 10
0.0
 20
0.0
 30
0.0
  3
CDWK_PTTYP19
  1

  0
CIRCLE
  5
196
330
FE
100
AcDbEntity
  8
0
 62
     0
370
    -2
100
AcDbCircle
 10
0.0
 20
0.0
 30
0.0
 40
0.4
  0
CIRCLE
  5
197
330
FE
100
AcDbEntity
  8
0
 62
     0
370
    -2
100
AcDbCircle
 10
0.0
 20
0.0
 30
0.0
 40
0.25
  0
LINE
  5
198
330
FE
100
AcDbEntity
  8
0
 62
     0
370
    -2
100
AcDbLine
 10
-0.25
 20
0.0
 30
0.0
 11
0.25
 21
0.0
 31
0.0
  0
ENDBLK
  5
199
330
FE
100
AcDbEntity
  8
0
100
AcDbBlockEnd
  0
BLOCK
  5
19A
330
FF
100
AcDbEntity
  8
0
100
AcDbBlockBegin
  2
CDWK_PTTYP20
 70
     0
 10
0.0
 20
0.0
 30
0.0
  3
CDWK_PTTYP20
  1

  0
CIRCLE
  5
19B
330
FF
100
AcDbEntity
  8
0
 62
     0
370
    -2
100
AcDbCircle
 10
0.0
 20
0.0
 30
0.0
 40
0.5
  0
CIRCLE
  5
19C
330
FF
100
AcDbEntity
  8
0
 62
     0
370
    -2
100
AcDbCircle
 10
0.0
 20
0.0
 30
0.0
 40
0.3
  0
ENDBLK
  5
19D
330
FF
100
AcDbEntity
  8
0
100
AcDbBlockEnd
  0
BLOCK
  5
19E
330
100
100
AcDbEntity
  8
0
100
AcDbBlockBegin
  2
CDWK_PTTYP21
 70
     0
 10
0.0
 20
0.0
 30
0.0
  3
CDWK_PTTYP21
  1

  0
CIRCLE
  5
19F
330
100
100
AcDbEntity
  8
0
 62
     0
370
    -2
100
AcDbCircle
 10
0.0
 20
0.0
 30
0.0
 40
0.5
  0
LINE
  5
1A0
330
100
100
AcDbEntity
  8
0
 62
     0
370
    -2
100
AcDbLine
 10
-0.5
 20
0.0
 30
0.0
 11
0.5
 21
0.0
 31
0.0
  0
ENDBLK
  5
1A1
330
100
100
AcDbEntity
  8
0
100
AcDbBlockEnd
  0
BLOCK
  5
1A2
330
101
100
AcDbEntity
  8
0
100
AcDbBlockBegin
  2
CDWK_PTTYP22
 70
     0
 10
0.0
 20
0.0
 30
0.0
  3
CDWK_PTTYP22
  1

  0
POINT
  5
1A3
330
101
100
AcDbEntity
  8
0
 62
     0
100
AcDbPoint
 10
0.0
 20
0.0
 30
0.0
  0
ENDBLK
  5
1A4
330
101
100
AcDbEntity
  8
0
100
AcDbBlockEnd
  0
BLOCK
  5
1A5
330
102
100
AcDbEntity
  8
0
100
AcDbBlockBegin
  2
CDWK_PTTYP23
 70
     0
 10
0.0
 20
0.0
 30
0.0
  3
CDWK_PTTYP23
  1

  0
POINT
  5
1A6
330
102
100
AcDbEntity
  8
0
 62
     0
100
AcDbPoint
 10
0.0
 20
0.0
 30
0.0
  0
ENDBLK
  5
1A7
330
102
100
AcDbEntity
  8
0
100
AcDbBlockEnd
  0
BLOCK
  5
1A8
330
103
100
AcDbEntity
  8
0
100
AcDbBlockBegin
  2
CDWK_PTTYP24
 70
     0
 10
0.0
 20
0.0
 30
0.0
  3
CDWK_PTTYP24
  1

  0
POINT
  5
1A9
330
103
100
AcDbEntity
  8
0
 62
     0
100
AcDbPoint
 10
0.0
 20
0.0
 30
0.0
  0
ENDBLK
  5
1AA
330
103
100
AcDbEntity
  8
0
100
AcDbBlockEnd
  0
BLOCK
  5
1AB
330
104
100
AcDbEntity
  8
0
100
AcDbBlockBegin
  2
CDWK_PTTYP25
 70
     0
 10
0.0
 20
0.0
 30
0.0
  3
CDWK_PTTYP25
  1

  0
LINE
  5
1AC
330
104
100
AcDbEntity
  8
0
 62
     0
370
    -2
100
AcDbLine
 10
-0.43290044
 20
-0.25
 30
0.0
 11
0.43290044
 21
-0.25
 31
0.0
  0
LINE
  5
1AD
330
104
100
AcDbEntity
  8
0
 62
     0
370
    -2
100
AcDbLine
 10
-0.43290044
 20
-0.25
 30
0.0
 11
0.0
 21
0.5
 31
0.0
  0
LINE
  5
1AE
330
104
100
AcDbEntity
  8
0
 62
     0
370
    -2
100
AcDbLine
 10
0.43290044
 20
-0.25
 30
0.0
 11
0.0
 21
0.5
 31
0.0
  0
CIRCLE
  5
1AF
330
104
100
AcDbEntity
  8
0
 62
     0
370
    -2
100
AcDbCircle
 10
0.0
 20
0.0
 30
0.0
 40
0.5
  0
ENDBLK
  5
1B0
330
104
100
AcDbEntity
  8
0
100
AcDbBlockEnd
  0
BLOCK
  5
1B1
330
105
100
AcDbEntity
  8
0
100
AcDbBlockBegin
  2
CDWK_PTTYP26
 70
     0
 10
0.0
 20
0.0
 30
0.0
  3
CDWK_PTTYP26
  1

  0
LINE
  5
1B2
330
105
100
AcDbEntity
  8
0
 62
     0
370
    -2
100
AcDbLine
 10
-0.5
 20
-0.28850001
 30
0.0
 11
0.5
 21
-0.28850001
 31
0.0
  0
LINE
  5
1B3
330
105
100
AcDbEntity
  8
0
 62
     0
370
    -2
100
AcDbLine
 10
-0.5
 20
-0.28850001
 30
0.0
 11
0.0
 21
0.5773672100000001
 31
0.0
  0
LINE
  5
1B4
330
105
100
AcDbEntity
  8
0
 62
     0
370
    -2
100
AcDbLine
 10
0.5
 20
-0.28850001
 30
0.0
 11
0.0
 21
0.5773672100000001
 31
0.0
  0
CIRCLE
  5
1B5
330
105
100
AcDbEntity
  8
0
 62
     0
370
    -2
100
AcDbCircle
 10
0.0
 20
0.0
 30
0.0
 40
0.1312336
  0
ENDBLK
  5
1B6
330
105
100
AcDbEntity
  8
0
100
AcDbBlockEnd
  0
BLOCK
  5
1B7
330
106
100
AcDbEntity
  8
0
100
AcDbBlockBegin
  2
CDWK_PTTYP27
 70
     0
 10
0.0
 20
0.0
 30
0.0
  3
CDWK_PTTYP27
  1

  0
LINE
  5
1B8
330
106
100
AcDbEntity
  8
0
 62
     0
370
    -2
100
AcDbLine
 10
-0.43290044
 20
-0.25
 30
0.0
 11
0.43290044
 21
-0.25
 31
0.0
  0
LINE
  5
1B9
330
106
100
AcDbEntity
  8
0
 62
     0
370
    -2
100
AcDbLine
 10
-0.43290044
 20
-0.25
 30
0.0
 11
0.0
 21
0.5
 31
0.0
  0
LINE
  5
1BA
330
106
100
AcDbEntity
  8
0
 62
     0
370
    -2
100
AcDbLine
 10
0.43290044
 20
-0.25
 30
0.0
 11
0.0
 21
0.5
 31
0.0
  0
CIRCLE
  5
1BB
330
106
100
AcDbEntity
  8
0
 62
     0
370
    -2
100
AcDbCircle
 10
0.0
 20
0.0
 30
0.0
 40
0.5
  0
CIRCLE
  5
1BC
330
106
100
AcDbEntity
  8
0
 62
     0
370
    -2
100
AcDbCircle
 10
0.0
 20
0.0
 30
0.0
 40
0.1312336
  0
ENDBLK
  5
1BD
330
106
100
AcDbEntity
  8
0
100
AcDbBlockEnd
  0
BLOCK
  5
1BE
330
107
100
AcDbEntity
  8
0
100
AcDbBlockBegin
  2
CDWK_PTTYP28
 70
     0
 10
0.0
 20
0.0
 30
0.0
  3
CDWK_PTTYP28
  1

  0
POINT
  5
1BF
330
107
100
AcDbEntity
  8
0
 62
     0
100
AcDbPoint
 10
0.0
 20
0.0
 30
0.0
  0
ENDBLK
  5
1C0
330
107
100
AcDbEntity
  8
0
100
AcDbBlockEnd
  0
BLOCK
  5
1C1
330
108
100
AcDbEntity
  8
0
100
AcDbBlockBegin
  2
CDWK_PTTYP29
 70
     0
 10
0.0
 20
0.0
 30
0.0
  3
CDWK_PTTYP29
  1

  0
CIRCLE
  5
1C2
330
108
100
AcDbEntity
  8
0
 62
     0
370
    -2
100
AcDbCircle
 10
0.0
 20
0.0
 30
0.0
 40
0.5
  0
CIRCLE
  5
1C3
330
108
100
AcDbEntity
  8
0
 62
     0
370
    -2
100
AcDbCircle
 10
0.0
 20
0.0
 30
0.0
 40
0.375
  0
CIRCLE
  5
1C4
330
108
100
AcDbEntity
  8
0
 62
     0
370
    -2
100
AcDbCircle
 10
0.0
 20
0.0
 30
0.0
 40
0.21875
  0
ENDBLK
  5
1C5
330
108
100
AcDbEntity
  8
0
100
AcDbBlockEnd
  0
BLOCK
  5
1C6
330
109
100
AcDbEntity
  8
0
100
AcDbBlockBegin
  2
CDWK_PTTYP30
 70
     0
 10
0.0
 20
0.0
 30
0.0
  3
CDWK_PTTYP30
  1

  0
LINE
  5
1C7
330
109
100
AcDbEntity
  8
0
 62
     0
370
    -2
100
AcDbLine
 10
0.17680339
 20
0.17680339
 30
0.0
 11
0.5
 21
0.5
 31
0.0
  0
LINE
  5
1C8
330
109
100
AcDbEntity
  8
0
 62
     0
370
    -2
100
AcDbLine
 10
-0.17680339
 20
0.17680339
 30
0.0
 11
-0.5
 21
0.5
 31
0.0
  0
LINE
  5
1C9
330
109
100
AcDbEntity
  8
0
 62
     0
370
    -2
100
AcDbLine
 10
0.17680339
 20
-0.17680339
 30
0.0
 11
0.5
 21
-0.5
 31
0.0
  0
LINE
  5
1CA
330
109
100
AcDbEntity
  8
0
 62
     0
370
    -2
100
AcDbLine
 10
-0.17680339
 20
-0.17680339
 30
0.0
 11
-0.5
 21
-0.5
 31
0.0
  0
ENDBLK
  5
1CB
330
109
100
AcDbEntity
  8
0
100
AcDbBlockEnd
  0
BLOCK
  5
1CC
330
10A
100
AcDbEntity
  8
0
100
AcDbBlockBegin
  2
CDWK_PTTYP31
 70
     0
 10
0.0
 20
0.0
 30
0.0
  3
CDWK_PTTYP31
  1

  0
CIRCLE
  5
1CD
330
10A
100
AcDbEntity
  8
0
 62
     0
370
    -2
100
AcDbCircle
 10
0.0
 20
0.0
 30
0.0
 40
0.075
  0
LINE
  5
1CE
330
10A
100
AcDbEntity
  8
0
 62
     0
370
    -2
100
AcDbLine
 10
0.075
 20
0.0
 30
0.0
 11
0.5
 21
0.0
 31
0.0
  0
LINE
  5
1CF
330
10A
100
AcDbEntity
  8
0
 62
     0
370
    -2
100
AcDbLine
 10
-0.075
 20
0.0
 30
0.0
 11
-0.5
 21
0.0
 31
0.0
  0
LINE
  5
1D0
330
10A
100
AcDbEntity
  8
0
 62
     0
370
    -2
100
AcDbLine
 10
0.0
 20
0.075
 30
0.0
 11
0.0
 21
0.5
 31
0.0
  0
LINE
  5
1D1
330
10A
100
AcDbEntity
  8
0
 62
     0
370
    -2
100
AcDbLine
 10
0.0
 20
-0.075
 30
0.0
 11
0.0
 21
-0.5
 31
0.0
  0
ENDBLK
  5
1D2
330
10A
100
AcDbEntity
  8
0
100
AcDbBlockEnd
  0
BLOCK
  5
1D3
330
10B
100
AcDbEntity
  8
0
100
AcDbBlockBegin
  2
CDWK_PTTYP32
 70
     0
 10
0.0
 20
0.0
 30
0.0
  3
CDWK_PTTYP32
  1

  0
CIRCLE
  5
1D4
330
10B
100
AcDbEntity
  8
0
 62
     0
370
    -2
100
AcDbCircle
 10
0.0
 20
0.0
 30
0.0
 40
0.5
  0
CIRCLE
  5
1D5
330
10B
100
AcDbEntity
  8
0
 62
     0
370
    -2
100
AcDbCircle
 10
0.0
 20
0.0
 30
0.0
 40
0.16666667
  0
LINE
  5
1D6
330
10B
100
AcDbEntity
  8
0
 62
     0
370
    -2
100
AcDbLine
 10
0.11786893
 20
0.11786893
 30
0.0
 11
0.35360678
 21
0.35360678
 31
0.0
  0
LINE
  5
1D7
330
10B
100
AcDbEntity
  8
0
 62
     0
370
    -2
100
AcDbLine
 10
-0.11786893
 20
0.11786893
 30
0.0
 11
-0.35360678
 21
0.35360678
 31
0.0
  0
LINE
  5
1D8
330
10B
100
AcDbEntity
  8
0
 62
     0
370
    -2
100
AcDbLine
 10
0.11786893
 20
-0.11786893
 30
0.0
 11
0.35360678
 21
-0.35360678
 31
0.0
  0
LINE
  5
1D9
330
10B
100
AcDbEntity
  8
0
 62
     0
370
    -2
100
AcDbLine
 10
-0.11786893
 20
-0.11786893
 30
0.0
 11
-0.35360678
 21
-0.35360678
 31
0.0
  0
ENDBLK
  5
1DA
330
10B
100
AcDbEntity
  8
0
100
AcDbBlockEnd
  0
BLOCK
  5
1DB
330
10C
100
AcDbEntity
  8
0
100
AcDbBlockBegin
  2
CDWK_PTTYP33
 70
     0
 10
0.0
 20
0.0
 30
0.0
  3
CDWK_PTTYP33
  1

  0
CIRCLE
  5
1DC
330
10C
100
AcDbEntity
  8
0
 62
     0
370
    -2
100
AcDbCircle
 10
0.0
 20
0.0
 30
0.0
 40
0.5
  0
LINE
  5
1DD
330
10C
100
AcDbEntity
  8
0
 62
     0
370
    -2
100
AcDbLine
 10
0.0
 20
0.5
 30
0.0
 11
0.0
 21
-0.5
 31
0.0
  0
LINE
  5
1DE
330
10C
100
AcDbEntity
  8
0
 62
     0
370
    -2
100
AcDbLine
 10
-0.5
 20
0.0
 30
0.0
 11
0.5
 21
0.0
 31
0.0
  0
ENDBLK
  5
1DF
330
10C
100
AcDbEntity
  8
0
100
AcDbBlockEnd
  0
BLOCK
  5
1E0
330
10D
100
AcDbEntity
  8
0
100
AcDbBlockBegin
  2
CDWK_PTTYP34
 70
     0
 10
0.0
 20
0.0
 30
0.0
  3
CDWK_PTTYP34
  1

  0
CIRCLE
  5
1E1
330
10D
100
AcDbEntity
  8
0
 62
     0
370
    -2
100
AcDbCircle
 10
0.0
 20
0.0
 30
0.0
 40
0.5
  0
LINE
  5
1E2
330
10D
100
AcDbEntity
  8
0
 62
     0
370
    -2
100
AcDbLine
 10
-0.30360678
 20
-0.40360678
 30
0.0
 11
0.40360678
 21
0.30360678
 31
0.0
  0
LINE
  5
1E3
330
10D
100
AcDbEntity
  8
0
 62
     0
370
    -2
100
AcDbLine
 10
-0.40360678
 20
-0.30360678
 30
0.0
 11
0.30360678
 21
0.40360678
 31
0.0
  0
ENDBLK
  5
1E4
330
10D
100
AcDbEntity
  8
0
100
AcDbBlockEnd
  0
BLOCK
  5
1E5
330
10E
100
AcDbEntity
  8
0
100
AcDbBlockBegin
  2
CDWK_PTTYP35
 70
     0
 10
0.0
 20
0.0
 30
0.0
  3
CDWK_PTTYP35
  1

  0
CIRCLE
  5
1E6
330
10E
100
AcDbEntity
  8
0
 62
     0
370
    -2
100
AcDbCircle
 10
0.0
 20
0.0
 30
0.0
 40
0.21431634
  0
LINE
  5
1E7
330
10E
100
AcDbEntity
  8
0
 62
     0
370
    -2
100
AcDbLine
 10
0.0
 20
0.21431634
 30
0.0
 11
0.0
 21
0.5
 31
0.0
  0
LINE
  5
1E8
330
10E
100
AcDbEntity
  8
0
 62
     0
370
    -2
100
AcDbLine
 10
0.0
 20
-0.21431634
 30
0.0
 11
0.0
 21
-0.5
 31
0.0
  0
ENDBLK
  5
1E9
330
10E
100
AcDbEntity
  8
0
100
AcDbBlockEnd
  0
BLOCK
  5
1EA
330
10F
100
AcDbEntity
  8
0
100
AcDbBlockBegin
  2
CDWK_PTTYP36
 70
     0
 10
0.0
 20
0.0
 30
0.0
  3
CDWK_PTTYP36
  1

  0
LINE
  5
1EB
330
10F
100
AcDbEntity
  8
0
 62
     0
370
    -2
100
AcDbLine
 10
-0.5
 20
-0.16666667
 30
0.0
 11
0.5
 21
-0.16666667
 31
0.0
  0
LINE
  5
1EC
330
10F
100
AcDbEntity
  8
0
 62
     0
370
    -2
100
AcDbLine
 10
0.5
 20
-0.16666667
 30
0.0
 11
0.5
 21
0.16666667
 31
0.0
  0
LINE
  5
1ED
330
10F
100
AcDbEntity
  8
0
 62
     0
370
    -2
100
AcDbLine
 10
0.5
 20
0.16666667
 30
0.0
 11
-0.5
 21
0.16666667
 31
0.0
  0
LINE
  5
1EE
330
10F
100
AcDbEntity
  8
0
 62
     0
370
    -2
100
AcDbLine
 10
-0.5
 20
0.16666667
 30
0.0
 11
-0.5
 21
-0.16666667
 31
0.0
  0
SOLID
  5
1EF
330
10F
100
AcDbEntity
  8
0
 62
     0
100
AcDbTrace
 10
-0.5
 20
-0.16666667
 30
0.0
 11
0.5
 21
0.16666667
 31
0.0
 12
0.5
 22
-0.16666667
 32
0.0
 13
0.5
 23
-0.16666667
 33
0.0
  0
ENDBLK
  5
1F0
330
10F
100
AcDbEntity
  8
0
100
AcDbBlockEnd
  0
BLOCK
  5
1F1
330
110
100
AcDbEntity
  8
0
100
AcDbBlockBegin
  2
CDWK_PTTYP37
 70
     0
 10
0.0
 20
0.0
 30
0.0
  3
CDWK_PTTYP37
  1

  0
CIRCLE
  5
1F2
330
110
100
AcDbEntity
  8
0
 62
     0
370
    -2
100
AcDbCircle
 10
0.0
 20
0.0
 30
0.0
 40
0.5
  0
SOLID
  5
1F3
330
110
100
AcDbEntity
  8
0
 62
     0
100
AcDbTrace
 10
0.0
 20
0.0
 30
0.0
 11
0.3535000099999999
 21
0.3535000099999999
 31
0.0
 12
0.5
 22
0.0
 32
0.0
 13
0.4620000100000001
 23
0.19149999
 33
0.0
  0
SOLID
  5
1F4
330
110
100
AcDbEntity
  8
0
 62
     0
100
AcDbTrace
 10
0.0
 20
0.0
 30
0.0
 11
0.3535000099999999
 21
-0.3535000099999999
 31
0.0
 12
0.5
 22
0.0
 32
0.0
 13
0.4620000100000001
 23
-0.19149999
 33
0.0
  0
SOLID
  5
1F5
330
110
100
AcDbEntity
  8
0
 62
     0
100
AcDbTrace
 10
0.0
 20
0.0
 30
0.0
 11
0.0
 21
-0.5
 31
0.0
 12
0.3535000099999999
 22
-0.3535000099999999
 32
0.0
 13
0.19149999
 23
-0.4620000100000001
 33
0.0
  0
SOLID
  5
1F6
330
110
100
AcDbEntity
  8
0
 62
     0
100
AcDbTrace
 10
0.0
 20
0.0
 30
0.0
 11
0.0
 21
-0.5
 31
0.0
 12
-0.3535000099999999
 22
-0.3535000099999999
 32
0.0
 13
-0.19149999
 23
-0.4620000100000001
 33
0.0
  0
ENDBLK
  5
1F7
330
110
100
AcDbEntity
  8
0
100
AcDbBlockEnd
  0
BLOCK
  5
1F8
330
111
100
AcDbEntity
  8
0
100
AcDbBlockBegin
  2
CDWK_PTTYP38
 70
     0
 10
0.0
 20
0.0
 30
0.0
  3
CDWK_PTTYP38
  1

  0
CIRCLE
  5
1F9
330
111
100
AcDbEntity
  8
0
 62
     0
370
    -2
100
AcDbCircle
 10
0.0
 20
0.0
 30
0.0
 40
0.5
  0
SOLID
  5
1FA
330
111
100
AcDbEntity
  8
0
 62
     0
100
AcDbTrace
 10
0.0
 20
0.0
 30
0.0
 11
0.3535000099999999
 21
0.3535000099999999
 31
0.0
 12
0.0
 22
0.5
 32
0.0
 13
0.19149999
 23
0.4620000100000001
 33
0.0
  0
SOLID
  5
1FB
330
111
100
AcDbEntity
  8
0
 62
     0
100
AcDbTrace
 10
0.0
 20
0.0
 30
0.0
 11
0.5
 21
0.0
 31
0.0
 12
0.3535000099999999
 22
0.3535000099999999
 32
0.0
 13
0.4620000100000001
 23
0.19149999
 33
0.0
  0
SOLID
  5
1FC
330
111
100
AcDbEntity
  8
0
 62
     0
100
AcDbTrace
 10
0.0
 20
0.0
 30
0.0
 11
0.0
 21
-0.5
 31
0.0
 12
-0.3535000099999999
 22
-0.3535000099999999
 32
0.0
 13
-0.19149999
 23
-0.4620000100000001
 33
0.0
  0
SOLID
  5
1FD
330
111
100
AcDbEntity
  8
0
 62
     0
100
AcDbTrace
 10
0.0
 20
0.0
 30
0.0
 11
-0.5
 21
0.0
 31
0.0
 12
-0.3535000099999999
 22
-0.3535000099999999
 32
0.0
 13
-0.4620000100000001
 23
-0.19149999
 33
0.0
  0
ENDBLK
  5
1FE
330
111
100
AcDbEntity
  8
0
100
AcDbBlockEnd
  0
BLOCK
  5
1FF
330
112
100
AcDbEntity
  8
Ech.1_5
100
AcDbBlockBegin
  2
*X45
 70
     1
 10
0.0
 20
0.0
 30
0.0
  3
*X45
  1

  0
ENDBLK
  5
200
330
112
100
AcDbEntity
  8
0
100
AcDbBlockEnd
  0
BLOCK
  5
201
330
113
100
AcDbEntity
  8
Ech.1_5
100
AcDbBlockBegin
  2
*X46
 70
     1
 10
0.0
 20
0.0
 30
0.0
  3
*X46
  1

  0
ENDBLK
  5
202
330
113
100
AcDbEntity
  8
0
100
AcDbBlockEnd
  0
BLOCK
  5
203
330
114
100
AcDbEntity
  8
Ech.1_5
100
AcDbBlockBegin
  2
*X47
 70
     1
 10
0.0
 20
0.0
 30
0.0
  3
*X47
  1

  0
ENDBLK
  5
204
330
114
100
AcDbEntity
  8
0
100
AcDbBlockEnd
  0
BLOCK
  5
205
330
115
100
AcDbEntity
  8
Ech.1_5
100
AcDbBlockBegin
  2
*X48
 70
     1
 10
0.0
 20
0.0
 30
0.0
  3
*X48
  1

  0
ENDBLK
  5
206
330
115
100
AcDbEntity
  8
0
100
AcDbBlockEnd
  0
BLOCK
  5
207
330
116
100
AcDbEntity
  8
Ech.1_5
100
AcDbBlockBegin
  2
*X49
 70
     1
 10
0.0
 20
0.0
 30
0.0
  3
*X49
  1

  0
LINE
  5
208
330
116
100
AcDbEntity
  8
Ech.1_5
  6
Continuous
 62
     7
370
    -2
100
AcDbLine
 10
51203.21127369
 20
11076.89894061
 30
0.0
 11
51163.20715719
 21
11049.90114022
 31
0.0
  0
LINE
  5
209
330
116
100
AcDbEntity
  8
Ech.1_5
  6
Continuous
 62
     7
370
    -2
100
AcDbLine
 10
51163.20715719
 20
11076.89894061
 30
0.0
 11
51203.21127369
 21
11049.90114022
 31
0.0
  0
ENDBLK
  5
20A
330
116
100
AcDbEntity
  8
0
100
AcDbBlockEnd
  0
BLOCK
  5
20B
330
117
100
AcDbEntity
  8
Ech.1_5
100
AcDbBlockBegin
  2
*X50
 70
     1
 10
0.0
 20
0.0
 30
0.0
  3
*X50
  1

  0
LINE
  5
20C
330
117
100
AcDbEntity
  8
Ech.1_5
  6
Continuous
 62
     7
370
    -2
100
AcDbLine
 10
50972.50899062
 20
11076.89894061
 30
0.0
 11
50932.50487411999
 21
11049.90114022
 31
0.0
  0
LINE
  5
20D
330
117
100
AcDbEntity
  8
Ech.1_5
  6
Continuous
 62
     7
370
    -2
100
AcDbLine
 10
50932.50487411999
 20
11076.89894061
 30
0.0
 11
50972.50899062
 21
11049.90114022
 31
0.0
  0
ENDBLK
  5
20E
330
117
100
AcDbEntity
  8
0
100
AcDbBlockEnd
  0
BLOCK
  5
20F
330
118
100
AcDbEntity
  8
Ech.1_5
100
AcDbBlockBegin
  2
*X51
 70
     1
 10
0.0
 20
0.0
 30
0.0
  3
*X51
  1

  0
LINE
  5
210
330
118
100
AcDbEntity
  8
Ech.1_5
  6
Continuous
 62
     7
370
    -2
100
AcDbLine
 10
51203.21127369
 20
11076.89894061
 30
0.0
 11
51163.20715719
 21
11049.90114022
 31
0.0
  0
LINE
  5
211
330
118
100
AcDbEntity
  8
Ech.1_5
  6
Continuous
 62
     7
370
    -2
100
AcDbLine
 10
51163.20715719
 20
11076.89894061
 30
0.0
 11
51203.21127369
 21
11049.90114022
 31
0.0
  0
ENDBLK
  5
212
330
118
100
AcDbEntity
  8
0
100
AcDbBlockEnd
  0
BLOCK
  5
213
330
119
100
AcDbEntity
  8
Ech.1_5
100
AcDbBlockBegin
  2
*X52
 70
     1
 10
0.0
 20
0.0
 30
0.0
  3
*X52
  1

  0
LINE
  5
214
330
119
100
AcDbEntity
  8
Ech.1_5
  6
Continuous
 62
     7
370
    -2
100
AcDbLine
 10
51210.20701584
 20
11049.90114022
 30
0.0
 11
51165.20369484
 21
10969.89814747
 31
0.0
  0
LINE
  5
215
330
119
100
AcDbEntity
  8
Ech.1_5
  6
Continuous
 62
     7
370
    -2
100
AcDbLine
 10
51165.20369484
 20
11049.90114022
 30
0.0
 11
51210.20701584
 21
10969.89814747
 31
0.0
  0
ENDBLK
  5
216
330
119
100
AcDbEntity
  8
0
100
AcDbBlockEnd
  0
BLOCK
  5
217
330
11A
100
AcDbEntity
  8
Ech.1_5
100
AcDbBlockBegin
  2
*X53
 70
     1
 10
0.0
 20
0.0
 30
0.0
  3
*X53
  1

  0
LINE
  5
218
330
11A
100
AcDbEntity
  8
Ech.1_5
  6
Continuous
 62
     7
370
    -2
100
AcDbLine
 10
50975.00859286999
 20
11049.90114022
 30
0.0
 11
50930.00527187
 21
10969.89814747
 31
0.0
  0
LINE
  5
219
330
11A
100
AcDbEntity
  8
Ech.1_5
  6
Continuous
 62
     7
370
    -2
100
AcDbLine
 10
50930.00527187
 20
11049.90114022
 30
0.0
 11
50975.00859286999
 21
10969.89814747
 31
0.0
  0
ENDBLK
  5
21A
330
11A
100
AcDbEntity
  8
0
100
AcDbBlockEnd
  0
BLOCK
  5
21B
330
11B
100
AcDbEntity
  8
Ech.1_5
100
AcDbBlockBegin
  2
*X54
 70
     1
 10
0.0
 20
0.0
 30
0.0
  3
*X54
  1

  0
LINE
  5
21C
330
11B
100
AcDbEntity
  8
Ech.1_5
  6
Continuous
 62
     7
370
    -2
100
AcDbLine
 10
50501.2108206
 20
11049.90114022
 30
0.0
 11
50456.2074996
 21
10969.89814747
 31
0.0
  0
LINE
  5
21D
330
11B
100
AcDbEntity
  8
Ech.1_5
  6
Continuous
 62
     7
370
    -2
100
AcDbLine
 10
50456.2074996
 20
11049.90114022
 30
0.0
 11
50501.2108206
 21
10969.89814747
 31
0.0
  0
ENDBLK
  5
21E
330
11B
100
AcDbEntity
  8
0
100
AcDbBlockEnd
  0
BLOCK
  5
21F
330
11C
100
AcDbEntity
  8
Ech.1_5
100
AcDbBlockBegin
  2
*X55
 70
     1
 10
0.0
 20
0.0
 30
0.0
  3
*X55
  1

  0
LINE
  5
220
330
11C
100
AcDbEntity
  8
Ech.1_5
  6
Continuous
 62
     7
370
    -2
100
AcDbLine
 10
50496.2116161
 20
11076.89894061
 30
0.0
 11
50456.2074996
 21
11049.90114022
 31
0.0
  0
LINE
  5
221
330
11C
100
AcDbEntity
  8
Ech.1_5
  6
Continuous
 62
     7
370
    -2
100
AcDbLine
 10
50456.2074996
 20
11076.89894061
 30
0.0
 11
50496.2116161
 21
11049.90114022
 31
0.0
  0
ENDBLK
  5
222
330
11C
100
AcDbEntity
  8
0
100
AcDbBlockEnd
  0
BLOCK
  5
223
330
11D
100
AcDbEntity
  8
Ech.1_5
100
AcDbBlockBegin
  2
*D56
 70
     1
 10
0.0
 20
0.0
 30
0.0
  3
*D56
  1

  0
TEXT
  5
224
330
11D
100
AcDbEntity
  8
Ech.1_5
 62
     7
370
    18
100
AcDbText
 10
51489.95605180999
 20
10845.64452516
 30
0.0
 40
25.0
  1
2/3*
 50
89.99999749999998
  7
ARIAL
100
AcDbText
  0
LINE
  5
225
330
11D
100
AcDbEntity
  8
Ech.1_5
 62
     7
370
    -2
100
AcDbLine
 10
51499.95605181
 20
10969.89966261
 30
0.0
 11
51464.03712029
 21
10969.89966261
 31
0.0
  0
LINE
  5
226
330
11D
100
AcDbEntity
  8
Ech.1_5
 62
     7
370
    -2
100
AcDbLine
 10
51499.95605181
 20
10749.89966261
 30
0.0
 11
51464.03723770999
 21
10749.89966261
 31
0.0
  0
LINE
  5
227
330
11D
100
AcDbEntity
  8
Ech.1_5
 62
     7
370
    -2
100
AcDbLine
 10
51494.95605181
 20
10974.89966261
 30
0.0
 11
51494.95605181
 21
10744.89966261
 31
0.0
  0
LINE
  5
228
330
11D
100
AcDbEntity
  8
Ech.1_5
 62
     7
370
    -2
100
AcDbLine
 10
51492.45605181
 20
10972.39966261
 30
0.0
 11
51497.45605180999
 21
10967.39966261
 31
0.0
  0
LINE
  5
229
330
11D
100
AcDbEntity
  8
Ech.1_5
 62
     7
370
    -2
100
AcDbLine
 10
51492.45605181
 20
10752.39966261
 30
0.0
 11
51497.45605180999
 21
10747.39966261
 31
0.0
  0
ENDBLK
  5
22A
330
11D
100
AcDbEntity
  8
0
100
AcDbBlockEnd
  0
BLOCK
  5
22B
330
11E
100
AcDbEntity
  8
Ech.1_5
100
AcDbBlockBegin
  2
*D57
 70
     1
 10
0.0
 20
0.0
 30
0.0
  3
*D57
  1

  0
TEXT
  5
22C
330
11E
100
AcDbEntity
  8
Ech.1_5
 62
     7
370
    18
100
AcDbText
 10
51489.95605180999
 20
10659.89455388
 30
0.0
 40
25.0
  1
1/3*
 50
89.99999749999998
  7
ARIAL
100
AcDbText
  0
LINE
  5
22D
330
11E
100
AcDbEntity
  8
Ech.1_5
 62
     7
370
    -2
100
AcDbLine
 10
51499.95605181
 20
10749.89966261
 30
0.0
 11
51464.03723770999
 21
10749.89966261
 31
0.0
  0
LINE
  5
22E
330
11E
100
AcDbEntity
  8
Ech.1_5
 62
     7
370
    -2
100
AcDbLine
 10
51499.95605181
 20
10598.39972004
 30
0.0
 11
51464.03723770999
 21
10598.39972004
 31
0.0
  0
LINE
  5
22F
330
11E
100
AcDbEntity
  8
Ech.1_5
 62
     7
370
    -2
100
AcDbLine
 10
51494.95605181
 20
10754.89966261
 30
0.0
 11
51494.95605181
 21
10593.39972004
 31
0.0
  0
LINE
  5
230
330
11E
100
AcDbEntity
  8
Ech.1_5
 62
     7
370
    -2
100
AcDbLine
 10
51492.45605181
 20
10752.39966261
 30
0.0
 11
51497.45605180999
 21
10747.39966261
 31
0.0
  0
LINE
  5
231
330
11E
100
AcDbEntity
  8
Ech.1_5
 62
     7
370
    -2
100
AcDbLine
 10
51492.45605181
 20
10600.89972004
 30
0.0
 11
51497.45605180999
 21
10595.89972004
 31
0.0
  0
ENDBLK
  5
232
330
11E
100
AcDbEntity
  8
0
100
AcDbBlockEnd
  0
BLOCK
  5
233
330
11F
100
AcDbEntity
  8
Ech.1_1
100
AcDbBlockBegin
  2
A$C42653196
 70
     0
 10
0.0
 20
0.0
 30
0.0
  3
A$C42653196
  1

  0
HATCH
  5
234
330
11F
100
AcDbEntity
  8
Ech.1_1
 62
    44
100
AcDbHatch
 10
0.0
 20
0.0
 30
0.0
210
0.0
220
0.0
230
1.0
  2
USER
 70
     0
 71
     0
 91
        1
 92
        7
 72
     0
 73
     1
 93
       60
 10
117.85866598
 20
6.04795498
 10
118.14635307
 20
5.78124937
 10
118.4722202
 20
5.56283153
 10
118.82824344
 20
5.398079619999999
 10
119.20565633
 20
5.291050389999999
 10
119.5951657
 20
5.244379249999999
 10
124.72676034
 20
5.03534633
 10
125.62869615
 20
5.164793069999999
 10
126.42433621
 20
5.608866899999999
 10
127.00798837
 20
6.308577429999999
 10
127.30212077
 20
7.170975709999999
 10
127.26766112
 20
8.081501499999999
 10
124.91726737
 20
18.53878175
 10
126.98610403
 20
18.45450873
 10
130.05096074
 20
4.81846771
 10
129.92885851
 20
1.820953569999999
 10
124.3723648
 20
0.54605058
 10
124.43341592
 20
2.04480765
 10
118.87692221
 20
0.76990466
 10
118.93797332
 20
2.268661729999999
 10
113.38147961
 20
0.9937587399999999
 10
113.44253072
 20
2.492515809999999
 10
101.95205983
 20
2.960574349999999
 10
56.38917232
 20
1.634266009999999
 10
3.24601796
 20
0.08730066
 10
1.746653069999999
 20
0.04365504
 10
0.24728819
 20
0.0000094313872978
 10
-0.0000369506597053
 20
8.49641045
 10
0.05985995
 20
8.96187585
 10
0.26066201
 20
9.386050589999999
 10
0.58271332
 20
9.727413489999999
 10
0.9944892600000001
 20
9.95254957
 10
1.45568232
 20
10.03942095
 10
1.92114772
 20
9.979524039999999
 10
2.34532246
 20
9.77872198
 10
2.686685359999999
 20
9.456670669999999
 10
2.91182144
 20
9.04489474
 10
2.99869282
 20
8.58370168
 10
3.15872673
 20
3.08603043
 10
51.97358749
 20
4.507001749999999
 10
56.22913839999999
 20
7.131937259999999
 10
100.77828017
 20
8.42873606
 10
101.21970253
 20
8.508696479999999
 10
101.61773883
 20
8.715613069999999
 10
101.93678738
 20
9.030978559999999
 10
102.14831145
 20
9.42658561
 10
102.23339163
 20
9.867049839999999
 10
102.50151985
 20
16.449388
 10
102.59374007
 20
16.90954135
 10
102.82364192
 20
17.31867558
 10
103.16872101
 20
17.63674177
 10
103.59519858
 20
17.83260539
 10
104.06132804
 20
17.88709396
 10
104.52148139
 20
17.79487373
 10
104.93061561
 20
17.56497188
 10
105.24868181
 20
17.2198928
 10
105.44454543
 20
16.79341523
 10
105.499034
 20
16.32728577
 10
105.45833325
 20
15.32811439
 10
110.41348942
 20
14.1254393
 97
        0
 75
     0
 76
     2
 52
0.0
 41
1.0
 77
     0
 78
     1
 53
132.66740417
 43
0.0
 44
0.0
 45
-2.57355095
 46
-2.372095079999999
 79
     2
 49
50.0
 49
0.0
 47
0.775229
 98
        1
 10
0.0
 20
0.0
  0
ARC
  5
235
330
11F
100
AcDbEntity
  8
Ech.1_1
  6
Continuous
 62
    44
100
AcDbCircle
 10
1.499327939999999
 20
8.540056059999999
 30
0.0
 40
1.5
100
AcDbArc
 50
1.66737493
 51
91.66737494000001
  0
ARC
  5
236
330
11F
100
AcDbEntity
  8
Ech.1_1
  6
Continuous
 62
    44
100
AcDbCircle
 10
1.499327939999999
 20
8.540056059999999
 30
0.0
 40
1.5
100
AcDbArc
 50
91.66737494999999
 51
181.66738495
  0
ARC
  5
237
330
11F
100
AcDbEntity
  8
Ech.1_1
  6
Continuous
 62
    44
100
AcDbCircle
 10
119.69691755
 20
7.7423077
 30
0.0
 40
2.5
100
AcDbArc
 50
222.66738496
 51
267.66738494
  0
ARC
  5
238
330
11F
100
AcDbEntity
  8
Ech.1_1
  6
Continuous
 62
    44
100
AcDbCircle
 10
124.82851219
 20
7.53327478
 30
0.0
 40
2.5
100
AcDbArc
 50
267.66738496
 51
12.66737494
  0
ARC
  5
239
330
11F
100
AcDbEntity
  8
Ech.1_1
  6
Continuous
 62
    44
100
AcDbCircle
 10
100.73463456
 20
9.928100949999999
 30
0.0
 40
1.5
100
AcDbArc
 50
271.66738495
 51
357.66738496
  0
CIRCLE
  5
23A
330
11F
100
AcDbEntity
  8
Ech.1_1
  6
Continuous
 62
    44
100
AcDbCircle
 10
46.27791422
 20
8.20582032
 30
0.0
 40
1.28741883
  0
CIRCLE
  5
23B
330
11F
100
AcDbEntity
  8
Ech.1_1
  6
Continuous
 62
    44
100
AcDbCircle
 10
33.43004406
 20
7.08585325
 30
0.0
 40
1.28741883
  0
CIRCLE
  5
23C
330
11F
100
AcDbEntity
  8
Ech.1_1
  6
Continuous
 62
    44
100
AcDbCircle
 10
18.68870005
 20
7.80056724
 30
0.0
 40
1.28741883
  0
CIRCLE
  5
23D
330
11F
100
AcDbEntity
  8
Ech.1_1
  6
Continuous
 62
    44
100
AcDbCircle
 10
8.064858759999999
 20
10.57466976
 30
0.0
 40
1.28741883
  0
CIRCLE
  5
23E
330
11F
100
AcDbEntity
  8
Ech.1_1
  6
Continuous
 62
    44
100
AcDbCircle
 10
9.809947199999999
 20
20.67124156
 30
0.0
 40
1.28741883
  0
CIRCLE
  5
23F
330
11F
100
AcDbEntity
  8
Ech.1_1
  6
Continuous
 62
    44
100
AcDbCircle
 10
23.86159679
 20
29.98222429
 30
0.0
 40
1.28741883
  0
CIRCLE
  5
240
330
11F
100
AcDbEntity
  8
Ech.1_1
  6
Continuous
 62
    44
100
AcDbCircle
 10
28.22193483
 20
31.84932759
 30
0.0
 40
0.6942115300000001
  0
CIRCLE
  5
241
330
11F
100
AcDbEntity
  8
Ech.1_1
  6
Continuous
 62
    44
100
AcDbCircle
 10
21.25902975
 20
25.0323453
 30
0.0
 40
0.6942115300000001
  0
CIRCLE
  5
242
330
11F
100
AcDbEntity
  8
Ech.1_1
  6
Continuous
 62
    44
100
AcDbCircle
 10
15.94132338
 20
26.61815435
 30
0.0
 40
0.6942115300000001
  0
CIRCLE
  5
243
330
11F
100
AcDbEntity
  8
Ech.1_1
  6
Continuous
 62
    44
100
AcDbCircle
 10
6.7341394
 20
16.60275473
 30
0.0
 40
0.6942115300000001
  0
CIRCLE
  5
244
330
11F
100
AcDbEntity
  8
Ech.1_1
  6
Continuous
 62
    44
100
AcDbCircle
 10
11.26200347
 20
7.981805149999999
 30
0.0
 40
0.6942115300000001
  0
CIRCLE
  5
245
330
11F
100
AcDbEntity
  8
Ech.1_1
  6
Continuous
 62
    44
100
AcDbCircle
 10
14.81113978
 20
5.648272379999999
 30
0.0
 40
0.6942115300000001
  0
CIRCLE
  5
246
330
11F
100
AcDbEntity
  8
Ech.1_1
  6
Continuous
 62
    44
100
AcDbCircle
 10
24.58745367
 20
8.071311709999999
 30
0.0
 40
0.6942115300000001
  0
CIRCLE
  5
247
330
11F
100
AcDbEntity
  8
Ech.1_1
  6
Continuous
 62
    44
100
AcDbCircle
 10
41.67917679
 20
8.61857307
 30
0.0
 40
0.6942115300000001
  0
CIRCLE
  5
248
330
11F
100
AcDbEntity
  8
Ech.1_1
  6
Continuous
 62
    44
100
AcDbCircle
 10
37.76621757
 20
6.366212479999999
 30
0.0
 40
0.6942115300000001
  0
CIRCLE
  5
249
330
11F
100
AcDbEntity
  8
Ech.1_1
  6
Continuous
 62
    44
100
AcDbCircle
 10
28.50346921
 20
34.32757278
 30
0.0
 40
0.3440962
  0
CIRCLE
  5
24A
330
11F
100
AcDbEntity
  8
Ech.1_1
  6
Continuous
 62
    44
100
AcDbCircle
 10
29.88413787
 20
33.02501134
 30
0.0
 40
0.3440962
  0
CIRCLE
  5
24B
330
11F
100
AcDbEntity
  8
Ech.1_1
  6
Continuous
 62
    44
100
AcDbCircle
 10
30.04426683
 20
30.94094745
 30
0.0
 40
0.3440962
  0
CIRCLE
  5
24C
330
11F
100
AcDbEntity
  8
Ech.1_1
  6
Continuous
 62
    44
100
AcDbCircle
 10
27.70979845
 20
29.13238819
 30
0.0
 40
0.3440962
  0
CIRCLE
  5
24D
330
11F
100
AcDbEntity
  8
Ech.1_1
  6
Continuous
 62
    44
100
AcDbCircle
 10
26.99202498
 20
33.28894452
 30
0.0
 40
0.3440962
  0
CIRCLE
  5
24E
330
11F
100
AcDbEntity
  8
Ech.1_1
  6
Continuous
 62
    44
100
AcDbCircle
 10
25.34938039
 20
33.34059123
 30
0.0
 40
0.3440962
  0
CIRCLE
  5
24F
330
11F
100
AcDbEntity
  8
Ech.1_1
  6
Continuous
 62
    44
100
AcDbCircle
 10
25.96394651
 20
31.02109798
 30
0.0
 40
0.3440962
  0
CIRCLE
  5
250
330
11F
100
AcDbEntity
  8
Ech.1_1
  6
Continuous
 62
    44
100
AcDbCircle
 10
26.05217873
 20
27.99004175
 30
0.0
 40
0.3440962
  0
CIRCLE
  5
251
330
11F
100
AcDbEntity
  8
Ech.1_1
  6
Continuous
 62
    44
100
AcDbCircle
 10
23.5628563
 20
26.37590098
 30
0.0
 40
0.3440962
  0
CIRCLE
  5
252
330
11F
100
AcDbEntity
  8
Ech.1_1
  6
Continuous
 62
    44
100
AcDbCircle
 10
21.66019304
 20
26.81783111
 30
0.0
 40
0.3440962
  0
CIRCLE
  5
253
330
11F
100
AcDbEntity
  8
Ech.1_1
  6
Continuous
 62
    44
100
AcDbCircle
 10
21.50295695
 20
28.8025161
 30
0.0
 40
0.3440962
  0
CIRCLE
  5
254
330
11F
100
AcDbEntity
  8
Ech.1_1
  6
Continuous
 62
    44
100
AcDbCircle
 10
22.94931183
 20
32.07716945
 30
0.0
 40
0.3440962
  0
CIRCLE
  5
255
330
11F
100
AcDbEntity
  8
Ech.1_1
  6
Continuous
 62
    44
100
AcDbCircle
 10
20.27135662
 20
30.10941683
 30
0.0
 40
0.3440962
  0
CIRCLE
  5
256
330
11F
100
AcDbEntity
  8
Ech.1_1
  6
Continuous
 62
    44
100
AcDbCircle
 10
17.5832764
 20
28.48949035
 30
0.0
 40
0.3440962
  0
CIRCLE
  5
257
330
11F
100
AcDbEntity
  8
Ech.1_1
  6
Continuous
 62
    44
100
AcDbCircle
 10
19.38511434
 20
28.09435681
 30
0.0
 40
0.3440962
  0
CIRCLE
  5
258
330
11F
100
AcDbEntity
  8
Ech.1_1
  6
Continuous
 62
    44
100
AcDbCircle
 10
18.14815308
 20
26.16855067
 30
0.0
 40
0.3440962
  0
CIRCLE
  5
259
330
11F
100
AcDbEntity
  8
Ech.1_1
  6
Continuous
 62
    44
100
AcDbCircle
 10
19.5037216
 20
24.01982221
 30
0.0
 40
0.3440962
  0
CIRCLE
  5
25A
330
11F
100
AcDbEntity
  8
Ech.1_1
  6
Continuous
 62
    44
100
AcDbCircle
 10
18.11479914
 20
22.18905567
 30
0.0
 40
0.3440962
  0
CIRCLE
  5
25B
330
11F
100
AcDbEntity
  8
Ech.1_1
  6
Continuous
 62
    44
100
AcDbCircle
 10
16.41574378
 20
24.17859078
 30
0.0
 40
0.3440962
  0
CIRCLE
  5
25C
330
11F
100
AcDbEntity
  8
Ech.1_1
  6
Continuous
 62
    44
100
AcDbCircle
 10
13.68912077
 20
25.59116695
 30
0.0
 40
0.3440962
  0
CIRCLE
  5
25D
330
11F
100
AcDbEntity
  8
Ech.1_1
  6
Continuous
 62
    44
100
AcDbCircle
 10
11.05217643
 20
23.92299745
 30
0.0
 40
0.3440962
  0
CIRCLE
  5
25E
330
11F
100
AcDbEntity
  8
Ech.1_1
  6
Continuous
 62
    44
100
AcDbCircle
 10
13.34367668
 20
23.79077544
 30
0.0
 40
0.3440962
  0
CIRCLE
  5
25F
330
11F
100
AcDbEntity
  8
Ech.1_1
  6
Continuous
 62
    44
100
AcDbCircle
 10
14.77548122
 20
22.43997099
 30
0.0
 40
0.3440962
  0
CIRCLE
  5
260
330
11F
100
AcDbEntity
  8
Ech.1_1
  6
Continuous
 62
    44
100
AcDbCircle
 10
14.73395953
 20
20.44950027
 30
0.0
 40
0.3440962
  0
CIRCLE
  5
261
330
11F
100
AcDbEntity
  8
Ech.1_1
  6
Continuous
 62
    44
100
AcDbCircle
 10
12.67065649
 20
21.28460668
 30
0.0
 40
0.3440962
  0
CIRCLE
  5
262
330
11F
100
AcDbEntity
  8
Ech.1_1
  6
Continuous
 62
    44
100
AcDbCircle
 10
12.20073337
 20
18.63515529
 30
0.0
 40
0.3440962
  0
CIRCLE
  5
263
330
11F
100
AcDbEntity
  8
Ech.1_1
  6
Continuous
 62
    44
100
AcDbCircle
 10
10.57255308
 20
18.18990753
 30
0.0
 40
0.3440962
  0
CIRCLE
  5
264
330
11F
100
AcDbEntity
  8
Ech.1_1
  6
Continuous
 62
    44
100
AcDbCircle
 10
7.522693259999999
 20
18.7476381
 30
0.0
 40
0.3440962
  0
CIRCLE
  5
265
330
11F
100
AcDbEntity
  8
Ech.1_1
  6
Continuous
 62
    44
100
AcDbCircle
 10
8.17546343
 20
21.94945912
 30
0.0
 40
0.3440962
  0
CIRCLE
  5
266
330
11F
100
AcDbEntity
  8
Ech.1_1
  6
Continuous
 62
    44
100
AcDbCircle
 10
6.216303349999999
 20
19.20692539
 30
0.0
 40
0.3440962
  0
CIRCLE
  5
267
330
11F
100
AcDbEntity
  8
Ech.1_1
  6
Continuous
 62
    44
100
AcDbCircle
 10
5.16891047
 20
15.89415404
 30
0.0
 40
0.3440962
  0
CIRCLE
  5
268
330
11F
100
AcDbEntity
  8
Ech.1_1
  6
Continuous
 62
    44
100
AcDbCircle
 10
5.537922209999999
 20
13.46804974
 30
0.0
 40
0.3440962
  0
CIRCLE
  5
269
330
11F
100
AcDbEntity
  8
Ech.1_1
  6
Continuous
 62
    44
100
AcDbCircle
 10
6.09267388
 20
11.49493619
 30
0.0
 40
0.3440962
  0
CIRCLE
  5
26A
330
11F
100
AcDbEntity
  8
Ech.1_1
  6
Continuous
 62
    44
100
AcDbCircle
 10
7.740168579999999
 20
12.98510875
 30
0.0
 40
0.3440962
  0
CIRCLE
  5
26B
330
11F
100
AcDbEntity
  8
Ech.1_1
  6
Continuous
 62
    44
100
AcDbCircle
 10
7.3035994
 20
14.31515237
 30
0.0
 40
0.3440962
  0
CIRCLE
  5
26C
330
11F
100
AcDbEntity
  8
Ech.1_1
  6
Continuous
 62
    44
100
AcDbCircle
 10
8.869583199999999
 20
16.89704632
 30
0.0
 40
0.3440962
  0
CIRCLE
  5
26D
330
11F
100
AcDbEntity
  8
Ech.1_1
  6
Continuous
 62
    44
100
AcDbCircle
 10
10.30283417
 20
15.49655241
 30
0.0
 40
0.3440962
  0
CIRCLE
  5
26E
330
11F
100
AcDbEntity
  8
Ech.1_1
  6
Continuous
 62
    44
100
AcDbCircle
 10
9.013290599999999
 20
13.66867874
 30
0.0
 40
0.3440962
  0
CIRCLE
  5
26F
330
11F
100
AcDbEntity
  8
Ech.1_1
  6
Continuous
 62
    44
100
AcDbCircle
 10
10.84261071
 20
12.32944572
 30
0.0
 40
0.3440962
  0
CIRCLE
  5
270
330
11F
100
AcDbEntity
  8
Ech.1_1
  6
Continuous
 62
    44
100
AcDbCircle
 10
10.39634129
 20
10.5758508
 30
0.0
 40
0.3440962
  0
CIRCLE
  5
271
330
11F
100
AcDbEntity
  8
Ech.1_1
  6
Continuous
 62
    44
100
AcDbCircle
 10
11.7977708
 20
10.26852471
 30
0.0
 40
0.3440962
  0
CIRCLE
  5
272
330
11F
100
AcDbEntity
  8
Ech.1_1
  6
Continuous
 62
    44
100
AcDbCircle
 10
9.46185599
 20
8.50965489
 30
0.0
 40
0.3440962
  0
CIRCLE
  5
273
330
11F
100
AcDbEntity
  8
Ech.1_1
  6
Continuous
 62
    44
100
AcDbCircle
 10
10.61577387
 20
6.45451961
 30
0.0
 40
0.3440962
  0
CIRCLE
  5
274
330
11F
100
AcDbEntity
  8
Ech.1_1
  6
Continuous
 62
    44
100
AcDbCircle
 10
12.33848294
 20
5.360840959999999
 30
0.0
 40
0.3440962
  0
CIRCLE
  5
275
330
11F
100
AcDbEntity
  8
Ech.1_1
  6
Continuous
 62
    44
100
AcDbCircle
 10
13.88081303
 20
7.04687845
 30
0.0
 40
0.3440962
  0
CIRCLE
  5
276
330
11F
100
AcDbEntity
  8
Ech.1_1
  6
Continuous
 62
    44
100
AcDbCircle
 10
13.04383542
 20
8.464729509999999
 30
0.0
 40
0.3440962
  0
CIRCLE
  5
277
330
11F
100
AcDbEntity
  8
Ech.1_1
  6
Continuous
 62
    44
100
AcDbCircle
 10
15.44773244
 20
7.88819535
 30
0.0
 40
0.3440962
  0
CIRCLE
  5
278
330
11F
100
AcDbEntity
  8
Ech.1_1
  6
Continuous
 62
    44
100
AcDbCircle
 10
17.10866979
 20
5.499698239999999
 30
0.0
 40
0.3440962
  0
CIRCLE
  5
279
330
11F
100
AcDbEntity
  8
Ech.1_1
  6
Continuous
 62
    44
100
AcDbCircle
 10
19.34758774
 20
5.4654087
 30
0.0
 40
0.3440962
  0
CIRCLE
  5
27A
330
11F
100
AcDbEntity
  8
Ech.1_1
  6
Continuous
 62
    44
100
AcDbCircle
 10
21.4538589
 20
6.571083559999999
 30
0.0
 40
0.3440962
  0
CIRCLE
  5
27B
330
11F
100
AcDbEntity
  8
Ech.1_1
  6
Continuous
 62
    44
100
AcDbCircle
 10
21.79785656
 20
8.42116451
 30
0.0
 40
0.3440962
  0
CIRCLE
  5
27C
330
11F
100
AcDbEntity
  8
Ech.1_1
  6
Continuous
 62
    44
100
AcDbCircle
 10
22.89919214
 20
6.463961689999999
 30
0.0
 40
0.3440962
  0
CIRCLE
  5
27D
330
11F
100
AcDbEntity
  8
Ech.1_1
  6
Continuous
 62
    44
100
AcDbCircle
 10
24.47572572
 20
5.266564859999999
 30
0.0
 40
0.3440962
  0
CIRCLE
  5
27E
330
11F
100
AcDbEntity
  8
Ech.1_1
  6
Continuous
 62
    44
100
AcDbCircle
 10
26.43437498
 20
6.318210989999999
 30
0.0
 40
0.3440962
  0
CIRCLE
  5
27F
330
11F
100
AcDbEntity
  8
Ech.1_1
  6
Continuous
 62
    44
100
AcDbCircle
 10
26.92454812
 20
8.272010119999999
 30
0.0
 40
0.3440962
  0
CIRCLE
  5
280
330
11F
100
AcDbEntity
  8
Ech.1_1
  6
Continuous
 62
    44
100
AcDbCircle
 10
30.04630466
 20
8.66127189
 30
0.0
 40
0.3440962
  0
CIRCLE
  5
281
330
11F
100
AcDbEntity
  8
Ech.1_1
  6
Continuous
 62
    44
100
AcDbCircle
 10
30.35260909
 20
6.68092619
 30
0.0
 40
0.3440962
  0
CIRCLE
  5
282
330
11F
100
AcDbEntity
  8
Ech.1_1
  6
Continuous
 62
    44
100
AcDbCircle
 10
28.79198623
 20
7.33173911
 30
0.0
 40
0.3440962
  0
CIRCLE
  5
283
330
11F
100
AcDbEntity
  8
Ech.1_1
  6
Continuous
 62
    44
100
AcDbCircle
 10
27.99933712
 20
5.518329729999999
 30
0.0
 40
0.3440962
  0
CIRCLE
  5
284
330
11F
100
AcDbEntity
  8
Ech.1_1
  6
Continuous
 62
    44
100
AcDbCircle
 10
31.53988091
 20
8.6052859
 30
0.0
 40
0.3440962
  0
CIRCLE
  5
285
330
11F
100
AcDbEntity
  8
Ech.1_1
  6
Continuous
 62
    44
100
AcDbCircle
 10
34.55791927
 20
9.140723149999999
 30
0.0
 40
0.3440962
  0
CIRCLE
  5
286
330
11F
100
AcDbEntity
  8
Ech.1_1
  6
Continuous
 62
    44
100
AcDbCircle
 10
37.15189549
 20
8.86811138
 30
0.0
 40
0.3440962
  0
CIRCLE
  5
287
330
11F
100
AcDbEntity
  8
Ech.1_1
  6
Continuous
 62
    44
100
AcDbCircle
 10
39.42893144
 20
9.232783839999999
 30
0.0
 40
0.3440962
  0
CIRCLE
  5
288
330
11F
100
AcDbEntity
  8
Ech.1_1
  6
Continuous
 62
    44
100
AcDbCircle
 10
39.37728474
 20
7.59013925
 30
0.0
 40
0.3440962
  0
CIRCLE
  5
289
330
11F
100
AcDbEntity
  8
Ech.1_1
  6
Continuous
 62
    44
100
AcDbCircle
 10
36.29075334
 20
7.699218369999999
 30
0.0
 40
0.3440962
  0
CIRCLE
  5
28A
330
11F
100
AcDbEntity
  8
Ech.1_1
  6
Continuous
 62
    44
100
AcDbCircle
 10
35.30485754
 20
6.13219059
 30
0.0
 40
0.3440962
  0
CIRCLE
  5
28B
330
11F
100
AcDbEntity
  8
Ech.1_1
  6
Continuous
 62
    44
100
AcDbCircle
 10
39.82370429999999
 20
6.363194609999999
 30
0.0
 40
0.3440962
  0
CIRCLE
  5
28C
330
11F
100
AcDbEntity
  8
Ech.1_1
  6
Continuous
 62
    44
100
AcDbCircle
 10
41.95339297
 20
6.222913229999999
 30
0.0
 40
0.3440962
  0
CIRCLE
  5
28D
330
11F
100
AcDbEntity
  8
Ech.1_1
  6
Continuous
 62
    44
100
AcDbCircle
 10
43.70367026
 20
9.30748737
 30
0.0
 40
0.3440962
  0
CIRCLE
  5
28E
330
11F
100
AcDbEntity
  8
Ech.1_1
  6
Continuous
 62
    44
100
AcDbCircle
 10
43.27331156999999
 20
7.00730854
 30
0.0
 40
0.3440962
  0
CIRCLE
  5
28F
330
11F
100
AcDbEntity
  8
Ech.1_1
  6
Continuous
 62
    44
100
AcDbCircle
 10
44.89374888999999
 20
6.010115919999999
 30
0.0
 40
0.3440962
  0
CIRCLE
  5
290
330
11F
100
AcDbEntity
  8
Ech.1_1
  6
Continuous
 62
    44
100
AcDbCircle
 10
47.92335869
 20
6.148037599999999
 30
0.0
 40
0.3440962
  0
CIRCLE
  5
291
330
11F
100
AcDbEntity
  8
Ech.1_1
  6
Continuous
 62
    44
100
AcDbCircle
 10
49.19988439
 20
8.4231163
 30
0.0
 40
0.3440962
  0
CIRCLE
  5
292
330
11F
100
AcDbEntity
  8
Ech.1_1
  6
Continuous
 62
    44
100
AcDbCircle
 10
48.27365289
 20
9.49024838
 30
0.0
 40
0.3440962
  0
CIRCLE
  5
293
330
11F
100
AcDbEntity
  8
Ech.1_1
  6
Continuous
 62
    44
100
AcDbCircle
 10
28.49002109
 20
9.16301647
 30
0.0
 40
0.3440962
  0
CIRCLE
  5
294
330
11F
100
AcDbEntity
  8
Ech.1_1
  6
Continuous
 62
    44
100
AcDbCircle
 10
14.1678891
 20
9.143960209999999
 30
0.0
 40
0.3440962
  0
ARC
  5
295
330
11F
100
AcDbEntity
  8
Ech.1_1
  6
Continuous
 62
    44
100
AcDbCircle
 10
27.42266169
 20
31.80419951
 30
0.0
 40
4.5
100
AcDbArc
 50
1.66737494
 51
91.66737494000001
  0
ARC
  5
296
330
11F
100
AcDbEntity
  8
Ech.1_1
  6
Continuous
 62
    44
100
AcDbCircle
 10
27.42266169
 20
31.80419951
 30
0.0
 40
4.5
100
AcDbArc
 50
91.66737494000001
 51
123.12490237
  0
ARC
  5
297
330
11F
100
AcDbEntity
  8
Ech.1_1
  6
Continuous
 62
    44
100
AcDbCircle
 10
16.42218118
 20
14.47678111
 30
0.0
 40
4.0
100
AcDbArc
 50
181.66738495
 51
271.66738496
  0
ARC
  5
298
330
11F
100
AcDbEntity
  8
Ech.1_1
  6
Continuous
 62
    44
100
AcDbCircle
 10
27.42266169
 20
31.80419951
 30
0.0
 40
4.5
100
AcDbArc
 50
303.12491239
 51
1.66737494
  0
ARC
  5
299
330
11F
100
AcDbEntity
  8
Ech.1_1
  6
Continuous
 62
    44
100
AcDbCircle
 10
16.42218118
 20
14.47678111
 30
0.0
 40
4.0
100
AcDbArc
 50
123.12490237
 51
181.66738496
  0
ARC
  5
29A
330
11F
100
AcDbEntity
  8
Ech.1_1
  6
Continuous
 62
    44
100
AcDbCircle
 10
47.62728355
 20
7.88196601
 30
0.0
 40
3.5
100
AcDbArc
 50
1.66737494
 51
91.66737492999999
  0
ARC
  5
29B
330
11F
100
AcDbEntity
  8
Ech.1_1
  6
Continuous
 62
    44
100
AcDbCircle
 10
47.62728355
 20
7.88196601
 30
0.0
 40
3.5
100
AcDbArc
 50
271.66738496
 51
1.66737493
  0
ARC
  5
29C
330
11F
100
AcDbEntity
  8
Ech.1_1
  6
Continuous
 62
    44
100
AcDbCircle
 10
15.12019226
 20
15.1575562
 30
0.0
 40
11.71837091
100
AcDbArc
 50
123.12490237
 51
181.66738495
  0
ARC
  5
29D
330
11F
100
AcDbEntity
  8
Ech.1_1
  6
Continuous
 62
    44
100
AcDbCircle
 10
15.12019226
 20
15.1575562
 30
0.0
 40
10.96837091
100
AcDbArc
 50
123.12490238
 51
271.66738495
  0
ARC
  5
29E
330
11F
100
AcDbEntity
  8
Ech.1_1
  6
Continuous
 62
    44
100
AcDbCircle
 10
27.42266169
 20
31.80419951
 30
0.0
 40
3.75
100
AcDbArc
 50
91.66737494000001
 51
123.12490237
  0
ARC
  5
29F
330
11F
100
AcDbEntity
  8
Ech.1_1
  6
Continuous
 62
    44
100
AcDbCircle
 10
27.42266169
 20
31.80419951
 30
0.0
 40
3.75
100
AcDbArc
 50
1.66737494
 51
91.66737492999999
  0
ARC
  5
2A0
330
11F
100
AcDbEntity
  8
Ech.1_1
  6
Continuous
 62
    44
100
AcDbCircle
 10
27.42266169
 20
31.80419951
 30
0.0
 40
3.75
100
AcDbArc
 50
303.12491239
 51
1.66737494
  0
ARC
  5
2A1
330
11F
100
AcDbEntity
  8
Ech.1_1
  6
Continuous
 62
    44
100
AcDbCircle
 10
16.42218118
 20
14.47678111
 30
0.0
 40
4.75
100
AcDbArc
 50
123.12490237
 51
181.66738496
  0
ARC
  5
2A2
330
11F
100
AcDbEntity
  8
Ech.1_1
  6
Continuous
 62
    44
100
AcDbCircle
 10
16.42218118
 20
14.47678111
 30
0.0
 40
4.75
100
AcDbArc
 50
181.66738496
 51
271.66738495
  0
ARC
  5
2A3
330
11F
100
AcDbEntity
  8
Ech.1_1
  6
Continuous
 62
    44
100
AcDbCircle
 10
47.62728355
 20
7.88196601
 30
0.0
 40
2.75
100
AcDbArc
 50
1.66737493
 51
91.66737494000001
  0
ARC
  5
2A4
330
11F
100
AcDbEntity
  8
Ech.1_1
  6
Continuous
 62
    44
100
AcDbCircle
 10
47.62728355
 20
7.88196601
 30
0.0
 40
2.75
100
AcDbArc
 50
271.66738496
 51
1.66737493
  0
ARC
  5
2A5
330
11F
100
AcDbEntity
  8
Ech.1_1
  6
Continuous
 62
    44
100
AcDbCircle
 10
15.12019226
 20
15.1575562
 30
0.0
 40
11.71837091
100
AcDbArc
 50
181.66738495
 51
271.66738495
  0
ARC
  5
2A6
330
11F
100
AcDbEntity
  8
Ech.1_1
  6
Continuous
 62
    44
100
AcDbCircle
 10
104.00027692
 20
16.38833688
 30
0.0
 40
1.5
100
AcDbArc
 50
87.66737494
 51
177.66737493
  0
ARC
  5
2A7
330
11F
100
AcDbEntity
  8
Ech.1_1
  6
Continuous
 62
    44
100
AcDbCircle
 10
104.00027692
 20
16.38833688
 30
0.0
 40
1.5
100
AcDbArc
 50
357.66738495
 51
87.66737494999999
  0
LINE
  5
2A8
330
11F
100
AcDbEntity
  8
Ech.1_1
  6
Continuous
 62
    44
100
AcDbLine
 10
29.88175872
 20
28.03553373
 30
0.0
 11
14.23631716
 21
17.82670626
 31
0.0
  0
LINE
  5
2A9
330
11F
100
AcDbEntity
  8
Ech.1_1
  6
Continuous
 62
    44
100
AcDbLine
 10
8.71650091
 20
24.97147255
 30
0.0
 11
24.96356467
 21
35.5728653
 31
0.0
  0
LINE
  5
2AA
330
11F
100
AcDbEntity
  8
Ech.1_1
  6
Continuous
 62
    44
100
AcDbLine
 10
16.53856948
 20
10.47847475
 30
0.0
 11
47.52544378999999
 21
11.38048408
 31
0.0
  0
LINE
  5
2AB
330
11F
100
AcDbEntity
  8
Ech.1_1
  6
Continuous
 62
    44
100
AcDbLine
 10
15.46116258
 20
3.444146959999999
 30
0.0
 11
31.23610957
 21
3.90334621
 31
0.0
  0
LINE
  5
2AC
330
11F
100
AcDbEntity
  8
Ech.1_1
  6
Continuous
 62
    44
100
AcDbLine
 10
9.12635041
 20
24.34336158
 30
0.0
 11
25.37341417
 21
34.94475434
 31
0.0
  0
LINE
  5
2AD
330
11F
100
AcDbEntity
  8
Ech.1_1
  6
Continuous
 62
    44
100
AcDbLine
 10
29.47190922
 20
28.66364469
 30
0.0
 11
13.82646765
 21
18.45481722
 31
0.0
  0
LINE
  5
2AE
330
11F
100
AcDbEntity
  8
Ech.1_1
  6
Continuous
 62
    44
100
AcDbLine
 10
16.56039229
 20
9.728792309999999
 30
0.0
 11
47.54726659
 21
10.63080164
 31
0.0
  0
LINE
  5
2AF
330
11F
100
AcDbEntity
  8
Ech.1_1
  6
Continuous
 62
    44
100
AcDbLine
 10
47.70730051
 20
5.133130389999999
 30
0.0
 11
42.06938694
 21
4.969014109999999
 31
0.0
  0
LINE
  5
2B0
330
11F
100
AcDbEntity
  8
Ech.1_1
  6
Continuous
 62
    44
100
AcDbLine
 10
31.23610957
 20
3.90334621
 30
0.0
 11
41.03099867
 21
4.188469549999999
 31
0.0
  0
LINE
  5
2B1
330
11F
100
AcDbEntity
  8
Ech.1_1
  6
Continuous
 62
    44
100
AcDbLine
 10
41.78068111
 20
4.21029236
 30
0.0
 11
47.72912330999999
 21
4.383447949999999
 31
0.0
  0
LINE
  5
2B2
330
11F
100
AcDbEntity
  8
Ech.1_1
  6
Continuous
 62
    44
100
AcDbLine
 10
41.03099867
 20
4.188469549999999
 30
0.0
 11
41.00917586
 21
4.938151999999999
 31
0.0
  0
LINE
  5
2B3
330
11F
100
AcDbEntity
  8
Ech.1_1
  6
Continuous
 62
    44
100
AcDbLine
 10
41.00917586
 20
4.938151999999999
 30
0.0
 11
31.21428676
 21
4.65302865
 31
0.0
  0
LINE
  5
2B4
330
11F
100
AcDbEntity
  8
Ech.1_1
  6
Continuous
 62
    44
100
AcDbLine
 10
42.06938694
 20
4.969014109999999
 30
0.0
 11
41.29788169
 21
5.69687374
 31
0.0
  0
LINE
  5
2B5
330
11F
100
AcDbEntity
  8
Ech.1_1
  6
Continuous
 62
    44
100
AcDbLine
 10
41.78068111
 20
4.21029236
 30
0.0
 11
41.00917586
 21
4.938151999999999
 31
0.0
  0
LINE
  5
2B6
330
11F
100
AcDbEntity
  8
Ech.1_1
  6
Continuous
 62
    44
100
AcDbLine
 10
41.29788169
 20
5.69687374
 30
0.0
 11
31.19246396
 21
5.40271109
 31
0.0
  0
LINE
  5
2B7
330
11F
100
AcDbEntity
  8
Ech.1_1
  6
Continuous
 62
    44
100
AcDbLine
 10
31.19246396
 20
5.40271109
 30
0.0
 11
31.21428676
 21
4.65302865
 31
0.0
  0
LINE
  5
2B8
330
11F
100
AcDbEntity
  8
Ech.1_1
  6
Continuous
 62
    44
100
AcDbLine
 10
31.21428676
 20
4.65302865
 30
0.0
 11
15.43933977
 21
4.1938294
 31
0.0
  0
LINE
  5
2B9
330
11F
100
AcDbEntity
  8
Ech.1_1
  6
Continuous
 62
    44
100
AcDbLine
 10
3.15872673
 20
3.08603043
 30
0.0
 11
51.97358749
 21
4.507001749999999
 31
0.0
  0
LINE
  5
2BA
330
11F
100
AcDbEntity
  8
Ech.1_1
  6
Continuous
 62
    44
100
AcDbLine
 10
1.746653069999999
 20
0.04365504
 30
0.0
 11
0.24728819
 21
0.0000094313872978
 31
0.0
  0
LINE
  5
2BB
330
11F
100
AcDbEntity
  8
Ech.1_1
  6
Continuous
 62
    44
100
AcDbLine
 10
3.24601796
 20
0.08730066
 30
0.0
 11
1.746653069999999
 21
0.04365504
 31
0.0
  0
LINE
  5
2BC
330
11F
100
AcDbEntity
  8
Ech.1_1
  6
Continuous
 62
    44
100
AcDbLine
 10
124.3723648
 20
0.54605058
 30
0.0
 11
129.92885851
 21
1.820953569999999
 31
0.0
  0
LINE
  5
2BD
330
11F
100
AcDbEntity
  8
Ech.1_1
  6
Continuous
 62
    44
100
AcDbLine
 10
124.43341592
 20
2.04480765
 30
0.0
 11
124.3723648
 21
0.54605058
 31
0.0
  0
LINE
  5
2BE
330
11F
100
AcDbEntity
  8
Ech.1_1
  6
Continuous
 62
    44
100
AcDbLine
 10
118.87692221
 20
0.76990466
 30
0.0
 11
124.43341592
 21
2.04480765
 31
0.0
  0
LINE
  5
2BF
330
11F
100
AcDbEntity
  8
Ech.1_1
  6
Continuous
 62
    44
100
AcDbLine
 10
118.93797332
 20
2.268661729999999
 30
0.0
 11
118.87692221
 21
0.76990466
 31
0.0
  0
LINE
  5
2C0
330
11F
100
AcDbEntity
  8
Ech.1_1
  6
Continuous
 62
    44
100
AcDbLine
 10
113.38147961
 20
0.9937587399999999
 30
0.0
 11
118.93797332
 21
2.268661729999999
 31
0.0
  0
LINE
  5
2C1
330
11F
100
AcDbEntity
  8
Ech.1_1
  6
Continuous
 62
    44
100
AcDbLine
 10
113.44253072
 20
2.492515809999999
 30
0.0
 11
113.38147961
 21
0.9937587399999999
 31
0.0
  0
LINE
  5
2C2
330
11F
100
AcDbEntity
  8
Ech.1_1
  6
Continuous
 62
    44
100
AcDbLine
 10
101.95205983
 20
2.960574349999999
 30
0.0
 11
113.44253072
 21
2.492515809999999
 31
0.0
  0
LINE
  5
2C3
330
11F
100
AcDbEntity
  8
Ech.1_1
  6
Continuous
 62
    44
100
AcDbLine
 10
2.99869282
 20
8.58370168
 30
0.0
 11
3.15872673
 21
3.08603043
 31
0.0
  0
LINE
  5
2C4
330
11F
100
AcDbEntity
  8
Ech.1_1
  6
Continuous
 62
    44
100
AcDbLine
 10
0.24728819
 20
0.0000094313872978
 30
0.0
 11
-0.0000369506597053
 21
8.49641045
 31
0.0
  0
LINE
  5
2C5
330
11F
100
AcDbEntity
  8
Ech.1_1
  6
Continuous
 62
    44
100
AcDbLine
 10
101.95205983
 20
2.960574349999999
 30
0.0
 11
56.38917232
 21
1.634266009999999
 31
0.0
  0
LINE
  5
2C6
330
11F
100
AcDbEntity
  8
Ech.1_1
  6
Continuous
 62
    44
100
AcDbLine
 10
51.97358749
 20
4.507001749999999
 30
0.0
 11
56.22913839999999
 21
7.131937259999999
 31
0.0
  0
LINE
  5
2C7
330
11F
100
AcDbEntity
  8
Ech.1_1
  6
Continuous
 62
    44
100
AcDbLine
 10
56.22913839999999
 20
7.131937259999999
 30
0.0
 11
100.77828017
 21
8.42873606
 31
0.0
  0
LINE
  5
2C8
330
11F
100
AcDbEntity
  8
Ech.1_1
  6
Continuous
 62
    44
100
AcDbLine
 10
129.92885851
 20
1.820953569999999
 30
0.0
 11
130.05096074
 21
4.81846771
 31
0.0
  0
LINE
  5
2C9
330
11F
100
AcDbEntity
  8
Ech.1_1
  6
Continuous
 62
    44
100
AcDbLine
 10
102.23339163
 20
9.867049839999999
 30
0.0
 11
102.50151985
 21
16.449388
 31
0.0
  0
LINE
  5
2CA
330
11F
100
AcDbEntity
  8
Ech.1_1
  6
Continuous
 62
    44
100
AcDbLine
 10
105.45833325
 20
15.32811439
 30
0.0
 11
105.499034
 21
16.32728577
 31
0.0
  0
LINE
  5
2CB
330
11F
100
AcDbEntity
  8
Ech.1_1
  6
Continuous
 62
    44
100
AcDbLine
 10
105.45833325
 20
15.32811439
 30
0.0
 11
110.41348942
 21
14.1254393
 31
0.0
  0
LINE
  5
2CC
330
11F
100
AcDbEntity
  8
Ech.1_1
  6
Continuous
 62
    44
100
AcDbLine
 10
110.41348942
 20
14.1254393
 30
0.0
 11
117.85866598
 21
6.04795498
 31
0.0
  0
LINE
  5
2CD
330
11F
100
AcDbEntity
  8
Ech.1_1
  6
Continuous
 62
    44
100
AcDbLine
 10
119.5951657
 20
5.244379249999999
 30
0.0
 11
124.72676034
 21
5.03534633
 31
0.0
  0
LINE
  5
2CE
330
11F
100
AcDbEntity
  8
Ech.1_1
  6
Continuous
 62
    44
100
AcDbLine
 10
127.26766112
 20
8.081501499999999
 30
0.0
 11
124.91726737
 21
18.53878175
 31
0.0
  0
LINE
  5
2CF
330
11F
100
AcDbEntity
  8
Ech.1_1
  6
Continuous
 62
    44
100
AcDbLine
 10
130.05096074
 20
4.81846771
 30
0.0
 11
126.98610403
 21
18.45450873
 31
0.0
  0
LINE
  5
2D0
330
11F
100
AcDbEntity
  8
Ech.1_1
  6
Continuous
 62
    44
100
AcDbLine
 10
56.38917232
 20
1.634266009999999
 30
0.0
 11
3.24601796
 21
0.08730066
 31
0.0
  0
LINE
  5
2D1
330
11F
100
AcDbEntity
  8
Ech.1_1
  6
Continuous
 62
    44
100
AcDbLine
 10
32.14644786
 20
3.92984561
 30
0.0
 11
6.407350649999999
 21
3.18059592
 31
0.0
  0
LINE
  5
2D2
330
11F
100
AcDbEntity
  8
Ech.1_1
  6
Continuous
 62
    44
100
AcDbLine
 10
124.91726737
 20
18.53878175
 30
0.0
 11
126.98610403
 21
18.45450873
 31
0.0
  0
ENDBLK
  5
2D3
330
11F
100
AcDbEntity
  8
0
100
AcDbBlockEnd
  0
BLOCK
  5
2D4
330
120
100
AcDbEntity
  8
Ech.1_1
100
AcDbBlockBegin
  2
A$C3F0A7B51
 70
     0
 10
0.0
 20
0.0
 30
0.0
  3
A$C3F0A7B51
  1

  0
HATCH
  5
2D5
330
120
100
AcDbEntity
  8
Ech.1_1
 62
    44
100
AcDbHatch
 10
0.0
 20
0.0
 30
0.0
210
0.0
220
0.0
230
1.0
  2
USER
 70
     0
 71
     0
 91
        1
 92
        7
 72
     0
 73
     1
 93
       60
 10
12.19228711
 20
30.25432773
 10
11.90460002
 20
30.52103334
 10
11.57873289
 20
30.73945119
 10
11.22270964
 20
30.90420309
 10
10.84529676
 20
31.01123232
 10
10.45578739
 20
31.05790347
 10
5.324192749999999
 20
31.26693638
 10
4.422256929999999
 20
31.13748964
 10
3.626616879999999
 20
30.69341582
 10
3.04296472
 20
29.99370528
 10
2.748832319999999
 20
29.131307
 10
2.78329197
 20
28.22078122
 10
5.133685709999999
 20
17.76350096
 10
3.064849049999999
 20
17.84777398
 10
-0.0000076553988038
 20
31.48381500000001
 10
0.12209457
 20
34.48132915
 10
5.678588279999999
 20
35.75623214
 10
5.61753717
 20
34.25747506
 10
11.17403088
 20
35.53237805
 10
11.11297977
 20
34.03362098000001
 10
16.66947348
 20
35.30852397
 10
16.60842237
 20
33.8097669
 10
28.09889325
 20
33.34170837
 10
73.66178076999999
 20
34.66801670000001
 10
126.80493513
 20
36.21498206
 10
128.30430001
 20
36.25862767
 10
129.8036649
 20
36.30227328
 10
130.05099004
 20
27.80587226
 10
129.99109313
 20
27.34040686
 10
129.79029107
 20
26.91623213
 10
129.46823976
 20
26.57486922
 10
129.05646383
 20
26.34973314
 10
128.59527076
 20
26.26286176
 10
128.12980536
 20
26.32275867
 10
127.70563063
 20
26.52356073
 10
127.36426772
 20
26.84561204
 10
127.13913164
 20
27.25738798
 10
127.05226026
 20
27.71858104
 10
126.89222635
 20
33.21625229
 10
78.07736559999999
 20
31.79528096
 10
73.82181468
 20
29.17034545
 10
29.27267292
 20
27.87354665
 10
28.83125055
 20
27.79358624
 10
28.43321426
 20
27.58666964
 10
28.1141657
 20
27.27130415
 10
27.90264164
 20
26.8756971
 10
27.81756146
 20
26.43523288
 10
27.54943323
 20
19.85289472
 10
27.45721301
 20
19.39274137
 10
27.22731116
 20
18.98360714
 10
26.88223208
 20
18.66554094
 10
26.45575451
 20
18.46967732
 10
25.98962505
 20
18.41518876
 10
25.5294717
 20
18.50740898
 10
25.12033747
 20
18.73731083
 10
24.80227128
 20
19.08238991
 10
24.60640765
 20
19.50886748
 10
24.55191909
 20
19.97499694
 10
24.59261983
 20
20.97416833
 10
19.63746367
 20
22.17684342
 97
        0
 75
     0
 76
     2
 52
0.0
 41
1.0
 77
     0
 78
     1
 53
132.66740417
 43
0.0
 44
0.0
 45
-2.57355095
 46
-2.372095079999999
 79
     2
 49
50.0
 49
0.0
 47
0.775229
 98
        1
 10
0.0
 20
0.0
  0
ARC
  5
2D6
330
120
100
AcDbEntity
  8
Ech.1_1
  6
Continuous
 62
    44
100
AcDbCircle
 10
128.55162515
 20
27.76222665
 30
0.0
 40
1.5
100
AcDbArc
 50
181.66738496
 51
271.66738495
  0
ARC
  5
2D7
330
120
100
AcDbEntity
  8
Ech.1_1
  6
Continuous
 62
    44
100
AcDbCircle
 10
128.55162515
 20
27.76222665
 30
0.0
 40
1.5
100
AcDbArc
 50
271.66738495
 51
1.66737494
  0
ARC
  5
2D8
330
120
100
AcDbEntity
  8
Ech.1_1
  6
Continuous
 62
    44
100
AcDbCircle
 10
10.35403553
 20
28.55997501
 30
0.0
 40
2.5
100
AcDbArc
 50
42.66737495
 51
87.66737492
  0
ARC
  5
2D9
330
120
100
AcDbEntity
  8
Ech.1_1
  6
Continuous
 62
    44
100
AcDbCircle
 10
5.222440889999999
 20
28.76900793
 30
0.0
 40
2.5
100
AcDbArc
 50
87.66737492999999
 51
192.66738496
  0
ARC
  5
2DA
330
120
100
AcDbEntity
  8
Ech.1_1
  6
Continuous
 62
    44
100
AcDbCircle
 10
29.31631853
 20
26.37418177
 30
0.0
 40
1.5
100
AcDbArc
 50
91.66737492999999
 51
177.66737493
  0
CIRCLE
  5
2DB
330
120
100
AcDbEntity
  8
Ech.1_1
  6
Continuous
 62
    44
100
AcDbCircle
 10
83.77303887
 20
28.0964624
 30
0.0
 40
1.28741883
  0
CIRCLE
  5
2DC
330
120
100
AcDbEntity
  8
Ech.1_1
  6
Continuous
 62
    44
100
AcDbCircle
 10
96.62090903000001
 20
29.21642946
 30
0.0
 40
1.28741883
  0
CIRCLE
  5
2DD
330
120
100
AcDbEntity
  8
Ech.1_1
  6
Continuous
 62
    44
100
AcDbCircle
 10
111.36225304
 20
28.50171547
 30
0.0
 40
1.28741883
  0
CIRCLE
  5
2DE
330
120
100
AcDbEntity
  8
Ech.1_1
  6
Continuous
 62
    44
100
AcDbCircle
 10
121.98609433
 20
25.72761295
 30
0.0
 40
1.28741883
  0
CIRCLE
  5
2DF
330
120
100
AcDbEntity
  8
Ech.1_1
  6
Continuous
 62
    44
100
AcDbCircle
 10
120.24100588
 20
15.63104116
 30
0.0
 40
1.28741883
  0
CIRCLE
  5
2E0
330
120
100
AcDbEntity
  8
Ech.1_1
  6
Continuous
 62
    44
100
AcDbCircle
 10
106.1893563
 20
6.320058419999999
 30
0.0
 40
1.28741883
  0
CIRCLE
  5
2E1
330
120
100
AcDbEntity
  8
Ech.1_1
  6
Continuous
 62
    44
100
AcDbCircle
 10
101.82901825
 20
4.45295513
 30
0.0
 40
0.6942115300000001
  0
CIRCLE
  5
2E2
330
120
100
AcDbEntity
  8
Ech.1_1
  6
Continuous
 62
    44
100
AcDbCircle
 10
108.79192334
 20
11.26993741
 30
0.0
 40
0.6942115300000001
  0
CIRCLE
  5
2E3
330
120
100
AcDbEntity
  8
Ech.1_1
  6
Continuous
 62
    44
100
AcDbCircle
 10
114.1096297
 20
9.684128369999999
 30
0.0
 40
0.6942115300000001
  0
CIRCLE
  5
2E4
330
120
100
AcDbEntity
  8
Ech.1_1
  6
Continuous
 62
    44
100
AcDbCircle
 10
123.31681368
 20
19.69952798
 30
0.0
 40
0.6942115300000001
  0
CIRCLE
  5
2E5
330
120
100
AcDbEntity
  8
Ech.1_1
  6
Continuous
 62
    44
100
AcDbCircle
 10
118.78894962
 20
28.32047756
 30
0.0
 40
0.6942115300000001
  0
CIRCLE
  5
2E6
330
120
100
AcDbEntity
  8
Ech.1_1
  6
Continuous
 62
    44
100
AcDbCircle
 10
115.2398133
 20
30.65401033
 30
0.0
 40
0.6942115300000001
  0
CIRCLE
  5
2E7
330
120
100
AcDbEntity
  8
Ech.1_1
  6
Continuous
 62
    44
100
AcDbCircle
 10
105.46349941
 20
28.230971
 30
0.0
 40
0.6942115300000001
  0
CIRCLE
  5
2E8
330
120
100
AcDbEntity
  8
Ech.1_1
  6
Continuous
 62
    44
100
AcDbCircle
 10
88.37177629000001
 20
27.68370964
 30
0.0
 40
0.6942115300000001
  0
CIRCLE
  5
2E9
330
120
100
AcDbEntity
  8
Ech.1_1
  6
Continuous
 62
    44
100
AcDbCircle
 10
92.28473551
 20
29.93607023
 30
0.0
 40
0.6942115300000001
  0
CIRCLE
  5
2EA
330
120
100
AcDbEntity
  8
Ech.1_1
  6
Continuous
 62
    44
100
AcDbCircle
 10
101.54748387
 20
1.974709929999999
 30
0.0
 40
0.3440962
  0
CIRCLE
  5
2EB
330
120
100
AcDbEntity
  8
Ech.1_1
  6
Continuous
 62
    44
100
AcDbCircle
 10
100.16681521
 20
3.277271369999999
 30
0.0
 40
0.3440962
  0
CIRCLE
  5
2EC
330
120
100
AcDbEntity
  8
Ech.1_1
  6
Continuous
 62
    44
100
AcDbCircle
 10
100.00668626
 20
5.361335259999999
 30
0.0
 40
0.3440962
  0
CIRCLE
  5
2ED
330
120
100
AcDbEntity
  8
Ech.1_1
  6
Continuous
 62
    44
100
AcDbCircle
 10
102.34115463
 20
7.169894519999999
 30
0.0
 40
0.3440962
  0
CIRCLE
  5
2EE
330
120
100
AcDbEntity
  8
Ech.1_1
  6
Continuous
 62
    44
100
AcDbCircle
 10
103.05892811
 20
3.013338189999999
 30
0.0
 40
0.3440962
  0
CIRCLE
  5
2EF
330
120
100
AcDbEntity
  8
Ech.1_1
  6
Continuous
 62
    44
100
AcDbCircle
 10
104.7015727
 20
2.96169149
 30
0.0
 40
0.3440962
  0
CIRCLE
  5
2F0
330
120
100
AcDbEntity
  8
Ech.1_1
  6
Continuous
 62
    44
100
AcDbCircle
 10
104.08700658
 20
5.281184739999999
 30
0.0
 40
0.3440962
  0
CIRCLE
  5
2F1
330
120
100
AcDbEntity
  8
Ech.1_1
  6
Continuous
 62
    44
100
AcDbCircle
 10
103.99877435
 20
8.31224096
 30
0.0
 40
0.3440962
  0
CIRCLE
  5
2F2
330
120
100
AcDbEntity
  8
Ech.1_1
  6
Continuous
 62
    44
100
AcDbCircle
 10
106.48809679
 20
9.926381729999999
 30
0.0
 40
0.3440962
  0
CIRCLE
  5
2F3
330
120
100
AcDbEntity
  8
Ech.1_1
  6
Continuous
 62
    44
100
AcDbCircle
 10
108.39076005
 20
9.48445161
 30
0.0
 40
0.3440962
  0
CIRCLE
  5
2F4
330
120
100
AcDbEntity
  8
Ech.1_1
  6
Continuous
 62
    44
100
AcDbCircle
 10
108.54799614
 20
7.49976661
 30
0.0
 40
0.3440962
  0
CIRCLE
  5
2F5
330
120
100
AcDbEntity
  8
Ech.1_1
  6
Continuous
 62
    44
100
AcDbCircle
 10
107.10164125
 20
4.225113269999999
 30
0.0
 40
0.3440962
  0
CIRCLE
  5
2F6
330
120
100
AcDbEntity
  8
Ech.1_1
  6
Continuous
 62
    44
100
AcDbCircle
 10
109.77959646
 20
6.19286588
 30
0.0
 40
0.3440962
  0
CIRCLE
  5
2F7
330
120
100
AcDbEntity
  8
Ech.1_1
  6
Continuous
 62
    44
100
AcDbCircle
 10
112.46767668
 20
7.81279237
 30
0.0
 40
0.3440962
  0
CIRCLE
  5
2F8
330
120
100
AcDbEntity
  8
Ech.1_1
  6
Continuous
 62
    44
100
AcDbCircle
 10
110.66583874
 20
8.207925900000001
 30
0.0
 40
0.3440962
  0
CIRCLE
  5
2F9
330
120
100
AcDbEntity
  8
Ech.1_1
  6
Continuous
 62
    44
100
AcDbCircle
 10
111.90280001
 20
10.13373204
 30
0.0
 40
0.3440962
  0
CIRCLE
  5
2FA
330
120
100
AcDbEntity
  8
Ech.1_1
  6
Continuous
 62
    44
100
AcDbCircle
 10
110.54723148
 20
12.28246051
 30
0.0
 40
0.3440962
  0
CIRCLE
  5
2FB
330
120
100
AcDbEntity
  8
Ech.1_1
  6
Continuous
 62
    44
100
AcDbCircle
 10
111.93615395
 20
14.11322704
 30
0.0
 40
0.3440962
  0
CIRCLE
  5
2FC
330
120
100
AcDbEntity
  8
Ech.1_1
  6
Continuous
 62
    44
100
AcDbCircle
 10
113.63520931
 20
12.12369193
 30
0.0
 40
0.3440962
  0
CIRCLE
  5
2FD
330
120
100
AcDbEntity
  8
Ech.1_1
  6
Continuous
 62
    44
100
AcDbCircle
 10
116.36183231
 20
10.71111576
 30
0.0
 40
0.3440962
  0
CIRCLE
  5
2FE
330
120
100
AcDbEntity
  8
Ech.1_1
  6
Continuous
 62
    44
100
AcDbCircle
 10
118.99877666
 20
12.37928526
 30
0.0
 40
0.3440962
  0
CIRCLE
  5
2FF
330
120
100
AcDbEntity
  8
Ech.1_1
  6
Continuous
 62
    44
100
AcDbCircle
 10
116.7072764
 20
12.51150727
 30
0.0
 40
0.3440962
  0
CIRCLE
  5
300
330
120
100
AcDbEntity
  8
Ech.1_1
  6
Continuous
 62
    44
100
AcDbCircle
 10
115.27547187
 20
13.86231173
 30
0.0
 40
0.3440962
  0
CIRCLE
  5
301
330
120
100
AcDbEntity
  8
Ech.1_1
  6
Continuous
 62
    44
100
AcDbCircle
 10
115.31699356
 20
15.85278244
 30
0.0
 40
0.3440962
  0
CIRCLE
  5
302
330
120
100
AcDbEntity
  8
Ech.1_1
  6
Continuous
 62
    44
100
AcDbCircle
 10
117.3802966
 20
15.01767604
 30
0.0
 40
0.3440962
  0
CIRCLE
  5
303
330
120
100
AcDbEntity
  8
Ech.1_1
  6
Continuous
 62
    44
100
AcDbCircle
 10
117.85021972
 20
17.66712742
 30
0.0
 40
0.3440962
  0
CIRCLE
  5
304
330
120
100
AcDbEntity
  8
Ech.1_1
  6
Continuous
 62
    44
100
AcDbCircle
 10
119.47840001
 20
18.11237519
 30
0.0
 40
0.3440962
  0
CIRCLE
  5
305
330
120
100
AcDbEntity
  8
Ech.1_1
  6
Continuous
 62
    44
100
AcDbCircle
 10
122.52825983
 20
17.55464461
 30
0.0
 40
0.3440962
  0
CIRCLE
  5
306
330
120
100
AcDbEntity
  8
Ech.1_1
  6
Continuous
 62
    44
100
AcDbCircle
 10
121.87548965
 20
14.35282359
 30
0.0
 40
0.3440962
  0
CIRCLE
  5
307
330
120
100
AcDbEntity
  8
Ech.1_1
  6
Continuous
 62
    44
100
AcDbCircle
 10
123.83464973
 20
17.09535733
 30
0.0
 40
0.3440962
  0
CIRCLE
  5
308
330
120
100
AcDbEntity
  8
Ech.1_1
  6
Continuous
 62
    44
100
AcDbCircle
 10
124.88204262
 20
20.40812868
 30
0.0
 40
0.3440962
  0
CIRCLE
  5
309
330
120
100
AcDbEntity
  8
Ech.1_1
  6
Continuous
 62
    44
100
AcDbCircle
 10
124.51303087
 20
22.83423297
 30
0.0
 40
0.3440962
  0
CIRCLE
  5
30A
330
120
100
AcDbEntity
  8
Ech.1_1
  6
Continuous
 62
    44
100
AcDbCircle
 10
123.95827921
 20
24.80734652
 30
0.0
 40
0.3440962
  0
CIRCLE
  5
30B
330
120
100
AcDbEntity
  8
Ech.1_1
  6
Continuous
 62
    44
100
AcDbCircle
 10
122.3107845
 20
23.31717396
 30
0.0
 40
0.3440962
  0
CIRCLE
  5
30C
330
120
100
AcDbEntity
  8
Ech.1_1
  6
Continuous
 62
    44
100
AcDbCircle
 10
122.74735368
 20
21.98713035
 30
0.0
 40
0.3440962
  0
CIRCLE
  5
30D
330
120
100
AcDbEntity
  8
Ech.1_1
  6
Continuous
 62
    44
100
AcDbCircle
 10
121.18136988
 20
19.40523639
 30
0.0
 40
0.3440962
  0
CIRCLE
  5
30E
330
120
100
AcDbEntity
  8
Ech.1_1
  6
Continuous
 62
    44
100
AcDbCircle
 10
119.74811892
 20
20.8057303
 30
0.0
 40
0.3440962
  0
CIRCLE
  5
30F
330
120
100
AcDbEntity
  8
Ech.1_1
  6
Continuous
 62
    44
100
AcDbCircle
 10
121.03766249
 20
22.63360398
 30
0.0
 40
0.3440962
  0
CIRCLE
  5
310
330
120
100
AcDbEntity
  8
Ech.1_1
  6
Continuous
 62
    44
100
AcDbCircle
 10
119.20834238
 20
23.972837
 30
0.0
 40
0.3440962
  0
CIRCLE
  5
311
330
120
100
AcDbEntity
  8
Ech.1_1
  6
Continuous
 62
    44
100
AcDbCircle
 10
119.65461179
 20
25.72643192
 30
0.0
 40
0.3440962
  0
CIRCLE
  5
312
330
120
100
AcDbEntity
  8
Ech.1_1
  6
Continuous
 62
    44
100
AcDbCircle
 10
118.25318228
 20
26.033758
 30
0.0
 40
0.3440962
  0
CIRCLE
  5
313
330
120
100
AcDbEntity
  8
Ech.1_1
  6
Continuous
 62
    44
100
AcDbCircle
 10
120.58909709
 20
27.79262782
 30
0.0
 40
0.3440962
  0
CIRCLE
  5
314
330
120
100
AcDbEntity
  8
Ech.1_1
  6
Continuous
 62
    44
100
AcDbCircle
 10
119.43517921
 20
29.84776311
 30
0.0
 40
0.3440962
  0
CIRCLE
  5
315
330
120
100
AcDbEntity
  8
Ech.1_1
  6
Continuous
 62
    44
100
AcDbCircle
 10
117.71247015
 20
30.94144175
 30
0.0
 40
0.3440962
  0
CIRCLE
  5
316
330
120
100
AcDbEntity
  8
Ech.1_1
  6
Continuous
 62
    44
100
AcDbCircle
 10
116.17014005
 20
29.25540426
 30
0.0
 40
0.3440962
  0
CIRCLE
  5
317
330
120
100
AcDbEntity
  8
Ech.1_1
  6
Continuous
 62
    44
100
AcDbCircle
 10
117.00711766
 20
27.8375532
 30
0.0
 40
0.3440962
  0
CIRCLE
  5
318
330
120
100
AcDbEntity
  8
Ech.1_1
  6
Continuous
 62
    44
100
AcDbCircle
 10
114.60322065
 20
28.41408736
 30
0.0
 40
0.3440962
  0
CIRCLE
  5
319
330
120
100
AcDbEntity
  8
Ech.1_1
  6
Continuous
 62
    44
100
AcDbCircle
 10
112.94228329
 20
30.80258447
 30
0.0
 40
0.3440962
  0
CIRCLE
  5
31A
330
120
100
AcDbEntity
  8
Ech.1_1
  6
Continuous
 62
    44
100
AcDbCircle
 10
110.70336535
 20
30.83687402
 30
0.0
 40
0.3440962
  0
CIRCLE
  5
31B
330
120
100
AcDbEntity
  8
Ech.1_1
  6
Continuous
 62
    44
100
AcDbCircle
 10
108.59709418
 20
29.73119915
 30
0.0
 40
0.3440962
  0
CIRCLE
  5
31C
330
120
100
AcDbEntity
  8
Ech.1_1
  6
Continuous
 62
    44
100
AcDbCircle
 10
108.25309652
 20
27.8811182
 30
0.0
 40
0.3440962
  0
CIRCLE
  5
31D
330
120
100
AcDbEntity
  8
Ech.1_1
  6
Continuous
 62
    44
100
AcDbCircle
 10
107.15176095
 20
29.83832102
 30
0.0
 40
0.3440962
  0
CIRCLE
  5
31E
330
120
100
AcDbEntity
  8
Ech.1_1
  6
Continuous
 62
    44
100
AcDbCircle
 10
105.57522736
 20
31.03571785
 30
0.0
 40
0.3440962
  0
CIRCLE
  5
31F
330
120
100
AcDbEntity
  8
Ech.1_1
  6
Continuous
 62
    44
100
AcDbCircle
 10
103.61657811
 20
29.98407173
 30
0.0
 40
0.3440962
  0
CIRCLE
  5
320
330
120
100
AcDbEntity
  8
Ech.1_1
  6
Continuous
 62
    44
100
AcDbCircle
 10
103.12640497
 20
28.03027259
 30
0.0
 40
0.3440962
  0
CIRCLE
  5
321
330
120
100
AcDbEntity
  8
Ech.1_1
  6
Continuous
 62
    44
100
AcDbCircle
 10
100.00464843
 20
27.64101082
 30
0.0
 40
0.3440962
  0
CIRCLE
  5
322
330
120
100
AcDbEntity
  8
Ech.1_1
  6
Continuous
 62
    44
100
AcDbCircle
 10
99.69834399999999
 20
29.62135653
 30
0.0
 40
0.3440962
  0
CIRCLE
  5
323
330
120
100
AcDbEntity
  8
Ech.1_1
  6
Continuous
 62
    44
100
AcDbCircle
 10
101.25896685
 20
28.97054361
 30
0.0
 40
0.3440962
  0
CIRCLE
  5
324
330
120
100
AcDbEntity
  8
Ech.1_1
  6
Continuous
 62
    44
100
AcDbCircle
 10
102.05161596
 20
30.78395299
 30
0.0
 40
0.3440962
  0
CIRCLE
  5
325
330
120
100
AcDbEntity
  8
Ech.1_1
  6
Continuous
 62
    44
100
AcDbCircle
 10
98.51107218
 20
27.69699681
 30
0.0
 40
0.3440962
  0
CIRCLE
  5
326
330
120
100
AcDbEntity
  8
Ech.1_1
  6
Continuous
 62
    44
100
AcDbCircle
 10
95.49303381999999
 20
27.16155957
 30
0.0
 40
0.3440962
  0
CIRCLE
  5
327
330
120
100
AcDbEntity
  8
Ech.1_1
  6
Continuous
 62
    44
100
AcDbCircle
 10
92.89905759999999
 20
27.43417133
 30
0.0
 40
0.3440962
  0
CIRCLE
  5
328
330
120
100
AcDbEntity
  8
Ech.1_1
  6
Continuous
 62
    44
100
AcDbCircle
 10
90.62202164
 20
27.06949888
 30
0.0
 40
0.3440962
  0
CIRCLE
  5
329
330
120
100
AcDbEntity
  8
Ech.1_1
  6
Continuous
 62
    44
100
AcDbCircle
 10
90.67366834999999
 20
28.71214347
 30
0.0
 40
0.3440962
  0
CIRCLE
  5
32A
330
120
100
AcDbEntity
  8
Ech.1_1
  6
Continuous
 62
    44
100
AcDbCircle
 10
93.76019974
 20
28.60306434
 30
0.0
 40
0.3440962
  0
CIRCLE
  5
32B
330
120
100
AcDbEntity
  8
Ech.1_1
  6
Continuous
 62
    44
100
AcDbCircle
 10
94.74609555
 20
30.17009212
 30
0.0
 40
0.3440962
  0
CIRCLE
  5
32C
330
120
100
AcDbEntity
  8
Ech.1_1
  6
Continuous
 62
    44
100
AcDbCircle
 10
90.22724879
 20
29.9390881
 30
0.0
 40
0.3440962
  0
CIRCLE
  5
32D
330
120
100
AcDbEntity
  8
Ech.1_1
  6
Continuous
 62
    44
100
AcDbCircle
 10
88.09756011000001
 20
30.07936948
 30
0.0
 40
0.3440962
  0
CIRCLE
  5
32E
330
120
100
AcDbEntity
  8
Ech.1_1
  6
Continuous
 62
    44
100
AcDbCircle
 10
86.34728282999999
 20
26.99479534
 30
0.0
 40
0.3440962
  0
CIRCLE
  5
32F
330
120
100
AcDbEntity
  8
Ech.1_1
  6
Continuous
 62
    44
100
AcDbCircle
 10
86.77764150999999
 20
29.29497418
 30
0.0
 40
0.3440962
  0
CIRCLE
  5
330
330
120
100
AcDbEntity
  8
Ech.1_1
  6
Continuous
 62
    44
100
AcDbCircle
 10
85.15720419999999
 20
30.29216679
 30
0.0
 40
0.3440962
  0
CIRCLE
  5
331
330
120
100
AcDbEntity
  8
Ech.1_1
  6
Continuous
 62
    44
100
AcDbCircle
 10
82.12759440000001
 20
30.15424511
 30
0.0
 40
0.3440962
  0
CIRCLE
  5
332
330
120
100
AcDbEntity
  8
Ech.1_1
  6
Continuous
 62
    44
100
AcDbCircle
 10
80.8510687
 20
27.87916642
 30
0.0
 40
0.3440962
  0
CIRCLE
  5
333
330
120
100
AcDbEntity
  8
Ech.1_1
  6
Continuous
 62
    44
100
AcDbCircle
 10
81.77730019
 20
26.81203434
 30
0.0
 40
0.3440962
  0
CIRCLE
  5
334
330
120
100
AcDbEntity
  8
Ech.1_1
  6
Continuous
 62
    44
100
AcDbCircle
 10
101.56093199
 20
27.13926624
 30
0.0
 40
0.3440962
  0
CIRCLE
  5
335
330
120
100
AcDbEntity
  8
Ech.1_1
  6
Continuous
 62
    44
100
AcDbCircle
 10
115.88306399
 20
27.15832251
 30
0.0
 40
0.3440962
  0
ARC
  5
336
330
120
100
AcDbEntity
  8
Ech.1_1
  6
Continuous
 62
    44
100
AcDbCircle
 10
102.62829139
 20
4.498083199999999
 30
0.0
 40
4.5
100
AcDbArc
 50
181.66738495
 51
303.1249124
  0
ARC
  5
337
330
120
100
AcDbEntity
  8
Ech.1_1
  6
Continuous
 62
    44
100
AcDbCircle
 10
113.6287719
 20
21.8255016
 30
0.0
 40
4.0
100
AcDbArc
 50
1.66737494
 51
91.66737492999999
  0
ARC
  5
338
330
120
100
AcDbEntity
  8
Ech.1_1
  6
Continuous
 62
    44
100
AcDbCircle
 10
102.62829139
 20
4.498083199999999
 30
0.0
 40
4.5
100
AcDbArc
 50
123.12490237
 51
181.66738496
  0
ARC
  5
339
330
120
100
AcDbEntity
  8
Ech.1_1
  6
Continuous
 62
    44
100
AcDbCircle
 10
113.62877191
 20
21.8255016
 30
0.0
 40
4.0
100
AcDbArc
 50
303.12491239
 51
1.66737494
  0
ARC
  5
33A
330
120
100
AcDbEntity
  8
Ech.1_1
  6
Continuous
 62
    44
100
AcDbCircle
 10
82.42366954000001
 20
28.4203167
 30
0.0
 40
3.5
100
AcDbArc
 50
181.66738495
 51
271.66738496
  0
ARC
  5
33B
330
120
100
AcDbEntity
  8
Ech.1_1
  6
Continuous
 62
    44
100
AcDbCircle
 10
82.42366954000001
 20
28.4203167
 30
0.0
 40
3.5
100
AcDbArc
 50
91.66737494000001
 51
181.66738495
  0
ARC
  5
33C
330
120
100
AcDbEntity
  8
Ech.1_1
  6
Continuous
 62
    44
100
AcDbCircle
 10
114.93076083
 20
21.14472651
 30
0.0
 40
11.71837091
100
AcDbArc
 50
303.12491239
 51
1.66737494
  0
ARC
  5
33D
330
120
100
AcDbEntity
  8
Ech.1_1
  6
Continuous
 62
    44
100
AcDbCircle
 10
114.93076083
 20
21.14472651
 30
0.0
 40
10.96837091
100
AcDbArc
 50
303.12491239
 51
91.66737494000001
  0
ARC
  5
33E
330
120
100
AcDbEntity
  8
Ech.1_1
  6
Continuous
 62
    44
100
AcDbCircle
 10
102.62829139
 20
4.498083199999999
 30
0.0
 40
3.75
100
AcDbArc
 50
181.66738495
 51
303.12491239
  0
ARC
  5
33F
330
120
100
AcDbEntity
  8
Ech.1_1
  6
Continuous
 62
    44
100
AcDbCircle
 10
102.62829139
 20
4.498083199999999
 30
0.0
 40
3.75
100
AcDbArc
 50
123.12490237
 51
181.66738495
  0
ARC
  5
340
330
120
100
AcDbEntity
  8
Ech.1_1
  6
Continuous
 62
    44
100
AcDbCircle
 10
113.6287719
 20
21.8255016
 30
0.0
 40
4.75
100
AcDbArc
 50
303.1249124
 51
1.66737493
  0
ARC
  5
341
330
120
100
AcDbEntity
  8
Ech.1_1
  6
Continuous
 62
    44
100
AcDbCircle
 10
113.62877191
 20
21.8255016
 30
0.0
 40
4.75
100
AcDbArc
 50
1.66737493
 51
91.66737494000001
  0
ARC
  5
342
330
120
100
AcDbEntity
  8
Ech.1_1
  6
Continuous
 62
    44
100
AcDbCircle
 10
82.42366954000001
 20
28.4203167
 30
0.0
 40
2.75
100
AcDbArc
 50
181.66738495
 51
271.66738496
  0
ARC
  5
343
330
120
100
AcDbEntity
  8
Ech.1_1
  6
Continuous
 62
    44
100
AcDbCircle
 10
82.42366954000001
 20
28.4203167
 30
0.0
 40
2.75
100
AcDbArc
 50
91.66737494000001
 51
181.66738495
  0
ARC
  5
344
330
120
100
AcDbEntity
  8
Ech.1_1
  6
Continuous
 62
    44
100
AcDbCircle
 10
114.93076083
 20
21.14472651
 30
0.0
 40
11.71837091
100
AcDbArc
 50
1.66737494
 51
91.66737494000001
  0
ARC
  5
345
330
120
100
AcDbEntity
  8
Ech.1_1
  6
Continuous
 62
    44
100
AcDbCircle
 10
26.05067616
 20
19.91394583
 30
0.0
 40
1.5
100
AcDbArc
 50
267.66738495
 51
357.66738496
  0
ARC
  5
346
330
120
100
AcDbEntity
  8
Ech.1_1
  6
Continuous
 62
    44
100
AcDbCircle
 10
26.05067616
 20
19.91394583
 30
0.0
 40
1.5
100
AcDbArc
 50
177.66737495
 51
267.66738495
  0
LINE
  5
347
330
120
100
AcDbEntity
  8
Ech.1_1
  6
Continuous
 62
    44
100
AcDbLine
 10
100.16919437
 20
8.266748989999999
 30
0.0
 11
115.81463593
 21
18.47557646
 31
0.0
  0
LINE
  5
348
330
120
100
AcDbEntity
  8
Ech.1_1
  6
Continuous
 62
    44
100
AcDbLine
 10
121.33445218
 20
11.33081017
 30
0.0
 11
105.08738842
 21
0.7294174100000001
 31
0.0
  0
LINE
  5
349
330
120
100
AcDbEntity
  8
Ech.1_1
  6
Continuous
 62
    44
100
AcDbLine
 10
113.5123836
 20
25.82380796
 30
0.0
 11
82.52550929999999
 21
24.92179863
 31
0.0
  0
LINE
  5
34A
330
120
100
AcDbEntity
  8
Ech.1_1
  6
Continuous
 62
    44
100
AcDbLine
 10
114.58979051
 20
32.85813576000001
 30
0.0
 11
98.81484352000001
 21
32.39893651
 31
0.0
  0
LINE
  5
34B
330
120
100
AcDbEntity
  8
Ech.1_1
  6
Continuous
 62
    44
100
AcDbLine
 10
120.92460267
 20
11.95892113
 30
0.0
 11
104.67753891
 21
1.357528379999999
 31
0.0
  0
LINE
  5
34C
330
120
100
AcDbEntity
  8
Ech.1_1
  6
Continuous
 62
    44
100
AcDbLine
 10
100.57904387
 20
7.63863802
 30
0.0
 11
116.22448543
 21
17.84746549
 31
0.0
  0
LINE
  5
34D
330
120
100
AcDbEntity
  8
Ech.1_1
  6
Continuous
 62
    44
100
AcDbLine
 10
113.4905608
 20
26.57349041
 30
0.0
 11
82.50368649
 21
25.67148108
 31
0.0
  0
LINE
  5
34E
330
120
100
AcDbEntity
  8
Ech.1_1
  6
Continuous
 62
    44
100
AcDbLine
 10
82.34365258
 20
31.16915233
 30
0.0
 11
87.98156615000001
 21
31.33326861
 31
0.0
  0
LINE
  5
34F
330
120
100
AcDbEntity
  8
Ech.1_1
  6
Continuous
 62
    44
100
AcDbLine
 10
98.81484352000001
 20
32.39893651
 30
0.0
 11
89.01995442
 21
32.11381316
 31
0.0
  0
LINE
  5
350
330
120
100
AcDbEntity
  8
Ech.1_1
  6
Continuous
 62
    44
100
AcDbLine
 10
88.27027196999999
 20
32.09199035000001
 30
0.0
 11
82.32182976999999
 21
31.91883477
 31
0.0
  0
LINE
  5
351
330
120
100
AcDbEntity
  8
Ech.1_1
  6
Continuous
 62
    44
100
AcDbLine
 10
89.01995442
 20
32.11381316
 30
0.0
 11
89.04177722
 21
31.36413072
 31
0.0
  0
LINE
  5
352
330
120
100
AcDbEntity
  8
Ech.1_1
  6
Continuous
 62
    44
100
AcDbLine
 10
89.04177722
 20
31.36413072
 30
0.0
 11
98.83666632
 21
31.64925407
 31
0.0
  0
LINE
  5
353
330
120
100
AcDbEntity
  8
Ech.1_1
  6
Continuous
 62
    44
100
AcDbLine
 10
87.98156615000001
 20
31.33326861
 30
0.0
 11
88.75307139
 21
30.60540897
 31
0.0
  0
LINE
  5
354
330
120
100
AcDbEntity
  8
Ech.1_1
  6
Continuous
 62
    44
100
AcDbLine
 10
88.27027196999999
 20
32.09199035000001
 30
0.0
 11
89.04177722
 21
31.36413072
 31
0.0
  0
LINE
  5
355
330
120
100
AcDbEntity
  8
Ech.1_1
  6
Continuous
 62
    44
100
AcDbLine
 10
88.75307139
 20
30.60540897
 30
0.0
 11
98.85848913
 21
30.89957162
 31
0.0
  0
LINE
  5
356
330
120
100
AcDbEntity
  8
Ech.1_1
  6
Continuous
 62
    44
100
AcDbLine
 10
98.85848913
 20
30.89957162
 30
0.0
 11
98.83666632
 21
31.64925407
 31
0.0
  0
LINE
  5
357
330
120
100
AcDbEntity
  8
Ech.1_1
  6
Continuous
 62
    44
100
AcDbLine
 10
98.83666632
 20
31.64925407
 30
0.0
 11
114.61161332
 21
32.10845331
 31
0.0
  0
LINE
  5
358
330
120
100
AcDbEntity
  8
Ech.1_1
  6
Continuous
 62
    44
100
AcDbLine
 10
126.89222635
 20
33.21625229
 30
0.0
 11
78.07736559999999
 21
31.79528096
 31
0.0
  0
LINE
  5
359
330
120
100
AcDbEntity
  8
Ech.1_1
  6
Continuous
 62
    44
100
AcDbLine
 10
128.30430001
 20
36.25862767
 30
0.0
 11
129.8036649
 21
36.30227328
 31
0.0
  0
LINE
  5
35A
330
120
100
AcDbEntity
  8
Ech.1_1
  6
Continuous
 62
    44
100
AcDbLine
 10
126.80493513
 20
36.21498206
 30
0.0
 11
128.30430001
 21
36.25862767
 31
0.0
  0
LINE
  5
35B
330
120
100
AcDbEntity
  8
Ech.1_1
  6
Continuous
 62
    44
100
AcDbLine
 10
5.678588279999999
 20
35.75623214
 30
0.0
 11
0.12209457
 21
34.48132915
 31
0.0
  0
LINE
  5
35C
330
120
100
AcDbEntity
  8
Ech.1_1
  6
Continuous
 62
    44
100
AcDbLine
 10
5.61753717
 20
34.25747506
 30
0.0
 11
5.678588279999999
 21
35.75623214
 31
0.0
  0
LINE
  5
35D
330
120
100
AcDbEntity
  8
Ech.1_1
  6
Continuous
 62
    44
100
AcDbLine
 10
11.17403088
 20
35.53237805
 30
0.0
 11
5.61753717
 21
34.25747506
 31
0.0
  0
LINE
  5
35E
330
120
100
AcDbEntity
  8
Ech.1_1
  6
Continuous
 62
    44
100
AcDbLine
 10
11.11297977
 20
34.03362098000001
 30
0.0
 11
11.17403088
 21
35.53237805
 31
0.0
  0
LINE
  5
35F
330
120
100
AcDbEntity
  8
Ech.1_1
  6
Continuous
 62
    44
100
AcDbLine
 10
16.66947348
 20
35.30852397
 30
0.0
 11
11.11297977
 21
34.03362098000001
 31
0.0
  0
LINE
  5
360
330
120
100
AcDbEntity
  8
Ech.1_1
  6
Continuous
 62
    44
100
AcDbLine
 10
16.60842237
 20
33.8097669
 30
0.0
 11
16.66947348
 21
35.30852397
 31
0.0
  0
LINE
  5
361
330
120
100
AcDbEntity
  8
Ech.1_1
  6
Continuous
 62
    44
100
AcDbLine
 10
28.09889325
 20
33.34170837
 30
0.0
 11
16.60842237
 21
33.8097669
 31
0.0
  0
LINE
  5
362
330
120
100
AcDbEntity
  8
Ech.1_1
  6
Continuous
 62
    44
100
AcDbLine
 10
127.05226026
 20
27.71858104
 30
0.0
 11
126.89222635
 21
33.21625229
 31
0.0
  0
LINE
  5
363
330
120
100
AcDbEntity
  8
Ech.1_1
  6
Continuous
 62
    44
100
AcDbLine
 10
129.8036649
 20
36.30227328
 30
0.0
 11
130.05099004
 21
27.80587226
 31
0.0
  0
LINE
  5
364
330
120
100
AcDbEntity
  8
Ech.1_1
  6
Continuous
 62
    44
100
AcDbLine
 10
28.09889325
 20
33.34170837
 30
0.0
 11
73.66178076999999
 21
34.66801670000001
 31
0.0
  0
LINE
  5
365
330
120
100
AcDbEntity
  8
Ech.1_1
  6
Continuous
 62
    44
100
AcDbLine
 10
78.07736559999999
 20
31.79528096
 30
0.0
 11
73.82181468
 21
29.17034545
 31
0.0
  0
LINE
  5
366
330
120
100
AcDbEntity
  8
Ech.1_1
  6
Continuous
 62
    44
100
AcDbLine
 10
73.82181468
 20
29.17034545
 30
0.0
 11
29.27267292
 21
27.87354665
 31
0.0
  0
LINE
  5
367
330
120
100
AcDbEntity
  8
Ech.1_1
  6
Continuous
 62
    44
100
AcDbLine
 10
0.12209457
 20
34.48132915
 30
0.0
 11
-0.0000076553988038
 21
31.48381500000001
 31
0.0
  0
LINE
  5
368
330
120
100
AcDbEntity
  8
Ech.1_1
  6
Continuous
 62
    44
100
AcDbLine
 10
27.81756146
 20
26.43523288
 30
0.0
 11
27.54943323
 21
19.85289472
 31
0.0
  0
LINE
  5
369
330
120
100
AcDbEntity
  8
Ech.1_1
  6
Continuous
 62
    44
100
AcDbLine
 10
24.59261983
 20
20.97416833
 30
0.0
 11
24.55191909
 21
19.97499694
 31
0.0
  0
LINE
  5
36A
330
120
100
AcDbEntity
  8
Ech.1_1
  6
Continuous
 62
    44
100
AcDbLine
 10
24.59261983
 20
20.97416833
 30
0.0
 11
19.63746367
 21
22.17684342
 31
0.0
  0
LINE
  5
36B
330
120
100
AcDbEntity
  8
Ech.1_1
  6
Continuous
 62
    44
100
AcDbLine
 10
19.63746367
 20
22.17684342
 30
0.0
 11
12.19228711
 21
30.25432773
 31
0.0
  0
LINE
  5
36C
330
120
100
AcDbEntity
  8
Ech.1_1
  6
Continuous
 62
    44
100
AcDbLine
 10
10.45578739
 20
31.05790347
 30
0.0
 11
5.324192749999999
 21
31.26693638
 31
0.0
  0
LINE
  5
36D
330
120
100
AcDbEntity
  8
Ech.1_1
  6
Continuous
 62
    44
100
AcDbLine
 10
2.78329197
 20
28.22078122
 30
0.0
 11
5.133685709999999
 21
17.76350096
 31
0.0
  0
LINE
  5
36E
330
120
100
AcDbEntity
  8
Ech.1_1
  6
Continuous
 62
    44
100
AcDbLine
 10
-0.0000076553988038
 20
31.48381500000001
 30
0.0
 11
3.064849049999999
 21
17.84777398
 31
0.0
  0
LINE
  5
36F
330
120
100
AcDbEntity
  8
Ech.1_1
  6
Continuous
 62
    44
100
AcDbLine
 10
73.66178076999999
 20
34.66801670000001
 30
0.0
 11
126.80493513
 21
36.21498206
 31
0.0
  0
LINE
  5
370
330
120
100
AcDbEntity
  8
Ech.1_1
  6
Continuous
 62
    44
100
AcDbLine
 10
97.90450523
 20
32.37243711
 30
0.0
 11
123.64360243
 21
33.12168679
 31
0.0
  0
LINE
  5
371
330
120
100
AcDbEntity
  8
Ech.1_1
  6
Continuous
 62
    44
100
AcDbLine
 10
5.133685709999999
 20
17.76350096
 30
0.0
 11
3.064849049999999
 21
17.84777398
 31
0.0
  0
ENDBLK
  5
372
330
120
100
AcDbEntity
  8
0
100
AcDbBlockEnd
  0
BLOCK
  5
373
330
121
100
AcDbEntity
  8
Ech.1_1
100
AcDbBlockBegin
  2
PROFIL_L
 70
     0
 10
0.0
 20
0.0
 30
0.0
  3
PROFIL_L
  1

  0
HATCH
  5
374
330
121
100
AcDbEntity
  8
Ech.1_1
 62
   252
100
AcDbHatch
 10
0.0
 20
0.0
 30
0.0
210
0.0
220
0.0
230
1.0
  2
SOLID
 70
     1
 71
     0
 91
        1
 92
        7
 72
     1
 73
     1
 93
        6
 10
62.5
 20
-59.84638896999999
 42
0.0
 10
10.60042638
 20
-59.84638896999999
 42
0.0
 10
15.13881924
 20
-65.59638897000001
 42
0.0
 10
55.0
 20
-65.59638897000001
 42
0.0
 10
55.0
 20
-96.09638897000001
 42
1.0
 10
62.5
 20
-96.09638897000001
 42
0.0
 97
        0
 75
     0
 76
     2
 47
0.775229
 98
        1
 10
0.0
 20
0.0
  0
HATCH
  5
375
330
121
100
AcDbEntity
  8
Ech.1_1
 62
   252
100
AcDbHatch
 10
0.0
 20
0.0
 30
0.0
210
0.0
220
0.0
230
1.0
  2
SOLID
 70
     1
 71
     0
 91
        1
 92
        7
 72
     1
 73
     1
 93
        4
 10
-17.42278791
 20
-59.84638896999999
 42
0.0
 10
-59.625
 20
-59.84638896999999
 42
1.0
 10
-59.625
 20
-65.59638897000001
 42
0.0
 10
-21.96118076
 20
-65.59638897000001
 42
0.0
 97
        0
 75
     0
 76
     2
 47
0.775229
 98
        1
 10
0.0
 20
0.0
  0
HATCH
  5
376
330
121
100
AcDbEntity
  8
Ech.1_1
 62
   252
100
AcDbHatch
 10
0.0
 20
0.0
 30
0.0
210
0.0
220
0.0
230
1.0
  2
SOLID
 70
     1
 71
     0
 91
        1
 92
        7
 72
     0
 73
     1
 93
        4
 10
10.60042638
 20
-59.84638896999999
 10
-17.42278791
 20
-59.84638896999999
 10
-21.96118076
 20
-65.59638897000001
 10
15.13881924
 20
-65.59638897000001
 97
        0
 75
     0
 76
     2
 47
0.775229
 98
        1
 10
0.0
 20
0.0
  0
LINE
  5
377
330
121
100
AcDbEntity
  8
Ech.1_1
 62
     0
100
AcDbLine
 10
-59.625
 20
-65.59638897000001
 30
0.0
 11
55.0
 21
-65.59638897000001
 31
0.0
  0
LINE
  5
378
330
121
100
AcDbEntity
  8
Ech.1_1
 62
     0
100
AcDbLine
 10
55.0
 20
-96.09638897000001
 30
0.0
 11
55.0
 21
-65.59638897000001
 31
0.0
  0
LINE
  5
379
330
121
100
AcDbEntity
  8
Ech.1_1
 62
     0
100
AcDbLine
 10
-21.96118076
 20
-65.59638897000001
 30
0.0
 11
15.13881924
 21
-65.59638897000001
 31
0.0
  0
LINE
  5
37A
330
121
100
AcDbEntity
  8
Ech.1_1
 62
     0
100
AcDbLine
 10
4.08881924
 20
-51.59638897
 30
0.0
 11
4.08881924
 21
17.90361103
 31
0.0
  0
LINE
  5
37B
330
121
100
AcDbEntity
  8
Ech.1_1
 62
     0
100
AcDbLine
 10
15.13881924
 20
-65.59638897000001
 30
0.0
 11
4.08881924
 21
-51.59638897
 31
0.0
  0
LINE
  5
37C
330
121
100
AcDbEntity
  8
Ech.1_1
 62
     0
100
AcDbLine
 10
-21.96118076
 20
-65.59638897000001
 30
0.0
 11
-10.91118076
 21
-51.59638897
 31
0.0
  0
LINE
  5
37D
330
121
100
AcDbEntity
  8
Ech.1_1
 62
     0
100
AcDbLine
 10
-3.41118076
 20
84.40361102999998
 30
0.0
 11
4.08881924
 21
67.90361102999999
 31
0.0
  0
LINE
  5
37E
330
121
100
AcDbEntity
  8
Ech.1_1
 62
     0
100
AcDbLine
 10
-3.41118076
 20
84.40361102999998
 30
0.0
 11
-10.91118076
 21
67.90361102999999
 31
0.0
  0
LINE
  5
37F
330
121
100
AcDbEntity
  8
Ech.1_1
 62
     7
100
AcDbLine
 10
-13.41118076
 20
2.769016119999999
 30
0.0
 11
6.58881924
 21
16.2910497
 31
0.0
  0
LINE
  5
380
330
121
100
AcDbEntity
  8
Ech.1_1
 62
     7
100
AcDbLine
 10
-13.41118076
 20
-4.997470319999999
 30
0.0
 11
6.58881924
 21
8.52456326
 31
0.0
  0
LINE
  5
381
330
121
100
AcDbEntity
  8
Ech.1_1
 62
     7
100
AcDbLine
 10
-13.41118076
 20
-12.76395677
 30
0.0
 11
6.58881924
 21
0.7580768100000001
 31
0.0
  0
LINE
  5
382
330
121
100
AcDbEntity
  8
Ech.1_1
 62
     7
100
AcDbLine
 10
-13.41118076
 20
-20.53044321
 30
0.0
 11
6.58881924
 21
-7.00840963
 31
0.0
  0
LINE
  5
383
330
121
100
AcDbEntity
  8
Ech.1_1
 62
     7
100
AcDbLine
 10
-13.41118076
 20
-28.29692965
 30
0.0
 11
6.58881924
 21
-14.77489607
 31
0.0
  0
LINE
  5
384
330
121
100
AcDbEntity
  8
Ech.1_1
 62
     7
100
AcDbLine
 10
-13.41118076
 20
-36.06341609
 30
0.0
 11
6.58881924
 21
-22.54138251
 31
0.0
  0
LINE
  5
385
330
121
100
AcDbEntity
  8
Ech.1_1
 62
     7
100
AcDbLine
 10
-13.41118076
 20
-43.82990253
 30
0.0
 11
6.58881924
 21
-30.30786895
 31
0.0
  0
LINE
  5
386
330
121
100
AcDbEntity
  8
Ech.1_1
 62
     7
100
AcDbLine
 10
6.58881924
 20
-45.84084183
 30
0.0
 11
-1.924023309999999
 21
-51.59638897
 31
0.0
  0
LINE
  5
387
330
121
100
AcDbEntity
  8
Ech.1_1
 62
     7
100
AcDbLine
 10
6.58881924
 20
-38.07435539
 30
0.0
 11
-13.41118076
 21
-51.59638897
 31
0.0
  0
LINE
  5
388
330
121
100
AcDbEntity
  8
Ech.1_1
 62
     0
100
AcDbLine
 10
-10.91118076
 20
-51.59638897
 30
0.0
 11
-10.91118076
 21
67.90361102999999
 31
0.0
  0
LINE
  5
389
330
121
100
AcDbEntity
  8
Ech.1_1
 62
     0
100
AcDbLine
 10
-21.96118076
 20
-65.59638897000001
 30
0.0
 11
15.13881924
 21
-65.59638897000001
 31
0.0
  0
LINE
  5
38A
330
121
100
AcDbEntity
  8
Ech.1_1
 62
     0
100
AcDbLine
 10
4.08881924
 20
-51.59638897
 30
0.0
 11
4.08881924
 21
67.90361102999999
 31
0.0
  0
LINE
  5
38B
330
121
100
AcDbEntity
  8
Ech.1_1
 62
     0
100
AcDbLine
 10
-3.41118076
 20
84.40361102999998
 30
0.0
 11
4.08881924
 21
67.90361102999999
 31
0.0
  0
LINE
  5
38C
330
121
100
AcDbEntity
  8
Ech.1_1
 62
     0
100
AcDbLine
 10
-3.41118076
 20
84.40361102999998
 30
0.0
 11
-10.91118076
 21
67.90361102999999
 31
0.0
  0
LINE
  5
38D
330
121
100
AcDbEntity
  8
Ech.1_1
 62
     7
100
AcDbLine
 10
-13.41118076
 20
2.769016119999999
 30
0.0
 11
6.58881924
 21
16.2910497
 31
0.0
  0
LINE
  5
38E
330
121
100
AcDbEntity
  8
Ech.1_1
 62
     7
100
AcDbLine
 10
-13.41118076
 20
-4.997470319999999
 30
0.0
 11
6.58881924
 21
8.52456326
 31
0.0
  0
LINE
  5
38F
330
121
100
AcDbEntity
  8
Ech.1_1
 62
     7
100
AcDbLine
 10
-13.41118076
 20
-12.76395677
 30
0.0
 11
6.58881924
 21
0.7580768100000001
 31
0.0
  0
LINE
  5
390
330
121
100
AcDbEntity
  8
Ech.1_1
 62
     7
100
AcDbLine
 10
-13.41118076
 20
-20.53044321
 30
0.0
 11
6.58881924
 21
-7.00840963
 31
0.0
  0
LINE
  5
391
330
121
100
AcDbEntity
  8
Ech.1_1
 62
     7
100
AcDbLine
 10
-13.41118076
 20
-28.29692965
 30
0.0
 11
6.58881924
 21
-14.77489607
 31
0.0
  0
LINE
  5
392
330
121
100
AcDbEntity
  8
Ech.1_1
 62
     7
100
AcDbLine
 10
-13.41118076
 20
-36.06341609
 30
0.0
 11
6.58881924
 21
-22.54138251
 31
0.0
  0
LINE
  5
393
330
121
100
AcDbEntity
  8
Ech.1_1
 62
     7
100
AcDbLine
 10
-13.41118076
 20
-43.82990253
 30
0.0
 11
6.58881924
 21
-30.30786895
 31
0.0
  0
LINE
  5
394
330
121
100
AcDbEntity
  8
Ech.1_1
 62
     7
100
AcDbLine
 10
6.58881924
 20
-45.84084183
 30
0.0
 11
-1.924023309999999
 21
-51.59638897
 31
0.0
  0
LINE
  5
395
330
121
100
AcDbEntity
  8
Ech.1_1
 62
     7
100
AcDbLine
 10
6.58881924
 20
-38.07435539
 30
0.0
 11
-13.41118076
 21
-51.59638897
 31
0.0
  0
LINE
  5
396
330
121
100
AcDbEntity
  8
Ech.1_1
 62
     0
100
AcDbLine
 10
-10.91118076
 20
-51.59638897
 30
0.0
 11
-10.91118076
 21
67.90361102999999
 31
0.0
  0
LINE
  5
397
330
121
100
AcDbEntity
  8
Ech.1_1
 62
     0
100
AcDbLine
 10
-59.625
 20
-59.84638896999999
 30
0.0
 11
62.5
 21
-59.84638896999999
 31
0.0
  0
LINE
  5
398
330
121
100
AcDbEntity
  8
Ech.1_1
 62
     0
100
AcDbLine
 10
62.5
 20
-96.09638897000001
 30
0.0
 11
62.5
 21
-59.84638896999999
 31
0.0
  0
ARC
  5
399
330
121
100
AcDbEntity
  8
Ech.1_1
 62
     7
100
AcDbCircle
 10
-59.625
 20
-62.72138897
 30
0.0
 40
2.875
100
AcDbArc
 50
90.0
 51
270.00001002
  0
ARC
  5
39A
330
121
100
AcDbEntity
  8
Ech.1_1
 62
     7
100
AcDbCircle
 10
58.75
 20
-96.09638897000001
 30
0.0
 40
3.75
100
AcDbArc
 50
180.0
 51
0.0
  0
LINE
  5
39B
330
121
100
AcDbEntity
  8
Ech.1_1
 62
     7
100
AcDbLine
 10
-13.41118076
 20
33.83496188
 30
0.0
 11
6.58881924
 21
47.35699546
 31
0.0
  0
LINE
  5
39C
330
121
100
AcDbEntity
  8
Ech.1_1
 62
     7
100
AcDbLine
 10
-13.41118076
 20
26.06847544
 30
0.0
 11
6.58881924
 21
39.59050902
 31
0.0
  0
LINE
  5
39D
330
121
100
AcDbEntity
  8
Ech.1_1
 62
     7
100
AcDbLine
 10
-13.41118076
 20
18.301989
 30
0.0
 11
6.58881924
 21
31.82402258
 31
0.0
  0
LINE
  5
39E
330
121
100
AcDbEntity
  8
Ech.1_1
 62
     7
100
AcDbLine
 10
-13.41118076
 20
10.53550256
 30
0.0
 11
6.58881924
 21
24.05753614
 31
0.0
  0
LINE
  5
39F
330
121
100
AcDbEntity
  8
Ech.1_1
 62
     7
100
AcDbLine
 10
-13.41118076
 20
33.83496188
 30
0.0
 11
6.58881924
 21
47.35699546
 31
0.0
  0
LINE
  5
3A0
330
121
100
AcDbEntity
  8
Ech.1_1
 62
     7
100
AcDbLine
 10
-13.41118076
 20
26.06847544
 30
0.0
 11
6.58881924
 21
39.59050902
 31
0.0
  0
LINE
  5
3A1
330
121
100
AcDbEntity
  8
Ech.1_1
 62
     7
100
AcDbLine
 10
-13.41118076
 20
18.301989
 30
0.0
 11
6.58881924
 21
31.82402258
 31
0.0
  0
LINE
  5
3A2
330
121
100
AcDbEntity
  8
Ech.1_1
 62
     7
100
AcDbLine
 10
-13.41118076
 20
10.53550256
 30
0.0
 11
6.58881924
 21
24.05753614
 31
0.0
  0
LINE
  5
3A3
330
121
100
AcDbEntity
  8
Ech.1_1
 62
     7
100
AcDbLine
 10
-13.41118076
 20
64.90090764999999
 30
0.0
 11
1.01901261
 21
74.65718561
 31
0.0
  0
LINE
  5
3A4
330
121
100
AcDbEntity
  8
Ech.1_1
 62
     7
100
AcDbLine
 10
-13.41118076
 20
57.13442120999999
 30
0.0
 11
3.71936444
 21
68.71641158
 31
0.0
  0
LINE
  5
3A5
330
121
100
AcDbEntity
  8
Ech.1_1
 62
     7
100
AcDbLine
 10
-13.41118076
 20
49.36793476
 30
0.0
 11
6.58881924
 21
62.88996834
 31
0.0
  0
LINE
  5
3A6
330
121
100
AcDbEntity
  8
Ech.1_1
 62
     7
100
AcDbLine
 10
-13.41118076
 20
41.60144832
 30
0.0
 11
6.58881924
 21
55.1234819
 31
0.0
  0
LINE
  5
3A7
330
121
100
AcDbEntity
  8
Ech.1_1
 62
     7
100
AcDbLine
 10
-13.41118076
 20
64.90090764999999
 30
0.0
 11
1.01901261
 21
74.65718561
 31
0.0
  0
LINE
  5
3A8
330
121
100
AcDbEntity
  8
Ech.1_1
 62
     7
100
AcDbLine
 10
-13.41118076
 20
57.1344212
 30
0.0
 11
3.71936444
 21
68.71641158
 31
0.0
  0
LINE
  5
3A9
330
121
100
AcDbEntity
  8
Ech.1_1
 62
     7
100
AcDbLine
 10
-13.41118076
 20
49.36793476
 30
0.0
 11
6.58881924
 21
62.88996834
 31
0.0
  0
LINE
  5
3AA
330
121
100
AcDbEntity
  8
Ech.1_1
 62
     7
100
AcDbLine
 10
-13.41118076
 20
41.60144832
 30
0.0
 11
6.58881924
 21
55.1234819
 31
0.0
  0
LINE
  5
3AB
330
121
100
AcDbEntity
  8
Ech.1_1
 62
     7
100
AcDbLine
 10
-6.67596561
 20
77.22108436
 30
0.0
 11
-1.68133923
 21
80.59795965000001
 31
0.0
  0
LINE
  5
3AC
330
121
100
AcDbEntity
  8
Ech.1_1
 62
     7
100
AcDbLine
 10
-6.67596561
 20
77.22108436
 30
0.0
 11
-1.68133923
 21
80.59795965000001
 31
0.0
  0
LINE
  5
3AD
330
121
100
AcDbEntity
  8
Ech.1_1
 62
     7
100
AcDbLine
 10
4.08881924
 20
-51.59638897
 30
0.0
 11
-10.91118076
 21
-51.59638897
 31
0.0
  0
LINE
  5
3AE
330
121
100
AcDbEntity
  8
Ech.1_1
 62
     1
100
AcDbLine
 10
-3.41118076
 20
-82.20447955999999
 30
0.0
 11
-3.41118076
 21
99.84638897000001
 31
0.0
  0
ENDBLK
  5
3AF
330
121
100
AcDbEntity
  8
0
100
AcDbBlockEnd
  0
BLOCK
  5
3B0
330
122
100
AcDbEntity
  8
Ech.1_1
100
AcDbBlockBegin
  2
A$C4DC86443
 70
     0
 10
0.0
 20
0.0
 30
0.0
  3
A$C4DC86443
  1

  0
HATCH
  5
3B1
330
122
100
AcDbEntity
  8
Ech.1_1
 62
    24
100
AcDbHatch
 10
0.0
 20
0.0
 30
0.0
210
0.0
220
0.0
230
1.0
  2
ANSI33
 70
     0
 71
     0
 91
        1
 92
        7
 72
     0
 73
     1
 93
       24
 10
222.50003256
 20
199.99994333
 10
242.50003256
 20
199.99994333
 10
242.50003256
 20
214.9999744
 10
212.50003261
 20
214.9999744
 10
212.50003261
 20
229.9999744
 10
350.00003261
 20
229.9999744
 10
337.6586257
 20
299.9999744
 10
125.00003256
 20
299.9999744
 10
125.00003256
 20
279.9999744
 10
75.00003255999999
 20
279.9999744
 10
75.00003255999999
 20
299.9999744
 10
25.00003256
 20
299.9999744
 10
25.0000326
 20
49.99997442
 10
0.0000325975997839
 20
49.99997442
 10
0.000032562056731
 20
2.49997229
 10
0.0000379113043891
 20
2.49997229
 10
0.0000379113043891
 20
-0.0000255848863162
 10
242.50003256
 20
-0.0000255848863162
 10
242.50003256
 20
14.99997442
 10
202.50003256
 20
14.99997442
 10
202.50003256
 20
34.99997442
 10
242.50003256
 20
34.99997442
 10
242.50003256
 20
49.99997442
 10
222.50003256
 20
49.99997442
 97
        0
 75
     0
 76
     2
 52
0.0
 41
5.000000299999999
 77
     0
 78
     2
 53
45.0
 43
0.0
 44
0.0
 45
-22.85985804
 46
22.85985804
 79
     0
 53
45.0
 43
0.0
 44
22.85985804
 45
-22.85985804
 46
22.85985804
 79
     2
 49
13.96991324
 49
-6.98495662
 47
0.775229
 98
        1
 10
0.0
 20
0.0
  0
LINE
  5
3B2
330
122
100
AcDbEntity
  8
Ech.1_1
 62
     0
100
AcDbLine
 10
0.000032560164982
 20
-0.0000255848863162
 30
0.0
 11
242.50003256
 21
-0.0000255848863162
 31
0.0
  0
LINE
  5
3B3
330
122
100
AcDbEntity
  8
Ech.1_1
 62
     0
100
AcDbLine
 10
242.50003256
 20
14.99997442
 30
0.0
 11
202.50003256
 21
14.99997442
 31
0.0
  0
LINE
  5
3B4
330
122
100
AcDbEntity
  8
Ech.1_1
 62
     0
100
AcDbLine
 10
202.50003256
 20
34.99997442
 30
0.0
 11
242.50003256
 21
34.99997442
 31
0.0
  0
LINE
  5
3B5
330
122
100
AcDbEntity
  8
Ech.1_1
 62
     0
100
AcDbLine
 10
242.50003256
 20
34.99997442
 30
0.0
 11
242.50003256
 21
49.99997442
 31
0.0
  0
LINE
  5
3B6
330
122
100
AcDbEntity
  8
Ech.1_1
 62
     0
100
AcDbLine
 10
25.0000326
 20
49.99997442
 30
0.0
 11
0.000032560164982
 21
49.99997442
 31
0.0
  0
LINE
  5
3B7
330
122
100
AcDbEntity
  8
Ech.1_1
 62
     0
100
AcDbLine
 10
0.000032560164982
 20
49.99997442
 30
0.0
 11
0.000032560164982
 21
-0.0000255848863162
 31
0.0
  0
LINE
  5
3B8
330
122
100
AcDbEntity
  8
Ech.1_1
 62
     0
100
AcDbLine
 10
212.50003261
 20
229.9999744
 30
0.0
 11
350.00003261
 21
229.9999744
 31
0.0
  0
LINE
  5
3B9
330
122
100
AcDbEntity
  8
Ech.1_1
 62
     0
100
AcDbLine
 10
337.6586257
 20
299.9999744
 30
0.0
 11
140.00003256
 21
299.9999744
 31
0.0
  0
LINE
  5
3BA
330
122
100
AcDbEntity
  8
Ech.1_1
 62
     0
100
AcDbLine
 10
350.00003261
 20
229.9999744
 30
0.0
 11
337.6586257
 21
299.9999744
 31
0.0
  0
LINE
  5
3BB
330
122
100
AcDbEntity
  8
Ech.1_1
 62
     0
100
AcDbLine
 10
212.50003261
 20
229.9999744
 30
0.0
 11
212.50003261
 21
214.9999744
 31
0.0
  0
LINE
  5
3BC
330
122
100
AcDbEntity
  8
Ech.1_1
 62
     0
100
AcDbLine
 10
212.50003261
 20
214.9999744
 30
0.0
 11
242.50003256
 21
214.9999744
 31
0.0
  0
LINE
  5
3BD
330
122
100
AcDbEntity
  8
Ech.1_1
 62
     0
100
AcDbLine
 10
222.50003256
 20
49.99997442
 30
0.0
 11
242.50003256
 21
49.99997442
 31
0.0
  0
LINE
  5
3BE
330
122
100
AcDbEntity
  8
Ech.1_1
 62
     7
100
AcDbLine
 10
125.00003256
 20
299.9999744
 30
0.0
 11
337.6586257
 21
299.9999744
 31
0.0
  0
LINE
  5
3BF
330
122
100
AcDbEntity
  8
Ech.1_1
 62
     7
100
AcDbLine
 10
337.6586257
 20
299.9999744
 30
0.0
 11
350.00003261
 21
229.9999744
 31
0.0
  0
LINE
  5
3C0
330
122
100
AcDbEntity
  8
Ech.1_1
 62
     7
100
AcDbLine
 10
350.00003261
 20
229.9999744
 30
0.0
 11
212.50003261
 21
229.9999744
 31
0.0
  0
LINE
  5
3C1
330
122
100
AcDbEntity
  8
Ech.1_1
 62
     7
100
AcDbLine
 10
212.50003261
 20
229.9999744
 30
0.0
 11
212.50003261
 21
214.9999744
 31
0.0
  0
LINE
  5
3C2
330
122
100
AcDbEntity
  8
Ech.1_1
 62
     7
100
AcDbLine
 10
212.50003261
 20
214.9999744
 30
0.0
 11
242.50003256
 21
214.9999744
 31
0.0
  0
LINE
  5
3C3
330
122
100
AcDbEntity
  8
Ech.1_1
 62
     7
100
AcDbLine
 10
242.50003256
 20
214.9999744
 30
0.0
 11
242.50003256
 21
199.99994333
 31
0.0
  0
LINE
  5
3C4
330
122
100
AcDbEntity
  8
Ech.1_1
 62
     7
100
AcDbLine
 10
222.50003256
 20
199.99994333
 30
0.0
 11
222.50003256
 21
49.99997442
 31
0.0
  0
LINE
  5
3C5
330
122
100
AcDbEntity
  8
Ech.1_1
 62
     7
100
AcDbLine
 10
222.50003256
 20
49.99997442
 30
0.0
 11
242.50003256
 21
49.99997442
 31
0.0
  0
LINE
  5
3C6
330
122
100
AcDbEntity
  8
Ech.1_1
 62
     7
100
AcDbLine
 10
242.50003256
 20
49.99997442
 30
0.0
 11
242.50003256
 21
34.99997442
 31
0.0
  0
LINE
  5
3C7
330
122
100
AcDbEntity
  8
Ech.1_1
 62
     7
100
AcDbLine
 10
242.50003256
 20
34.99997442
 30
0.0
 11
202.50003256
 21
34.99997442
 31
0.0
  0
LINE
  5
3C8
330
122
100
AcDbEntity
  8
Ech.1_1
 62
     7
100
AcDbLine
 10
202.50003256
 20
34.99997442
 30
0.0
 11
202.50003256
 21
14.99997442
 31
0.0
  0
LINE
  5
3C9
330
122
100
AcDbEntity
  8
Ech.1_1
 62
     7
100
AcDbLine
 10
202.50003256
 20
14.99997442
 30
0.0
 11
242.50003256
 21
14.99997442
 31
0.0
  0
LINE
  5
3CA
330
122
100
AcDbEntity
  8
Ech.1_1
 62
     7
100
AcDbLine
 10
242.50003256
 20
14.99997442
 30
0.0
 11
242.50003256
 21
-0.0000255848863162
 31
0.0
  0
LINE
  5
3CB
330
122
100
AcDbEntity
  8
Ech.1_1
 62
     7
100
AcDbLine
 10
242.50003256
 20
-0.0000255848863162
 30
0.0
 11
0.000032560164982
 21
-0.0000255848863162
 31
0.0
  0
LINE
  5
3CC
330
122
100
AcDbEntity
  8
Ech.1_1
 62
     7
100
AcDbLine
 10
0.0000325975997839
 20
49.99997442
 30
0.0
 11
25.0000326
 21
49.99997442
 31
0.0
  0
LINE
  5
3CD
330
122
100
AcDbEntity
  8
Ech.1_1
 62
     7
100
AcDbLine
 10
25.0000326
 20
49.99997442
 30
0.0
 11
25.00003256
 21
299.9999744
 31
0.0
  0
LINE
  5
3CE
330
122
100
AcDbEntity
  8
Ech.1_1
 62
     7
100
AcDbLine
 10
242.50003256
 20
199.99994333
 30
0.0
 11
222.50003256
 21
199.99994333
 31
0.0
  0
LINE
  5
3CF
330
122
100
AcDbEntity
  8
Ech.1_1
 62
     7
100
AcDbLine
 10
25.00003256
 20
299.9999744
 30
0.0
 11
75.00003255999999
 21
299.9999744
 31
0.0
  0
LINE
  5
3D0
330
122
100
AcDbEntity
  8
Ech.1_1
 62
     7
100
AcDbLine
 10
75.00003255999999
 20
299.9999744
 30
0.0
 11
75.00003255999999
 21
279.9999744
 31
0.0
  0
LINE
  5
3D1
330
122
100
AcDbEntity
  8
Ech.1_1
 62
     7
100
AcDbLine
 10
75.00003255999999
 20
279.9999744
 30
0.0
 11
125.00003256
 21
279.9999744
 31
0.0
  0
LINE
  5
3D2
330
122
100
AcDbEntity
  8
Ech.1_1
 62
     7
100
AcDbLine
 10
125.00003256
 20
279.9999744
 30
0.0
 11
125.00003256
 21
299.9999744
 31
0.0
  0
ENDBLK
  5
3D3
330
122
100
AcDbEntity
  8
0
100
AcDbBlockEnd
  0
ENDSEC
  0
SECTION
  2
ENTITIES
  0
INSERT
  5
3D4
330
E3
100
AcDbEntity
  8
Ech.1_5
 62
     0
100
AcDbBlockReference
  2
*X45
 10
0.0
 20
0.0
 30
0.0
  0
INSERT
  5
3D5
330
E3
100
AcDbEntity
  8
Ech.1_5
 62
     0
100
AcDbBlockReference
  2
*X46
 10
0.0
 20
0.0
 30
0.0
  0
INSERT
  5
3D6
330
E3
100
AcDbEntity
  8
Ech.1_5
 62
     0
100
AcDbBlockReference
  2
*X47
 10
0.0
 20
0.0
 30
0.0
  0
INSERT
  5
3D7
330
E3
100
AcDbEntity
  8
Ech.1_5
 62
     0
100
AcDbBlockReference
  2
*X48
 10
0.0
 20
0.0
 30
0.0
  0
INSERT
  5
3D8
330
E3
100
AcDbEntity
  8
Ech.1_5
 62
     0
100
AcDbBlockReference
  2
*X49
 10
0.0
 20
0.0
 30
0.0
  0
INSERT
  5
3D9
330
E3
100
AcDbEntity
  8
Ech.1_5
 62
     0
100
AcDbBlockReference
  2
*X50
 10
0.0
 20
0.0
 30
0.0
  0
INSERT
  5
3DA
330
E3
100
AcDbEntity
  8
Ech.1_5
 62
     0
100
AcDbBlockReference
  2
*X51
 10
0.0
 20
0.0
 30
0.0
  0
INSERT
  5
3DB
330
E3
100
AcDbEntity
  8
Ech.1_5
 62
     0
100
AcDbBlockReference
  2
*X52
 10
0.0
 20
0.0
 30
0.0
  0
INSERT
  5
3DC
330
E3
100
AcDbEntity
  8
Ech.1_5
 62
     0
100
AcDbBlockReference
  2
*X53
 10
0.0
 20
0.0
 30
0.0
  0
INSERT
  5
3DD
330
E3
100
AcDbEntity
  8
Ech.1_5
 62
     0
100
AcDbBlockReference
  2
*X54
 10
0.0
 20
0.0
 30
0.0
  0
INSERT
  5
3DE
330
E3
100
AcDbEntity
  8
Ech.1_5
 62
     0
100
AcDbBlockReference
  2
*X55
 10
0.0
 20
0.0
 30
0.0
  0
LWPOLYLINE
  5
3EB
330
E3
100
AcDbEntity
  8
Ech.1_5
 62
     7
100
AcDbPolyline
 90
        5
 70
     0
 43
0.0
 10
50259.79586735
 20
10913.46419489
 10
50394.22464634
 20
10913.46419489
 10
50394.22464634
 20
10856.74123608
 10
50259.79586735
 20
10856.74123608
 10
50259.79586735
 20
10913.46419489
  0
LWPOLYLINE
  5
3EC
330
E3
100
AcDbEntity
  8
Ech.1_5
 62
     7
100
AcDbPolyline
 90
        5
 70
     0
 43
0.0
 10
50278.07591313999
 20
10879.80738376
 10
50328.07591313999
 20
10879.80738376
 10
50328.07591313999
 20
10887.22252129
 10
50278.07591313999
 20
10887.22252129
 10
50278.07591313999
 20
10879.80738376
  0
LWPOLYLINE
  5
3ED
330
E3
100
AcDbEntity
  8
Ech.1_5
 62
     7
100
AcDbPolyline
 90
        5
 70
     0
 43
0.0
 10
50328.07591313999
 20
10879.80738376
 10
50378.07591314
 20
10879.80738376
 10
50378.07591314
 20
10887.22252129
 10
50328.07591313999
 20
10887.22252129
 10
50328.07591313999
 20
10879.80738376
  0
LINE
  5
3EE
330
E3
100
AcDbEntity
  8
Ech.1_5
  6
Continuous
 62
     7
370
    -3
100
AcDbLine
 10
50915.20743621
 20
10938.46742158
 30
0.0
 11
50915.20743621
 21
10938.46742158
 31
0.0
  0
LINE
  5
3EF
330
E3
100
AcDbEntity
  8
Ech.1_5
  6
Continuous
 62
     7
370
    -3
100
AcDbLine
 10
50913.70743621
 20
10939.96742158
 30
0.0
 11
50913.70743621
 21
10939.96742158
 31
0.0
  0
LWPOLYLINE
  5
3F0
330
E3
100
AcDbEntity
  8
Ech.1_5
  6
Continuous
 62
     7
370
    -3
100
AcDbPolyline
 90
        4
 70
     1
 43
0.0
 10
51203.20743621
 20
11076.89966261
 10
51163.20743621
 20
11076.89966261
 10
51163.20743621
 20
11049.89966261
 10
51203.20743621
 20
11049.89966261
  0
LWPOLYLINE
  5
3F1
330
E3
100
AcDbEntity
  8
Ech.1_5
  6
Continuous
 62
     7
370
    -3
100
AcDbPolyline
 90
        4
 70
     1
 43
0.0
 10
51218.20743621
 20
10598.39966261
 10
51205.20743621
 20
10598.39966261
 10
51205.20743621
 20
10463.01730728
 10
51218.20743621
 20
10463.01730728
  0
HATCH
  5
3F2
330
E3
100
AcDbEntity
  8
Ech.1_5
  6
Continuous
 62
     7
100
AcDbHatch
 10
0.0
 20
0.0
 30
0.0
210
0.0
220
0.0
230
1.0
  2
DOTS2
 70
     0
 71
     0
 91
        1
 92
        7
 72
     0
 73
     1
 93
        4
 10
51218.20743621
 20
10598.39966261
 10
51205.20743621
 20
10598.39966261
 10
51205.20743621
 20
10463.01730728
 10
51218.20743621
 20
10463.01730728
 97
        0
 75
     0
 76
     2
 52
0.0
 41
4.72440952
 77
     0
 78
     1
 53
0.0
 43
0.0
 44
0.0
 45
3.75
 46
3.535
 79
     2
 49
0.0
 49
-3.535
 47
0.775229
 98
        1
 10
0.0
 20
0.0
  0
LWPOLYLINE
  5
3F3
330
E3
100
AcDbEntity
  8
Ech.1_5
  6
Continuous
 62
     7
370
    -3
100
AcDbPolyline
 90
        6
 70
     0
 43
0.0
 10
51238.20743621
 20
10463.01730728
 10
51118.1418274
 20
10463.01567773
 10
51101.65632424999
 20
10445.03832932
 10
51115.76626427
 20
10480.99402933
 10
51099.27991017999
 20
10463.01567773
 10
50923.97333922999
 20
10463.01646347
  0
LINE
  5
3F4
330
E3
100
AcDbEntity
  8
Ech.1_5
  6
Continuous
 62
     7
370
    -3
100
AcDbLine
 10
51165.20743621
 20
10717.89966261
 30
0.0
 11
51165.20743621
 21
10564.3361228
 31
0.0
  0
LINE
  5
3F5
330
E3
100
AcDbEntity
  8
Ech.1_5
  6
Continuous
 62
     7
370
    -3
100
AcDbLine
 10
50976.20743621
 20
11046.89966261
 30
0.0
 11
50976.20743621
 21
10564.33481574
 31
0.0
  0
LINE
  5
3F6
330
E3
100
AcDbEntity
  8
Ech.1_5
  6
Continuous
 62
     7
370
    -3
100
AcDbLine
 10
50913.70743621
 20
10925.83190363
 30
0.0
 11
50913.70743621
 21
10925.83190363
 31
0.0
  0
LWPOLYLINE
  5
3F7
330
E3
100
AcDbEntity
  8
Ech.1_5
 62
     7
100
AcDbPolyline
 90
        4
 70
     0
 43
0.0
 10
51526.60200528
 20
10624.39972004
 10
51165.20743621
 20
10624.39972004
 10
51165.20743621
 20
10611.39972004
 10
51526.60200528
 20
10611.39972004
  0
LWPOLYLINE
  5
3F8
330
E3
100
AcDbEntity
  8
Ech.1_5
  6
Continuous
 62
     7
370
    -3
100
AcDbPolyline
 90
        6
 70
     0
 43
0.0
 10
51526.60112733
 20
11182.02664116
 10
51526.60200528
 20
10820.47353688
 10
51544.57935369
 20
10803.98803372
 10
51508.62365367999
 20
10818.09797374
 10
51526.60200528
 20
10801.61161966
 10
51526.60200528
 20
10578.30446267
  0
LWPOLYLINE
  5
3F9
330
E3
100
AcDbEntity
  8
Ech.1_5
  6
Continuous
 62
     7
370
    -3
100
AcDbPolyline
 90
        4
 70
     1
 43
0.0
 10
50972.50755703
 20
11076.89966261
 10
50932.50755703
 20
11076.89966261
 10
50932.50755703
 20
11049.89966261
 10
50972.50755703
 20
11049.89966261
  0
LWPOLYLINE
  5
3FA
330
E3
100
AcDbEntity
  8
Ech.1_5
 62
     7
100
AcDbPolyline
 90
        5
 70
     0
 43
0.0
 10
50259.79586735
 20
10913.46419489
 10
50394.22464634
 20
10913.46419489
 10
50394.22464634
 20
10856.74123608
 10
50259.79586735
 20
10856.74123608
 10
50259.79586735
 20
10913.46419489
  0
LWPOLYLINE
  5
3FB
330
E3
100
AcDbEntity
  8
Ech.1_5
 62
     7
100
AcDbPolyline
 90
        5
 70
     0
 43
0.0
 10
50278.07591313999
 20
10879.80738376
 10
50328.07591313999
 20
10879.80738376
 10
50328.07591313999
 20
10887.22252129
 10
50278.07591313999
 20
10887.22252129
 10
50278.07591313999
 20
10879.80738376
  0
LWPOLYLINE
  5
3FC
330
E3
100
AcDbEntity
  8
Ech.1_5
 62
     7
100
AcDbPolyline
 90
        5
 70
     0
 43
0.0
 10
50328.07591313999
 20
10879.80738376
 10
50378.07591314
 20
10879.80738376
 10
50378.07591314
 20
10887.22252129
 10
50328.07591313999
 20
10887.22252129
 10
50328.07591313999
 20
10879.80738376
  0
LINE
  5
3FD
330
E3
100
AcDbEntity
  8
Ech.1_5
  6
Continuous
 62
     7
370
    -3
100
AcDbLine
 10
50915.20743621
 20
10938.46742158
 30
0.0
 11
50915.20743621
 21
10938.46742158
 31
0.0
  0
LINE
  5
3FE
330
E3
100
AcDbEntity
  8
Ech.1_5
  6
Continuous
 62
     7
370
    -3
100
AcDbLine
 10
50913.70743621
 20
10939.96742158
 30
0.0
 11
50913.70743621
 21
10939.96742158
 31
0.0
  0
LWPOLYLINE
  5
3FF
330
E3
100
AcDbEntity
  8
Ech.1_5
  6
Continuous
 62
     7
370
    -3
100
AcDbPolyline
 90
        4
 70
     1
 43
0.0
 10
51203.20743621
 20
11076.89966261
 10
51163.20743621
 20
11076.89966261
 10
51163.20743621
 20
11049.89966261
 10
51203.20743621
 20
11049.89966261
  0
LWPOLYLINE
  5
400
330
E3
100
AcDbEntity
  8
Ech.1_5
  6
Continuous
 62
     7
370
    -3
100
AcDbPolyline
 90
        4
 70
     1
 43
0.0
 10
51210.20743621
 20
11049.89966261
 10
51165.20743621
 20
11049.89966261
 10
51165.20743621
 20
10969.89966261
 10
51210.20743621
 20
10969.89966261
  0
LWPOLYLINE
  5
401
330
E3
100
AcDbEntity
  8
Ech.1_5
  6
Continuous
 62
     7
370
    -3
100
AcDbPolyline
 90
        6
 70
     0
 43
0.0
 10
51238.20743621
 20
10463.01730728
 10
51118.1418274
 20
10463.01567773
 10
51101.65632424999
 20
10445.03832932
 10
51115.76626427
 20
10480.99402933
 10
51099.27991017999
 20
10463.01567773
 10
50911.20743621
 20
10463.01646347
  0
LINE
  5
402
330
E3
100
AcDbEntity
  8
Ech.1_5
  6
Continuous
 62
     7
370
    -3
100
AcDbLine
 10
51165.20743621
 20
10717.89966261
 30
0.0
 11
51165.20743621
 21
10463.01730728
 31
0.0
  0
LWPOLYLINE
  5
403
330
E3
100
AcDbEntity
  8
Ech.1_5
 62
     7
370
    18
100
AcDbPolyline
 90
        4
 70
     0
 43
0.0
 10
51165.20743621
 20
10578.39950646
 10
51205.20743621
 20
10533.39950646
 10
51205.20743621
 20
10578.39950646
 10
51165.20743621
 20
10533.39950646
  0
LINE
  5
404
330
E3
100
AcDbEntity
  8
Ech.1_5
  6
Continuous
 62
     7
370
    -3
100
AcDbLine
 10
50976.20743621
 20
11046.89966261
 30
0.0
 11
50976.20743621
 21
10564.33481574
 31
0.0
  0
LWPOLYLINE
  5
406
330
E3
100
AcDbEntity
  8
Ech.1_5
  6
Continuous
 62
     7
370
    -3
100
AcDbPolyline
 90
        4
 70
     1
 43
0.0
 10
51165.20743621
 20
10611.39966261
 10
51165.20743621
 20
10598.39966261
 10
51526.60200528
 20
10598.39966261
 10
51526.60200528
 20
10611.39966261
  0
HATCH
  5
407
330
E3
100
AcDbEntity
  8
Ech.1_5
  6
Continuous
 62
     7
100
AcDbHatch
 10
0.0
 20
0.0
 30
0.0
210
0.0
220
0.0
230
1.0
  2
DOTS2
 70
     0
 71
     0
 91
        1
 92
        7
 72
     0
 73
     1
 93
        4
 10
51165.20743621
 20
10611.39966261
 10
51165.20743621
 20
10598.39966261
 10
51526.60200528
 20
10598.39966261
 10
51526.60200528
 20
10611.39966261
 97
        0
 75
     0
 76
     2
 52
0.0
 41
4.72440952
 77
     0
 78
     1
 53
0.0
 43
0.0
 44
0.0
 45
3.75
 46
3.535
 79
     2
 49
0.0
 49
-3.535
 47
0.775229
 98
        1
 10
0.0
 20
0.0
  0
LWPOLYLINE
  5
408
330
E3
100
AcDbEntity
  8
Ech.1_5
 62
     7
100
AcDbPolyline
 90
        4
 70
     0
 43
0.0
 10
51526.60200528
 20
10611.39966261
 10
51165.20743621
 20
10611.39966261
 10
51165.20743621
 20
10598.39966261
 10
51526.60200528
 20
10598.39966261
  0
LWPOLYLINE
  5
409
330
E3
100
AcDbEntity
  8
Ech.1_5
  6
Continuous
 62
     7
370
    -3
100
AcDbPolyline
 90
       22
 70
     0
 43
0.0
 10
50684.67883168
 20
11121.00040802
 10
50626.87196961999
 20
11121.00040802
 42
-0.37555118
 10
50619.43898474
 20
11127.50004017
 42
0.74707677
 10
50447.73494252
 20
11126.21577444
 10
50444.73968448
 20
11126.21577444
 10
50444.73968448
 20
11124.49690257
 10
50462.13270205
 20
11124.49690257
 42
-0.03525917
 10
50464.04241727
 20
11134.46379447
 10
50478.6185261
 20
11134.46379447
 10
50478.6185261
 20
11124.49690257
 10
50484.01488314
 20
11124.49690257
 10
50487.74578309
 20
11163.23224865
 42
-0.5436568000000001
 10
50608.96005065
 20
11118.2353738
 42
0.35131149
 10
50623.60039051999
 20
11106.50040802
 10
50721.89287327
 20
11106.50040802
 10
50727.27181772999
 20
11133.05574734
 10
50715.49482087
 20
11133.05574734
 10
50710.11587641
 20
11121.00040802
 10
50696.45582854
 20
11121.00040802
 10
50696.45582854
 20
11133.05574734
 10
50684.67883168
 20
11133.05574734
 10
50684.67883168
 20
11121.00040802
  0
LWPOLYLINE
  5
40A
330
E3
100
AcDbEntity
  8
Ech.1_5
 62
     7
100
AcDbPolyline
 90
       27
 70
     0
 43
0.0
 10
50938.08081908999
 20
10542.69068216
 10
50938.20743621
 20
10543.02515595
 10
50938.20743621
 20
10570.40862005
 10
50945.20743621
 20
10570.40862005
 10
50945.20743621
 20
10561.40862005
 10
50951.20743621
 20
10561.40862005
 10
50951.20743621
 20
10588.40862005
 10
50947.20743621
 20
10592.40862005
 10
50951.20743621
 20
10596.40862005
 10
50951.20743621
 20
10660.40862005
 10
50947.20743621
 20
10664.40862005
 10
50951.20743621
 20
10668.40862005
 10
50951.20743621
 20
10703.40862005
 10
50944.20743621
 20
10703.40862005
 10
50944.20743621
 20
10709.40862005
 10
50941.70743621
 20
10714.40862005
 10
50939.20743621
 20
10709.40862005
 10
50939.20743621
 20
10678.47968786
 10
50938.82683387
 20
10676.5662707
 10
50932.67190229999
 20
10669.87308614
 10
50931.20743621
 20
10666.33755223
 10
50931.20743621
 20
10547.25080782
 10
50932.16775859999
 20
10545.62093918
 10
50936.90387946
 20
10542.64958924
 10
50937.31588083
 20
10542.40862005
 10
50937.62969832
 20
10542.40862005
 10
50938.08081908999
 20
10542.69068216
  0
LWPOLYLINE
  5
40B
330
E3
100
AcDbEntity
  8
Ech.1_5
 62
     7
100
AcDbPolyline
 90
       14
 70
     0
 43
0.0
 10
50951.20743621
 20
10485.56331361
 10
50951.20743621
 20
10515.40862005
 10
50947.20743621
 20
10519.40862005
 10
50951.20743621
 20
10523.40862005
 10
50951.20743621
 20
10558.40862005
 10
50944.20743621
 20
10558.40862005
 10
50944.20743621
 20
10564.40862005
 10
50941.70743621
 20
10569.40862005
 10
50939.20743621
 20
10564.40862005
 10
50939.20743621
 20
10533.47968786
 10
50938.82683387
 20
10531.5662707
 10
50932.67190229999
 20
10524.87308614
 10
50931.20743621
 20
10521.33755223
 10
50931.20743621
 20
10485.56331361
  0
LWPOLYLINE
  5
40C
330
E3
100
AcDbEntity
  8
Ech.1_5
  6
Continuous
 62
     7
370
    -3
100
AcDbPolyline
 90
        4
 70
     1
 43
0.0
 10
50975.00755703
 20
11049.89966261
 10
50930.00755703
 20
11049.89966261
 10
50930.00755703
 20
10969.89966261
 10
50975.00755703
 20
10969.89966261
  0
LWPOLYLINE
  5
40D
330
E3
100
AcDbEntity
  8
Ech.1_5
  6
Continuous
 62
     7
370
    -3
100
AcDbPolyline
 90
        4
 70
     1
 43
0.0
 10
50501.20743621
 20
11049.89966261
 10
50456.20743621
 20
11049.89966261
 10
50456.20743621
 20
10969.89966261
 10
50501.20743621
 20
10969.89966261
  0
LWPOLYLINE
  5
40E
330
E3
100
AcDbEntity
  8
Ech.1_5
  6
Continuous
 62
     7
370
    -3
100
AcDbPolyline
 90
        4
 70
     1
 43
0.0
 10
50496.20743621
 20
11076.89966261
 10
50456.20743621
 20
11076.89966261
 10
50456.20743621
 20
11049.89966261
 10
50496.20743621
 20
11049.89966261
  0
LWPOLYLINE
  5
40F
330
E3
100
AcDbEntity
  8
Ech.1_5
  6
Continuous
 62
     7
370
    -3
100
AcDbPolyline
 90
        4
 70
     1
 43
0.0
 10
50449.71035298
 20
10932.89966261
 10
50970.164093
 20
10932.89966261
 10
50970.164093
 20
10942.89966261
 10
50449.71035298
 20
10942.89966261
  0
HATCH
  5
410
330
E3
100
AcDbEntity
  8
Ech.1_5
  6
Continuous
 62
     7
100
AcDbHatch
 10
0.0
 20
0.0
 30
0.0
210
0.0
220
0.0
230
1.0
  2
ANSI37
 70
     0
 71
     0
 91
        1
 92
        7
 72
     0
 73
     1
 93
        4
 10
50449.71035298
 20
10932.89966261
 10
50970.164093
 20
10932.89966261
 10
50970.164093
 20
10942.89966261
 10
50449.71035298
 20
10942.89966261
 97
        0
 75
     0
 76
     2
 52
0.0
 41
1.88976388
 77
     0
 78
     2
 53
45.0
 43
0.0
 44
0.0
 45
4.242640859999999
 46
-4.242640859999999
 79
     0
 53
-45.0
 43
0.0
 44
0.0
 45
4.242640859999999
 46
4.242640859999999
 79
     0
 47
0.775229
 98
        1
 10
0.0
 20
0.0
  0
LWPOLYLINE
  5
411
330
E3
100
AcDbEntity
  8
Ech.1_5
 62
     7
100
AcDbPolyline
 90
        5
 70
     0
 43
0.0
 10
50449.71035298
 20
10932.89966261
 10
50970.164093
 20
10932.89966261
 10
50970.164093
 20
10942.89966261
 10
50449.71035298
 20
10942.89966261
 10
50449.71035298
 20
10932.89966261
  0
LWPOLYLINE
  5
412
330
E3
100
AcDbEntity
  8
Ech.1_5
  6
Continuous
 62
     7
370
    -3
100
AcDbPolyline
 90
        4
 70
     0
 43
0.0
 10
50496.20743621
 20
10969.89966261
 10
50456.20743621
 20
10942.89966261
 10
50496.20743621
 20
10942.89966261
 10
50456.20743621
 20
10969.89966261
  0
LWPOLYLINE
  5
413
330
E3
100
AcDbEntity
  8
Ech.1_5
  6
Continuous
 62
     7
370
    -3
100
AcDbPolyline
 90
        4
 70
     0
 43
0.0
 10
50972.50755703
 20
10969.89966261
 10
50932.50755703
 20
10942.89966261
 10
50972.50755703
 20
10942.89966261
 10
50932.50755703
 20
10969.89966261
  0
LWPOLYLINE
  5
416
330
E3
100
AcDbEntity
  8
Ech.1_5
 62
     7
100
AcDbPolyline
 90
       14
 70
     0
 43
0.0
 10
50951.20743621
 20
10463.01646347
 10
50951.20743621
 20
10515.40862005
 10
50947.20743621
 20
10519.40862005
 10
50951.20743621
 20
10523.40862005
 10
50951.20743621
 20
10558.40862005
 10
50944.20743621
 20
10558.40862005
 10
50944.20743621
 20
10564.40862005
 10
50941.70743621
 20
10569.40862005
 10
50939.20743621
 20
10564.40862005
 10
50939.20743621
 20
10533.47968786
 10
50938.82683387
 20
10531.5662707
 10
50932.67190229999
 20
10524.87308614
 10
50931.20743621
 20
10521.33755223
 10
50931.20743621
 20
10463.01646347
  0
LWPOLYLINE
  5
417
330
E3
100
AcDbEntity
  8
Ech.1_5
  6
Continuous
 62
     7
370
    -3
100
AcDbPolyline
 90
       22
 70
     0
 43
0.0
 10
50903.74626588999
 20
11121.00040802
 10
50845.93940383
 20
11121.00040802
 42
-0.37555118
 10
50838.50641895
 20
11127.50004017
 42
0.74707677
 10
50666.80237673
 20
11126.21577444
 10
50663.80711868999
 20
11126.21577444
 10
50663.80711868999
 20
11124.49690257
 10
50681.20013626
 20
11124.49690257
 42
-0.03525917
 10
50683.10985148
 20
11134.46379447
 10
50697.68596031
 20
11134.46379447
 10
50697.68596031
 20
11124.49690257
 10
50703.08231735
 20
11124.49690257
 10
50706.8132173
 20
11163.23224865
 42
-0.5436568000000001
 10
50828.02748487
 20
11118.2353738
 42
0.35131149
 10
50842.66782473999
 20
11106.50040802
 10
50940.96030748
 20
11106.50040802
 10
50946.33925194
 20
11133.05574734
 10
50934.56225509
 20
11133.05574734
 10
50929.18331062
 20
11121.00040802
 10
50915.52326274999
 20
11121.00040802
 10
50915.52326274999
 20
11133.05574734
 10
50903.74626588999
 20
11133.05574734
 10
50903.74626588999
 20
11121.00040802
  0
LWPOLYLINE
  5
418
330
E3
100
AcDbEntity
  8
Ech.1_5
  6
Continuous
 62
     7
370
    -3
100
AcDbPolyline
 90
       22
 70
     0
 43
0.0
 10
51122.81370010999
 20
11121.00040802
 10
51065.00683803999
 20
11121.00040802
 42
-0.37555118
 10
51057.57385317
 20
11127.50004017
 42
0.74707677
 10
50885.86981095
 20
11126.21577444
 10
50882.87455290999
 20
11126.21577444
 10
50882.87455290999
 20
11124.49690257
 10
50900.26757048
 20
11124.49690257
 42
-0.03525917
 10
50902.17728569999
 20
11134.46379447
 10
50916.75339452
 20
11134.46379447
 10
50916.75339452
 20
11124.49690257
 10
50922.14975155999
 20
11124.49690257
 10
50925.88065152
 20
11163.23224865
 42
-0.5436568000000001
 10
51047.09491908
 20
11118.2353738
 42
0.35131149
 10
51061.73525895
 20
11106.50040802
 10
51160.02774168999
 20
11106.50040802
 10
51165.40668616
 20
11133.05574734
 10
51153.6296893
 20
11133.05574734
 10
51148.25074484
 20
11121.00040802
 10
51134.59069695999
 20
11121.00040802
 10
51134.59069695999
 20
11133.05574734
 10
51122.81370010999
 20
11133.05574734
 10
51122.81370010999
 20
11121.00040802
  0
LWPOLYLINE
  5
419
330
E3
100
AcDbEntity
  8
Ech.1_5
  6
Continuous
 62
     7
370
    -3
100
AcDbPolyline
 90
       22
 70
     0
 43
0.0
 10
51341.88113431999
 20
11121.00040802
 10
51284.07427225999
 20
11121.00040802
 42
-0.37555118
 10
51276.64128738
 20
11127.50004017
 42
0.74707677
 10
51104.93724516
 20
11126.21577444
 10
51101.94198712
 20
11126.21577444
 10
51101.94198712
 20
11124.49690257
 10
51119.33500469
 20
11124.49690257
 42
-0.03525917
 10
51121.24471990999
 20
11134.46379447
 10
51135.82082874
 20
11134.46379447
 10
51135.82082874
 20
11124.49690257
 10
51141.21718577
 20
11124.49690257
 10
51144.94808573
 20
11163.23224865
 42
-0.5436568000000001
 10
51266.16235329
 20
11118.2353738
 42
0.35131149
 10
51280.80269316
 20
11106.50040802
 10
51379.09517590999
 20
11106.50040802
 10
51384.47412037
 20
11133.05574734
 10
51372.69712351
 20
11133.05574734
 10
51367.31817905
 20
11121.00040802
 10
51353.65813117999
 20
11121.00040802
 10
51353.65813117999
 20
11133.05574734
 10
51341.88113431999
 20
11133.05574734
 10
51341.88113431999
 20
11121.00040802
  0
LWPOLYLINE
  5
41A
330
E3
100
AcDbEntity
  8
Ech.1_5
  6
Continuous
 62
     7
370
    -3
100
AcDbPolyline
 90
       32
 70
     0
 43
0.0
 10
51015.20746392999
 20
10959.89966093
 42
1.14028181
 10
51022.97204947999
 20
10900.9218904
 10
51127.44287336999
 20
10928.87742478
 42
-1.303226189999999
 10
51127.44287013
 20
10870.92188457
 10
51022.97204936
 20
10898.87743061
 42
1.303226189999999
 10
51022.97204613
 20
10840.9218904
 10
51127.44287002
 20
10868.87742478
 42
-1.303226189999999
 10
51127.44286678
 20
10810.92188457
 10
51022.97204602
 20
10838.87743061
 42
1.303226189999999
 10
51022.97204277999
 20
10780.9218904
 10
51127.44286666999
 20
10808.87742478
 42
-1.303226189999999
 10
51127.44286344
 20
10750.92188457
 10
51022.97204267
 20
10778.87743061
 42
1.303226189999999
 10
51022.97203943
 20
10720.9218904
 10
51127.44286332
 20
10748.87742478
 42
-1.303226189999999
 10
51127.44286008999
 20
10690.92188457
 10
51022.97203932
 20
10718.87743061
 42
1.303226189999999
 10
51022.97203609
 20
10660.9218904
 10
51127.44285996999
 20
10688.87742478
 42
-1.303226189999999
 10
51127.44285674
 20
10630.92188457
 10
51022.97203597
 20
10658.87743061
 42
1.303226189999999
 10
51022.97203274
 20
10600.9218904
 10
51127.44285663
 20
10628.87742478
 42
-1.303226189999999
 10
51127.44285338999
 20
10570.92188457
 10
51022.97203262
 20
10598.87743061
 42
1.303226189999999
 10
51022.97202939
 20
10540.9218904
 10
51127.44285328
 20
10568.87742478
 42
-1.303226189999999
 10
51127.44285004
 20
10510.92188457
 10
51022.97202927999
 20
10538.87743061
 42
1.303226189999999
 10
51022.97202604
 20
10480.9218904
 10
51127.44284993
 20
10508.87742478
 42
-0.6953351300000001
 10
51160.00543815999
 20
10463.01595957
  0
LWPOLYLINE
  5
41B
330
E3
100
AcDbEntity
  8
Ech.1_5
  6
Continuous
 62
     7
370
    -3
100
AcDbPolyline
 90
        4
 70
     0
 43
0.0
 10
50985.20743621
 20
11014.89966261
 10
51165.20743621
 20
10969.89966261
 10
51165.20743621
 20
11014.89966261
 10
50985.20743621
 20
10969.89966261
  0
LWPOLYLINE
  5
41C
330
E3
100
AcDbEntity
  8
Ech.1_5
  6
Continuous
 62
     7
370
    -3
100
AcDbPolyline
 90
        5
 70
     0
 43
0.0
 10
51163.20743621
 20
11076.89966261
 10
51203.20743621
 20
11076.89966261
 10
51203.20743621
 20
11049.89966261
 10
51163.20743621
 20
11049.89966261
 10
51163.20743621
 20
11076.89966261
  0
LWPOLYLINE
  5
41D
330
E3
100
AcDbEntity
  8
Ech.1_5
 62
     7
100
AcDbPolyline
 90
        5
 70
     0
 43
0.0
 10
51165.20743621
 20
10533.39950646
 10
51205.20743621
 20
10533.39950646
 10
51205.20743621
 20
10578.39950646
 10
51165.20743621
 20
10578.39950646
 10
51165.20743621
 20
10533.39950646
  0
LWPOLYLINE
  5
41E
330
E3
100
AcDbEntity
  8
Ech.1_5
  6
Continuous
 62
     7
370
    -3
100
AcDbPolyline
 90
        5
 70
     0
 43
0.0
 10
51163.20743621
 20
11076.89966261
 10
51203.20743621
 20
11076.89966261
 10
51203.20743621
 20
11049.89966261
 10
51163.20743621
 20
11049.89966261
 10
51163.20743621
 20
11076.89966261
  0
LWPOLYLINE
  5
41F
330
E3
100
AcDbEntity
  8
Ech.1_5
  6
Continuous
 62
     7
370
    -3
100
AcDbPolyline
 90
        5
 70
     0
 43
0.0
 10
50932.50755703
 20
11076.89966261
 10
50972.50755703
 20
11076.89966261
 10
50972.50755703
 20
11049.89966261
 10
50932.50755703
 20
11049.89966261
 10
50932.50755703
 20
11076.89966261
  0
LWPOLYLINE
  5
420
330
E3
100
AcDbEntity
  8
Ech.1_5
  6
Continuous
 62
     7
370
    -3
100
AcDbPolyline
 90
        5
 70
     0
 43
0.0
 10
51210.20743621
 20
10969.89966261
 10
51165.20743621
 20
10969.89966261
 10
51165.20743621
 20
11049.89966261
 10
51210.20743621
 20
11049.89966261
 10
51210.20743621
 20
10969.89966261
  0
LWPOLYLINE
  5
421
330
E3
100
AcDbEntity
  8
Ech.1_5
 62
     7
100
AcDbPolyline
 90
        5
 70
     0
 43
0.0
 10
51165.20743621
 20
10533.39950646
 10
51205.20743621
 20
10533.39950646
 10
51205.20743621
 20
10578.39950646
 10
51165.20743621
 20
10578.39950646
 10
51165.20743621
 20
10533.39950646
  0
LWPOLYLINE
  5
422
330
E3
100
AcDbEntity
  8
Ech.1_5
  6
Continuous
 62
     7
370
    -3
100
AcDbPolyline
 90
        5
 70
     0
 43
0.0
 10
51165.20743621
 20
11014.89966261
 10
50985.20743621
 20
11014.89966261
 10
50985.20743621
 20
10969.89966261
 10
51165.20743621
 20
10969.89966261
 10
51165.20743621
 20
11014.89966261
  0
LWPOLYLINE
  5
423
330
E3
100
AcDbEntity
  8
Ech.1_5
  6
Continuous
 62
     7
370
    -3
100
AcDbPolyline
 90
        5
 70
     0
 43
0.0
 10
50975.00755703
 20
10969.89966261
 10
50930.00755703
 20
10969.89966261
 10
50930.00755703
 20
11049.89966261
 10
50975.00755703
 20
11049.89966261
 10
50975.00755703
 20
10969.89966261
  0
LWPOLYLINE
  5
424
330
E3
100
AcDbEntity
  8
Ech.1_5
  6
Continuous
 62
     7
370
    -3
100
AcDbPolyline
 90
        5
 70
     0
 43
0.0
 10
50932.50755703
 20
10969.89966261
 10
50972.50755703
 20
10969.89966261
 10
50972.50755703
 20
10942.89966261
 10
50932.50755703
 20
10942.89966261
 10
50932.50755703
 20
10969.89966261
  0
LWPOLYLINE
  5
425
330
E3
100
AcDbEntity
  8
Ech.1_5
  6
Continuous
 62
     7
370
    -3
100
AcDbPolyline
 90
        5
 70
     0
 43
0.0
 10
50501.20743621
 20
10969.89966261
 10
50456.20743621
 20
10969.89966261
 10
50456.20743621
 20
11049.89966261
 10
50501.20743621
 20
11049.89966261
 10
50501.20743621
 20
10969.89966261
  0
LWPOLYLINE
  5
426
330
E3
100
AcDbEntity
  8
Ech.1_5
  6
Continuous
 62
     7
370
    -3
100
AcDbPolyline
 90
        5
 70
     0
 43
0.0
 10
50456.20743621
 20
11076.89966261
 10
50496.20743621
 20
11076.89966261
 10
50496.20743621
 20
11049.89966261
 10
50456.20743621
 20
11049.89966261
 10
50456.20743621
 20
11076.89966261
  0
LWPOLYLINE
  5
427
330
E3
100
AcDbEntity
  8
Ech.1_5
  6
Continuous
 62
     7
370
    -3
100
AcDbPolyline
 90
        5
 70
     0
 43
0.0
 10
50456.20743621
 20
10969.89966261
 10
50496.20743621
 20
10969.89966261
 10
50496.20743621
 20
10942.89966261
 10
50456.20743621
 20
10942.89966261
 10
50456.20743621
 20
10969.89966261
  0
LWPOLYLINE
  5
428
330
E3
100
AcDbEntity
  8
Ech.1_5
  6
CADWORK_22
 62
   150
370
    35
100
AcDbPolyline
 90
        3
 70
     0
 43
0.0
 38
2500.0
 10
51526.60180396
 20
11049.89966261
 10
50456.20743621
 20
11049.89966261
 10
50456.20743621
 20
10995.64558431
  0
LINE
  5
429
330
E3
100
AcDbEntity
  8
Ech.1_5
 62
     7
100
AcDbLine
 10
51208.451973
 20
10635.33010323
 30
0.0
 11
51208.451973
 21
10728.73919795
 31
0.0
  0
LINE
  5
42A
330
E3
100
AcDbEntity
  8
Ech.1_5
  6
DASHEDX2
 62
     7
100
AcDbLine
 10
51208.451973
 20
10640.32998509
 30
0.0
 11
51208.451973
 21
10616.39851905
 31
0.0
  0
LWPOLYLINE
  5
42B
330
E3
100
AcDbEntity
  8
Ech.1_5
  6
Continuous
 62
     7
370
    -3
100
AcDbPolyline
 90
        4
 70
     0
 43
0.0
 10
51165.20743621
 20
10691.39966261
 10
51207.20743621
 20
10751.39966261
 10
51207.20743621
 20
10691.39966261
 10
51165.20743621
 20
10751.39966261
  0
LWPOLYLINE
  5
42C
330
E3
100
AcDbEntity
  8
Ech.1_5
  6
Continuous
 62
     7
370
    -3
100
AcDbPolyline
 90
        5
 70
     0
 43
0.0
 10
51207.20743621
 20
10691.39966261
 10
51207.20743621
 20
10751.39966261
 10
51165.20743621
 20
10751.39966261
 10
51165.20743621
 20
10691.39966261
 10
51207.20743621
 20
10691.39966261
  0
LWPOLYLINE
  5
42D
330
E3
100
AcDbEntity
  8
Ech.1_5
  6
CADWORK_22
 62
   150
370
    35
100
AcDbPolyline
 90
        3
 70
     0
 43
0.0
 38
2500.0
 10
50974.70743621
 20
10463.01596932
 10
50974.70743621
 20
11047.01845308
 10
51077.30968178
 20
11047.01845308
  0
LWPOLYLINE
  5
42E
330
E3
100
AcDbEntity
  8
Ech.1_5
  6
Continuous
 62
     7
370
    -3
100
AcDbPolyline
 90
       18
 70
     0
 43
0.0
 10
51165.35962181999
 20
10788.06569753
 42
1.14028181
 10
51237.48170972
 20
10797.25640146
 10
51203.84438111999
 20
10925.08257649
 42
-1.303226189999999
 10
51274.67770984
 20
10924.78857652
 10
51239.98045086
 20
10797.24603021
 42
1.303226189999999
 10
51310.81377957
 20
10796.95203024
 10
51277.17645097
 20
10924.77820527
 42
-1.303226189999999
 10
51348.00977969
 20
10924.4842053
 10
51313.31252071
 20
10796.94165899
 42
1.303226189999999
 10
51384.14584941999
 20
10796.64765902
 10
51350.50852082
 20
10924.47383406
 42
-1.303226189999999
 10
51421.34184954
 20
10924.17983409
 10
51386.64459055999
 20
10796.63728778
 42
1.303226189999999
 10
51457.47791927
 20
10796.3432878
 10
51423.84059068001
 20
10924.16946284
 42
-1.303226189999999
 10
51494.67391938999
 20
10923.87546287
 10
51459.97666041
 20
10796.33291656
 42
0.8686216699999999
 10
51526.67561179
 20
10767.63365805
  0
LWPOLYLINE
  5
42F
330
E3
100
AcDbEntity
  8
Ech.1_5
  6
Continuous
 62
     7
370
    -3
100
AcDbPolyline
 90
       54
 70
     0
 43
0.0
 10
51165.20743833
 20
10624.73305337
 42
1.14028181
 10
51191.41978114
 20
10628.18397758
 10
51178.99510397999
 20
10674.61545614
 42
-1.303226189999999
 10
51204.75312185
 20
10674.61545205
 10
51192.32842994
 20
10628.18397743
 42
1.303226189999999
 10
51218.08644780999
 20
10628.18397334
 10
51205.66177065
 20
10674.6154519
 42
-1.303226189999999
 10
51231.41978851999
 20
10674.61544781
 10
51218.99509661
 20
10628.1839732
 42
1.303226189999999
 10
51244.75311448
 20
10628.1839691
 10
51232.32843732
 20
10674.61544767
 42
-1.303226189999999
 10
51258.08645519
 20
10674.61544357
 10
51245.66176326999
 20
10628.18396896
 42
1.303226189999999
 10
51271.41978114
 20
10628.18396486
 10
51258.99510397999
 20
10674.61544343
 42
-1.303226189999999
 10
51284.75312185
 20
10674.61543934
 10
51272.32842994
 20
10628.18396472
 42
1.303226189999999
 10
51298.08644780999
 20
10628.18396063
 10
51285.66177065
 20
10674.61543919
 42
-1.303226189999999
 10
51311.41978851999
 20
10674.6154351
 10
51298.99509661
 20
10628.18396048
 42
1.303226189999999
 10
51324.75311448
 20
10628.18395639
 10
51312.32843732
 20
10674.61543495
 42
-1.303226189999999
 10
51338.08645519
 20
10674.61543086
 10
51325.66176326999
 20
10628.18395624
 42
1.303226189999999
 10
51351.41978114
 20
10628.18395215
 10
51338.99510397999
 20
10674.61543072
 42
-1.303226189999999
 10
51364.75312185
 20
10674.61542662
 10
51352.32842994
 20
10628.18395201
 42
1.303226189999999
 10
51378.08644780999
 20
10628.18394791
 10
51365.66177065
 20
10674.61542648
 42
-1.303226189999999
 10
51391.41978851999
 20
10674.61542239
 10
51378.99509661
 20
10628.18394777
 42
1.303226189999999
 10
51404.75311448
 20
10628.18394368
 10
51392.32843732
 20
10674.61542224
 42
-1.303226189999999
 10
51418.08645519
 20
10674.61541815
 10
51405.66176326999
 20
10628.18394353
 42
1.303226189999999
 10
51431.41978114
 20
10628.18393944
 10
51418.99510397999
 20
10674.615418
 42
-1.303226189999999
 10
51444.75312185
 20
10674.61541391
 10
51432.32842994
 20
10628.18393929
 42
1.303226189999999
 10
51458.08644780999
 20
10628.1839352
 10
51445.66177065
 20
10674.61541377
 42
-1.303226189999999
 10
51471.41978851999
 20
10674.61540967
 10
51458.99509661
 20
10628.18393506
 42
1.303226189999999
 10
51484.75311448
 20
10628.18393096
 10
51472.32843732
 20
10674.61540953
 42
-1.303226189999999
 10
51498.08645519
 20
10674.61540543
 10
51485.66176326999
 20
10628.18393082
 42
1.303226189999999
 10
51511.41978114
 20
10628.18392673
 10
51498.99510397999
 20
10674.61540529
 42
-1.303226189999999
 10
51524.75312185
 20
10674.6154012
 10
51512.32842994
 20
10628.18392658
 42
0.52614626
 10
51526.60200529
 20
10611.47279403
  0
LWPOLYLINE
  5
430
330
E3
100
AcDbEntity
  8
Ech.1_5
 62
     3
370
    70
100
AcDbPolyline
 90
        4
 70
     0
 43
0.0
 10
51172.96780844
 20
10695.20794896
 10
51172.96780844
 20
10708.19708238
 10
51178.64842141
 20
10712.13181452
 10
51178.64842141
 20
10725.61024452
  0
LWPOLYLINE
  5
431
330
E3
100
AcDbEntity
  8
Ech.1_5
  6
CADWORK_22
 62
     1
370
    35
100
AcDbPolyline
 90
        3
 70
     0
 43
0.0
 10
51172.98565023
 20
10711.37235472
 10
51172.98565023
 20
10749.89966261
 10
51526.60200528
 20
10749.89966261
  0
LWPOLYLINE
  5
432
330
E3
100
AcDbEntity
  8
Ech.1_5
  6
CADWORK_22
 62
     1
370
    35
100
AcDbPolyline
 90
        3
 70
     0
 43
0.0
 10
51166.70743621
 20
10462.86520436
 10
51166.70743621
 20
11014.89966261
 10
51115.20743621
 20
11014.89966261
  0
LWPOLYLINE
  5
433
330
E3
100
AcDbEntity
  8
Ech.1_5
  6
Continuous
 62
     7
370
    -3
100
AcDbPolyline
 90
        4
 70
     0
 43
0.0
 10
50985.20743621
 20
10969.89966261
 10
51165.20743621
 20
10924.89966261
 10
51165.20743621
 20
10969.89966261
 10
50985.20743621
 20
10924.89966261
  0
LWPOLYLINE
  5
434
330
E3
100
AcDbEntity
  8
Ech.1_5
  6
Continuous
 62
     7
370
    -3
100
AcDbPolyline
 90
        5
 70
     0
 43
0.0
 10
51165.20743621
 20
10969.89966261
 10
50985.20743621
 20
10969.89966261
 10
50985.20743621
 20
10924.89966261
 10
51165.20743621
 20
10924.89966261
 10
51165.20743621
 20
10969.89966261
  0
LWPOLYLINE
  5
435
330
E3
100
AcDbEntity
  8
Ech.1_5
  6
Continuous
 62
     7
370
    -3
100
AcDbPolyline
 90
        4
 70
     1
 43
0.0
 10
50976.20743621
 20
10463.01596932
 10
50985.20743621
 20
10463.01596932
 10
50985.20743621
 20
11049.89966261
 10
50976.20743621
 20
11049.89966261
  0
HATCH
  5
436
330
E3
100
AcDbEntity
  8
Ech.1_5
  6
Continuous
 62
     7
100
AcDbHatch
 10
0.0
 20
0.0
 30
0.0
210
0.0
220
0.0
230
1.0
  2
CDWK10A
 70
     0
 71
     0
 91
        1
 92
        7
 72
     0
 73
     1
 93
        4
 10
50976.20743621
 20
10463.01596932
 10
50985.20743621
 20
10463.01596932
 10
50985.20743621
 20
11049.89966261
 10
50976.20743621
 20
11049.89966261
 97
        0
 75
     0
 76
     2
 52
0.0
 41
1.0
 77
     0
 78
     3
 53
45.0
 43
0.0
 44
0.0
 45
0.0
 46
42.00000167
 79
     0
 53
45.0
 43
0.0
 44
10.80000043
 45
0.0
 46
42.00000167
 79
     0
 53
45.0
 43
0.0
 44
21.60000086
 45
0.0
 46
42.00000167
 79
     0
 47
0.775229
 98
        1
 10
0.0
 20
0.0
  0
LWPOLYLINE
  5
437
330
E3
100
AcDbEntity
  8
Ech.1_5
  6
Continuous
 62
     7
370
    -3
100
AcDbPolyline
 90
        5
 70
     0
 43
0.0
 10
50191.92090614
 20
10217.25176834
 10
51546.92090614
 20
10217.25176834
 10
51546.92090614
 20
11202.25176834
 10
50191.92090614
 20
11202.25176834
 10
50191.92090614
 20
10217.25176834
  0
LWPOLYLINE
  5
438
330
E3
100
AcDbEntity
  8
Ech.1_5
  6
Continuous
 62
     7
370
    -3
100
AcDbPolyline
 90
        6
 70
     0
 43
0.0
 10
50196.90010061999
 20
10685.73179279
 10
50220.89568624
 20
10615.1959566
 10
50243.22443474
 20
10605.37842837
 10
50204.64024727999
 20
10607.15698086
 10
50226.97021957
 20
10597.33897013
 10
50251.78502884999
 20
10524.39217908
  0
LWPOLYLINE
  5
439
330
E3
100
AcDbEntity
  8
Ech.1_5
  6
Continuous
 62
     7
370
    -3
100
AcDbPolyline
 90
        6
 70
     0
 43
0.0
 10
50232.36455006
 20
10314.65804152
 10
50379.10529377
 20
10314.65891946
 10
50395.59079692
 20
10332.63626787
 10
50381.4808569
 20
10296.68056786
 10
50397.96721099
 20
10314.65891946
 10
50539.87989524999
 20
10314.65891946
  0
LWPOLYLINE
  5
43A
330
E3
100
AcDbEntity
  8
Ech.1_5
  6
Continuous
 62
     7
370
    -3
100
AcDbPolyline
 90
        7
 70
     0
 43
0.0
 10
50428.53579919
 20
10657.79617468
 10
50376.72657781
 20
10657.79617468
 10
50348.53579919
 20
10647.53557038
 10
50348.53579919
 20
10432.27347488
 10
50400.34502056
 20
10432.27347488
 10
50428.53579919
 20
10442.53407918
 10
50428.53579919
 20
10657.79617468
  0
LINE
  5
43B
330
E3
100
AcDbEntity
  8
Ech.1_5
  6
Continuous
 62
     7
370
    -3
100
AcDbLine
 10
50348.53579919
 20
10432.27347488
 30
0.0
 11
50428.53579919
 21
10657.79617468
 31
0.0
  0
LINE
  5
43C
330
E3
100
AcDbEntity
  8
Ech.1_5
  6
Continuous
 62
     7
370
    -3
100
AcDbLine
 10
50348.53579919
 20
10647.53557038
 30
0.0
 11
50428.53579919
 21
10442.53407918
 31
0.0
  0
LWPOLYLINE
  5
43D
330
E3
100
AcDbEntity
  8
Ech.1_5
  6
Continuous
 62
     7
370
    -3
100
AcDbPolyline
 90
        6
 70
     0
 43
0.0
 10
50530.62848277999
 20
10799.25846116
 10
50554.6240684
 20
10728.72262497
 10
50576.95281688999
 20
10718.90509674
 10
50538.36862944
 20
10720.68364923
 10
50560.69860173
 20
10710.8656385
 10
50585.51341101
 20
10637.91884745
  0
LWPOLYLINE
  5
43E
330
E3
100
AcDbEntity
  8
Ech.1_5
  6
Continuous
 62
     7
370
    -3
100
AcDbPolyline
 90
       27
 70
     0
 43
0.0
 10
50938.08081908999
 20
10687.69068216
 10
50938.20743621
 20
10688.02515595
 10
50938.20743621
 20
10715.40862005
 10
50945.20743621
 20
10715.40862005
 10
50945.20743621
 20
10706.40862005
 10
50951.20743621
 20
10706.40862005
 10
50951.20743621
 20
10733.40862005
 10
50947.20743621
 20
10737.40862005
 10
50951.20743621
 20
10741.40862005
 10
50951.20743621
 20
10805.40862005
 10
50947.20743621
 20
10809.40862005
 10
50951.20743621
 20
10813.40862005
 10
50951.20743621
 20
10848.40862005
 10
50944.20743621
 20
10848.40862005
 10
50944.20743621
 20
10854.40862005
 10
50941.70743621
 20
10859.40862005
 10
50939.20743621
 20
10854.40862005
 10
50939.20743621
 20
10823.47968786
 10
50938.82683387
 20
10821.5662707
 10
50932.67190229999
 20
10814.87308614
 10
50931.20743621
 20
10811.33755223
 10
50931.20743621
 20
10692.25080782
 10
50932.16775859999
 20
10690.62093918
 10
50936.90387946
 20
10687.64958924
 10
50937.31588083
 20
10687.40862005
 10
50937.62969832
 20
10687.40862005
 10
50938.08081908999
 20
10687.69068216
  0
LWPOLYLINE
  5
43F
330
E3
100
AcDbEntity
  8
Ech.1_5
  6
Continuous
 62
     7
370
    -3
100
AcDbPolyline
 90
       17
 70
     0
 43
0.0
 10
50938.20743621
 20
10833.02515595
 10
50938.20743621
 20
10860.40862005
 10
50945.20743621
 20
10860.40862005
 10
50945.20743621
 20
10851.40862005
 10
50951.20743621
 20
10851.40862005
 10
50951.20743621
 20
10878.40862005
 10
50947.20743621
 20
10882.40862005
 10
50951.20743621
 20
10886.40862005
 10
50951.20743621
 20
10904.36152957
 10
50931.20743621
 20
10904.36152957
 10
50931.20743621
 20
10837.25080782
 10
50932.16775859999
 20
10835.62093918
 10
50936.90387946
 20
10832.64958924
 10
50937.31588083
 20
10832.40862005
 10
50937.62969832
 20
10832.40862005
 10
50938.08081908999
 20
10832.69068216
 10
50938.20743621
 20
10833.02515595
  0
LWPOLYLINE
  5
440
330
E3
100
AcDbEntity
  8
Ech.1_5
  6
Continuous
 62
     7
370
    -3
100
AcDbPolyline
 90
        5
 70
     0
 43
0.0
 10
51203.20743621
 20
11076.89966261
 10
51163.20743621
 20
11076.89966261
 10
51163.20743621
 20
11049.89966261
 10
51203.20743621
 20
11049.89966261
 10
51203.20743621
 20
11076.89966261
  0
LWPOLYLINE
  5
441
330
E3
100
AcDbEntity
  8
Ech.1_5
  6
Continuous
 62
     7
370
     5
100
AcDbPolyline
 90
        5
 70
     0
 43
0.0
 10
50278.07591313999
 20
10879.80738376
 10
50328.07591313999
 20
10879.80738376
 10
50328.07591313999
 20
10887.22252129
 10
50278.07591313999
 20
10887.22252129
 10
50278.07591313999
 20
10879.80738376
  0
LWPOLYLINE
  5
442
330
E3
100
AcDbEntity
  8
Ech.1_5
  6
Continuous
 62
     7
370
    15
100
AcDbPolyline
 90
        5
 70
     0
 43
0.0
 10
51218.20743621
 20
10598.39966261
 10
51205.20743621
 20
10598.39966261
 10
51205.20743621
 20
10463.01730728
 10
51218.20743621
 20
10463.01730728
 10
51218.20743621
 20
10598.39966261
  0
LWPOLYLINE
  5
443
330
E3
100
AcDbEntity
  8
Ech.1_5
  6
Continuous
 62
     7
370
    -3
100
AcDbPolyline
 90
        5
 70
     0
 43
0.0
 10
51165.20743621
 20
10533.39950646
 10
51205.20743621
 20
10533.39950646
 10
51205.20743621
 20
10578.39950646
 10
51165.20743621
 20
10578.39950646
 10
51165.20743621
 20
10533.39950646
  0
LWPOLYLINE
  5
444
330
E3
100
AcDbEntity
  8
Ech.1_5
  6
Continuous
 62
     7
370
    -3
100
AcDbPolyline
 90
        6
 70
     0
 43
0.0
 10
51165.20743621
 20
10969.89966261
 10
50985.20743621
 20
10969.89966261
 10
50985.20746392999
 20
10924.89966261
 10
51165.20743621
 20
10924.89966261
 10
51165.20743621
 20
10968.83995383
 10
51165.20743621
 20
10969.89966261
  0
LWPOLYLINE
  5
445
330
E3
100
AcDbEntity
  8
Ech.1_5
  6
Continuous
 62
     7
370
    -3
100
AcDbPolyline
 90
        6
 70
     0
 43
0.0
 10
51526.60142891
 20
11103.89966261
 10
50456.20743621
 20
11103.89966261
 10
50456.20743621
 20
11076.89966261
 10
50496.20743621
 20
11076.89966261
 10
51526.60142891
 20
11076.89966261
 10
51526.60142891
 20
11103.89966261
  0
LWPOLYLINE
  5
446
330
E3
100
AcDbEntity
  8
Ech.1_5
  6
Continuous
 62
     7
370
    -3
100
AcDbPolyline
 90
        5
 70
     0
 43
0.0
 10
50972.50755703
 20
11076.89966261
 10
50932.50755703
 20
11076.89966261
 10
50932.50755703
 20
11049.89966261
 10
50972.50755703
 20
11049.89966261
 10
50972.50755703
 20
11076.89966261
  0
LWPOLYLINE
  5
447
330
E3
100
AcDbEntity
  8
Ech.1_5
  6
Continuous
 62
     7
370
    -3
100
AcDbPolyline
 90
        5
 70
     0
 43
0.0
 10
51203.20743621
 20
11076.89966261
 10
51163.20743621
 20
11076.89966261
 10
51163.20743621
 20
11049.89966261
 10
51203.20743621
 20
11049.89966261
 10
51203.20743621
 20
11076.89966261
  0
LWPOLYLINE
  5
448
330
E3
100
AcDbEntity
  8
Ech.1_5
  6
Continuous
 62
     7
370
     5
100
AcDbPolyline
 90
        5
 70
     0
 43
0.0
 10
50278.07591313999
 20
10879.80738376
 10
50328.07591313999
 20
10879.80738376
 10
50328.07591313999
 20
10887.22252129
 10
50278.07591313999
 20
10887.22252129
 10
50278.07591313999
 20
10879.80738376
  0
LWPOLYLINE
  5
449
330
E3
100
AcDbEntity
  8
Ech.1_5
  6
Continuous
 62
     7
370
    -3
100
AcDbPolyline
 90
        5
 70
     0
 43
0.0
 10
51210.20743621
 20
11049.89966261
 10
51165.20743621
 20
11049.89966261
 10
51165.20743621
 20
10969.89966261
 10
51210.20743621
 20
10969.89966261
 10
51210.20743621
 20
11049.89966261
  0
LWPOLYLINE
  5
44A
330
E3
100
AcDbEntity
  8
Ech.1_5
  6
Continuous
 62
     7
370
    -3
100
AcDbPolyline
 90
        5
 70
     0
 43
0.0
 10
51165.20743621
 20
10533.39950646
 10
51205.20743621
 20
10533.39950646
 10
51205.20743621
 20
10578.39950646
 10
51165.20743621
 20
10578.39950646
 10
51165.20743621
 20
10533.39950646
  0
LWPOLYLINE
  5
44B
330
E3
100
AcDbEntity
  8
Ech.1_5
  6
Continuous
 62
     7
370
    -3
100
AcDbPolyline
 90
        5
 70
     0
 43
0.0
 10
50976.20743621
 20
10463.01596932
 10
50985.20743621
 20
10463.01596932
 10
50985.20743621
 20
11049.89966261
 10
50976.20743621
 20
11049.89966261
 10
50976.20743621
 20
10463.01596932
  0
LWPOLYLINE
  5
44C
330
E3
100
AcDbEntity
  8
Ech.1_5
  6
Continuous
 62
     7
370
    -3
100
AcDbPolyline
 90
       10
 70
     0
 43
0.0
 10
51165.20743621
 20
10643.89966456
 10
51165.20743621
 20
10924.89966261
 10
50985.20743621
 20
10924.89966261
 10
50985.20743621
 20
10463.01596932
 10
51099.27991017999
 20
10463.01567773
 10
51115.76626427
 20
10480.99402933
 10
51101.65632424999
 20
10445.03832932
 10
51118.1418274
 20
10463.01567773
 10
51165.20743621
 20
10463.01730728
 10
51165.20743621
 20
10643.89966456
  0
LWPOLYLINE
  5
44D
330
E3
100
AcDbEntity
  8
Ech.1_5
  6
Continuous
 62
     7
370
    -3
100
AcDbPolyline
 90
        6
 70
     0
 43
0.0
 10
51165.20743621
 20
11014.89966261
 10
50985.20743621
 20
11014.89966261
 10
50985.20746392999
 20
10969.89966261
 10
51165.20743621
 20
10969.89966261
 10
51165.20743621
 20
11013.83995383
 10
51165.20743621
 20
11014.89966261
  0
LWPOLYLINE
  5
44E
330
E3
100
AcDbEntity
  8
Ech.1_5
  6
Continuous
 62
     7
370
    -3
100
AcDbPolyline
 90
        5
 70
     0
 43
0.0
 10
51165.20743621
 20
10611.39966261
 10
51165.20743621
 20
10598.39966261
 10
51526.60200528
 20
10598.39972004
 10
51526.60200528
 20
10611.39972004
 10
51165.20743621
 20
10611.39966261
  0
LWPOLYLINE
  5
44F
330
E3
100
AcDbEntity
  8
Ech.1_5
  6
Continuous
 62
     7
370
    -3
100
AcDbPolyline
 90
       15
 70
     0
 43
0.0
 10
50508.20438352
 20
11133.05574734
 10
50496.42738665999
 20
11133.05574734
 10
50491.0484422
 20
11121.00040802
 10
50477.38839432
 20
11121.00040802
 10
50477.38839432
 20
11133.05574734
 10
50465.61139747
 20
11133.05574734
 10
50465.61139747
 20
11121.00040802
 10
50421.18309194
 20
11121.00040802
 10
50411.68648649
 20
11111.50380256
 10
50411.68648649
 20
10987.2581043
 10
50427.41289619999
 20
10987.2581043
 10
50427.41289619999
 20
11100.84995472
 10
50433.0633495
 20
11106.50040802
 10
50502.82543905
 20
11106.50040802
 10
50508.20438352
 20
11133.05574734
  0
LWPOLYLINE
  5
450
330
E3
100
AcDbEntity
  8
Ech.1_5
  6
Continuous
 62
     7
370
    -3
100
AcDbPolyline
 90
       22
 70
     0
 43
0.0
 10
50487.74578309
 20
11163.23224865
 42
-0.5436568000000001
 10
50608.96005065
 20
11118.2353738
 42
0.35131149
 10
50623.60039051999
 20
11106.50040802
 10
50721.89287327
 20
11106.50040802
 10
50727.27181772999
 20
11133.05574734
 10
50715.49482087
 20
11133.05574734
 10
50710.11587641
 20
11121.00040802
 10
50696.45582854
 20
11121.00040802
 10
50696.45582854
 20
11133.05574734
 10
50684.67883168
 20
11133.05574734
 10
50684.67883168
 20
11121.00040802
 10
50626.87196961999
 20
11121.00040802
 42
-0.37555118
 10
50619.43898474
 20
11127.50004017
 42
0.74707677
 10
50447.73494252
 20
11126.21577444
 10
50444.73968448
 20
11126.21577444
 10
50444.73968448
 20
11124.49690257
 10
50462.13270205
 20
11124.49690257
 42
-0.03525917
 10
50464.04241727
 20
11134.46379447
 10
50478.6185261
 20
11134.46379447
 10
50478.6185261
 20
11124.49690257
 10
50484.01488314
 20
11124.49690257
 10
50487.74578309
 20
11163.23224865
  0
LWPOLYLINE
  5
451
330
E3
100
AcDbEntity
  8
Ech.1_5
  6
Continuous
 62
     7
370
    -3
100
AcDbPolyline
 90
       22
 70
     0
 43
0.0
 10
50828.02748487
 20
11118.2353738
 42
0.35131149
 10
50842.66782473999
 20
11106.50040802
 10
50940.96030748
 20
11106.50040802
 10
50946.33925194
 20
11133.05574734
 10
50934.56225509
 20
11133.05574734
 10
50929.18331062
 20
11121.00040802
 10
50915.52326274999
 20
11121.00040802
 10
50915.52326274999
 20
11133.05574734
 10
50903.74626588999
 20
11133.05574734
 10
50903.74626588999
 20
11121.00040802
 10
50845.93940383
 20
11121.00040802
 42
-0.37555118
 10
50838.50641895
 20
11127.50004017
 42
0.74707677
 10
50666.80237673
 20
11126.21577444
 10
50663.80711868999
 20
11126.21577444
 10
50663.80711868999
 20
11124.49690257
 10
50681.20013626
 20
11124.49690257
 42
-0.03525917
 10
50683.10985148
 20
11134.46379447
 10
50697.68596031
 20
11134.46379447
 10
50697.68596031
 20
11124.49690257
 10
50703.08231735
 20
11124.49690257
 10
50706.8132173
 20
11163.23224865
 42
-0.5436568000000001
 10
50828.02748487
 20
11118.2353738
  0
LWPOLYLINE
  5
452
330
E3
100
AcDbEntity
  8
Ech.1_5
  6
Continuous
 62
     7
370
    -3
100
AcDbPolyline
 90
       27
 70
     0
 43
0.0
 10
50938.08081908999
 20
10542.69068216
 10
50938.20743621
 20
10543.02515595
 10
50938.20743621
 20
10570.40862005
 10
50945.20743621
 20
10570.40862005
 10
50945.20743621
 20
10561.40862005
 10
50951.20743621
 20
10561.40862005
 10
50951.20743621
 20
10588.40862005
 10
50947.20743621
 20
10592.40862005
 10
50951.20743621
 20
10596.40862005
 10
50951.20743621
 20
10660.40862005
 10
50947.20743621
 20
10664.40862005
 10
50951.20743621
 20
10668.40862005
 10
50951.20743621
 20
10703.40862005
 10
50944.20743621
 20
10703.40862005
 10
50944.20743621
 20
10709.40862005
 10
50941.70743621
 20
10714.40862005
 10
50939.20743621
 20
10709.40862005
 10
50939.20743621
 20
10678.47968786
 10
50938.82683387
 20
10676.5662707
 10
50932.67190229999
 20
10669.87308614
 10
50931.20743621
 20
10666.33755223
 10
50931.20743621
 20
10547.25080782
 10
50932.16775859999
 20
10545.62093918
 10
50936.90387946
 20
10542.64958924
 10
50937.31588083
 20
10542.40862005
 10
50937.62969832
 20
10542.40862005
 10
50938.08081908999
 20
10542.69068216
  0
LWPOLYLINE
  5
453
330
E3
100
AcDbEntity
  8
Ech.1_5
  6
Continuous
 62
     7
370
    -3
100
AcDbPolyline
 90
        5
 70
     0
 43
0.0
 10
50975.00755703
 20
11049.89966261
 10
50930.00755703
 20
11049.89966261
 10
50930.00755703
 20
10969.89966261
 10
50975.00755703
 20
10969.89966261
 10
50975.00755703
 20
11049.89966261
  0
LWPOLYLINE
  5
454
330
E3
100
AcDbEntity
  8
Ech.1_5
  6
Continuous
 62
     7
370
    -3
100
AcDbPolyline
 90
        5
 70
     0
 43
0.0
 10
50501.20743621
 20
11049.89966261
 10
50456.20743621
 20
11049.89966261
 10
50456.20743621
 20
10969.89966261
 10
50501.20743621
 20
10969.89966261
 10
50501.20743621
 20
11049.89966261
  0
LWPOLYLINE
  5
455
330
E3
100
AcDbEntity
  8
Ech.1_5
  6
Continuous
 62
     7
370
    -3
100
AcDbPolyline
 90
        5
 70
     0
 43
0.0
 10
50496.20743621
 20
11076.89966261
 10
50456.20743621
 20
11076.89966261
 10
50456.20743621
 20
11049.89966261
 10
50496.20743621
 20
11049.89966261
 10
50496.20743621
 20
11076.89966261
  0
LWPOLYLINE
  5
456
330
E3
100
AcDbEntity
  8
Ech.1_5
  6
Continuous
 62
     7
370
    -3
100
AcDbPolyline
 90
        5
 70
     0
 43
0.0
 10
50456.20743621
 20
10969.89966261
 10
50496.20743621
 20
10969.89966261
 10
50496.20743621
 20
10942.89966261
 10
50456.20743621
 20
10942.89966261
 10
50456.20743621
 20
10969.89966261
  0
LWPOLYLINE
  5
457
330
E3
100
AcDbEntity
  8
Ech.1_5
  6
Continuous
 62
     7
370
    -3
100
AcDbPolyline
 90
        5
 70
     0
 43
0.0
 10
50932.50755703
 20
10969.89966261
 10
50972.50755703
 20
10969.89966261
 10
50972.50755703
 20
10942.89966261
 10
50932.50755703
 20
10942.89966261
 10
50932.50755703
 20
10969.89966261
  0
LWPOLYLINE
  5
458
330
E3
100
AcDbEntity
  8
Ech.1_5
  6
Continuous
 62
     7
370
    -3
100
AcDbPolyline
 90
       15
 70
     0
 43
0.0
 10
50947.20743621
 20
10519.40862005
 10
50951.20743621
 20
10523.40862005
 10
50951.20743621
 20
10558.40862005
 10
50944.20743621
 20
10558.40862005
 10
50944.20743621
 20
10564.40862005
 10
50941.70743621
 20
10569.40862005
 10
50939.20743621
 20
10564.40862005
 10
50939.20743621
 20
10533.47968786
 10
50938.82683387
 20
10531.5662707
 10
50932.67190229999
 20
10524.87308614
 10
50931.20743621
 20
10521.33755223
 10
50931.20743621
 20
10463.01646347
 10
50951.20743621
 20
10463.01646347
 10
50951.20743621
 20
10515.40862005
 10
50947.20743621
 20
10519.40862005
  0
LWPOLYLINE
  5
459
330
E3
100
AcDbEntity
  8
Ech.1_5
  6
Continuous
 62
     7
370
    -3
100
AcDbPolyline
 90
       22
 70
     0
 43
0.0
 10
51047.09491908
 20
11118.2353738
 42
0.35131149
 10
51061.73525895
 20
11106.50040802
 10
51160.02774168999
 20
11106.50040802
 10
51165.40668616
 20
11133.05574734
 10
51153.6296893
 20
11133.05574734
 10
51148.25074484
 20
11121.00040802
 10
51134.59069695999
 20
11121.00040802
 10
51134.59069695999
 20
11133.05574734
 10
51122.81370010999
 20
11133.05574734
 10
51122.81370010999
 20
11121.00040802
 10
51065.00683803999
 20
11121.00040802
 42
-0.37555118
 10
51057.57385317
 20
11127.50004017
 42
0.74707677
 10
50885.86981095
 20
11126.21577444
 10
50882.87455290999
 20
11126.21577444
 10
50882.87455290999
 20
11124.49690257
 10
50900.26757048
 20
11124.49690257
 42
-0.03525917
 10
50902.17728569999
 20
11134.46379447
 10
50916.75339452
 20
11134.46379447
 10
50916.75339452
 20
11124.49690257
 10
50922.14975155999
 20
11124.49690257
 10
50925.88065152
 20
11163.23224865
 42
-0.5436568000000001
 10
51047.09491908
 20
11118.2353738
  0
LWPOLYLINE
  5
45A
330
E3
100
AcDbEntity
  8
Ech.1_5
  6
Continuous
 62
     7
370
    -3
100
AcDbPolyline
 90
       22
 70
     0
 43
0.0
 10
51266.16235329
 20
11118.2353738
 42
0.35131149
 10
51280.80269316
 20
11106.50040802
 10
51379.09517590999
 20
11106.50040802
 10
51384.47412037
 20
11133.05574734
 10
51372.69712351
 20
11133.05574734
 10
51367.31817905
 20
11121.00040802
 10
51353.65813117999
 20
11121.00040802
 10
51353.65813117999
 20
11133.05574734
 10
51341.88113431999
 20
11133.05574734
 10
51341.88113431999
 20
11121.00040802
 10
51284.07427225999
 20
11121.00040802
 42
-0.37555118
 10
51276.64128738
 20
11127.50004017
 42
0.74707677
 10
51104.93724516
 20
11126.21577444
 10
51101.94198712
 20
11126.21577444
 10
51101.94198712
 20
11124.49690257
 10
51119.33500469
 20
11124.49690257
 42
-0.03525917
 10
51121.24471990999
 20
11134.46379447
 10
51135.82082874
 20
11134.46379447
 10
51135.82082874
 20
11124.49690257
 10
51141.21718577
 20
11124.49690257
 10
51144.94808573
 20
11163.23224865
 42
-0.5436568000000001
 10
51266.16235329
 20
11118.2353738
  0
LWPOLYLINE
  5
45B
330
E3
100
AcDbEntity
  8
Ech.1_5
  6
Continuous
 62
     7
370
    -3
100
AcDbPolyline
 90
        6
 70
     0
 43
0.0
 10
50951.20735513
 20
10463.01596932
 10
50976.20839451
 20
10463.01596932
 10
50976.20743621
 20
10904.36152957
 10
50972.20939481
 20
10904.36152957
 10
50951.20743621
 20
10904.36152957
 10
50951.20735513
 20
10463.01596932
  0
LWPOLYLINE
  5
45C
330
E3
100
AcDbEntity
  8
Ech.1_5
  6
Continuous
 62
     7
370
    -3
100
AcDbPolyline
 90
       16
 70
     0
 43
0.0
 10
51499.87012738
 20
11106.50040802
 10
51526.60112733
 20
11106.50040802
 10
51526.60112733
 20
11121.00040802
 10
51503.14170647
 20
11121.00040802
 42
-0.37555118
 10
51495.70872159
 20
11127.50004017
 42
0.74707677
 10
51324.00467937
 20
11126.21577444
 10
51321.00942133
 20
11126.21577444
 10
51321.00942133
 20
11124.49690257
 10
51338.40243889999
 20
11124.49690257
 42
-0.03525917
 10
51340.31215412
 20
11134.46379447
 10
51354.88826295
 20
11134.46379447
 10
51354.88826295
 20
11124.49690257
 10
51360.28461999
 20
11124.49690257
 10
51364.01551994
 20
11163.23224865
 42
-0.5436568000000001
 10
51485.22978751
 20
11118.2353738
 42
0.35131149
 10
51499.87012738
 20
11106.50040802
  0
LWPOLYLINE
  5
45D
330
E3
100
AcDbEntity
  8
Ech.1_5
  6
Continuous
 62
     7
370
    -3
100
AcDbPolyline
 90
        5
 70
     0
 43
0.0
 10
51207.20743621
 20
10691.39966261
 10
51207.20743621
 20
10751.39966261
 10
51165.20743621
 20
10751.39966261
 10
51165.20743621
 20
10691.39966261
 10
51207.20743621
 20
10691.39966261
  0
LWPOLYLINE
  5
45E
330
E3
100
AcDbEntity
  8
Ech.1_5
  6
Continuous
 62
     7
370
    -3
100
AcDbPolyline
 90
        6
 70
     0
 43
0.0
 10
50976.20743621
 20
10969.89966261
 10
50456.20743621
 20
10969.89966261
 10
50456.20743621
 20
10859.89966261
 10
50625.43820543999
 20
10749.89966261
 10
50974.70743621
 20
10749.89966261
 10
50976.20743621
 20
10969.89966261
  0
LWPOLYLINE
  5
45F
330
E3
100
AcDbEntity
  8
Ech.1_5
  6
Continuous
 62
     7
370
    -3
100
AcDbPolyline
 90
        5
 70
     0
 43
0.0
 10
50449.71035298
 20
10932.89966261
 10
50970.164093
 20
10932.89966261
 10
50970.164093
 20
10942.89966261
 10
50449.71035298
 20
10942.89966261
 10
50449.71035298
 20
10932.89966261
  0
LWPOLYLINE
  5
460
330
E3
100
AcDbEntity
  8
Ech.1_5
  6
Continuous
 62
     7
370
    -3
100
AcDbPolyline
 90
        9
 70
     0
 43
0.0
 10
51508.62365367999
 20
10818.09797374
 10
51544.57935369
 20
10803.98803372
 10
51526.60200528
 20
10820.47353688
 10
51526.60188786
 20
10969.89966261
 10
51165.20743621
 20
10969.89966261
 10
51165.20743621
 20
10749.89966261
 10
51526.60200528
 20
10749.89966261
 10
51526.60200528
 20
10801.61161966
 10
51508.62365367999
 20
10818.09797374
  0
LWPOLYLINE
  5
461
330
E3
100
AcDbEntity
  8
Ech.1_5
  6
Continuous
 62
     7
370
    -3
100
AcDbPolyline
 90
       13
 70
     0
 43
0.0
 10
50456.20743621
 20
11049.96676177
 10
50456.20743621
 20
11076.96676177
 10
50456.20743621
 20
11103.89966261
 10
50434.20743621
 20
11103.89966261
 10
50434.20743621
 20
10855.7378761
 42
0.4419640300000001
 10
50447.07146131
 20
10842.873851
 10
50456.20743621
 20
10842.873851
 10
50456.20743621
 20
10852.873851
 10
50451.20743621
 20
10855.373851
 10
50456.20743621
 20
10857.873851
 10
50456.20743621
 20
10842.873851
 10
50456.20743621
 20
10842.873851
 10
50456.20743621
 20
11049.96676177
  0
LWPOLYLINE
  5
462
330
E3
100
AcDbEntity
  8
Ech.1_5
  6
Continuous
 62
     7
370
    -3
100
AcDbPolyline
 90
        5
 70
     0
 43
0.0
 10
51165.20743621
 20
10691.39966261
 10
51165.20743621
 20
10611.39972004
 10
51526.60200528
 20
10611.39972004
 10
51526.60200528
 20
10691.39966261
 10
51165.20743621
 20
10691.39966261
  0
LWPOLYLINE
  5
463
330
E3
100
AcDbEntity
  8
Ech.1_5
  6
Continuous
 62
     7
370
    -3
100
AcDbPolyline
 90
       27
 70
     0
 43
0.0
 10
50938.08081908999
 20
10687.69068216
 10
50938.20743621
 20
10688.02515595
 10
50938.20743621
 20
10715.40862005
 10
50945.20743621
 20
10715.40862005
 10
50945.20743621
 20
10706.40862005
 10
50951.20743621
 20
10706.40862005
 10
50951.20743621
 20
10733.40862005
 10
50947.20743621
 20
10737.40862005
 10
50951.20743621
 20
10741.40862005
 10
50951.20743621
 20
10805.40862005
 10
50947.20743621
 20
10809.40862005
 10
50951.20743621
 20
10813.40862005
 10
50951.20743621
 20
10848.40862005
 10
50944.20743621
 20
10848.40862005
 10
50944.20743621
 20
10854.40862005
 10
50941.70743621
 20
10859.40862005
 10
50939.20743621
 20
10854.40862005
 10
50939.20743621
 20
10823.47968786
 10
50938.82683387
 20
10821.5662707
 10
50932.67190229999
 20
10814.87308614
 10
50931.20743621
 20
10811.33755223
 10
50931.20743621
 20
10692.25080782
 10
50932.16775859999
 20
10690.62093918
 10
50936.90387946
 20
10687.64958924
 10
50937.31588083
 20
10687.40862005
 10
50937.62969832
 20
10687.40862005
 10
50938.08081908999
 20
10687.69068216
  0
LWPOLYLINE
  5
464
330
E3
100
AcDbEntity
  8
Ech.1_5
  6
Continuous
 62
     7
370
    -3
100
AcDbPolyline
 90
       10
 70
     0
 43
0.0
 10
50389.59553569
 20
10432.27347488
 10
50388.53582691
 20
10432.27347488
 10
50388.53582691
 20
10324.94286278
 10
50395.59079692
 20
10332.63626787
 10
50388.53582691
 20
10314.65841787
 10
50388.53582691
 20
10304.37400516
 10
50397.96721099
 20
10314.65891946
 10
50433.53582691
 20
10314.65891946
 10
50433.53582691
 20
10432.27347488
 10
50389.59553569
 20
10432.27347488
  0
LWPOLYLINE
  5
465
330
E3
100
AcDbEntity
  8
Ech.1_5
  6
Continuous
 62
     7
370
    -3
100
AcDbPolyline
 90
        7
 70
     0
 43
0.0
 10
50344.59553569
 20
10432.27347488
 10
50343.53582691
 20
10432.27347488
 10
50343.53582691
 20
10314.65870665
 10
50379.10529377
 20
10314.65891946
 10
50388.53582691
 20
10324.94286278
 10
50388.53582691
 20
10432.27347488
 10
50344.59553569
 20
10432.27347488
  0
LWPOLYLINE
  5
466
330
E3
100
AcDbEntity
  8
Ech.1_5
  6
Continuous
 62
     7
370
    -3
100
AcDbPolyline
 90
        4
 70
     0
 43
0.0
 10
50381.4808569
 20
10296.68056786
 10
50388.53582691
 20
10304.37400516
 10
50388.53582691
 20
10314.65841787
 10
50381.4808569
 20
10296.68056786
  0
LWPOLYLINE
  5
467
330
E3
100
AcDbEntity
  8
Ech.1_5
  6
Continuous
 62
     7
370
    -3
100
AcDbPolyline
 90
        6
 70
     0
 43
0.0
 10
50434.59550797
 20
10628.91815462
 10
50433.53579919
 20
10628.91815462
 10
50433.53579919
 20
10314.65891946
 10
50478.53579919
 20
10314.65891946
 10
50478.53579919
 20
10644.22611268
 10
50434.59550797
 20
10628.91815462
  0
LWPOLYLINE
  5
468
330
E3
100
AcDbEntity
  8
Ech.1_5
  6
Continuous
 62
     7
370
    -3
100
AcDbPolyline
 90
        6
 70
     0
 43
0.0
 10
50298.53579919
 20
10582.99428045
 10
50298.53579919
 20
10582.99428045
 10
50298.53579919
 20
10314.65843742
 10
50343.53579919
 20
10314.65870665
 10
50343.53579919
 20
10598.3022385
 10
50298.53579919
 20
10582.99428045
  0
LWPOLYLINE
  5
469
330
E3
100
AcDbEntity
  8
Ech.1_5
  6
Continuous
 62
     7
370
    -3
100
AcDbPolyline
 90
       10
 70
     0
 43
0.0
 10
50343.53579919
 20
10598.3022385
 10
50343.53579919
 20
10645.83468616
 10
50235.10416817
 20
10608.94875594
 10
50243.22443474
 20
10605.37842837
 10
50226.83056
 20
10606.13426601
 10
50215.63118873
 20
10602.32449922
 10
50226.97021957
 20
10597.33897013
 10
50238.42519207
 20
10563.66538932
 10
50238.76647426
 20
10562.66214002
 10
50343.53579919
 20
10598.3022385
  0
LWPOLYLINE
  5
46A
330
E3
100
AcDbEntity
  8
Ech.1_5
  6
Continuous
 62
     7
370
    -3
100
AcDbPolyline
 90
        7
 70
     0
 43
0.0
 10
50572.49485640999
 20
10676.18880839
 10
50560.69860173
 20
10710.8656385
 10
50549.35957089
 20
10715.85116759
 10
50433.53579919
 20
10676.45060227
 10
50433.53579919
 20
10676.45060227
 10
50433.53579919
 20
10628.91815462
 10
50572.49485640999
 20
10676.18880839
  0
LWPOLYLINE
  5
46B
330
E3
100
AcDbEntity
  8
Ech.1_5
  6
Continuous
 62
     7
370
    -3
100
AcDbPolyline
 90
        4
 70
     0
 43
0.0
 10
50560.55853861999
 20
10719.6607971
 10
50576.95281688999
 20
10718.90509674
 10
50568.83255032
 20
10722.47542431
 10
50560.55853861999
 20
10719.6607971
  0
LWPOLYLINE
  5
46C
330
E3
100
AcDbEntity
  8
Ech.1_5
  6
Continuous
 62
     7
370
    -3
100
AcDbPolyline
 90
       10
 70
     0
 43
0.0
 10
50235.10416817
 20
10608.94875594
 10
50549.35957089
 20
10715.85116759
 10
50538.36862944
 20
10720.68364923
 10
50560.55853861999
 20
10719.6607971
 10
50568.83255032
 20
10722.47542431
 10
50554.6240684
 20
10728.72262497
 10
50543.50971905
 20
10761.3936311
 10
50209.78172188
 20
10647.86709369
 10
50220.89568624
 20
10615.1959566
 10
50235.10416817
 20
10608.94875594
  0
LWPOLYLINE
  5
46D
330
E3
100
AcDbEntity
  8
Ech.1_5
  6
Continuous
 62
     7
370
    -3
100
AcDbPolyline
 90
        4
 70
     0
 43
0.0
 10
50226.83056
 20
10606.13426601
 10
50204.64024727999
 20
10607.15698086
 10
50215.63118873
 20
10602.32449922
 10
50226.83056
 20
10606.13426601
  0
LWPOLYLINE
  5
46E
330
E3
100
AcDbEntity
  8
Ech.1_5
  6
Continuous
 62
     7
370
    -3
100
AcDbPolyline
 90
       12
 70
     0
 43
0.0
 10
50376.72657781
 20
10657.79617468
 10
50348.53579919
 20
10647.53557038
 10
50348.53579919
 20
10594.80013477
 10
50348.53583513
 20
10558.11838192
 10
50348.53579919
 20
10549.13243265
 10
50348.53579919
 20
10549.11843867
 10
50348.53579919
 20
10540.75210546
 10
50348.53579919
 20
10432.27347488
 10
50400.34502056
 20
10432.27347488
 10
50428.53579919
 20
10442.53407918
 10
50428.53579919
 20
10657.79617468
 10
50376.72657781
 20
10657.79617468
  0
TEXT
  5
46F
330
E3
100
AcDbEntity
  8
Ech.1_5
 62
     7
100
AcDbText
 10
50289.37020576
 20
10896.80852438
 30
0.0
 40
8.000000119999999
  1
Echelle en mm
  7
ARIAL
100
AcDbText
  0
TEXT
  5
470
330
E3
100
AcDbEntity
  8
Ech.1_5
 62
     7
100
AcDbText
 10
50275.38962101
 20
10868.59868885
 30
0.0
 40
8.000000119999999
  1
0
  7
ARIAL
100
AcDbText
  0
TEXT
  5
471
330
E3
100
AcDbEntity
  8
Ech.1_5
 62
     7
100
AcDbText
 10
50361.98667891
 20
10868.59868885
 30
0.0
 40
8.000000119999999
  1
100
  7
ARIAL
100
AcDbText
  0
TEXT
  5
472
330
E3
100
AcDbEntity
  8
Ech.1_5
 62
     7
100
AcDbText
 10
50323.24624734
 20
10868.59868885
 30
0.0
 40
8.000000119999999
  1
50
  7
ARIAL
100
AcDbText
  0
TEXT
  5
473
330
E3
100
AcDbEntity
  8
Ech.1_5
 62
     7
100
AcDbText
 10
50289.37020576
 20
10896.80852438
 30
0.0
 40
8.000000119999999
  1
Echelle en mm
  7
ARIAL
100
AcDbText
  0
TEXT
  5
474
330
E3
100
AcDbEntity
  8
Ech.1_5
 62
     7
100
AcDbText
 10
50275.38962101
 20
10868.59868885
 30
0.0
 40
8.000000119999999
  1
0
  7
ARIAL
100
AcDbText
  0
TEXT
  5
475
330
E3
100
AcDbEntity
  8
Ech.1_5
 62
     7
100
AcDbText
 10
50361.98667891
 20
10868.59868885
 30
0.0
 40
8.000000119999999
  1
100
  7
ARIAL
100
AcDbText
  0
TEXT
  5
476
330
E3
100
AcDbEntity
  8
Ech.1_5
 62
     7
100
AcDbText
 10
50323.24624734
 20
10868.59868885
 30
0.0
 40
8.000000119999999
  1
50
  7
ARIAL
100
AcDbText
  0
INSERT
  5
477
330
E3
100
AcDbEntity
  8
Ech.1_5
 62
     0
370
    -3
100
AcDbBlockReference
  2
*D56
 10
0.0
 20
0.0
 30
0.0
  0
INSERT
  5
478
330
E3
100
AcDbEntity
  8
Ech.1_5
 62
     0
370
    -3
100
AcDbBlockReference
  2
*D57
 10
0.0
 20
0.0
 30
0.0
  0
ENDSEC
  0
SECTION
  2
OBJECTS
  0
DICTIONARY
  5
1
330
0
100
AcDbDictionary
281
     1
  3
ACAD_COLOR
350
4B0
  3
ACAD_GROUP
350
2
  3
ACAD_LAYOUT
350
4C8
  3
ACAD_MATERIAL
350
47E
  3
ACAD_MLEADERSTYLE
350
4C5
  3
ACAD_MLINESTYLE
350
3
  3
ACAD_PLOTSETTINGS
350
4C9
  3
ACAD_PLOTSTYLENAME
350
47C
  3
ACAD_SCALELIST
350
4B3
  3
ACAD_TABLESTYLE
350
4B1
  3
ACAD_VISUALSTYLE
350
497
  3
ACDB_RECOMPOSE_DATA
350
518
  3
AcDbVariableDictionary
350
50E
  3
DWGPROPS
350
519
  0
DICTIONARY
  5
4D2
330
BD
100
AcDbDictionary
280
     1
281
     1
  3
ADSK_XREC_LAYER_RECONCILED
360
4D3
  0
DICTIONARY
  5
4D4
330
BE
100
AcDbDictionary
280
     1
281
     1
  3
ADSK_XREC_LAYER_RECONCILED
360
4D5
  0
DICTIONARY
  5
4D6
330
BF
100
AcDbDictionary
280
     1
281
     1
  3
ADSK_XREC_LAYER_RECONCILED
360
4D7
  0
DICTIONARY
  5
4D8
330
C0
100
AcDbDictionary
280
     1
281
     1
  3
ADSK_XREC_LAYER_RECONCILED
360
4D9
  0
DICTIONARY
  5
4DA
330
C1
100
AcDbDictionary
280
     1
281
     1
  3
ADSK_XREC_LAYER_RECONCILED
360
4DB
  0
DICTIONARY
  5
4DC
330
C2
100
AcDbDictionary
280
     1
281
     1
  3
ADSK_XREC_LAYER_RECONCILED
360
4DD
  0
DICTIONARY
  5
4DE
330
C3
100
AcDbDictionary
280
     1
281
     1
  3
ADSK_XREC_LAYER_RECONCILED
360
4DF
  0
DICTIONARY
  5
4E0
330
C4
100
AcDbDictionary
280
     1
281
     1
  3
ADSK_XREC_LAYER_RECONCILED
360
4E1
  0
DICTIONARY
  5
4E2
330
C5
100
AcDbDictionary
280
     1
281
     1
  3
ADSK_XREC_LAYER_RECONCILED
360
4E3
  0
DICTIONARY
  5
4E4
330
C6
100
AcDbDictionary
280
     1
281
     1
  3
ADSK_XREC_LAYER_RECONCILED
360
4E5
  0
DICTIONARY
  5
4E6
330
C7
100
AcDbDictionary
280
     1
281
     1
  3
ADSK_XREC_LAYER_RECONCILED
360
4E7
  0
DICTIONARY
  5
4E8
330
C8
100
AcDbDictionary
280
     1
281
     1
  3
ADSK_XREC_LAYER_RECONCILED
360
4E9
  0
DICTIONARY
  5
4EA
330
C9
100
AcDbDictionary
280
     1
281
     1
  3
ADSK_XREC_LAYER_RECONCILED
360
4EB
  0
DICTIONARY
  5
4EC
330
CA
100
AcDbDictionary
280
     1
281
     1
  3
ADSK_XREC_LAYER_RECONCILED
360
4ED
  0
DICTIONARY
  5
4EE
330
CB
100
AcDbDictionary
280
     1
281
     1
  3
ADSK_XREC_LAYER_RECONCILED
360
4EF
  0
DICTIONARY
  5
4F0
330
CC
100
AcDbDictionary
280
     1
281
     1
  3
ADSK_XREC_LAYER_RECONCILED
360
4F1
  0
DICTIONARY
  5
4F2
330
CD
100
AcDbDictionary
280
     1
281
     1
  3
ADSK_XREC_LAYER_RECONCILED
360
4F3
  0
DICTIONARY
  5
4F4
330
CE
100
AcDbDictionary
280
     1
281
     1
  3
ADSK_XREC_LAYER_RECONCILED
360
4F5
  0
DICTIONARY
  5
4F6
330
CF
100
AcDbDictionary
280
     1
281
     1
  3
ADSK_XREC_LAYER_RECONCILED
360
4F7
  0
DICTIONARY
  5
4F8
330
D0
100
AcDbDictionary
280
     1
281
     1
  3
ADSK_XREC_LAYER_RECONCILED
360
4F9
  0
DICTIONARY
  5
4FA
330
D1
100
AcDbDictionary
280
     1
281
     1
  3
ADSK_XREC_LAYER_RECONCILED
360
4FB
  0
DICTIONARY
  5
4FC
330
D3
100
AcDbDictionary
280
     1
281
     1
  3
ADSK_XREC_LAYER_RECONCILED
360
4FD
  0
DICTIONARY
  5
4FE
330
D4
100
AcDbDictionary
280
     1
281
     1
  3
ADSK_XREC_LAYER_RECONCILED
360
4FF
  0
DICTIONARY
  5
500
330
D6
100
AcDbDictionary
280
     1
281
     1
  3
ADSK_XREC_LAYER_RECONCILED
360
501
  0
DICTIONARY
  5
502
330
D7
100
AcDbDictionary
280
     1
281
     1
  3
ADSK_XREC_LAYER_RECONCILED
360
503
  0
DICTIONARY
  5
504
330
D8
100
AcDbDictionary
280
     1
281
     1
  3
ADSK_XREC_LAYER_RECONCILED
360
505
  0
DICTIONARY
  5
506
330
D9
100
AcDbDictionary
280
     1
281
     1
  3
ADSK_XREC_LAYER_RECONCILED
360
507
  0
DICTIONARY
  5
508
330
DA
100
AcDbDictionary
280
     1
281
     1
  3
ADSK_XREC_LAYER_RECONCILED
360
509
  0
DICTIONARY
  5
50A
330
DB
100
AcDbDictionary
280
     1
281
     1
  3
ADSK_XREC_LAYER_RECONCILED
360
50B
  0
DICTIONARY
  5
50C
330
DC
100
AcDbDictionary
280
     1
281
     1
  3
ADSK_XREC_LAYER_RECONCILED
360
50D
  0
DICTIONARY
  5
4B0
102
{ACAD_REACTORS
330
1
102
}
330
1
100
AcDbDictionary
281
     1
  0
DICTIONARY
  5
2
330
1
100
AcDbDictionary
281
     1
  0
DICTIONARY
  5
4C8
102
{ACAD_REACTORS
330
1
102
}
330
1
100
AcDbDictionary
281
     1
  3
Model
350
4CA
  3
Présentation1
350
4CB
  0
DICTIONARY
  5
47E
102
{ACAD_REACTORS
330
1
102
}
330
1
100
AcDbDictionary
281
     1
  3
ByBlock
350
487
  3
ByLayer
350
47F
  3
Global
350
48F
  0
DICTIONARY
  5
4C5
102
{ACAD_REACTORS
330
1
102
}
330
1
100
AcDbDictionary
281
     1
  3
Standard
350
4C6
  0
DICTIONARY
  5
3
330
1
100
AcDbDictionary
281
     1
  3
STANDARD
350
4
  0
DICTIONARY
  5
4C9
102
{ACAD_REACTORS
330
1
102
}
330
1
100
AcDbDictionary
281
     1
  0
ACDBDICTIONARYWDFLT
  5
47C
102
{ACAD_REACTORS
330
1
102
}
330
1
100
AcDbDictionary
281
     1
  3
Normal
350
47D
100
AcDbDictionaryWithDefault
340
47D
  0
DICTIONARY
  5
4B3
102
{ACAD_REACTORS
330
1
102
}
330
1
100
AcDbDictionary
281
     1
  3
A0
350
4B4
  3
A1
350
4B5
  3
A2
350
4B6
  3
A3
350
4B7
  3
A4
350
4B8
  3
A5
350
4B9
  3
A6
350
4BA
  3
A7
350
4BB
  3
A8
350
4BC
  3
A9
350
4BD
  3
B0
350
4BE
  3
B1
350
4BF
  3
B2
350
4C0
  3
B3
350
4C1
  3
B4
350
4C2
  3
B5
350
4C3
  3
B6
350
4C4
  0
DICTIONARY
  5
4B1
102
{ACAD_REACTORS
330
1
102
}
330
1
100
AcDbDictionary
281
     1
  3
Standard
350
4B2
  0
DICTIONARY
  5
497
102
{ACAD_REACTORS
330
1
102
}
330
1
100
AcDbDictionary
281
     1
  3
2dWireframe
350
49D
  3
Basic
350
49C
  3
Brighten
350
4A3
  3
ColorChange
350
4A7
  3
Conceptual
350
4A0
  3
Dim
350
4A2
  3
EdgeColorOff
350
4AF
  3
Facepattern
350
4A6
  3
Flat
350
498
  3
FlatWithEdges
350
499
  3
Gouraud
350
49A
  3
GouraudWithEdges
350
49B
  3
Hidden
350
49F
  3
JitterOff
350
4AD
  3
Linepattern
350
4A5
  3
OverhangOff
350
4AE
  3
Realistic
350
4A1
  3
Shaded
350
4AC
  3
Shaded with edges
350
4AB
  3
Shades of Gray
350
4A8
  3
Sketchy
350
4A9
  3
Thicken
350
4A4
  3
Wireframe
350
49E
  3
X-Ray
350
4AA
  0
XRECORD
  5
518
102
{ACAD_REACTORS
330
1
102
}
330
1
100
AcDbXrecord
280
     1
 90
        1
330
4B2
  0
DICTIONARY
  5
50E
102
{ACAD_REACTORS
330
1
102
}
330
1
100
AcDbDictionary
281
     1
  3
CANNOSCALE
350
511
  3
CMLEADERSTYLE
350
510
  3
CTABLESTYLE
350
50F
  3
DIMASSOC
350
514
  3
INDEXCTL
350
513
  3
SORTENTS
350
512
  3
XCLIPFRAME
350
515
  0
XRECORD
  5
519
102
{ACAD_REACTORS
330
1
102
}
330
1
100
AcDbXrecord
280
     1
  1
DWGPROPS COOKIE
  2

  3

  4

  6

  7

  8
cazeaux
  9

300
=
301
=
302
=
303
=
304
=
305
=
306
=
307
=
308
=
309
=
 40
0.0004714236111111
 41
2456467.0
 42
2456468.500277072
  1

 90
        0
  0
XRECORD
  5
4D3
102
{ACAD_REACTORS
330
4D2
102
}
330
4D2
100
AcDbXrecord
280
     1
290
     1
  0
XRECORD
  5
4D5
102
{ACAD_REACTORS
330
4D4
102
}
330
4D4
100
AcDbXrecord
280
     1
290
     1
  0
XRECORD
  5
4D7
102
{ACAD_REACTORS
330
4D6
102
}
330
4D6
100
AcDbXrecord
280
     1
290
     1
  0
XRECORD
  5
4D9
102
{ACAD_REACTORS
330
4D8
102
}
330
4D8
100
AcDbXrecord
280
     1
290
     1
  0
XRECORD
  5
4DB
102
{ACAD_REACTORS
330
4DA
102
}
330
4DA
100
AcDbXrecord
280
     1
290
     1
  0
XRECORD
  5
4DD
102
{ACAD_REACTORS
330
4DC
102
}
330
4DC
100
AcDbXrecord
280
     1
290
     1
  0
XRECORD
  5
4DF
102
{ACAD_REACTORS
330
4DE
102
}
330
4DE
100
AcDbXrecord
280
     1
290
     1
  0
XRECORD
  5
4E1
102
{ACAD_REACTORS
330
4E0
102
}
330
4E0
100
AcDbXrecord
280
     1
290
     1
  0
XRECORD
  5
4E3
102
{ACAD_REACTORS
330
4E2
102
}
330
4E2
100
AcDbXrecord
280
     1
290
     1
  0
XRECORD
  5
4E5
102
{ACAD_REACTORS
330
4E4
102
}
330
4E4
100
AcDbXrecord
280
     1
290
     1
  0
XRECORD
  5
4E7
102
{ACAD_REACTORS
330
4E6
102
}
330
4E6
100
AcDbXrecord
280
     1
290
     1
  0
XRECORD
  5
4E9
102
{ACAD_REACTORS
330
4E8
102
}
330
4E8
100
AcDbXrecord
280
     1
290
     1
  0
XRECORD
  5
4EB
102
{ACAD_REACTORS
330
4EA
102
}
330
4EA
100
AcDbXrecord
280
     1
290
     1
  0
XRECORD
  5
4ED
102
{ACAD_REACTORS
330
4EC
102
}
330
4EC
100
AcDbXrecord
280
     1
290
     1
  0
XRECORD
  5
4EF
102
{ACAD_REACTORS
330
4EE
102
}
330
4EE
100
AcDbXrecord
280
     1
290
     1
  0
XRECORD
  5
4F1
102
{ACAD_REACTORS
330
4F0
102
}
330
4F0
100
AcDbXrecord
280
     1
290
     1
  0
XRECORD
  5
4F3
102
{ACAD_REACTORS
330
4F2
102
}
330
4F2
100
AcDbXrecord
280
     1
290
     1
  0
XRECORD
  5
4F5
102
{ACAD_REACTORS
330
4F4
102
}
330
4F4
100
AcDbXrecord
280
     1
290
     1
  0
XRECORD
  5
4F7
102
{ACAD_REACTORS
330
4F6
102
}
330
4F6
100
AcDbXrecord
280
     1
290
     1
  0
XRECORD
  5
4F9
102
{ACAD_REACTORS
330
4F8
102
}
330
4F8
100
AcDbXrecord
280
     1
290
     1
  0
XRECORD
  5
4FB
102
{ACAD_REACTORS
330
4FA
102
}
330
4FA
100
AcDbXrecord
280
     1
290
     1
  0
XRECORD
  5
4FD
102
{ACAD_REACTORS
330
4FC
102
}
330
4FC
100
AcDbXrecord
280
     1
290
     1
  0
XRECORD
  5
4FF
102
{ACAD_REACTORS
330
4FE
102
}
330
4FE
100
AcDbXrecord
280
     1
290
     1
  0
XRECORD
  5
501
102
{ACAD_REACTORS
330
500
102
}
330
500
100
AcDbXrecord
280
     1
290
     1
  0
XRECORD
  5
503
102
{ACAD_REACTORS
330
502
102
}
330
502
100
AcDbXrecord
280
     1
290
     1
  0
XRECORD
  5
505
102
{ACAD_REACTORS
330
504
102
}
330
504
100
AcDbXrecord
280
     1
290
     1
  0
XRECORD
  5
507
102
{ACAD_REACTORS
330
506
102
}
330
506
100
AcDbXrecord
280
     1
290
     1
  0
XRECORD
  5
509
102
{ACAD_REACTORS
330
508
102
}
330
508
100
AcDbXrecord
280
     1
290
     1
  0
XRECORD
  5
50B
102
{ACAD_REACTORS
330
50A
102
}
330
50A
100
AcDbXrecord
280
     1
290
     1
  0
XRECORD
  5
50D
102
{ACAD_REACTORS
330
50C
102
}
330
50C
100
AcDbXrecord
280
     1
290
     1
  0
LAYOUT
  5
4CA
102
{ACAD_XDICTIONARY
360
54F
102
}
102
{ACAD_REACTORS
330
4C8
102
}
330
4C8
100
AcDbPlotSettings
  1

  2
Aucun(e)
  4

  6

 40
0.0
 41
0.0
 42
0.0
 43
0.0
 44
0.0
 45
0.0
 46
0.0
 47
0.0
 48
0.0
 49
0.0
140
0.0
141
0.0
142
1.0
143
1.0
 70
  1712
 72
     0
 73
     0
 74
     0
  7
acad.ctb
 75
     0
147
1.0
148
0.0
149
0.0
100
AcDbLayout
  1
Model
 70
     1
 71
     0
 10
0.0
 20
0.0
 11
12.0
 21
9.0
 12
0.0
 22
0.0
 32
0.0
 14
0.0
 24
0.0
 34
0.0
 15
0.0
 25
0.0
 35
0.0
146
0.0
 13
0.0
 23
0.0
 33
0.0
 16
1.0
 26
0.0
 36
0.0
 17
0.0
 27
1.0
 37
0.0
 76
     0
330
E3
331
4CE
  0
LAYOUT
  5
4CB
102
{ACAD_XDICTIONARY
360
551
102
}
102
{ACAD_REACTORS
330
4C8
102
}
330
4C8
100
AcDbPlotSettings
  1

  2
Aucun(e)
  4

  6

 40
0.0
 41
0.0
 42
0.0
 43
0.0
 44
0.0
 45
0.0
 46
0.0
 47
0.0
 48
0.0
 49
0.0
140
0.0
141
0.0
142
1.0
143
1.0
 70
   688
 72
     0
 73
     0
 74
     5
  7
acad.ctb
 75
    16
147
1.0
148
0.0
149
0.0
100
AcDbLayout
  1
Présentation1
 70
     1
 71
     1
 10
0.0
 20
0.0
 11
12.0
 21
9.0
 12
0.0
 22
0.0
 32
0.0
 14
1.000000000000000E+20
 24
1.000000000000000E+20
 34
1.000000000000000E+20
 15
-1.000000000000000E+20
 25
-1.000000000000000E+20
 35
-1.000000000000000E+20
146
0.0
 13
0.0
 23
0.0
 33
0.0
 16
1.0
 26
0.0
 36
0.0
 17
0.0
 27
1.0
 37
0.0
 76
     0
330
E4
  0
MATERIAL
  5
487
102
{ACAD_XDICTIONARY
360
488
102
}
102
{ACAD_REACTORS
330
47E
102
}
330
47E
100
AcDbMaterial
  1
ByBlock
 72
     0
 43
0.0208333333333333
 43
0.0
 43
0.0
 43
0.0
 43
0.0
 43
0.0208333333333333
 43
0.0
 43
0.0
 43
0.0
 43
0.0
 43
1.0
 43
0.0
 43
0.0
 43
0.0
 43
0.0
 43
1.0
 77
     0
 47
0.0208333333333333
 47
0.0
 47
0.0
 47
0.0
 47
0.0
 47
0.0208333333333333
 47
0.0
 47
0.0
 47
0.0
 47
0.0
 47
1.0
 47
0.0
 47
0.0
 47
0.0
 47
0.0
 47
1.0
171
     0
 49
0.0208333333333333
 49
0.0
 49
0.0
 49
0.0
 49
0.0
 49
0.0208333333333333
 49
0.0
 49
0.0
 49
0.0
 49
0.0
 49
1.0
 49
0.0
 49
0.0
 49
0.0
 49
0.0
 49
1.0
175
     0
142
0.0208333333333333
142
0.0
142
0.0
142
0.0
142
0.0
142
0.0208333333333333
142
0.0
142
0.0
142
0.0
142
0.0
142
1.0
142
0.0
142
0.0
142
0.0
142
0.0
142
1.0
179
     0
144
0.0208333333333333
144
0.0
144
0.0
144
0.0
144
0.0
144
0.0208333333333333
144
0.0
144
0.0
144
0.0
144
0.0
144
1.0
144
0.0
144
0.0
144
0.0
144
0.0
144
1.0
147
0.0208333333333333
147
0.0
147
0.0
147
0.0
147
0.0
147
0.0208333333333333
147
0.0
147
0.0
147
0.0
147
0.0
147
1.0
147
0.0
147
0.0
147
0.0
147
0.0
147
1.0
  0
MATERIAL
  5
47F
102
{ACAD_XDICTIONARY
360
480
102
}
102
{ACAD_REACTORS
330
47E
102
}
330
47E
100
AcDbMaterial
  1
ByLayer
 72
     0
 43
0.0208333333333333
 43
0.0
 43
0.0
 43
0.0
 43
0.0
 43
0.0208333333333333
 43
0.0
 43
0.0
 43
0.0
 43
0.0
 43
1.0
 43
0.0
 43
0.0
 43
0.0
 43
0.0
 43
1.0
 77
     0
 47
0.0208333333333333
 47
0.0
 47
0.0
 47
0.0
 47
0.0
 47
0.0208333333333333
 47
0.0
 47
0.0
 47
0.0
 47
0.0
 47
1.0
 47
0.0
 47
0.0
 47
0.0
 47
0.0
 47
1.0
171
     0
 49
0.0208333333333333
 49
0.0
 49
0.0
 49
0.0
 49
0.0
 49
0.0208333333333333
 49
0.0
 49
0.0
 49
0.0
 49
0.0
 49
1.0
 49
0.0
 49
0.0
 49
0.0
 49
0.0
 49
1.0
175
     0
142
0.0208333333333333
142
0.0
142
0.0
142
0.0
142
0.0
142
0.0208333333333333
142
0.0
142
0.0
142
0.0
142
0.0
142
1.0
142
0.0
142
0.0
142
0.0
142
0.0
142
1.0
179
     0
144
0.0208333333333333
144
0.0
144
0.0
144
0.0
144
0.0
144
0.0208333333333333
144
0.0
144
0.0
144
0.0
144
0.0
144
1.0
144
0.0
144
0.0
144
0.0
144
0.0
144
1.0
147
0.0208333333333333
147
0.0
147
0.0
147
0.0
147
0.0
147
0.0208333333333333
147
0.0
147
0.0
147
0.0
147
0.0
147
1.0
147
0.0
147
0.0
147
0.0
147
0.0
147
1.0
  0
MATERIAL
  5
48F
102
{ACAD_XDICTIONARY
360
490
102
}
102
{ACAD_REACTORS
330
47E
102
}
330
47E
100
AcDbMaterial
  1
Global
 72
     0
 43
0.0208333333333333
 43
0.0
 43
0.0
 43
0.0
 43
0.0
 43
0.0208333333333333
 43
0.0
 43
0.0
 43
0.0
 43
0.0
 43
1.0
 43
0.0
 43
0.0
 43
0.0
 43
0.0
 43
1.0
 77
     0
 47
0.0208333333333333
 47
0.0
 47
0.0
 47
0.0
 47
0.0
 47
0.0208333333333333
 47
0.0
 47
0.0
 47
0.0
 47
0.0
 47
1.0
 47
0.0
 47
0.0
 47
0.0
 47
0.0
 47
1.0
171
     0
 49
0.0208333333333333
 49
0.0
 49
0.0
 49
0.0
 49
0.0
 49
0.0208333333333333
 49
0.0
 49
0.0
 49
0.0
 49
0.0
 49
1.0
 49
0.0
 49
0.0
 49
0.0
 49
0.0
 49
1.0
175
     0
142
0.0208333333333333
142
0.0
142
0.0
142
0.0
142
0.0
142
0.0208333333333333
142
0.0
142
0.0
142
0.0
142
0.0
142
1.0
142
0.0
142
0.0
142
0.0
142
0.0
142
1.0
179
     0
144
0.0208333333333333
144
0.0
144
0.0
144
0.0
144
0.0
144
0.0208333333333333
144
0.0
144
0.0
144
0.0
144
0.0
144
1.0
144
0.0
144
0.0
144
0.0
144
0.0
144
1.0
147
0.0208333333333333
147
0.0
147
0.0
147
0.0
147
0.0
147
0.0208333333333333
147
0.0
147
0.0
147
0.0
147
0.0
147
1.0
147
0.0
147
0.0
147
0.0
147
0.0
147
1.0
  0
MLEADERSTYLE
  5
4C6
102
{ACAD_REACTORS
330
4C5
102
}
330
4C5
100
AcDbMLeaderStyle
170
     2
171
     1
172
     0
 90
        2
 40
0.0
 41
0.0
173
     1
 91
-1056964608
340
AE
 92
       -2
290
     1
 42
2.0
291
     1
 43
0.36
  3
Standard
 44
4.0
300

342
A9
174
     1
178
     6
175
     1
176
     0
 93
-1056964608
 45
4.0
292
     0
297
     0
 46
4.0
 94
-1056964608
 47
1.0
 49
1.0
140
1.0
293
     1
141
0.0
294
     1
177
     0
142
1.0
295
     0
296
     0
143
0.125
1001
ACAD_MLEADERVER
1070
     2
  0
MLINESTYLE
  5
4
330
3
100
AcDbMlineStyle
  2
STANDARD
 70
     0
  3

 62
     0
 51
90.0
 52
90.0
 71
     2
 49
0.5
 62
   256
  6
BYLAYER
 49
-0.5
 62
   256
  6
BYLAYER
  0
ACDBPLACEHOLDER
  5
47D
102
{ACAD_REACTORS
330
47C
102
}
330
47C
  0
SCALE
  5
4B4
102
{ACAD_REACTORS
330
4B3
102
}
330
4B3
100
AcDbScale
 70
     0
300
1:1
140
1.0
141
1.0
290
     1
  0
SCALE
  5
4B5
102
{ACAD_REACTORS
330
4B3
102
}
330
4B3
100
AcDbScale
 70
     0
300
1:2
140
1.0
141
2.0
290
     0
  0
SCALE
  5
4B6
102
{ACAD_REACTORS
330
4B3
102
}
330
4B3
100
AcDbScale
 70
     0
300
1:4
140
1.0
141
4.0
290
     0
  0
SCALE
  5
4B7
102
{ACAD_REACTORS
330
4B3
102
}
330
4B3
100
AcDbScale
 70
     0
300
1:5
140
1.0
141
5.0
290
     0
  0
SCALE
  5
4B8
102
{ACAD_REACTORS
330
4B3
102
}
330
4B3
100
AcDbScale
 70
     0
300
1:8
140
1.0
141
8.0
290
     0
  0
SCALE
  5
4B9
102
{ACAD_REACTORS
330
4B3
102
}
330
4B3
100
AcDbScale
 70
     0
300
1:10
140
1.0
141
10.0
290
     0
  0
SCALE
  5
4BA
102
{ACAD_REACTORS
330
4B3
102
}
330
4B3
100
AcDbScale
 70
     0
300
1:16
140
1.0
141
16.0
290
     0
  0
SCALE
  5
4BB
102
{ACAD_REACTORS
330
4B3
102
}
330
4B3
100
AcDbScale
 70
     0
300
1:20
140
1.0
141
20.0
290
     0
  0
SCALE
  5
4BC
102
{ACAD_REACTORS
330
4B3
102
}
330
4B3
100
AcDbScale
 70
     0
300
1:30
140
1.0
141
30.0
290
     0
  0
SCALE
  5
4BD
102
{ACAD_REACTORS
330
4B3
102
}
330
4B3
100
AcDbScale
 70
     0
300
1:40
140
1.0
141
40.0
290
     0
  0
SCALE
  5
4BE
102
{ACAD_REACTORS
330
4B3
102
}
330
4B3
100
AcDbScale
 70
     0
300
1:50
140
1.0
141
50.0
290
     0
  0
SCALE
  5
4BF
102
{ACAD_REACTORS
330
4B3
102
}
330
4B3
100
AcDbScale
 70
     0
300
1:100
140
1.0
141
100.0
290
     0
  0
SCALE
  5
4C0
102
{ACAD_REACTORS
330
4B3
102
}
330
4B3
100
AcDbScale
 70
     0
300
2:1
140
2.0
141
1.0
290
     0
  0
SCALE
  5
4C1
102
{ACAD_REACTORS
330
4B3
102
}
330
4B3
100
AcDbScale
 70
     0
300
4:1
140
4.0
141
1.0
290
     0
  0
SCALE
  5
4C2
102
{ACAD_REACTORS
330
4B3
102
}
330
4B3
100
AcDbScale
 70
     0
300
8:1
140
8.0
141
1.0
290
     0
  0
SCALE
  5
4C3
102
{ACAD_REACTORS
330
4B3
102
}
330
4B3
100
AcDbScale
 70
     0
300
10:1
140
10.0
141
1.0
290
     0
  0
SCALE
  5
4C4
102
{ACAD_REACTORS
330
4B3
102
}
330
4B3
100
AcDbScale
 70
     0
300
100:1
140
100.0
141
1.0
290
     0
  0
TABLESTYLE
  5
4B2
102
{ACAD_XDICTIONARY
360
516
102
}
102
{ACAD_REACTORS
330
4B1
102
}
330
4B1
100
AcDbTableStyle
  3
Standard
 70
     0
 71
     0
 40
1.5
 41
1.5
280
     0
281
     0
  7
STANDARD
140
4.5
170
     2
 62
     0
 63
     7
283
     0
274
    -2
284
     1
 64
     0
275
    -2
285
     1
 65
     0
276
    -2
286
     1
 66
     0
277
    -2
287
     1
 67
     0
278
    -2
288
     1
 68
     0
279
    -2
289
     1
 69
     0
  7
STANDARD
140
6.0
170
     5
 62
     0
 63
     7
283
     0
274
    -2
284
     1
 64
     0
275
    -2
285
     1
 65
     0
276
    -2
286
     1
 66
     0
277
    -2
287
     1
 67
     0
278
    -2
288
     1
 68
     0
279
    -2
289
     1
 69
     0
  7
STANDARD
140
4.5
170
     5
 62
     0
 63
     7
283
     0
274
    -2
284
     1
 64
     0
275
    -2
285
     1
 65
     0
276
    -2
286
     1
 66
     0
277
    -2
287
     1
 67
     0
278
    -2
288
     1
 68
     0
279
    -2
289
     1
 69
     0
  0
VISUALSTYLE
  5
49D
102
{ACAD_XDICTIONARY
360
527
102
}
102
{ACAD_REACTORS
330
497
102
}
330
497
100
AcDbVisualStyle
  2
2dWireframe
 70
     4
 71
     0
 72
     2
 73
     0
 90
        0
 40
-0.6
 41
-30.0
 62
     5
 63
     7
 74
     1
 91
        4
 64
     7
 65
   257
 75
     1
175
     1
 42
1.0
 92
        0
 66
   257
 43
1.0
 76
     1
 77
     6
 78
     2
 67
     7
 79
     5
170
     0
171
     0
290
     0
174
     0
 93
        1
 44
0.0
173
     0
291
     0
 45
0.0
1001
ACAD
1000
AcDbSavedByObjectVersion
1070
     0
  0
VISUALSTYLE
  5
49C
102
{ACAD_XDICTIONARY
360
525
102
}
102
{ACAD_REACTORS
330
497
102
}
330
497
100
AcDbVisualStyle
  2
Basic
 70
     7
 71
     1
 72
     0
 73
     1
 90
        0
 40
-0.6
 41
-30.0
 62
     5
 63
     7
 74
     0
 91
        4
 64
     7
 65
   257
 75
     1
175
     1
 42
1.0
 92
        8
 66
     7
 43
1.0
 76
     1
 77
     6
 78
     2
 67
     7
 79
     5
170
     0
171
     0
290
     0
174
     0
 93
        1
 44
0.0
173
     0
291
     1
 45
0.0
1001
ACAD
1000
AcDbSavedByObjectVersion
1070
     0
  0
VISUALSTYLE
  5
4A3
102
{ACAD_XDICTIONARY
360
533
102
}
102
{ACAD_REACTORS
330
497
102
}
330
497
100
AcDbVisualStyle
  2
Brighten
 70
    12
 71
     2
 72
     2
 73
     0
 90
        0
 40
-0.6
 41
-30.0
 62
     5
 63
     7
 74
     1
 91
        4
 64
     7
 65
   257
 75
     1
175
     1
 42
1.0
 92
        8
 66
     7
 43
1.0
 76
     1
 77
     6
 78
     2
 67
     7
 79
     5
170
     0
171
     0
290
     0
174
     0
 93
        1
 44
50.0
173
     0
291
     1
 45
0.0
1001
ACAD
1000
AcDbSavedByObjectVersion
1070
     0
  0
VISUALSTYLE
  5
4A7
102
{ACAD_XDICTIONARY
360
53B
102
}
102
{ACAD_REACTORS
330
497
102
}
330
497
100
AcDbVisualStyle
  2
ColorChange
 70
    16
 71
     2
 72
     2
 73
     3
 90
        0
 40
-0.6
 41
-30.0
 62
     5
 63
     8
 74
     1
 91
        4
 64
     7
 65
   257
 75
     1
175
     1
 42
1.0
 92
        8
 66
     8
 43
1.0
 76
     1
 77
     6
 78
     2
 67
     7
 79
     5
170
     0
171
     0
290
     0
174
     0
 93
        1
 44
0.0
173
     0
291
     1
 45
0.0
1001
ACAD
1000
AcDbSavedByObjectVersion
1070
     0
  0
VISUALSTYLE
  5
4A0
102
{ACAD_XDICTIONARY
360
52D
102
}
102
{ACAD_REACTORS
330
497
102
}
330
497
100
AcDbVisualStyle
  2
Conceptual
 70
     9
 71
     3
 72
     2
 73
     0
 90
        0
 40
-0.6
 41
-30.0
 62
     5
 63
     7
 74
     2
 91
        2
 64
     7
 65
   257
 75
     1
175
     1
 42
179.0
 92
        8
 66
     7
 43
1.0
 76
     1
 77
     6
 78
     2
 67
     7
 79
     3
170
     0
171
     0
290
     0
174
     0
 93
        1
 44
0.0
173
     0
291
     0
 45
0.0
1001
ACAD
1000
AcDbSavedByObjectVersion
1070
     0
  0
VISUALSTYLE
  5
4A2
102
{ACAD_XDICTIONARY
360
531
102
}
102
{ACAD_REACTORS
330
497
102
}
330
497
100
AcDbVisualStyle
  2
Dim
 70
    11
 71
     2
 72
     2
 73
     0
 90
        0
 40
-0.6
 41
-30.0
 62
     5
 63
     7
 74
     1
 91
        4
 64
     7
 65
   257
 75
     1
175
     1
 42
1.0
 92
        8
 66
     7
 43
1.0
 76
     1
 77
     6
 78
     2
 67
     7
 79
     5
170
     0
171
     0
290
     0
174
     0
 93
        1
 44
-50.0
173
     0
291
     1
 45
0.0
1001
ACAD
1000
AcDbSavedByObjectVersion
1070
     0
  0
VISUALSTYLE
  5
4AF
102
{ACAD_XDICTIONARY
360
54B
102
}
102
{ACAD_REACTORS
330
497
102
}
330
497
100
AcDbVisualStyle
  2
EdgeColorOff
 70
    22
 71
     2
 72
     2
 73
     0
 90
        0
 40
-0.6
 41
-30.0
 62
     5
 63
     7
 74
     1
 91
        4
 64
     7
 65
   257
 75
     1
175
     1
 42
1.0
 92
        8
 66
     7
 43
1.0
 76
     1
 77
     6
 78
     2
 67
     7
 79
     5
170
     0
171
     0
290
     0
174
     0
 93
        1
 44
0.0
173
     0
291
     1
 45
0.0
1001
ACAD
1000
AcDbSavedByObjectVersion
1070
     0
  0
VISUALSTYLE
  5
4A6
102
{ACAD_XDICTIONARY
360
539
102
}
102
{ACAD_REACTORS
330
497
102
}
330
497
100
AcDbVisualStyle
  2
Facepattern
 70
    15
 71
     2
 72
     2
 73
     0
 90
        0
 40
-0.6
 41
-30.0
 62
     5
 63
     7
 74
     1
 91
        4
 64
     7
 65
   257
 75
     1
175
     1
 42
1.0
 92
        8
 66
     7
 43
1.0
 76
     1
 77
     6
 78
     2
 67
     7
 79
     5
170
     0
171
     0
290
     0
174
     0
 93
        1
 44
0.0
173
     0
291
     1
 45
0.0
1001
ACAD
1000
AcDbSavedByObjectVersion
1070
     0
  0
VISUALSTYLE
  5
498
102
{ACAD_XDICTIONARY
360
51D
102
}
102
{ACAD_REACTORS
330
497
102
}
330
497
100
AcDbVisualStyle
  2
Flat
 70
     0
 71
     2
 72
     1
 73
     1
 90
        2
 40
-0.6
 41
30.0
 62
     5
 63
     7
 74
     0
 91
        0
 64
     7
 65
   257
 75
     1
175
     1
 42
1.0
 92
        8
 66
     7
 43
1.0
 76
     1
 77
     6
 78
     2
 67
     7
 79
     5
170
     0
171
     0
290
     0
174
     0
 93
       13
 44
0.0
173
     0
291
     1
 45
0.0
1001
ACAD
1000
AcDbSavedByObjectVersion
1070
     0
  0
VISUALSTYLE
  5
499
102
{ACAD_XDICTIONARY
360
51F
102
}
102
{ACAD_REACTORS
330
497
102
}
330
497
100
AcDbVisualStyle
  2
FlatWithEdges
 70
     1
 71
     2
 72
     1
 73
     1
 90
        2
 40
-0.6
 41
30.0
 62
     5
 63
     7
 74
     1
 91
        0
 64
     7
 65
   257
 75
     1
175
     1
 42
1.0
 92
        0
 66
   257
 43
1.0
 76
     1
 77
     6
 78
     2
 67
     7
 79
     5
170
     0
171
     0
290
     0
174
     0
 93
       13
 44
0.0
173
     0
291
     1
 45
0.0
1001
ACAD
1000
AcDbSavedByObjectVersion
1070
     0
  0
VISUALSTYLE
  5
49A
102
{ACAD_XDICTIONARY
360
521
102
}
102
{ACAD_REACTORS
330
497
102
}
330
497
100
AcDbVisualStyle
  2
Gouraud
 70
     2
 71
     2
 72
     2
 73
     1
 90
        2
 40
-0.6
 41
30.0
 62
     5
 63
     7
 74
     0
 91
        0
 64
     7
 65
   257
 75
     1
175
     1
 42
1.0
 92
        0
 66
     7
 43
1.0
 76
     1
 77
     6
 78
     2
 67
     7
 79
     5
170
     0
171
     0
290
     0
174
     0
 93
       13
 44
0.0
173
     0
291
     1
 45
0.0
1001
ACAD
1000
AcDbSavedByObjectVersion
1070
     0
  0
VISUALSTYLE
  5
49B
102
{ACAD_XDICTIONARY
360
523
102
}
102
{ACAD_REACTORS
330
497
102
}
330
497
100
AcDbVisualStyle
  2
GouraudWithEdges
 70
     3
 71
     2
 72
     2
 73
     1
 90
        2
 40
-0.6
 41
30.0
 62
     5
 63
     7
 74
     1
 91
        0
 64
     7
 65
   257
 75
     1
175
     1
 42
1.0
 92
        0
 66
   257
 43
1.0
 76
     1
 77
     6
 78
     2
 67
     7
 79
     5
170
     0
171
     0
290
     0
174
     0
 93
       13
 44
0.0
173
     0
291
     1
 45
0.0
1001
ACAD
1000
AcDbSavedByObjectVersion
1070
     0
  0
VISUALSTYLE
  5
49F
102
{ACAD_XDICTIONARY
360
52B
102
}
102
{ACAD_REACTORS
330
497
102
}
330
497
100
AcDbVisualStyle
  2
Hidden
 70
     6
 71
     1
 72
     2
 73
     2
 90
        0
 40
-0.6
 41
-30.0
 62
     5
 63
     7
 74
     2
 91
        2
 64
     7
 65
   257
 75
     2
175
     1
 42
40.0
 92
        0
 66
   257
 43
1.0
 76
     1
 77
     6
 78
     2
 67
     7
 79
     3
170
     0
171
     0
290
     0
174
     0
 93
        1
 44
0.0
173
     0
291
     0
 45
0.0
1001
ACAD
1000
AcDbSavedByObjectVersion
1070
     0
  0
VISUALSTYLE
  5
4AD
102
{ACAD_XDICTIONARY
360
547
102
}
102
{ACAD_REACTORS
330
497
102
}
330
497
100
AcDbVisualStyle
  2
JitterOff
 70
    20
 71
     2
 72
     2
 73
     0
 90
        0
 40
-0.6
 41
-30.0
 62
     5
 63
     7
 74
     1
 91
        4
 64
     7
 65
   257
 75
     1
175
     1
 42
1.0
 92
       10
 66
     7
 43
1.0
 76
     1
 77
     6
 78
     2
 67
     7
 79
     5
170
     0
171
     0
290
     0
174
     0
 93
        1
 44
0.0
173
     0
291
     1
 45
0.0
1001
ACAD
1000
AcDbSavedByObjectVersion
1070
     0
  0
VISUALSTYLE
  5
4A5
102
{ACAD_XDICTIONARY
360
537
102
}
102
{ACAD_REACTORS
330
497
102
}
330
497
100
AcDbVisualStyle
  2
Linepattern
 70
    14
 71
     2
 72
     2
 73
     0
 90
        0
 40
-0.6
 41
-30.0
 62
     5
 63
     7
 74
     1
 91
        4
 64
     7
 65
   257
 75
     7
175
     7
 42
1.0
 92
        8
 66
     7
 43
1.0
 76
     1
 77
     6
 78
     2
 67
     7
 79
     5
170
     0
171
     0
290
     0
174
     0
 93
        1
 44
0.0
173
     0
291
     1
 45
0.0
1001
ACAD
1000
AcDbSavedByObjectVersion
1070
     0
  0
VISUALSTYLE
  5
4AE
102
{ACAD_XDICTIONARY
360
549
102
}
102
{ACAD_REACTORS
330
497
102
}
330
497
100
AcDbVisualStyle
  2
OverhangOff
 70
    21
 71
     2
 72
     2
 73
     0
 90
        0
 40
-0.6
 41
-30.0
 62
     5
 63
     7
 74
     1
 91
        4
 64
     7
 65
   257
 75
     1
175
     1
 42
1.0
 92
        9
 66
     7
 43
1.0
 76
     1
 77
     6
 78
     2
 67
     7
 79
     5
170
     0
171
     0
290
     0
174
     0
 93
        1
 44
0.0
173
     0
291
     1
 45
0.0
1001
ACAD
1000
AcDbSavedByObjectVersion
1070
     0
  0
VISUALSTYLE
  5
4A1
102
{ACAD_XDICTIONARY
360
52F
102
}
102
{ACAD_REACTORS
330
497
102
}
330
497
100
AcDbVisualStyle
  2
Realistic
 70
     8
 71
     2
 72
     3
 73
     0
 90
        2
 40
-0.6
 41
30.0
 62
     5
 63
     7
 74
     0
 91
        0
 64
     7
 65
   257
 75
     1
175
     1
 42
1.0
 92
        8
 66
   257
 43
1.0
 76
     1
 77
     6
 78
     2
 67
     7
 79
     3
170
     0
171
     0
290
     0
174
     0
 93
       13
 44
0.0
173
     0
291
     0
 45
0.0
1001
ACAD
1000
AcDbSavedByObjectVersion
1070
     0
  0
VISUALSTYLE
  5
4AC
102
{ACAD_XDICTIONARY
360
545
102
}
102
{ACAD_REACTORS
330
497
102
}
330
497
100
AcDbVisualStyle
  2
Shaded
 70
    27
 71
     2
 72
     2
 73
     1
 90
        2
 40
-0.6
 41
30.0
 62
     5
 63
     7
 74
     0
 91
        4
 64
     7
 65
   257
 75
     1
175
     1
 42
1.0
 92
        8
 66
   257
 43
1.0
 76
     1
 77
     6
 78
     2
 67
     8
 79
     3
170
     0
171
     0
290
     0
174
     0
 93
        5
 44
0.0
173
     0
291
     0
 45
0.0
1001
ACAD
1000
AcDbSavedByObjectVersion
1070
     0
  0
VISUALSTYLE
  5
4AB
102
{ACAD_XDICTIONARY
360
543
102
}
102
{ACAD_REACTORS
330
497
102
}
330
497
100
AcDbVisualStyle
  2
Shaded with edges
 70
    26
 71
     2
 72
     2
 73
     1
 90
        2
 40
-0.6
 41
30.0
 62
     5
 63
     7
 74
     1
 91
       10
 64
     7
 65
   257
 75
     2
175
     1
 42
1.0
 92
        8
 66
   257
 43
1.0
 76
     1
 77
     6
 78
     2
 67
     7
 79
     3
170
     0
171
     0
290
     0
174
     0
 93
        5
 44
0.0
173
     0
291
     0
 45
0.0
1001
ACAD
1000
AcDbSavedByObjectVersion
1070
     0
  0
VISUALSTYLE
  5
4A8
102
{ACAD_XDICTIONARY
360
53D
102
}
102
{ACAD_REACTORS
330
497
102
}
330
497
100
AcDbVisualStyle
  2
Shades of Gray
 70
    23
 71
     2
 72
     2
 73
     3
 90
        0
 40
-0.6
 41
-30.0
 62
     5
 63
     7
 74
     2
 91
        2
 64
     7
 65
     7
 75
     1
175
     1
 42
40.0
 92
        8
 66
     7
 43
1.0
 76
     1
 77
     6
 78
     2
 67
     7
 79
     3
170
     0
171
     0
290
     0
174
     0
 93
        1
 44
0.0
173
     0
291
     0
 45
0.0
1001
ACAD
1000
AcDbSavedByObjectVersion
1070
     0
  0
VISUALSTYLE
  5
4A9
102
{ACAD_XDICTIONARY
360
53F
102
}
102
{ACAD_REACTORS
330
497
102
}
330
497
100
AcDbVisualStyle
  2
Sketchy
 70
    24
 71
     1
 72
     2
 73
     2
 90
        0
 40
-0.6
 41
-30.0
 62
     5
 63
     7
 74
     2
 91
        2
 64
     7
 65
     7
 75
     1
175
     1
 42
40.0
 92
       11
 66
     7
 43
1.0
 76
     1
 77
     6
 78
     2
 67
     7
 79
     6
170
     0
171
     0
290
     0
174
     0
 93
        1
 44
0.0
173
     0
291
     0
 45
0.0
1001
ACAD
1000
AcDbSavedByObjectVersion
1070
     0
  0
VISUALSTYLE
  5
4A4
102
{ACAD_XDICTIONARY
360
535
102
}
102
{ACAD_REACTORS
330
497
102
}
330
497
100
AcDbVisualStyle
  2
Thicken
 70
    13
 71
     2
 72
     2
 73
     0
 90
        0
 40
-0.6
 41
-30.0
 62
     5
 63
     7
 74
     1
 91
        4
 64
     7
 65
   257
 75
     1
175
     1
 42
1.0
 92
       12
 66
     7
 43
1.0
 76
     1
 77
     6
 78
     2
 67
     7
 79
     5
170
     0
171
     0
290
     0
174
     0
 93
        1
 44
0.0
173
     0
291
     1
 45
0.0
1001
ACAD
1000
AcDbSavedByObjectVersion
1070
     0
  0
VISUALSTYLE
  5
49E
102
{ACAD_XDICTIONARY
360
529
102
}
102
{ACAD_REACTORS
330
497
102
}
330
497
100
AcDbVisualStyle
  2
Wireframe
 70
     5
 71
     0
 72
     2
 73
     0
 90
        0
 40
-0.6
 41
-30.0
 62
     5
 63
     7
 74
     1
 91
        4
 64
     7
 65
   257
 75
     1
175
     1
 42
1.0
 92
        0
 66
   257
 43
1.0
 76
     1
 77
     6
 78
     2
 67
     7
 79
     3
170
     0
171
     0
290
     0
174
     0
 93
        1
 44
0.0
173
     0
291
     0
 45
0.0
1001
ACAD
1000
AcDbSavedByObjectVersion
1070
     0
  0
VISUALSTYLE
  5
4AA
102
{ACAD_XDICTIONARY
360
541
102
}
102
{ACAD_REACTORS
330
497
102
}
330
497
100
AcDbVisualStyle
  2
X-Ray
 70
    25
 71
     2
 72
     2
 73
     1
 90
        1
 40
0.5
 41
-30.0
 62
     5
 63
     7
 74
     1
 91
        0
 64
     7
 65
   257
 75
     1
175
     1
 42
1.0
 92
        8
 66
     7
 43
1.0
 76
     1
 77
     6
 78
     2
 67
     7
 79
     3
170
     0
171
     0
290
     0
174
     0
 93
       13
 44
0.0
173
     0
291
     0
 45
0.0
1001
ACAD
1000
AcDbSavedByObjectVersion
1070
     0
  0
DICTIONARYVAR
  5
511
102
{ACAD_REACTORS
330
50E
102
}
330
50E
100
DictionaryVariables
280
     0
  1
1:1
  0
DICTIONARYVAR
  5
510
102
{ACAD_REACTORS
330
50E
102
}
330
50E
100
DictionaryVariables
280
     0
  1
STANDARD
  0
DICTIONARYVAR
  5
50F
102
{ACAD_REACTORS
330
50E
102
}
330
50E
100
DictionaryVariables
280
     0
  1
STANDARD
  0
DICTIONARYVAR
  5
514
102
{ACAD_REACTORS
330
50E
102
}
330
50E
100
DictionaryVariables
280
     0
  1
1
  0
DICTIONARYVAR
  5
513
102
{ACAD_REACTORS
330
50E
102
}
330
50E
100
DictionaryVariables
280
     0
  1
0
  0
DICTIONARYVAR
  5
512
102
{ACAD_REACTORS
330
50E
102
}
330
50E
100
DictionaryVariables
280
     0
  1
127
  0
DICTIONARYVAR
  5
515
102
{ACAD_REACTORS
330
50E
102
}
330
50E
100
DictionaryVariables
280
     0
  1
2
  0
DICTIONARY
  5
54F
330
4CA
100
AcDbDictionary
280
     1
281
     1
  3
ACAD_XREC_ROUNDTRIP
360
550
  0
DICTIONARY
  5
551
330
4CB
100
AcDbDictionary
280
     1
281
     1
  3
ACAD_XREC_ROUNDTRIP
360
552
  0
DICTIONARY
  5
488
330
487
100
AcDbDictionary
280
     1
281
     1
  3
ACAD_XREC_ROUNDTRIP
360
51B
  3
BUMPTILE
360
48A
  3
DIFFUSETILE
360
489
  3
OPACITYTILE
360
48D
  3
REFLECTIONTILE
360
48C
  3
REFRACTIONTILE
360
48E
  3
SPECULARTILE
360
48B
  0
DICTIONARY
  5
480
330
47F
100
AcDbDictionary
280
     1
281
     1
  3
ACAD_XREC_ROUNDTRIP
360
51A
  3
BUMPTILE
360
482
  3
DIFFUSETILE
360
481
  3
OPACITYTILE
360
485
  3
REFLECTIONTILE
360
484
  3
REFRACTIONTILE
360
486
  3
SPECULARTILE
360
483
  0
DICTIONARY
  5
490
330
48F
100
AcDbDictionary
280
     1
281
     1
  3
ACAD_XREC_ROUNDTRIP
360
51C
  3
BUMPTILE
360
492
  3
DIFFUSETILE
360
491
  3
OPACITYTILE
360
495
  3
REFLECTIONTILE
360
494
  3
REFRACTIONTILE
360
496
  3
SPECULARTILE
360
493
  0
DICTIONARY
  5
516
330
4B2
100
AcDbDictionary
280
     1
281
     1
  3
ACAD_ROUNDTRIP_2008_TABLESTYLE_CELLSTYLEMAP
360
517
  3
ACAD_XREC_ROUNDTRIP
360
54D
  0
DICTIONARY
  5
527
330
49D
100
AcDbDictionary
280
     1
281
     1
  3
ACAD_XREC_ROUNDTRIP
360
528
  0
DICTIONARY
  5
525
330
49C
100
AcDbDictionary
280
     1
281
     1
  3
ACAD_XREC_ROUNDTRIP
360
526
  0
DICTIONARY
  5
533
330
4A3
100
AcDbDictionary
280
     1
281
     1
  3
ACAD_XREC_ROUNDTRIP
360
534
  0
DICTIONARY
  5
53B
330
4A7
100
AcDbDictionary
280
     1
281
     1
  3
ACAD_XREC_ROUNDTRIP
360
53C
  0
DICTIONARY
  5
52D
330
4A0
100
AcDbDictionary
280
     1
281
     1
  3
ACAD_XREC_ROUNDTRIP
360
52E
  0
DICTIONARY
  5
531
330
4A2
100
AcDbDictionary
280
     1
281
     1
  3
ACAD_XREC_ROUNDTRIP
360
532
  0
DICTIONARY
  5
54B
330
4AF
100
AcDbDictionary
280
     1
281
     1
  3
ACAD_XREC_ROUNDTRIP
360
54C
  0
DICTIONARY
  5
539
330
4A6
100
AcDbDictionary
280
     1
281
     1
  3
ACAD_XREC_ROUNDTRIP
360
53A
  0
DICTIONARY
  5
51D
330
498
100
AcDbDictionary
280
     1
281
     1
  3
ACAD_XREC_ROUNDTRIP
360
51E
  0
DICTIONARY
  5
51F
330
499
100
AcDbDictionary
280
     1
281
     1
  3
ACAD_XREC_ROUNDTRIP
360
520
  0
DICTIONARY
  5
521
330
49A
100
AcDbDictionary
280
     1
281
     1
  3
ACAD_XREC_ROUNDTRIP
360
522
  0
DICTIONARY
  5
523
330
49B
100
AcDbDictionary
280
     1
281
     1
  3
ACAD_XREC_ROUNDTRIP
360
524
  0
DICTIONARY
  5
52B
330
49F
100
AcDbDictionary
280
     1
281
     1
  3
ACAD_XREC_ROUNDTRIP
360
52C
  0
DICTIONARY
  5
547
330
4AD
100
AcDbDictionary
280
     1
281
     1
  3
ACAD_XREC_ROUNDTRIP
360
548
  0
DICTIONARY
  5
537
330
4A5
100
AcDbDictionary
280
     1
281
     1
  3
ACAD_XREC_ROUNDTRIP
360
538
  0
DICTIONARY
  5
549
330
4AE
100
AcDbDictionary
280
     1
281
     1
  3
ACAD_XREC_ROUNDTRIP
360
54A
  0
DICTIONARY
  5
52F
330
4A1
100
AcDbDictionary
280
     1
281
     1
  3
ACAD_XREC_ROUNDTRIP
360
530
  0
DICTIONARY
  5
545
330
4AC
100
AcDbDictionary
280
     1
281
     1
  3
ACAD_XREC_ROUNDTRIP
360
546
  0
DICTIONARY
  5
543
330
4AB
100
AcDbDictionary
280
     1
281
     1
  3
ACAD_XREC_ROUNDTRIP
360
544
  0
DICTIONARY
  5
53D
330
4A8
100
AcDbDictionary
280
     1
281
     1
  3
ACAD_XREC_ROUNDTRIP
360
53E
  0
DICTIONARY
  5
53F
330
4A9
100
AcDbDictionary
280
     1
281
     1
  3
ACAD_XREC_ROUNDTRIP
360
540
  0
DICTIONARY
  5
535
330
4A4
100
AcDbDictionary
280
     1
281
     1
  3
ACAD_XREC_ROUNDTRIP
360
536
  0
DICTIONARY
  5
529
330
49E
100
AcDbDictionary
280
     1
281
     1
  3
ACAD_XREC_ROUNDTRIP
360
52A
  0
DICTIONARY
  5
541
330
4AA
100
AcDbDictionary
280
     1
281
     1
  3
ACAD_XREC_ROUNDTRIP
360
542
  0
XRECORD
  5
550
102
{ACAD_REACTORS
330
54F
102
}
330
54F
100
AcDbXrecord
280
     1
102
SHADEPLOT
 70
     0
102
SHADEPLOTRESLEVEL
 70
     2
102
SHADEPLOTCUSTOMDPI
 70
   300
  0
XRECORD
  5
552
102
{ACAD_REACTORS
330
551
102
}
330
551
100
AcDbXrecord
280
     1
102
SHADEPLOT
 70
     0
102
SHADEPLOTRESLEVEL
 70
     2
102
SHADEPLOTCUSTOMDPI
 70
   300
  0
XRECORD
  5
51B
102
{ACAD_REACTORS
330
488
102
}
330
488
100
AcDbXrecord
280
     1
102
MATERIAL
148
0.0
149
0.0
149
0.0
 93
        0
 94
      127
282
     0
 72
     0
 77
     0
171
     0
175
     0
179
     0
273
     0
  0
XRECORD
  5
48A
102
{ACAD_REACTORS
330
488
102
}
330
488
100
AcDbXrecord
280
     1
270
     1
271
     1
  0
XRECORD
  5
489
102
{ACAD_REACTORS
330
488
102
}
330
488
100
AcDbXrecord
280
     1
270
     1
271
     1
  0
XRECORD
  5
48D
102
{ACAD_REACTORS
330
488
102
}
330
488
100
AcDbXrecord
280
     1
270
     1
271
     1
  0
XRECORD
  5
48C
102
{ACAD_REACTORS
330
488
102
}
330
488
100
AcDbXrecord
280
     1
270
     1
271
     1
  0
XRECORD
  5
48E
102
{ACAD_REACTORS
330
488
102
}
330
488
100
AcDbXrecord
280
     1
270
     1
271
     1
  0
XRECORD
  5
48B
102
{ACAD_REACTORS
330
488
102
}
330
488
100
AcDbXrecord
280
     1
270
     1
271
     1
  0
XRECORD
  5
51A
102
{ACAD_REACTORS
330
480
102
}
330
480
100
AcDbXrecord
280
     1
102
MATERIAL
148
0.0
149
0.0
149
0.0
 93
        0
 94
      127
282
     0
 72
     0
 77
     0
171
     0
175
     0
179
     0
273
     0
  0
XRECORD
  5
482
102
{ACAD_REACTORS
330
480
102
}
330
480
100
AcDbXrecord
280
     1
270
     1
271
     1
  0
XRECORD
  5
481
102
{ACAD_REACTORS
330
480
102
}
330
480
100
AcDbXrecord
280
     1
270
     1
271
     1
  0
XRECORD
  5
485
102
{ACAD_REACTORS
330
480
102
}
330
480
100
AcDbXrecord
280
     1
270
     1
271
     1
  0
XRECORD
  5
484
102
{ACAD_REACTORS
330
480
102
}
330
480
100
AcDbXrecord
280
     1
270
     1
271
     1
  0
XRECORD
  5
486
102
{ACAD_REACTORS
330
480
102
}
330
480
100
AcDbXrecord
280
     1
270
     1
271
     1
  0
XRECORD
  5
483
102
{ACAD_REACTORS
330
480
102
}
330
480
100
AcDbXrecord
280
     1
270
     1
271
     1
  0
XRECORD
  5
51C
102
{ACAD_REACTORS
330
490
102
}
330
490
100
AcDbXrecord
280
     1
102
MATERIAL
148
0.0
149
0.0
149
0.0
 93
        0
 94
      127
282
     0
 72
     0
 77
     0
171
     0
175
     0
179
     0
273
     0
  0
XRECORD
  5
492
102
{ACAD_REACTORS
330
490
102
}
330
490
100
AcDbXrecord
280
     1
270
     1
271
     1
  0
XRECORD
  5
491
102
{ACAD_REACTORS
330
490
102
}
330
490
100
AcDbXrecord
280
     1
270
     1
271
     1
  0
XRECORD
  5
495
102
{ACAD_REACTORS
330
490
102
}
330
490
100
AcDbXrecord
280
     1
270
     1
271
     1
  0
XRECORD
  5
494
102
{ACAD_REACTORS
330
490
102
}
330
490
100
AcDbXrecord
280
     1
270
     1
271
     1
  0
XRECORD
  5
496
102
{ACAD_REACTORS
330
490
102
}
330
490
100
AcDbXrecord
280
     1
270
     1
271
     1
  0
XRECORD
  5
493
102
{ACAD_REACTORS
330
490
102
}
330
490
100
AcDbXrecord
280
     1
270
     1
271
     1
  0
CELLSTYLEMAP
  5
517
102
{ACAD_REACTORS
330
516
102
}
330
516
100
AcDbCellStyleMap
 90
        3
300
CELLSTYLE
  1
TABLEFORMAT_BEGIN
 90
        5
170
     1
 91
        0
 92
    32768
 62
   257
 93
        1
300
CONTENTFORMAT
  1
CONTENTFORMAT_BEGIN
 90
        0
 91
        0
 92
      512
 93
        0
300

 40
0.0
140
1.0
 94
        5
 62
     0
340
A9
144
6.0
309
CONTENTFORMAT_END
171
     1
301
MARGIN
  1
CELLMARGIN_BEGIN
 40
1.5
 40
1.5
 40
1.5
 40
1.5
 40
4.5
 40
4.5
309
CELLMARGIN_END
 94
        6
 95
        1
302
GRIDFORMAT
  1
GRIDFORMAT_BEGIN
 90
        0
 91
        1
 62
     0
 92
       -2
340
0
 93
        0
 40
1.125
309
GRIDFORMAT_END
 95
        2
302
GRIDFORMAT
  1
GRIDFORMAT_BEGIN
 90
        0
 91
        1
 62
     0
 92
       -2
340
0
 93
        0
 40
1.125
309
GRIDFORMAT_END
 95
        4
302
GRIDFORMAT
  1
GRIDFORMAT_BEGIN
 90
        0
 91
        1
 62
     0
 92
       -2
340
0
 93
        0
 40
1.125
309
GRIDFORMAT_END
 95
        8
302
GRIDFORMAT
  1
GRIDFORMAT_BEGIN
 90
        0
 91
        1
 62
     0
 92
       -2
340
0
 93
        0
 40
1.125
309
GRIDFORMAT_END
 95
       16
302
GRIDFORMAT
  1
GRIDFORMAT_BEGIN
 90
        0
 91
        1
 62
     0
 92
       -2
340
0
 93
        0
 40
1.125
309
GRIDFORMAT_END
 95
       32
302
GRIDFORMAT
  1
GRIDFORMAT_BEGIN
 90
        0
 91
        1
 62
     0
 92
       -2
340
0
 93
        0
 40
1.125
309
GRIDFORMAT_END
309
TABLEFORMAT_END
  1
CELLSTYLE_BEGIN
 90
        1
 91
        1
300
_TITLE
309
CELLSTYLE_END
300
CELLSTYLE
  1
TABLEFORMAT_BEGIN
 90
        5
170
     1
 91
        0
 92
        0
 62
   257
 93
        1
300
CONTENTFORMAT
  1
CONTENTFORMAT_BEGIN
 90
        0
 91
        0
 92
      512
 93
        0
300

 40
0.0
140
1.0
 94
        5
 62
     0
340
A9
144
4.5
309
CONTENTFORMAT_END
171
     1
301
MARGIN
  1
CELLMARGIN_BEGIN
 40
1.5
 40
1.5
 40
1.5
 40
1.5
 40
4.5
 40
4.5
309
CELLMARGIN_END
 94
        6
 95
        1
302
GRIDFORMAT
  1
GRIDFORMAT_BEGIN
 90
        0
 91
        1
 62
     0
 92
       -2
340
0
 93
        0
 40
1.125
309
GRIDFORMAT_END
 95
        2
302
GRIDFORMAT
  1
GRIDFORMAT_BEGIN
 90
        0
 91
        1
 62
     0
 92
       -2
340
0
 93
        0
 40
1.125
309
GRIDFORMAT_END
 95
        4
302
GRIDFORMAT
  1
GRIDFORMAT_BEGIN
 90
        0
 91
        1
 62
     0
 92
       -2
340
0
 93
        0
 40
1.125
309
GRIDFORMAT_END
 95
        8
302
GRIDFORMAT
  1
GRIDFORMAT_BEGIN
 90
        0
 91
        1
 62
     0
 92
       -2
340
0
 93
        0
 40
1.125
309
GRIDFORMAT_END
 95
       16
302
GRIDFORMAT
  1
GRIDFORMAT_BEGIN
 90
        0
 91
        1
 62
     0
 92
       -2
340
0
 93
        0
 40
1.125
309
GRIDFORMAT_END
 95
       32
302
GRIDFORMAT
  1
GRIDFORMAT_BEGIN
 90
        0
 91
        1
 62
     0
 92
       -2
340
0
 93
        0
 40
1.125
309
GRIDFORMAT_END
309
TABLEFORMAT_END
  1
CELLSTYLE_BEGIN
 90
        2
 91
        1
300
_HEADER
309
CELLSTYLE_END
300
CELLSTYLE
  1
TABLEFORMAT_BEGIN
 90
        5
170
     1
 91
        0
 92
        0
 62
   257
 93
        1
300
CONTENTFORMAT
  1
CONTENTFORMAT_BEGIN
 90
        0
 91
        0
 92
      512
 93
        0
300

 40
0.0
140
1.0
 94
        2
 62
     0
340
A9
144
4.5
309
CONTENTFORMAT_END
171
     1
301
MARGIN
  1
CELLMARGIN_BEGIN
 40
1.5
 40
1.5
 40
1.5
 40
1.5
 40
4.5
 40
4.5
309
CELLMARGIN_END
 94
        6
 95
        1
302
GRIDFORMAT
  1
GRIDFORMAT_BEGIN
 90
        0
 91
        1
 62
     0
 92
       -2
340
0
 93
        0
 40
1.125
309
GRIDFORMAT_END
 95
        2
302
GRIDFORMAT
  1
GRIDFORMAT_BEGIN
 90
        0
 91
        1
 62
     0
 92
       -2
340
0
 93
        0
 40
1.125
309
GRIDFORMAT_END
 95
        4
302
GRIDFORMAT
  1
GRIDFORMAT_BEGIN
 90
        0
 91
        1
 62
     0
 92
       -2
340
0
 93
        0
 40
1.125
309
GRIDFORMAT_END
 95
        8
302
GRIDFORMAT
  1
GRIDFORMAT_BEGIN
 90
        0
 91
        1
 62
     0
 92
       -2
340
0
 93
        0
 40
1.125
309
GRIDFORMAT_END
 95
       16
302
GRIDFORMAT
  1
GRIDFORMAT_BEGIN
 90
        0
 91
        1
 62
     0
 92
       -2
340
0
 93
        0
 40
1.125
309
GRIDFORMAT_END
 95
       32
302
GRIDFORMAT
  1
GRIDFORMAT_BEGIN
 90
        0
 91
        1
 62
     0
 92
       -2
340
0
 93
        0
 40
1.125
309
GRIDFORMAT_END
309
TABLEFORMAT_END
  1
CELLSTYLE_BEGIN
 90
        3
 91
        2
300
_DATA
309
CELLSTYLE_END
  0
XRECORD
  5
54D
102
{ACAD_REACTORS
330
516
102
}
330
516
100
AcDbXrecord
280
     1
102
ACAD_ROUNDTRIP_PRE2007_TABLESTYLE
 90
      512
 91
        0
  1

 92
      512
 93
        0
  2

 94
      512
 95
        0
  3

  0
XRECORD
  5
528
102
{ACAD_REACTORS
330
527
102
}
330
527
100
AcDbXrecord
280
     1
102
RTVSPropertyOp0
 70
     1
102
RTVSPropertyOp1
 70
     1
102
RTVSPropertyOp2
 70
     1
102
RTVSPropertyOp3
 70
     1
102
RTVSPropertyOp4
 70
     1
102
RTVSPropertyOp5
 70
     1
102
RTVSPropertyOp6
 70
     1
102
RTVSPropertyOp7
 70
     1
102
RTVSPropertyOp8
 70
     1
102
RTVSPropertyOp9
 70
     1
102
RTVSPropertyOp10
 70
     1
102
RTVSPropertyOp11
 70
     1
102
RTVSPropertyOp12
 70
     1
102
RTVSPropertyOp13
 70
     1
102
RTVSPropertyOp14
 70
     1
102
RTVSPropertyOp15
 70
     1
102
RTVSPropertyOp16
 70
     1
102
RTVSPropertyOp17
 70
     1
102
RTVSPropertyOp18
 70
     1
102
RTVSPropertyOp19
 70
     1
102
RTVSPropertyOp20
 70
     1
102
RTVSPropertyOp21
 70
     1
102
RTVSPropertyOp22
 70
     1
102
RTVSPropertyOp23
 70
     1
102
RTVSPropertyOp24
 70
     1
102
RTVSPropertyOp25
 70
     1
102
RTVSPropertyOp26
 70
     1
102
RTVSPropertyOp27
 70
     1
102
RTVSPropertyOp28
 70
     1
102
RTVSPropertyOp29
 70
     1
102
RTVSPropertyOp30
 70
     1
102
RTVSPropertyOp31
 70
     1
102
RTVSPropertyOp32
 70
     1
  0
XRECORD
  5
526
102
{ACAD_REACTORS
330
525
102
}
330
525
100
AcDbXrecord
280
     1
102
RTVSPropertyOp0
 70
     1
102
RTVSPropertyOp1
 70
     1
102
RTVSPropertyOp2
 70
     1
102
RTVSPropertyOp3
 70
     1
102
RTVSPropertyOp4
 70
     1
102
RTVSPropertyOp5
 70
     1
102
RTVSPropertyOp6
 70
     1
102
RTVSPropertyOp7
 70
     1
102
RTVSPropertyOp8
 70
     1
102
RTVSPropertyOp9
 70
     1
102
RTVSPropertyOp10
 70
     1
102
RTVSPropertyOp11
 70
     1
102
RTVSPropertyOp12
 70
     1
102
RTVSPropertyOp13
 70
     1
102
RTVSPropertyOp14
 70
     1
102
RTVSPropertyOp15
 70
     1
102
RTVSPropertyOp16
 70
     1
102
RTVSPropertyOp17
 70
     1
102
RTVSPropertyOp18
 70
     1
102
RTVSPropertyOp19
 70
     1
102
RTVSPropertyOp20
 70
     1
102
RTVSPropertyOp21
 70
     1
102
RTVSPropertyOp22
 70
     1
102
RTVSPropertyOp23
 70
     1
102
RTVSPropertyOp24
 70
     1
102
RTVSPropertyOp25
 70
     1
102
RTVSPropertyOp26
 70
     1
102
RTVSPropertyOp27
 70
     1
102
RTVSPropertyOp28
 70
     1
102
RTVSPropertyOp29
 70
     1
102
RTVSPropertyOp30
 70
     1
102
RTVSPropertyOp31
 70
     1
102
RTVSPropertyOp32
 70
     1
  0
XRECORD
  5
534
102
{ACAD_REACTORS
330
533
102
}
330
533
100
AcDbXrecord
280
     1
102
RTVSPropertyOp0
 70
     1
102
RTVSPropertyOp1
 70
     1
102
RTVSPropertyOp2
 70
     1
102
RTVSPropertyOp3
 70
     1
102
RTVSPropertyOp4
 70
     1
102
RTVSPropertyOp5
 70
     1
102
RTVSPropertyOp6
 70
     1
102
RTVSPropertyOp7
 70
     1
102
RTVSPropertyOp8
 70
     1
102
RTVSPropertyOp9
 70
     1
102
RTVSPropertyOp10
 70
     1
102
RTVSPropertyOp11
 70
     1
102
RTVSPropertyOp12
 70
     1
102
RTVSPropertyOp13
 70
     1
102
RTVSPropertyOp14
 70
     1
102
RTVSPropertyOp15
 70
     1
102
RTVSPropertyOp16
 70
     1
102
RTVSPropertyOp17
 70
     1
102
RTVSPropertyOp18
 70
     1
102
RTVSPropertyOp19
 70
     1
102
RTVSPropertyOp20
 70
     1
102
RTVSPropertyOp21
 70
     1
102
RTVSPropertyOp22
 70
     1
102
RTVSPropertyOp23
 70
     1
102
RTVSPropertyOp24
 70
     1
102
RTVSPropertyOp25
 70
     1
102
RTVSPropertyOp26
 70
     1
102
RTVSPropertyOp27
 70
     1
102
RTVSPropertyOp28
 70
     1
102
RTVSPropertyOp29
 70
     1
102
RTVSPropertyOp30
 70
     1
102
RTVSPropertyOp31
 70
     1
102
RTVSPropertyOp32
 70
     1
  0
XRECORD
  5
53C
102
{ACAD_REACTORS
330
53B
102
}
330
53B
100
AcDbXrecord
280
     1
102
RTVSPropertyOp0
 70
     1
102
RTVSPropertyOp1
 70
     1
102
RTVSPropertyOp2
 70
     1
102
RTVSPropertyOp3
 70
     1
102
RTVSPropertyOp4
 70
     1
102
RTVSPropertyOp5
 70
     1
102
RTVSPropertyOp6
 70
     1
102
RTVSPropertyOp7
 70
     1
102
RTVSPropertyOp8
 70
     1
102
RTVSPropertyOp9
 70
     1
102
RTVSPropertyOp10
 70
     1
102
RTVSPropertyOp11
 70
     1
102
RTVSPropertyOp12
 70
     1
102
RTVSPropertyOp13
 70
     1
102
RTVSPropertyOp14
 70
     1
102
RTVSPropertyOp15
 70
     1
102
RTVSPropertyOp16
 70
     1
102
RTVSPropertyOp17
 70
     1
102
RTVSPropertyOp18
 70
     1
102
RTVSPropertyOp19
 70
     1
102
RTVSPropertyOp20
 70
     1
102
RTVSPropertyOp21
 70
     1
102
RTVSPropertyOp22
 70
     1
102
RTVSPropertyOp23
 70
     1
102
RTVSPropertyOp24
 70
     1
102
RTVSPropertyOp25
 70
     1
102
RTVSPropertyOp26
 70
     1
102
RTVSPropertyOp27
 70
     1
102
RTVSPropertyOp28
 70
     1
102
RTVSPropertyOp29
 70
     1
102
RTVSPropertyOp30
 70
     1
102
RTVSPropertyOp31
 70
     1
102
RTVSPropertyOp32
 70
     1
  0
XRECORD
  5
52E
102
{ACAD_REACTORS
330
52D
102
}
330
52D
100
AcDbXrecord
280
     1
102
RTVSPropertyOp0
 70
     1
102
RTVSPropertyOp1
 70
     1
102
RTVSPropertyOp2
 70
     1
102
RTVSPropertyOp3
 70
     1
102
RTVSPropertyOp4
 70
     1
102
RTVSPropertyOp5
 70
     1
102
RTVSPropertyOp6
 70
     1
102
RTVSPropertyOp7
 70
     1
102
RTVSPropertyOp8
 70
     1
102
RTVSPropertyOp9
 70
     1
102
RTVSPropertyOp10
 70
     1
102
RTVSPropertyOp11
 70
     1
102
RTVSPropertyOp12
 70
     1
102
RTVSPropertyOp13
 70
     1
102
RTVSPropertyOp14
 70
     1
102
RTVSPropertyOp15
 70
     1
102
RTVSPropertyOp16
 70
     1
102
RTVSPropertyOp17
 70
     1
102
RTVSPropertyOp18
 70
     1
102
RTVSPropertyOp19
 70
     1
102
RTVSPropertyOp20
 70
     1
102
RTVSPropertyOp21
 70
     1
102
RTVSPropertyOp22
 70
     1
102
RTVSPropertyOp23
 70
     1
102
RTVSPropertyOp24
 70
     1
102
RTVSPropertyOp25
 70
     1
102
RTVSPropertyOp26
 70
     1
102
RTVSPropertyOp27
 70
     1
102
RTVSPropertyOp28
 70
     1
102
RTVSPropertyOp29
 70
     1
102
RTVSPropertyOp30
 70
     1
102
RTVSPropertyOp31
 70
     1
102
RTVSPropertyOp32
 70
     1
  0
XRECORD
  5
532
102
{ACAD_REACTORS
330
531
102
}
330
531
100
AcDbXrecord
280
     1
102
RTVSPropertyOp0
 70
     1
102
RTVSPropertyOp1
 70
     1
102
RTVSPropertyOp2
 70
     1
102
RTVSPropertyOp3
 70
     1
102
RTVSPropertyOp4
 70
     1
102
RTVSPropertyOp5
 70
     1
102
RTVSPropertyOp6
 70
     1
102
RTVSPropertyOp7
 70
     1
102
RTVSPropertyOp8
 70
     1
102
RTVSPropertyOp9
 70
     1
102
RTVSPropertyOp10
 70
     1
102
RTVSPropertyOp11
 70
     1
102
RTVSPropertyOp12
 70
     1
102
RTVSPropertyOp13
 70
     1
102
RTVSPropertyOp14
 70
     1
102
RTVSPropertyOp15
 70
     1
102
RTVSPropertyOp16
 70
     1
102
RTVSPropertyOp17
 70
     1
102
RTVSPropertyOp18
 70
     1
102
RTVSPropertyOp19
 70
     1
102
RTVSPropertyOp20
 70
     1
102
RTVSPropertyOp21
 70
     1
102
RTVSPropertyOp22
 70
     1
102
RTVSPropertyOp23
 70
     1
102
RTVSPropertyOp24
 70
     1
102
RTVSPropertyOp25
 70
     1
102
RTVSPropertyOp26
 70
     1
102
RTVSPropertyOp27
 70
     1
102
RTVSPropertyOp28
 70
     1
102
RTVSPropertyOp29
 70
     1
102
RTVSPropertyOp30
 70
     1
102
RTVSPropertyOp31
 70
     1
102
RTVSPropertyOp32
 70
     1
  0
XRECORD
  5
54C
102
{ACAD_REACTORS
330
54B
102
}
330
54B
100
AcDbXrecord
280
     1
102
RTVSPropertyOp0
 70
     0
102
RTVSPropertyOp1
 70
     0
102
RTVSPropertyOp2
 70
     0
102
RTVSPropertyOp3
 70
     0
102
RTVSPropertyOp4
 70
     0
102
RTVSPropertyOp5
 70
     0
102
RTVSPropertyOp6
 70
     0
102
RTVSPropertyOp7
 70
     0
102
RTVSPropertyOp8
 70
     0
102
RTVSPropertyOp9
 70
     0
102
RTVSPropertyOp10
 70
     0
102
RTVSPropertyOp11
 70
     0
102
RTVSPropertyOp12
 70
     0
102
RTVSPropertyOp13
 70
     0
102
RTVSPropertyOp14
 70
     2
102
RTVSPropertyOp15
 70
     0
102
RTVSPropertyOp16
 70
     0
102
RTVSPropertyOp17
 70
     0
102
RTVSPropertyOp18
 70
     0
102
RTVSPropertyOp19
 70
     0
102
RTVSPropertyOp20
 70
     0
102
RTVSPropertyOp21
 70
     0
102
RTVSPropertyOp22
 70
     0
102
RTVSPropertyOp23
 70
     0
102
RTVSPropertyOp24
 70
     0
102
RTVSPropertyOp25
 70
     0
102
RTVSPropertyOp26
 70
     0
102
RTVSPropertyOp27
 70
     0
102
RTVSPropertyOp28
 70
     0
102
RTVSPropertyOp29
 70
     0
102
RTVSPropertyOp30
 70
     0
102
RTVSPropertyOp31
 70
     0
102
RTVSPropertyOp32
 70
     0
  0
XRECORD
  5
53A
102
{ACAD_REACTORS
330
539
102
}
330
539
100
AcDbXrecord
280
     1
102
RTVSPropertyOp0
 70
     1
102
RTVSPropertyOp1
 70
     1
102
RTVSPropertyOp2
 70
     1
102
RTVSPropertyOp3
 70
     1
102
RTVSPropertyOp4
 70
     1
102
RTVSPropertyOp5
 70
     1
102
RTVSPropertyOp6
 70
     1
102
RTVSPropertyOp7
 70
     1
102
RTVSPropertyOp8
 70
     1
102
RTVSPropertyOp9
 70
     1
102
RTVSPropertyOp10
 70
     1
102
RTVSPropertyOp11
 70
     1
102
RTVSPropertyOp12
 70
     1
102
RTVSPropertyOp13
 70
     1
102
RTVSPropertyOp14
 70
     1
102
RTVSPropertyOp15
 70
     1
102
RTVSPropertyOp16
 70
     1
102
RTVSPropertyOp17
 70
     1
102
RTVSPropertyOp18
 70
     1
102
RTVSPropertyOp19
 70
     1
102
RTVSPropertyOp20
 70
     1
102
RTVSPropertyOp21
 70
     1
102
RTVSPropertyOp22
 70
     1
102
RTVSPropertyOp23
 70
     1
102
RTVSPropertyOp24
 70
     1
102
RTVSPropertyOp25
 70
     1
102
RTVSPropertyOp26
 70
     1
102
RTVSPropertyOp27
 70
     1
102
RTVSPropertyOp28
 70
     1
102
RTVSPropertyOp29
 70
     1
102
RTVSPropertyOp30
 70
     1
102
RTVSPropertyOp31
 70
     1
102
RTVSPropertyOp32
 70
     1
  0
XRECORD
  5
51E
102
{ACAD_REACTORS
330
51D
102
}
330
51D
100
AcDbXrecord
280
     1
102
RTVSPropertyOp0
 70
     1
102
RTVSPropertyOp1
 70
     1
102
RTVSPropertyOp2
 70
     1
102
RTVSPropertyOp3
 70
     1
102
RTVSPropertyOp4
 70
     1
102
RTVSPropertyOp5
 70
     1
102
RTVSPropertyOp6
 70
     1
102
RTVSPropertyOp7
 70
     1
102
RTVSPropertyOp8
 70
     1
102
RTVSPropertyOp9
 70
     1
102
RTVSPropertyOp10
 70
     1
102
RTVSPropertyOp11
 70
     1
102
RTVSPropertyOp12
 70
     1
102
RTVSPropertyOp13
 70
     1
102
RTVSPropertyOp14
 70
     1
102
RTVSPropertyOp15
 70
     1
102
RTVSPropertyOp16
 70
     1
102
RTVSPropertyOp17
 70
     1
102
RTVSPropertyOp18
 70
     1
102
RTVSPropertyOp19
 70
     1
102
RTVSPropertyOp20
 70
     1
102
RTVSPropertyOp21
 70
     1
102
RTVSPropertyOp22
 70
     1
102
RTVSPropertyOp23
 70
     1
102
RTVSPropertyOp24
 70
     1
102
RTVSPropertyOp25
 70
     1
102
RTVSPropertyOp26
 70
     1
102
RTVSPropertyOp27
 70
     1
102
RTVSPropertyOp28
 70
     1
102
RTVSPropertyOp29
 70
     1
102
RTVSPropertyOp30
 70
     1
102
RTVSPropertyOp31
 70
     1
102
RTVSPropertyOp32
 70
     1
  0
XRECORD
  5
520
102
{ACAD_REACTORS
330
51F
102
}
330
51F
100
AcDbXrecord
280
     1
102
RTVSPropertyOp0
 70
     1
102
RTVSPropertyOp1
 70
     1
102
RTVSPropertyOp2
 70
     1
102
RTVSPropertyOp3
 70
     1
102
RTVSPropertyOp4
 70
     1
102
RTVSPropertyOp5
 70
     1
102
RTVSPropertyOp6
 70
     1
102
RTVSPropertyOp7
 70
     1
102
RTVSPropertyOp8
 70
     1
102
RTVSPropertyOp9
 70
     1
102
RTVSPropertyOp10
 70
     1
102
RTVSPropertyOp11
 70
     1
102
RTVSPropertyOp12
 70
     1
102
RTVSPropertyOp13
 70
     1
102
RTVSPropertyOp14
 70
     1
102
RTVSPropertyOp15
 70
     1
102
RTVSPropertyOp16
 70
     1
102
RTVSPropertyOp17
 70
     1
102
RTVSPropertyOp18
 70
     1
102
RTVSPropertyOp19
 70
     1
102
RTVSPropertyOp20
 70
     1
102
RTVSPropertyOp21
 70
     1
102
RTVSPropertyOp22
 70
     1
102
RTVSPropertyOp23
 70
     1
102
RTVSPropertyOp24
 70
     1
102
RTVSPropertyOp25
 70
     1
102
RTVSPropertyOp26
 70
     1
102
RTVSPropertyOp27
 70
     1
102
RTVSPropertyOp28
 70
     1
102
RTVSPropertyOp29
 70
     1
102
RTVSPropertyOp30
 70
     1
102
RTVSPropertyOp31
 70
     1
102
RTVSPropertyOp32
 70
     1
  0
XRECORD
  5
522
102
{ACAD_REACTORS
330
521
102
}
330
521
100
AcDbXrecord
280
     1
102
RTVSPropertyOp0
 70
     1
102
RTVSPropertyOp1
 70
     1
102
RTVSPropertyOp2
 70
     1
102
RTVSPropertyOp3
 70
     1
102
RTVSPropertyOp4
 70
     1
102
RTVSPropertyOp5
 70
     1
102
RTVSPropertyOp6
 70
     1
102
RTVSPropertyOp7
 70
     1
102
RTVSPropertyOp8
 70
     1
102
RTVSPropertyOp9
 70
     1
102
RTVSPropertyOp10
 70
     1
102
RTVSPropertyOp11
 70
     1
102
RTVSPropertyOp12
 70
     1
102
RTVSPropertyOp13
 70
     1
102
RTVSPropertyOp14
 70
     1
102
RTVSPropertyOp15
 70
     1
102
RTVSPropertyOp16
 70
     1
102
RTVSPropertyOp17
 70
     1
102
RTVSPropertyOp18
 70
     1
102
RTVSPropertyOp19
 70
     1
102
RTVSPropertyOp20
 70
     1
102
RTVSPropertyOp21
 70
     1
102
RTVSPropertyOp22
 70
     1
102
RTVSPropertyOp23
 70
     1
102
RTVSPropertyOp24
 70
     1
102
RTVSPropertyOp25
 70
     1
102
RTVSPropertyOp26
 70
     1
102
RTVSPropertyOp27
 70
     1
102
RTVSPropertyOp28
 70
     1
102
RTVSPropertyOp29
 70
     1
102
RTVSPropertyOp30
 70
     1
102
RTVSPropertyOp31
 70
     1
102
RTVSPropertyOp32
 70
     1
  0
XRECORD
  5
524
102
{ACAD_REACTORS
330
523
102
}
330
523
100
AcDbXrecord
280
     1
102
RTVSPropertyOp0
 70
     1
102
RTVSPropertyOp1
 70
     1
102
RTVSPropertyOp2
 70
     1
102
RTVSPropertyOp3
 70
     1
102
RTVSPropertyOp4
 70
     1
102
RTVSPropertyOp5
 70
     1
102
RTVSPropertyOp6
 70
     1
102
RTVSPropertyOp7
 70
     1
102
RTVSPropertyOp8
 70
     1
102
RTVSPropertyOp9
 70
     1
102
RTVSPropertyOp10
 70
     1
102
RTVSPropertyOp11
 70
     1
102
RTVSPropertyOp12
 70
     1
102
RTVSPropertyOp13
 70
     1
102
RTVSPropertyOp14
 70
     1
102
RTVSPropertyOp15
 70
     1
102
RTVSPropertyOp16
 70
     1
102
RTVSPropertyOp17
 70
     1
102
RTVSPropertyOp18
 70
     1
102
RTVSPropertyOp19
 70
     1
102
RTVSPropertyOp20
 70
     1
102
RTVSPropertyOp21
 70
     1
102
RTVSPropertyOp22
 70
     1
102
RTVSPropertyOp23
 70
     1
102
RTVSPropertyOp24
 70
     1
102
RTVSPropertyOp25
 70
     1
102
RTVSPropertyOp26
 70
     1
102
RTVSPropertyOp27
 70
     1
102
RTVSPropertyOp28
 70
     1
102
RTVSPropertyOp29
 70
     1
102
RTVSPropertyOp30
 70
     1
102
RTVSPropertyOp31
 70
     1
102
RTVSPropertyOp32
 70
     1
  0
XRECORD
  5
52C
102
{ACAD_REACTORS
330
52B
102
}
330
52B
100
AcDbXrecord
280
     1
102
RTVSPropertyOp0
 70
     1
102
RTVSPropertyOp1
 70
     1
102
RTVSPropertyOp2
 70
     1
102
RTVSPropertyOp3
 70
     1
102
RTVSPropertyOp4
 70
     1
102
RTVSPropertyOp5
 70
     1
102
RTVSPropertyOp6
 70
     1
102
RTVSPropertyOp7
 70
     1
102
RTVSPropertyOp8
 70
     1
102
RTVSPropertyOp9
 70
     1
102
RTVSPropertyOp10
 70
     1
102
RTVSPropertyOp11
 70
     1
102
RTVSPropertyOp12
 70
     1
102
RTVSPropertyOp13
 70
     1
102
RTVSPropertyOp14
 70
     1
102
RTVSPropertyOp15
 70
     1
102
RTVSPropertyOp16
 70
     1
102
RTVSPropertyOp17
 70
     1
102
RTVSPropertyOp18
 70
     1
102
RTVSPropertyOp19
 70
     1
102
RTVSPropertyOp20
 70
     1
102
RTVSPropertyOp21
 70
     1
102
RTVSPropertyOp22
 70
     1
102
RTVSPropertyOp23
 70
     1
102
RTVSPropertyOp24
 70
     1
102
RTVSPropertyOp25
 70
     1
102
RTVSPropertyOp26
 70
     1
102
RTVSPropertyOp27
 70
     1
102
RTVSPropertyOp28
 70
     1
102
RTVSPropertyOp29
 70
     1
102
RTVSPropertyOp30
 70
     1
102
RTVSPropertyOp31
 70
     1
102
RTVSPropertyOp32
 70
     1
  0
XRECORD
  5
548
102
{ACAD_REACTORS
330
547
102
}
330
547
100
AcDbXrecord
280
     1
102
RTVSPropertyOp0
 70
     0
102
RTVSPropertyOp1
 70
     0
102
RTVSPropertyOp2
 70
     0
102
RTVSPropertyOp3
 70
     0
102
RTVSPropertyOp4
 70
     0
102
RTVSPropertyOp5
 70
     0
102
RTVSPropertyOp6
 70
     0
102
RTVSPropertyOp7
 70
     0
102
RTVSPropertyOp8
 70
     0
102
RTVSPropertyOp9
 70
     0
102
RTVSPropertyOp10
 70
     0
102
RTVSPropertyOp11
 70
     0
102
RTVSPropertyOp12
 70
     0
102
RTVSPropertyOp13
 70
     0
102
RTVSPropertyOp14
 70
     2
102
RTVSPropertyOp15
 70
     0
102
RTVSPropertyOp16
 70
     0
102
RTVSPropertyOp17
 70
     0
102
RTVSPropertyOp18
 70
     0
102
RTVSPropertyOp19
 70
     0
102
RTVSPropertyOp20
 70
     0
102
RTVSPropertyOp21
 70
     0
102
RTVSPropertyOp22
 70
     0
102
RTVSPropertyOp23
 70
     0
102
RTVSPropertyOp24
 70
     0
102
RTVSPropertyOp25
 70
     0
102
RTVSPropertyOp26
 70
     0
102
RTVSPropertyOp27
 70
     0
102
RTVSPropertyOp28
 70
     0
102
RTVSPropertyOp29
 70
     0
102
RTVSPropertyOp30
 70
     0
102
RTVSPropertyOp31
 70
     0
102
RTVSPropertyOp32
 70
     0
  0
XRECORD
  5
538
102
{ACAD_REACTORS
330
537
102
}
330
537
100
AcDbXrecord
280
     1
102
RTVSPropertyOp0
 70
     1
102
RTVSPropertyOp1
 70
     1
102
RTVSPropertyOp2
 70
     1
102
RTVSPropertyOp3
 70
     1
102
RTVSPropertyOp4
 70
     1
102
RTVSPropertyOp5
 70
     1
102
RTVSPropertyOp6
 70
     1
102
RTVSPropertyOp7
 70
     1
102
RTVSPropertyOp8
 70
     1
102
RTVSPropertyOp9
 70
     1
102
RTVSPropertyOp10
 70
     1
102
RTVSPropertyOp11
 70
     1
102
RTVSPropertyOp12
 70
     1
102
RTVSPropertyOp13
 70
     1
102
RTVSPropertyOp14
 70
     1
102
RTVSPropertyOp15
 70
     1
102
RTVSPropertyOp16
 70
     1
102
RTVSPropertyOp17
 70
     1
102
RTVSPropertyOp18
 70
     1
102
RTVSPropertyOp19
 70
     1
102
RTVSPropertyOp20
 70
     1
102
RTVSPropertyOp21
 70
     1
102
RTVSPropertyOp22
 70
     1
102
RTVSPropertyOp23
 70
     1
102
RTVSPropertyOp24
 70
     1
102
RTVSPropertyOp25
 70
     1
102
RTVSPropertyOp26
 70
     1
102
RTVSPropertyOp27
 70
     1
102
RTVSPropertyOp28
 70
     1
102
RTVSPropertyOp29
 70
     1
102
RTVSPropertyOp30
 70
     1
102
RTVSPropertyOp31
 70
     1
102
RTVSPropertyOp32
 70
     1
  0
XRECORD
  5
54A
102
{ACAD_REACTORS
330
549
102
}
330
549
100
AcDbXrecord
280
     1
102
RTVSPropertyOp0
 70
     0
102
RTVSPropertyOp1
 70
     0
102
RTVSPropertyOp2
 70
     0
102
RTVSPropertyOp3
 70
     0
102
RTVSPropertyOp4
 70
     0
102
RTVSPropertyOp5
 70
     0
102
RTVSPropertyOp6
 70
     0
102
RTVSPropertyOp7
 70
     0
102
RTVSPropertyOp8
 70
     0
102
RTVSPropertyOp9
 70
     0
102
RTVSPropertyOp10
 70
     0
102
RTVSPropertyOp11
 70
     0
102
RTVSPropertyOp12
 70
     0
102
RTVSPropertyOp13
 70
     0
102
RTVSPropertyOp14
 70
     2
102
RTVSPropertyOp15
 70
     0
102
RTVSPropertyOp16
 70
     0
102
RTVSPropertyOp17
 70
     0
102
RTVSPropertyOp18
 70
     0
102
RTVSPropertyOp19
 70
     0
102
RTVSPropertyOp20
 70
     0
102
RTVSPropertyOp21
 70
     0
102
RTVSPropertyOp22
 70
     0
102
RTVSPropertyOp23
 70
     0
102
RTVSPropertyOp24
 70
     0
102
RTVSPropertyOp25
 70
     0
102
RTVSPropertyOp26
 70
     0
102
RTVSPropertyOp27
 70
     0
102
RTVSPropertyOp28
 70
     0
102
RTVSPropertyOp29
 70
     0
102
RTVSPropertyOp30
 70
     0
102
RTVSPropertyOp31
 70
     0
102
RTVSPropertyOp32
 70
     0
  0
XRECORD
  5
530
102
{ACAD_REACTORS
330
52F
102
}
330
52F
100
AcDbXrecord
280
     1
102
RTVSPropertyOp0
 70
     1
102
RTVSPropertyOp1
 70
     1
102
RTVSPropertyOp2
 70
     1
102
RTVSPropertyOp3
 70
     1
102
RTVSPropertyOp4
 70
     1
102
RTVSPropertyOp5
 70
     1
102
RTVSPropertyOp6
 70
     1
102
RTVSPropertyOp7
 70
     1
102
RTVSPropertyOp8
 70
     1
102
RTVSPropertyOp9
 70
     1
102
RTVSPropertyOp10
 70
     1
102
RTVSPropertyOp11
 70
     1
102
RTVSPropertyOp12
 70
     1
102
RTVSPropertyOp13
 70
     1
102
RTVSPropertyOp14
 70
     1
102
RTVSPropertyOp15
 70
     1
102
RTVSPropertyOp16
 70
     1
102
RTVSPropertyOp17
 70
     1
102
RTVSPropertyOp18
 70
     1
102
RTVSPropertyOp19
 70
     1
102
RTVSPropertyOp20
 70
     1
102
RTVSPropertyOp21
 70
     1
102
RTVSPropertyOp22
 70
     1
102
RTVSPropertyOp23
 70
     1
102
RTVSPropertyOp24
 70
     1
102
RTVSPropertyOp25
 70
     1
102
RTVSPropertyOp26
 70
     1
102
RTVSPropertyOp27
 70
     1
102
RTVSPropertyOp28
 70
     1
102
RTVSPropertyOp29
 70
     1
102
RTVSPropertyOp30
 70
     1
102
RTVSPropertyOp31
 70
     1
102
RTVSPropertyOp32
 70
     1
  0
XRECORD
  5
546
102
{ACAD_REACTORS
330
545
102
}
330
545
100
AcDbXrecord
280
     1
102
RTVSPropertyOp0
 70
     1
102
RTVSPropertyOp1
 70
     1
102
RTVSPropertyOp2
 70
     1
102
RTVSPropertyOp3
 70
     1
102
RTVSPropertyOp4
 70
     1
102
RTVSPropertyOp5
 70
     1
102
RTVSPropertyOp6
 70
     1
102
RTVSPropertyOp7
 70
     1
102
RTVSPropertyOp8
 70
     1
102
RTVSPropertyOp9
 70
     1
102
RTVSPropertyOp10
 70
     1
102
RTVSPropertyOp11
 70
     1
102
RTVSPropertyOp12
 70
     1
102
RTVSPropertyOp13
 70
     1
102
RTVSPropertyOp14
 70
     1
102
RTVSPropertyOp15
 70
     1
102
RTVSPropertyOp16
 70
     1
102
RTVSPropertyOp17
 70
     1
102
RTVSPropertyOp18
 70
     1
102
RTVSPropertyOp19
 70
     1
102
RTVSPropertyOp20
 70
     1
102
RTVSPropertyOp21
 70
     1
102
RTVSPropertyOp22
 70
     1
102
RTVSPropertyOp23
 70
     1
102
RTVSPropertyOp24
 70
     1
102
RTVSPropertyOp25
 70
     1
102
RTVSPropertyOp26
 70
     1
102
RTVSPropertyOp27
 70
     1
102
RTVSPropertyOp28
 70
     1
102
RTVSPropertyOp29
 70
     1
102
RTVSPropertyOp30
 70
     1
102
RTVSPropertyOp31
 70
     1
102
RTVSPropertyOp32
 70
     1
  0
XRECORD
  5
544
102
{ACAD_REACTORS
330
543
102
}
330
543
100
AcDbXrecord
280
     1
102
RTVSPropertyOp0
 70
     1
102
RTVSPropertyOp1
 70
     1
102
RTVSPropertyOp2
 70
     1
102
RTVSPropertyOp3
 70
     1
102
RTVSPropertyOp4
 70
     1
102
RTVSPropertyOp5
 70
     1
102
RTVSPropertyOp6
 70
     1
102
RTVSPropertyOp7
 70
     1
102
RTVSPropertyOp8
 70
     1
102
RTVSPropertyOp9
 70
     1
102
RTVSPropertyOp10
 70
     1
102
RTVSPropertyOp11
 70
     1
102
RTVSPropertyOp12
 70
     1
102
RTVSPropertyOp13
 70
     1
102
RTVSPropertyOp14
 70
     1
102
RTVSPropertyOp15
 70
     1
102
RTVSPropertyOp16
 70
     1
102
RTVSPropertyOp17
 70
     1
102
RTVSPropertyOp18
 70
     1
102
RTVSPropertyOp19
 70
     1
102
RTVSPropertyOp20
 70
     1
102
RTVSPropertyOp21
 70
     1
102
RTVSPropertyOp22
 70
     1
102
RTVSPropertyOp23
 70
     1
102
RTVSPropertyOp24
 70
     1
102
RTVSPropertyOp25
 70
     1
102
RTVSPropertyOp26
 70
     1
102
RTVSPropertyOp27
 70
     1
102
RTVSPropertyOp28
 70
     1
102
RTVSPropertyOp29
 70
     1
102
RTVSPropertyOp30
 70
     1
102
RTVSPropertyOp31
 70
     1
102
RTVSPropertyOp32
 70
     1
  0
XRECORD
  5
53E
102
{ACAD_REACTORS
330
53D
102
}
330
53D
100
AcDbXrecord
280
     1
102
RTVSPropertyOp0
 70
     1
102
RTVSPropertyOp1
 70
     1
102
RTVSPropertyOp2
 70
     1
102
RTVSPropertyOp3
 70
     1
102
RTVSPropertyOp4
 70
     1
102
RTVSPropertyOp5
 70
     1
102
RTVSPropertyOp6
 70
     1
102
RTVSPropertyOp7
 70
     1
102
RTVSPropertyOp8
 70
     1
102
RTVSPropertyOp9
 70
     1
102
RTVSPropertyOp10
 70
     1
102
RTVSPropertyOp11
 70
     1
102
RTVSPropertyOp12
 70
     1
102
RTVSPropertyOp13
 70
     1
102
RTVSPropertyOp14
 70
     1
102
RTVSPropertyOp15
 70
     1
102
RTVSPropertyOp16
 70
     1
102
RTVSPropertyOp17
 70
     1
102
RTVSPropertyOp18
 70
     1
102
RTVSPropertyOp19
 70
     1
102
RTVSPropertyOp20
 70
     1
102
RTVSPropertyOp21
 70
     1
102
RTVSPropertyOp22
 70
     1
102
RTVSPropertyOp23
 70
     1
102
RTVSPropertyOp24
 70
     1
102
RTVSPropertyOp25
 70
     1
102
RTVSPropertyOp26
 70
     1
102
RTVSPropertyOp27
 70
     1
102
RTVSPropertyOp28
 70
     1
102
RTVSPropertyOp29
 70
     1
102
RTVSPropertyOp30
 70
     1
102
RTVSPropertyOp31
 70
     1
102
RTVSPropertyOp32
 70
     1
  0
XRECORD
  5
540
102
{ACAD_REACTORS
330
53F
102
}
330
53F
100
AcDbXrecord
280
     1
102
RTVSPropertyOp0
 70
     1
102
RTVSPropertyOp1
 70
     1
102
RTVSPropertyOp2
 70
     1
102
RTVSPropertyOp3
 70
     1
102
RTVSPropertyOp4
 70
     1
102
RTVSPropertyOp5
 70
     1
102
RTVSPropertyOp6
 70
     1
102
RTVSPropertyOp7
 70
     1
102
RTVSPropertyOp8
 70
     1
102
RTVSPropertyOp9
 70
     1
102
RTVSPropertyOp10
 70
     1
102
RTVSPropertyOp11
 70
     1
102
RTVSPropertyOp12
 70
     1
102
RTVSPropertyOp13
 70
     1
102
RTVSPropertyOp14
 70
     1
102
RTVSPropertyOp15
 70
     1
102
RTVSPropertyOp16
 70
     1
102
RTVSPropertyOp17
 70
     1
102
RTVSPropertyOp18
 70
     1
102
RTVSPropertyOp19
 70
     1
102
RTVSPropertyOp20
 70
     1
102
RTVSPropertyOp21
 70
     1
102
RTVSPropertyOp22
 70
     1
102
RTVSPropertyOp23
 70
     1
102
RTVSPropertyOp24
 70
     1
102
RTVSPropertyOp25
 70
     1
102
RTVSPropertyOp26
 70
     1
102
RTVSPropertyOp27
 70
     1
102
RTVSPropertyOp28
 70
     1
102
RTVSPropertyOp29
 70
     1
102
RTVSPropertyOp30
 70
     1
102
RTVSPropertyOp31
 70
     1
102
RTVSPropertyOp32
 70
     1
  0
XRECORD
  5
536
102
{ACAD_REACTORS
330
535
102
}
330
535
100
AcDbXrecord
280
     1
102
RTVSPropertyOp0
 70
     1
102
RTVSPropertyOp1
 70
     1
102
RTVSPropertyOp2
 70
     1
102
RTVSPropertyOp3
 70
     1
102
RTVSPropertyOp4
 70
     1
102
RTVSPropertyOp5
 70
     1
102
RTVSPropertyOp6
 70
     1
102
RTVSPropertyOp7
 70
     1
102
RTVSPropertyOp8
 70
     1
102
RTVSPropertyOp9
 70
     1
102
RTVSPropertyOp10
 70
     1
102
RTVSPropertyOp11
 70
     1
102
RTVSPropertyOp12
 70
     1
102
RTVSPropertyOp13
 70
     1
102
RTVSPropertyOp14
 70
     1
102
RTVSPropertyOp15
 70
     1
102
RTVSPropertyOp16
 70
     1
102
RTVSPropertyOp17
 70
     1
102
RTVSPropertyOp18
 70
     1
102
RTVSPropertyOp19
 70
     1
102
RTVSPropertyOp20
 70
     1
102
RTVSPropertyOp21
 70
     1
102
RTVSPropertyOp22
 70
     1
102
RTVSPropertyOp23
 70
     1
102
RTVSPropertyOp24
 70
     1
102
RTVSPropertyOp25
 70
     1
102
RTVSPropertyOp26
 70
     1
102
RTVSPropertyOp27
 70
     1
102
RTVSPropertyOp28
 70
     1
102
RTVSPropertyOp29
 70
     1
102
RTVSPropertyOp30
 70
     1
102
RTVSPropertyOp31
 70
     1
102
RTVSPropertyOp32
 70
     1
  0
XRECORD
  5
52A
102
{ACAD_REACTORS
330
529
102
}
330
529
100
AcDbXrecord
280
     1
102
RTVSPropertyOp0
 70
     1
102
RTVSPropertyOp1
 70
     1
102
RTVSPropertyOp2
 70
     1
102
RTVSPropertyOp3
 70
     1
102
RTVSPropertyOp4
 70
     1
102
RTVSPropertyOp5
 70
     1
102
RTVSPropertyOp6
 70
     1
102
RTVSPropertyOp7
 70
     1
102
RTVSPropertyOp8
 70
     1
102
RTVSPropertyOp9
 70
     1
102
RTVSPropertyOp10
 70
     1
102
RTVSPropertyOp11
 70
     1
102
RTVSPropertyOp12
 70
     1
102
RTVSPropertyOp13
 70
     1
102
RTVSPropertyOp14
 70
     1
102
RTVSPropertyOp15
 70
     1
102
RTVSPropertyOp16
 70
     1
102
RTVSPropertyOp17
 70
     1
102
RTVSPropertyOp18
 70
     1
102
RTVSPropertyOp19
 70
     1
102
RTVSPropertyOp20
 70
     1
102
RTVSPropertyOp21
 70
     1
102
RTVSPropertyOp22
 70
     1
102
RTVSPropertyOp23
 70
     1
102
RTVSPropertyOp24
 70
     1
102
RTVSPropertyOp25
 70
     1
102
RTVSPropertyOp26
 70
     1
102
RTVSPropertyOp27
 70
     1
102
RTVSPropertyOp28
 70
     1
102
RTVSPropertyOp29
 70
     1
102
RTVSPropertyOp30
 70
     1
102
RTVSPropertyOp31
 70
     1
102
RTVSPropertyOp32
 70
     1
  0
XRECORD
  5
542
102
{ACAD_REACTORS
330
541
102
}
330
541
100
AcDbXrecord
280
     1
102
RTVSPropertyOp0
 70
     1
102
RTVSPropertyOp1
 70
     1
102
RTVSPropertyOp2
 70
     1
102
RTVSPropertyOp3
 70
     1
102
RTVSPropertyOp4
 70
     1
102
RTVSPropertyOp5
 70
     1
102
RTVSPropertyOp6
 70
     1
102
RTVSPropertyOp7
 70
     1
102
RTVSPropertyOp8
 70
     1
102
RTVSPropertyOp9
 70
     1
102
RTVSPropertyOp10
 70
     1
102
RTVSPropertyOp11
 70
     1
102
RTVSPropertyOp12
 70
     1
102
RTVSPropertyOp13
 70
     1
102
RTVSPropertyOp14
 70
     1
102
RTVSPropertyOp15
 70
     1
102
RTVSPropertyOp16
 70
     1
102
RTVSPropertyOp17
 70
     1
102
RTVSPropertyOp18
 70
     1
102
RTVSPropertyOp19
 70
     1
102
RTVSPropertyOp20
 70
     1
102
RTVSPropertyOp21
 70
     1
102
RTVSPropertyOp22
 70
     1
102
RTVSPropertyOp23
 70
     1
102
RTVSPropertyOp24
 70
     1
102
RTVSPropertyOp25
 70
     1
102
RTVSPropertyOp26
 70
     1
102
RTVSPropertyOp27
 70
     1
102
RTVSPropertyOp28
 70
     1
102
RTVSPropertyOp29
 70
     1
102
RTVSPropertyOp30
 70
     1
102
RTVSPropertyOp31
 70
     1
102
RTVSPropertyOp32
 70
     1
  0
ENDSEC
  0
EOF
