  0
SECTION
  2
HEADER
  9
$ACADVER
  1
AC1015
  9
$ACADMAINTVER
 70
    20
  9
$DWGCODEPAGE
  3
ANSI_1252
  9
$INSBASE
 10
0.0
 20
0.0
 30
0.0
  9
$EXTMIN
 10
42701.18845749026
 20
10233.34284608761
 30
-0.0762881246355391
  9
$EXTMAX
 10
44059.46283973823
 20
11219.39212612816
 30
2500.076299766167
  9
$LIMMIN
 10
0.0
 20
0.0
  9
$LIMMAX
 10
57061.45779796
 20
11219.04972178
  9
$ORTHOMODE
 70
     0
  9
$REGENMODE
 70
     1
  9
$FILLMODE
 70
     1
  9
$QTEXTMODE
 70
     0
  9
$MIRRTEXT
 70
     1
  9
$LTSCALE
 40
5.0
  9
$ATTMODE
 70
     1
  9
$TEXTSIZE
 40
3.5
  9
$TRACEWID
 40
1.0
  9
$TEXTSTYLE
  7
STANDARD
  9
$CLAYER
  8
0
  9
$CELTYPE
  6
BYLAYER
  9
$CECOLOR
 62
   256
  9
$CELTSCALE
 40
1.0
  9
$DISPSILH
 70
     0
  9
$DIMSCALE
 40
1.0
  9
$DIMASZ
 40
2.0
  9
$DIMEXO
 40
5.0
  9
$DIMDLI
 40
10.0
  9
$DIMRND
 40
0.0
  9
$DIMDLE
 40
2.0
  9
$DIMEXE
 40
2.0
  9
$DIMTP
 40
0.0
  9
$DIMTM
 40
0.0
  9
$DIMTXT
 40
2.5
  9
$DIMCEN
 40
1.5
  9
$DIMTSZ
 40
0.0
  9
$DIMTOL
 70
     0
  9
$DIMLIM
 70
     0
  9
$DIMTIH
 70
     1
  9
$DIMTOH
 70
     0
  9
$DIMSE1
 70
     0
  9
$DIMSE2
 70
     0
  9
$DIMTAD
 70
     1
  9
$DIMZIN
 70
     8
  9
$DIMBLK
  1

  9
$DIMASO
 70
     1
  9
$DIMSHO
 70
     1
  9
$DIMPOST
  1

  9
$DIMAPOST
  1

  9
$DIMALT
 70
     0
  9
$DIMALTD
 70
     2
  9
$DIMALTF
 40
25.4
  9
$DIMLFAC
 40
1.0
  9
$DIMTOFL
 70
     0
  9
$DIMTVP
 40
0.0
  9
$DIMTIX
 70
     0
  9
$DIMSOXD
 70
     0
  9
$DIMSAH
 70
     0
  9
$DIMBLK1
  1

  9
$DIMBLK2
  1

  9
$DIMSTYLE
  2
Standard
  9
$DIMCLRD
 70
   190
  9
$DIMCLRE
 70
   190
  9
$DIMCLRT
 70
   190
  9
$DIMTFAC
 40
1.0
  9
$DIMGAP
 40
0.09
  9
$DIMJUST
 70
     0
  9
$DIMSD1
 70
     0
  9
$DIMSD2
 70
     0
  9
$DIMTOLJ
 70
     1
  9
$DIMTZIN
 70
     0
  9
$DIMALTZ
 70
     0
  9
$DIMALTTZ
 70
     0
  9
$DIMUPT
 70
     0
  9
$DIMDEC
 70
     4
  9
$DIMTDEC
 70
     4
  9
$DIMALTU
 70
     2
  9
$DIMALTTD
 70
     2
  9
$DIMTXSTY
  7
STANDARD
  9
$DIMAUNIT
 70
     0
  9
$DIMADEC
 70
     0
  9
$DIMALTRND
 40
0.0
  9
$DIMAZIN
 70
     0
  9
$DIMDSEP
 70
    46
  9
$DIMATFIT
 70
     3
  9
$DIMFRAC
 70
     0
  9
$DIMLDRBLK
  1

  9
$DIMLUNIT
 70
     2
  9
$DIMLWD
 70
    -2
  9
$DIMLWE
 70
    -2
  9
$DIMTMOVE
 70
     0
  9
$LUNITS
 70
     2
  9
$LUPREC
 70
     6
  9
$SKETCHINC
 40
0.1
  9
$FILLETRAD
 40
0.0
  9
$AUNITS
 70
     0
  9
$AUPREC
 70
     0
  9
$MENU
  1
ACAD
  9
$ELEVATION
 40
0.0
  9
$PELEVATION
 40
0.0
  9
$THICKNESS
 40
0.0
  9
$LIMCHECK
 70
     0
  9
$CHAMFERA
 40
0.0
  9
$CHAMFERB
 40
0.0
  9
$CHAMFERC
 40
0.0
  9
$CHAMFERD
 40
0.0
  9
$SKPOLY
 70
     1
  9
$TDCREATE
 40
2456467.000000000
  9
$TDUCREATE
 40
2456466.916666667
  9
$TDUPDATE
 40
2456468.493725278
  9
$TDUUPDATE
 40
2456468.410391945
  9
$TDINDWG
 40
0.0013430208
  9
$TDUSRTIMER
 40
0.0013428356
  9
$USRTIMER
 70
     1
  9
$ANGBASE
 50
0.0
  9
$ANGDIR
 70
     0
  9
$PDMODE
 70
     0
  9
$PDSIZE
 40
0.0
  9
$PLINEWID
 40
0.0
  9
$SPLFRAME
 70
     0
  9
$SPLINETYPE
 70
     6
  9
$SPLINESEGS
 70
     8
  9
$HANDSEED
  5
53B
  9
$SURFTAB1
 70
     6
  9
$SURFTAB2
 70
     6
  9
$SURFTYPE
 70
     6
  9
$SURFU
 70
     6
  9
$SURFV
 70
     6
  9
$UCSBASE
  2

  9
$UCSNAME
  2

  9
$UCSORG
 10
0.0
 20
0.0
 30
0.0
  9
$UCSXDIR
 10
1.0
 20
0.0
 30
0.0
  9
$UCSYDIR
 10
0.0
 20
1.0
 30
0.0
  9
$UCSORTHOREF
  2

  9
$UCSORTHOVIEW
 70
     0
  9
$UCSORGTOP
 10
0.0
 20
0.0
 30
0.0
  9
$UCSORGBOTTOM
 10
0.0
 20
0.0
 30
0.0
  9
$UCSORGLEFT
 10
0.0
 20
0.0
 30
0.0
  9
$UCSORGRIGHT
 10
0.0
 20
0.0
 30
0.0
  9
$UCSORGFRONT
 10
0.0
 20
0.0
 30
0.0
  9
$UCSORGBACK
 10
0.0
 20
0.0
 30
0.0
  9
$PUCSBASE
  2

  9
$PUCSNAME
  2

  9
$PUCSORG
 10
0.0
 20
0.0
 30
0.0
  9
$PUCSXDIR
 10
1.0
 20
0.0
 30
0.0
  9
$PUCSYDIR
 10
0.0
 20
1.0
 30
0.0
  9
$PUCSORTHOREF
  2

  9
$PUCSORTHOVIEW
 70
     0
  9
$PUCSORGTOP
 10
0.0
 20
0.0
 30
0.0
  9
$PUCSORGBOTTOM
 10
0.0
 20
0.0
 30
0.0
  9
$PUCSORGLEFT
 10
0.0
 20
0.0
 30
0.0
  9
$PUCSORGRIGHT
 10
0.0
 20
0.0
 30
0.0
  9
$PUCSORGFRONT
 10
0.0
 20
0.0
 30
0.0
  9
$PUCSORGBACK
 10
0.0
 20
0.0
 30
0.0
  9
$USERI1
 70
     0
  9
$USERI2
 70
     0
  9
$USERI3
 70
     0
  9
$USERI4
 70
     0
  9
$USERI5
 70
     0
  9
$USERR1
 40
0.0
  9
$USERR2
 40
0.0
  9
$USERR3
 40
0.0
  9
$USERR4
 40
0.0
  9
$USERR5
 40
0.0
  9
$WORLDVIEW
 70
     1
  9
$SHADEDGE
 70
     3
  9
$SHADEDIF
 70
    70
  9
$TILEMODE
 70
     1
  9
$MAXACTVP
 70
    16
  9
$PINSBASE
 10
0.0
 20
0.0
 30
0.0
  9
$PLIMCHECK
 70
     0
  9
$PEXTMIN
 10
1.000000000000000E+20
 20
1.000000000000000E+20
 30
1.000000000000000E+20
  9
$PEXTMAX
 10
-1.000000000000000E+20
 20
-1.000000000000000E+20
 30
-1.000000000000000E+20
  9
$PLIMMIN
 10
0.0
 20
0.0
  9
$PLIMMAX
 10
12.0
 20
9.0
  9
$UNITMODE
 70
     0
  9
$VISRETAIN
 70
     0
  9
$PLINEGEN
 70
     0
  9
$PSLTSCALE
 70
     1
  9
$TREEDEPTH
 70
  3020
  9
$CMLSTYLE
  2
STANDARD
  9
$CMLJUST
 70
     0
  9
$CMLSCALE
 40
1.0
  9
$PROXYGRAPHICS
 70
     1
  9
$MEASUREMENT
 70
     1
  9
$CELWEIGHT
370
    -1
  9
$ENDCAPS
280
     0
  9
$JOINSTYLE
280
     0
  9
$LWDISPLAY
290
     0
  9
$INSUNITS
 70
     0
  9
$HYPERLINKBASE
  1

  9
$STYLESHEET
  1

  9
$XEDIT
290
     1
  9
$CEPSNTYPE
380
     0
  9
$PSTYLEMODE
290
     1
  9
$FINGERPRINTGUID
  2
{45F6322F-C1B6-4DD9-B810-F495E600A34A}
  9
$VERSIONGUID
  2
{324857FC-A378-4D7C-B11F-B869A0EEE24A}
  9
$EXTNAMES
290
     1
  9
$PSVPSCALE
 40
0.0
  9
$OLESTARTUP
290
     0
  0
ENDSEC
  0
SECTION
  2
CLASSES
  0
CLASS
  1
ACDBDICTIONARYWDFLT
  2
AcDbDictionaryWithDefault
  3
ObjectDBX Classes
 90
        0
280
     0
281
     0
  0
CLASS
  1
MATERIAL
  2
AcDbMaterial
  3
ObjectDBX Classes
 90
     1153
280
     0
281
     0
  0
CLASS
  1
VISUALSTYLE
  2
AcDbVisualStyle
  3
ObjectDBX Classes
 90
     4095
280
     0
281
     0
  0
CLASS
  1
TABLESTYLE
  2
AcDbTableStyle
  3
ObjectDBX Classes
 90
     4095
280
     0
281
     0
  0
CLASS
  1
SCALE
  2
AcDbScale
  3
ObjectDBX Classes
 90
     1153
280
     0
281
     0
  0
CLASS
  1
MLEADERSTYLE
  2
AcDbMLeaderStyle
  3
ACDB_MLEADERSTYLE_CLASS
 90
     4095
280
     0
281
     0
  0
CLASS
  1
SORTENTSTABLE
  2
AcDbSortentsTable
  3
ObjectDBX Classes
 90
        0
280
     0
281
     0
  0
CLASS
  1
DICTIONARYVAR
  2
AcDbDictionaryVar
  3
ObjectDBX Classes
 90
        0
280
     0
281
     0
  0
CLASS
  1
CELLSTYLEMAP
  2
AcDbCellStyleMap
  3
ObjectDBX Classes
 90
     1152
280
     0
281
     0
  0
CLASS
  1
ACDBPLACEHOLDER
  2
AcDbPlaceHolder
  3
ObjectDBX Classes
 90
        0
280
     0
281
     0
  0
CLASS
  1
LAYOUT
  2
AcDbLayout
  3
ObjectDBX Classes
 90
        0
280
     0
281
     0
  0
ENDSEC
  0
SECTION
  2
TABLES
  0
TABLE
  2
VPORT
  5
A7
330
0
100
AcDbSymbolTable
 70
     1
  0
VPORT
  5
495
330
A7
100
AcDbSymbolTableRecord
100
AcDbViewportTableRecord
  2
*Active
 70
     0
 10
0.0
 20
0.0
 11
1.0
 21
1.0
 12
43380.32564861425
 22
10726.36748610789
 13
0.0
 23
0.0
 14
1.0
 24
1.0
 15
0.0
 25
0.0
 16
0.0
 26
0.0
 36
1.0
 17
0.0
 27
0.0
 37
0.0
 40
993.6052132209297
 41
2.015345268542199
 42
50.0
 43
0.0
 44
0.0
 50
0.0
 51
0.0
 71
     0
 72
  1000
 73
     1
 74
     3
 75
     0
 76
     0
 77
     0
 78
     0
281
     0
 65
     1
110
0.0
120
0.0
130
0.0
111
1.0
121
0.0
131
0.0
112
0.0
122
1.0
132
0.0
 79
     0
146
0.0
  0
ENDTAB
  0
TABLE
  2
LTYPE
  5
AD
330
0
100
AcDbSymbolTable
 70
    12
  0
LTYPE
  5
AE
330
AD
100
AcDbSymbolTableRecord
100
AcDbLinetypeTableRecord
  2
BYBLOCK
 70
     0
  3

 72
    65
 73
     0
 40
0.0
  0
LTYPE
  5
AF
330
AD
100
AcDbSymbolTableRecord
100
AcDbLinetypeTableRecord
  2
BYLAYER
 70
     0
  3

 72
    65
 73
     0
 40
0.0
  0
LTYPE
  5
B0
330
AD
100
AcDbSymbolTableRecord
100
AcDbLinetypeTableRecord
  2
CONTINUOUS
 70
     0
  3
Solid line
 72
    65
 73
     0
 40
0.0
  0
LTYPE
  5
B1
330
AD
100
AcDbSymbolTableRecord
100
AcDbLinetypeTableRecord
  2
DOT
 70
     0
  3
. . . . . . . . . . . . . . . . . . . . . . . .
 72
    65
 73
     2
 40
2.5
 49
0.0
 74
     0
 49
-2.5
 74
     0
  0
LTYPE
  5
B2
330
AD
100
AcDbSymbolTableRecord
100
AcDbLinetypeTableRecord
  2
HIDDEN
 70
     0
  3
__ __ __ __ __ __ __ __ __ __ __ __ __ __ __ __
 72
    65
 73
     2
 40
1.875
 49
1.25
 74
     0
 49
-0.625
 74
     0
  0
LTYPE
  5
B3
330
AD
100
AcDbSymbolTableRecord
100
AcDbLinetypeTableRecord
  2
DASHDOT
 70
     0
  3
 __ . __ . __ . __ . __ . __ . __ . __ . __ . __
 72
    65
 73
     4
 40
10.0
 49
5.0
 74
     0
 49
-2.5
 74
     0
 49
0.0
 74
     0
 49
-2.5
 74
     0
  0
LTYPE
  5
B4
330
AD
100
AcDbSymbolTableRecord
100
AcDbLinetypeTableRecord
  2
DASHEDX2
 70
     0
  3
____  ____  ____  ____  ____  ____  ____  ____
 72
    65
 73
     2
 40
3.75
 49
2.5
 74
     0
 49
-1.25
 74
     0
  0
LTYPE
  5
B5
330
AD
100
AcDbSymbolTableRecord
100
AcDbLinetypeTableRecord
  2
CADWORK_22
 70
     0
  3
22 =======================================
 72
    65
 73
     0
 40
0.0
  0
LTYPE
  5
B6
330
AD
100
AcDbSymbolTableRecord
100
AcDbLinetypeTableRecord
  2
DAL
 70
     0
  3
Solid line (for MAPS)
 72
    65
 73
     0
 40
0.0
  0
LTYPE
  5
B7
330
AD
100
AcDbSymbolTableRecord
100
AcDbLinetypeTableRecord
  2
MUR
 70
     0
  3
Solid line (for MAPS)
 72
    65
 73
     0
 40
0.0
  0
LTYPE
  5
B8
330
AD
100
AcDbSymbolTableRecord
100
AcDbLinetypeTableRecord
  2
SOM
 70
     0
  3
Solid line (for MAPS)
 72
    65
 73
     0
 40
0.0
  0
LTYPE
  5
B9
330
AD
100
AcDbSymbolTableRecord
100
AcDbLinetypeTableRecord
  2
COL
 70
     0
  3
Solid line (for MAPS)
 72
    65
 73
     0
 40
0.0
  0
LTYPE
  5
BA
330
AD
100
AcDbSymbolTableRecord
100
AcDbLinetypeTableRecord
  2
LGN
 70
     0
  3
Solid line (for MAPS)
 72
    65
 73
     0
 40
0.0
  0
LTYPE
  5
BB
330
AD
100
AcDbSymbolTableRecord
100
AcDbLinetypeTableRecord
  2
PNT
 70
     0
  3
Solid line (for MAPS)
 72
    65
 73
     0
 40
0.0
  0
ENDTAB
  0
TABLE
  2
LAYER
  5
BC
330
0
100
AcDbSymbolTable
 70
    32
  0
LAYER
  5
BD
102
{ACAD_XDICTIONARY
360
4BA
102
}
330
BC
100
AcDbSymbolTableRecord
100
AcDbLayerTableRecord
  2
STANDARD
 70
     0
 62
     7
  6
CONTINUOUS
370
    -3
390
444
  0
LAYER
  5
BE
102
{ACAD_XDICTIONARY
360
4BC
102
}
330
BC
100
AcDbSymbolTableRecord
100
AcDbLayerTableRecord
  2
Ech.1_1
 70
     0
 62
     7
  6
CONTINUOUS
370
    -3
390
444
  0
LAYER
  5
BF
102
{ACAD_XDICTIONARY
360
4BE
102
}
330
BC
100
AcDbSymbolTableRecord
100
AcDbLayerTableRecord
  2
Ech.1_2
 70
     0
 62
     7
  6
CONTINUOUS
370
    -3
390
444
  0
LAYER
  5
C0
102
{ACAD_XDICTIONARY
360
4C0
102
}
330
BC
100
AcDbSymbolTableRecord
100
AcDbLayerTableRecord
  2
Ech.1_5
 70
     0
 62
     7
  6
CONTINUOUS
370
    -3
390
444
  0
LAYER
  5
C1
102
{ACAD_XDICTIONARY
360
4C2
102
}
330
BC
100
AcDbSymbolTableRecord
100
AcDbLayerTableRecord
  2
Ech.1_10
 70
     0
 62
     7
  6
CONTINUOUS
370
    -3
390
444
  0
LAYER
  5
C2
102
{ACAD_XDICTIONARY
360
4C4
102
}
330
BC
100
AcDbSymbolTableRecord
100
AcDbLayerTableRecord
  2
Ech.1_20
 70
     0
 62
     7
  6
CONTINUOUS
370
    -3
390
444
  0
LAYER
  5
C3
102
{ACAD_XDICTIONARY
360
4C6
102
}
330
BC
100
AcDbSymbolTableRecord
100
AcDbLayerTableRecord
  2
Ech.1_25
 70
     0
 62
     7
  6
CONTINUOUS
370
    -3
390
444
  0
LAYER
  5
C4
102
{ACAD_XDICTIONARY
360
4C8
102
}
330
BC
100
AcDbSymbolTableRecord
100
AcDbLayerTableRecord
  2
Ech.1_33
 70
     0
 62
     7
  6
CONTINUOUS
370
    -3
390
444
  0
LAYER
  5
C5
102
{ACAD_XDICTIONARY
360
4CA
102
}
330
BC
100
AcDbSymbolTableRecord
100
AcDbLayerTableRecord
  2
Ech.1_50
 70
     0
 62
     7
  6
CONTINUOUS
370
    -3
390
444
  0
LAYER
  5
C6
102
{ACAD_XDICTIONARY
360
4CC
102
}
330
BC
100
AcDbSymbolTableRecord
100
AcDbLayerTableRecord
  2
Ech.1_75
 70
     0
 62
     7
  6
CONTINUOUS
370
    -3
390
444
  0
LAYER
  5
C7
102
{ACAD_XDICTIONARY
360
4CE
102
}
330
BC
100
AcDbSymbolTableRecord
100
AcDbLayerTableRecord
  2
Ech.1_100
 70
     0
 62
     7
  6
CONTINUOUS
370
    -3
390
444
  0
LAYER
  5
C8
102
{ACAD_XDICTIONARY
360
4D0
102
}
330
BC
100
AcDbSymbolTableRecord
100
AcDbLayerTableRecord
  2
Ech.1_200
 70
     0
 62
     7
  6
CONTINUOUS
370
    -3
390
444
  0
LAYER
  5
C9
102
{ACAD_XDICTIONARY
360
4D2
102
}
330
BC
100
AcDbSymbolTableRecord
100
AcDbLayerTableRecord
  2
Ech.1_500
 70
     0
 62
     7
  6
CONTINUOUS
370
    -3
390
444
  0
LAYER
  5
CA
102
{ACAD_XDICTIONARY
360
4D4
102
}
330
BC
100
AcDbSymbolTableRecord
100
AcDbLayerTableRecord
  2
Ech.1_1000
 70
     0
 62
     7
  6
CONTINUOUS
370
    -3
390
444
  0
LAYER
  5
CB
102
{ACAD_XDICTIONARY
360
4D6
102
}
330
BC
100
AcDbSymbolTableRecord
100
AcDbLayerTableRecord
  2
Cadres traceur
 70
     0
 62
     7
  6
CONTINUOUS
370
    -3
390
444
  0
LAYER
  5
CC
102
{ACAD_XDICTIONARY
360
4D8
102
}
330
BC
100
AcDbSymbolTableRecord
100
AcDbLayerTableRecord
  2
Cadres laser
 70
     0
 62
     7
  6
CONTINUOUS
370
    -3
390
444
  0
LAYER
  5
CD
102
{ACAD_XDICTIONARY
360
4DA
102
}
330
BC
100
AcDbSymbolTableRecord
100
AcDbLayerTableRecord
  2
Légende d_aide
 70
     0
 62
     7
  6
CONTINUOUS
370
    -3
390
444
  0
LAYER
  5
CE
102
{ACAD_XDICTIONARY
360
4DC
102
}
330
BC
100
AcDbSymbolTableRecord
100
AcDbLayerTableRecord
  2
hachures ok
 70
     0
 62
     7
  6
CONTINUOUS
370
    -3
390
444
  0
LAYER
  5
CF
102
{ACAD_XDICTIONARY
360
4DE
102
}
330
BC
100
AcDbSymbolTableRecord
100
AcDbLayerTableRecord
  2
ossature bois
 70
     0
 62
     7
  6
CONTINUOUS
370
    -3
390
444
  0
LAYER
  5
D0
102
{ACAD_XDICTIONARY
360
4E0
102
}
330
BC
100
AcDbSymbolTableRecord
100
AcDbLayerTableRecord
  2
VR
 70
     0
 62
     7
  6
CONTINUOUS
370
    -3
390
444
  0
LAYER
  5
D1
102
{ACAD_XDICTIONARY
360
4E2
102
}
330
BC
100
AcDbSymbolTableRecord
100
AcDbLayerTableRecord
  2
CALQUE1
 70
     0
 62
     7
  6
CONTINUOUS
370
    -3
390
444
  0
LAYER
  5
D2
330
BC
100
AcDbSymbolTableRecord
100
AcDbLayerTableRecord
  2
0
 70
     0
 62
     7
  6
CONTINUOUS
370
    -3
390
444
  0
LAYER
  5
D3
102
{ACAD_XDICTIONARY
360
4E4
102
}
330
BC
100
AcDbSymbolTableRecord
100
AcDbLayerTableRecord
  2
MENUISERIE
 70
     0
 62
     7
  6
CONTINUOUS
370
    -3
390
444
  0
LAYER
  5
D4
102
{ACAD_XDICTIONARY
360
4E6
102
}
330
BC
100
AcDbSymbolTableRecord
100
AcDbLayerTableRecord
  2
COTATION
 70
     0
 62
   250
  6
CONTINUOUS
370
    -3
390
444
  0
LAYER
  5
D5
330
BC
100
AcDbSymbolTableRecord
100
AcDbLayerTableRecord
  2
DEFPOINTS
 70
     0
 62
    10
  6
CONTINUOUS
290
     0
370
    -3
390
444
  0
LAYER
  5
D6
102
{ACAD_XDICTIONARY
360
4E8
102
}
330
BC
100
AcDbSymbolTableRecord
100
AcDbLayerTableRecord
  2
HACHURE
 70
     0
 62
   254
  6
CONTINUOUS
370
    -3
390
444
  0
LAYER
  5
D7
102
{ACAD_XDICTIONARY
360
4EA
102
}
330
BC
100
AcDbSymbolTableRecord
100
AcDbLayerTableRecord
  2
MAT1
 70
     0
 62
     7
  6
CONTINUOUS
370
    -3
390
444
  0
LAYER
  5
D8
102
{ACAD_XDICTIONARY
360
4EC
102
}
330
BC
100
AcDbSymbolTableRecord
100
AcDbLayerTableRecord
  2
MAT2
 70
     0
 62
     7
  6
CONTINUOUS
370
    -3
390
444
  0
LAYER
  5
D9
102
{ACAD_XDICTIONARY
360
4EE
102
}
330
BC
100
AcDbSymbolTableRecord
100
AcDbLayerTableRecord
  2
HACH
 70
     0
 62
     8
  6
CONTINUOUS
370
    -3
390
444
  0
LAYER
  5
DA
102
{ACAD_XDICTIONARY
360
4F0
102
}
330
BC
100
AcDbSymbolTableRecord
100
AcDbLayerTableRecord
  2
MENUISERIES
 70
     0
 62
     7
  6
CONTINUOUS
370
    -3
390
444
  0
LAYER
  5
DB
102
{ACAD_XDICTIONARY
360
4F2
102
}
330
BC
100
AcDbSymbolTableRecord
100
AcDbLayerTableRecord
  2
BÉTONMÉTAL
 70
     0
 62
     7
  6
CONTINUOUS
370
    -3
390
444
  0
LAYER
  5
DC
102
{ACAD_XDICTIONARY
360
4F4
102
}
330
BC
100
AcDbSymbolTableRecord
100
AcDbLayerTableRecord
  2
BOIS
 70
     0
 62
     7
  6
CONTINUOUS
370
    -3
390
444
  0
ENDTAB
  0
TABLE
  2
STYLE
  5
A8
330
0
100
AcDbSymbolTable
 70
     4
  0
STYLE
  5
A9
330
A8
100
AcDbSymbolTableRecord
100
AcDbTextStyleTableRecord
  2
STANDARD
 70
     0
 40
0.0
 41
1.0
 50
0.0
 71
     0
 42
3.5
  3
MONOTXT
  4

  0
STYLE
  5
AA
330
A8
100
AcDbSymbolTableRecord
100
AcDbTextStyleTableRecord
  2
CADWORK1
 70
     0
 40
0.0
 41
1.0
 50
0.0
 71
     0
 42
3.5
  3
MONOTXT
  4

  0
STYLE
  5
AB
330
A8
100
AcDbSymbolTableRecord
100
AcDbTextStyleTableRecord
  2
MONOTXT
 70
     0
 40
0.0
 41
1.0
 50
0.0
 71
     0
 42
3.5
  3
MONOTXT
  4

  0
STYLE
  5
AC
330
A8
100
AcDbSymbolTableRecord
100
AcDbTextStyleTableRecord
  2
ARIAL
 70
     0
 40
0.0
 41
1.0
 50
0.0
 71
     0
 42
3.5
  3

  4

1001
ACAD
1000
Arial
1071
        0
  0
ENDTAB
  0
TABLE
  2
VIEW
  5
DD
330
0
100
AcDbSymbolTable
 70
     5
  0
ENDTAB
  0
TABLE
  2
UCS
  5
DE
330
0
100
AcDbSymbolTable
 70
     0
  0
ENDTAB
  0
TABLE
  2
APPID
  5
DF
330
0
100
AcDbSymbolTable
 70
     2
  0
APPID
  5
E0
330
DF
100
AcDbSymbolTableRecord
100
AcDbRegAppTableRecord
  2
ACAD
 70
     0
  0
APPID
  5
536
330
DF
100
AcDbSymbolTableRecord
100
AcDbRegAppTableRecord
  2
ACAD_MLEADERVER
 70
     0
  0
ENDTAB
  0
TABLE
  2
DIMSTYLE
  5
E1
330
0
100
AcDbSymbolTable
 70
     1
100
AcDbDimStyleTable
 71
     0
  0
DIMSTYLE
105
48E
330
E1
100
AcDbSymbolTableRecord
100
AcDbDimStyleTableRecord
  2
Standard
 70
     0
340
A9
  0
ENDTAB
  0
TABLE
  2
BLOCK_RECORD
  5
E2
330
0
100
AcDbSymbolTable
 70
    57
  0
BLOCK_RECORD
  5
E3
102
{ACAD_XDICTIONARY
360
4A3
102
}
330
E2
100
AcDbSymbolTableRecord
100
AcDbBlockTableRecord
  2
*MODEL_SPACE
340
491
  0
BLOCK_RECORD
  5
E4
330
E2
100
AcDbSymbolTableRecord
100
AcDbBlockTableRecord
  2
*PAPER_SPACE
340
492
  0
BLOCK_RECORD
  5
E5
330
E2
100
AcDbSymbolTableRecord
100
AcDbBlockTableRecord
  2
CDWK_EXTR_0
340
0
  0
BLOCK_RECORD
  5
E6
330
E2
100
AcDbSymbolTableRecord
100
AcDbBlockTableRecord
  2
CDWK_EXTR_1D
340
0
  0
BLOCK_RECORD
  5
E7
330
E2
100
AcDbSymbolTableRecord
100
AcDbBlockTableRecord
  2
CDWK_EXTR_1G
340
0
  0
BLOCK_RECORD
  5
E8
330
E2
100
AcDbSymbolTableRecord
100
AcDbBlockTableRecord
  2
CDWK_EXTR_2
340
0
  0
BLOCK_RECORD
  5
E9
330
E2
100
AcDbSymbolTableRecord
100
AcDbBlockTableRecord
  2
CDWK_EXTR_3
340
0
  0
BLOCK_RECORD
  5
EA
330
E2
100
AcDbSymbolTableRecord
100
AcDbBlockTableRecord
  2
CDWK_EXTR_4
340
0
102
{BLKREFS
331
41E
102
}
  0
BLOCK_RECORD
  5
EB
330
E2
100
AcDbSymbolTableRecord
100
AcDbBlockTableRecord
  2
CDWK_PTTYP0
340
0
  0
BLOCK_RECORD
  5
EC
330
E2
100
AcDbSymbolTableRecord
100
AcDbBlockTableRecord
  2
CDWK_PTTYP1
340
0
  0
BLOCK_RECORD
  5
ED
330
E2
100
AcDbSymbolTableRecord
100
AcDbBlockTableRecord
  2
CDWK_PTTYP2
340
0
  0
BLOCK_RECORD
  5
EE
330
E2
100
AcDbSymbolTableRecord
100
AcDbBlockTableRecord
  2
CDWK_PTTYP3
340
0
  0
BLOCK_RECORD
  5
EF
330
E2
100
AcDbSymbolTableRecord
100
AcDbBlockTableRecord
  2
CDWK_PTTYP4
340
0
  0
BLOCK_RECORD
  5
F0
330
E2
100
AcDbSymbolTableRecord
100
AcDbBlockTableRecord
  2
CDWK_PTTYP5
340
0
  0
BLOCK_RECORD
  5
F1
330
E2
100
AcDbSymbolTableRecord
100
AcDbBlockTableRecord
  2
CDWK_PTTYP6
340
0
  0
BLOCK_RECORD
  5
F2
330
E2
100
AcDbSymbolTableRecord
100
AcDbBlockTableRecord
  2
CDWK_PTTYP7
340
0
  0
BLOCK_RECORD
  5
F3
330
E2
100
AcDbSymbolTableRecord
100
AcDbBlockTableRecord
  2
CDWK_PTTYP8
340
0
  0
BLOCK_RECORD
  5
F4
330
E2
100
AcDbSymbolTableRecord
100
AcDbBlockTableRecord
  2
CDWK_PTTYP9
340
0
  0
BLOCK_RECORD
  5
F5
330
E2
100
AcDbSymbolTableRecord
100
AcDbBlockTableRecord
  2
CDWK_PTTYP10
340
0
  0
BLOCK_RECORD
  5
F6
330
E2
100
AcDbSymbolTableRecord
100
AcDbBlockTableRecord
  2
CDWK_PTTYP11
340
0
  0
BLOCK_RECORD
  5
F7
330
E2
100
AcDbSymbolTableRecord
100
AcDbBlockTableRecord
  2
CDWK_PTTYP12
340
0
  0
BLOCK_RECORD
  5
F8
330
E2
100
AcDbSymbolTableRecord
100
AcDbBlockTableRecord
  2
CDWK_PTTYP13
340
0
  0
BLOCK_RECORD
  5
F9
330
E2
100
AcDbSymbolTableRecord
100
AcDbBlockTableRecord
  2
CDWK_PTTYP14
340
0
  0
BLOCK_RECORD
  5
FA
330
E2
100
AcDbSymbolTableRecord
100
AcDbBlockTableRecord
  2
CDWK_PTTYP15
340
0
  0
BLOCK_RECORD
  5
FB
330
E2
100
AcDbSymbolTableRecord
100
AcDbBlockTableRecord
  2
CDWK_PTTYP16
340
0
  0
BLOCK_RECORD
  5
FC
330
E2
100
AcDbSymbolTableRecord
100
AcDbBlockTableRecord
  2
CDWK_PTTYP17
340
0
  0
BLOCK_RECORD
  5
FD
330
E2
100
AcDbSymbolTableRecord
100
AcDbBlockTableRecord
  2
CDWK_PTTYP18
340
0
  0
BLOCK_RECORD
  5
FE
330
E2
100
AcDbSymbolTableRecord
100
AcDbBlockTableRecord
  2
CDWK_PTTYP19
340
0
  0
BLOCK_RECORD
  5
FF
330
E2
100
AcDbSymbolTableRecord
100
AcDbBlockTableRecord
  2
CDWK_PTTYP20
340
0
  0
BLOCK_RECORD
  5
100
330
E2
100
AcDbSymbolTableRecord
100
AcDbBlockTableRecord
  2
CDWK_PTTYP21
340
0
  0
BLOCK_RECORD
  5
101
330
E2
100
AcDbSymbolTableRecord
100
AcDbBlockTableRecord
  2
CDWK_PTTYP22
340
0
  0
BLOCK_RECORD
  5
102
330
E2
100
AcDbSymbolTableRecord
100
AcDbBlockTableRecord
  2
CDWK_PTTYP23
340
0
  0
BLOCK_RECORD
  5
103
330
E2
100
AcDbSymbolTableRecord
100
AcDbBlockTableRecord
  2
CDWK_PTTYP24
340
0
  0
BLOCK_RECORD
  5
104
330
E2
100
AcDbSymbolTableRecord
100
AcDbBlockTableRecord
  2
CDWK_PTTYP25
340
0
  0
BLOCK_RECORD
  5
105
330
E2
100
AcDbSymbolTableRecord
100
AcDbBlockTableRecord
  2
CDWK_PTTYP26
340
0
  0
BLOCK_RECORD
  5
106
330
E2
100
AcDbSymbolTableRecord
100
AcDbBlockTableRecord
  2
CDWK_PTTYP27
340
0
  0
BLOCK_RECORD
  5
107
330
E2
100
AcDbSymbolTableRecord
100
AcDbBlockTableRecord
  2
CDWK_PTTYP28
340
0
  0
BLOCK_RECORD
  5
108
330
E2
100
AcDbSymbolTableRecord
100
AcDbBlockTableRecord
  2
CDWK_PTTYP29
340
0
  0
BLOCK_RECORD
  5
109
330
E2
100
AcDbSymbolTableRecord
100
AcDbBlockTableRecord
  2
CDWK_PTTYP30
340
0
  0
BLOCK_RECORD
  5
10A
330
E2
100
AcDbSymbolTableRecord
100
AcDbBlockTableRecord
  2
CDWK_PTTYP31
340
0
  0
BLOCK_RECORD
  5
10B
330
E2
100
AcDbSymbolTableRecord
100
AcDbBlockTableRecord
  2
CDWK_PTTYP32
340
0
  0
BLOCK_RECORD
  5
10C
330
E2
100
AcDbSymbolTableRecord
100
AcDbBlockTableRecord
  2
CDWK_PTTYP33
340
0
  0
BLOCK_RECORD
  5
10D
330
E2
100
AcDbSymbolTableRecord
100
AcDbBlockTableRecord
  2
CDWK_PTTYP34
340
0
  0
BLOCK_RECORD
  5
10E
330
E2
100
AcDbSymbolTableRecord
100
AcDbBlockTableRecord
  2
CDWK_PTTYP35
340
0
  0
BLOCK_RECORD
  5
10F
330
E2
100
AcDbSymbolTableRecord
100
AcDbBlockTableRecord
  2
CDWK_PTTYP36
340
0
  0
BLOCK_RECORD
  5
110
330
E2
100
AcDbSymbolTableRecord
100
AcDbBlockTableRecord
  2
CDWK_PTTYP37
340
0
  0
BLOCK_RECORD
  5
111
330
E2
100
AcDbSymbolTableRecord
100
AcDbBlockTableRecord
  2
CDWK_PTTYP38
340
0
  0
BLOCK_RECORD
  5
112
330
E2
100
AcDbSymbolTableRecord
100
AcDbBlockTableRecord
  2
*X45
340
0
102
{BLKREFS
331
3BB
102
}
  0
BLOCK_RECORD
  5
113
330
E2
100
AcDbSymbolTableRecord
100
AcDbBlockTableRecord
  2
*X46
340
0
102
{BLKREFS
331
3BC
102
}
  0
BLOCK_RECORD
  5
114
330
E2
100
AcDbSymbolTableRecord
100
AcDbBlockTableRecord
  2
*X47
340
0
102
{BLKREFS
331
3BD
102
}
  0
BLOCK_RECORD
  5
115
330
E2
100
AcDbSymbolTableRecord
100
AcDbBlockTableRecord
  2
*X48
340
0
102
{BLKREFS
331
3BE
102
}
  0
BLOCK_RECORD
  5
116
330
E2
100
AcDbSymbolTableRecord
100
AcDbBlockTableRecord
  2
*X49
340
0
  0
BLOCK_RECORD
  5
117
330
E2
100
AcDbSymbolTableRecord
100
AcDbBlockTableRecord
  2
*X50
340
0
102
{BLKREFS
331
3C0
102
}
  0
BLOCK_RECORD
  5
118
330
E2
100
AcDbSymbolTableRecord
100
AcDbBlockTableRecord
  2
*D51
340
0
102
{BLKREFS
331
43E
102
}
  0
BLOCK_RECORD
  5
119
330
E2
100
AcDbSymbolTableRecord
100
AcDbBlockTableRecord
  2
*D52
340
0
102
{BLKREFS
331
43F
102
}
  0
BLOCK_RECORD
  5
11A
330
E2
100
AcDbSymbolTableRecord
100
AcDbBlockTableRecord
  2
A$C42653196
340
0
  0
BLOCK_RECORD
  5
11B
330
E2
100
AcDbSymbolTableRecord
100
AcDbBlockTableRecord
  2
A$C3F0A7B51
340
0
  0
BLOCK_RECORD
  5
11C
330
E2
100
AcDbSymbolTableRecord
100
AcDbBlockTableRecord
  2
PROFIL_L
340
0
  0
BLOCK_RECORD
  5
11D
330
E2
100
AcDbSymbolTableRecord
100
AcDbBlockTableRecord
  2
A$C4DC86443
340
0
  0
ENDTAB
  0
ENDSEC
  0
SECTION
  2
BLOCKS
  0
BLOCK
  5
11E
330
E3
100
AcDbEntity
  8
0
100
AcDbBlockBegin
  2
*MODEL_SPACE
 70
     0
 10
0.0
 20
0.0
 30
0.0
  3
*MODEL_SPACE
  1

  0
ENDBLK
  5
11F
330
E3
100
AcDbEntity
  8
0
100
AcDbBlockEnd
  0
BLOCK
  5
120
330
E4
100
AcDbEntity
 67
     1
  8
0
100
AcDbBlockBegin
  2
*PAPER_SPACE
 70
     0
 10
0.0
 20
0.0
 30
0.0
  3
*PAPER_SPACE
  1

  0
ENDBLK
  5
121
330
E4
100
AcDbEntity
 67
     1
  8
0
100
AcDbBlockEnd
  0
BLOCK
  5
122
330
E5
100
AcDbEntity
  8
0
100
AcDbBlockBegin
  2
CDWK_EXTR_0
 70
     0
 10
0.0
 20
0.0
 30
0.0
  3
CDWK_EXTR_0
  1

  0
LINE
  5
123
330
E5
100
AcDbEntity
  8
0
 62
     0
370
    -2
100
AcDbLine
 10
0.0
 20
0.0
 30
0.0
 11
2.0
 21
0.5
 31
0.0
  0
LINE
  5
124
330
E5
100
AcDbEntity
  8
0
 62
     0
370
    -2
100
AcDbLine
 10
0.0
 20
0.0
 30
0.0
 11
2.0
 21
-0.5
 31
0.0
  0
LINE
  5
125
330
E5
100
AcDbEntity
  8
0
 62
     0
370
    -2
100
AcDbLine
 10
2.0
 20
0.5
 30
0.0
 11
2.0
 21
-0.5
 31
0.0
  0
ENDBLK
  5
126
330
E5
100
AcDbEntity
  8
0
100
AcDbBlockEnd
  0
BLOCK
  5
127
330
E6
100
AcDbEntity
  8
0
100
AcDbBlockBegin
  2
CDWK_EXTR_1D
 70
     0
 10
0.0
 20
0.0
 30
0.0
  3
CDWK_EXTR_1D
  1

  0
LINE
  5
128
330
E6
100
AcDbEntity
  8
0
 62
     0
370
    -2
100
AcDbLine
 10
0.0
 20
0.0
 30
0.0
 11
0.0
 21
1.0
 31
0.0
  0
LINE
  5
129
330
E6
100
AcDbEntity
  8
0
 62
     0
370
    -2
100
AcDbLine
 10
0.0
 20
1.0
 30
0.0
 11
0.5
 21
1.5
 31
0.0
  0
LINE
  5
12A
330
E6
100
AcDbEntity
  8
0
 62
     0
370
    -2
100
AcDbLine
 10
0.5
 20
1.5
 30
0.0
 11
1.5
 21
1.5
 31
0.0
  0
ENDBLK
  5
12B
330
E6
100
AcDbEntity
  8
0
100
AcDbBlockEnd
  0
BLOCK
  5
12C
330
E7
100
AcDbEntity
  8
0
100
AcDbBlockBegin
  2
CDWK_EXTR_1G
 70
     0
 10
0.0
 20
0.0
 30
0.0
  3
CDWK_EXTR_1G
  1

  0
LINE
  5
12D
330
E7
100
AcDbEntity
  8
0
 62
     0
370
    -2
100
AcDbLine
 10
0.0
 20
0.0
 30
0.0
 11
0.0
 21
-1.0
 31
0.0
  0
LINE
  5
12E
330
E7
100
AcDbEntity
  8
0
 62
     0
370
    -2
100
AcDbLine
 10
0.0
 20
-1.0
 30
0.0
 11
0.5
 21
-1.5
 31
0.0
  0
LINE
  5
12F
330
E7
100
AcDbEntity
  8
0
 62
     0
370
    -2
100
AcDbLine
 10
0.5
 20
-1.5
 30
0.0
 11
1.5
 21
-1.5
 31
0.0
  0
ENDBLK
  5
130
330
E7
100
AcDbEntity
  8
0
100
AcDbBlockEnd
  0
BLOCK
  5
131
330
E8
100
AcDbEntity
  8
0
100
AcDbBlockBegin
  2
CDWK_EXTR_2
 70
     0
 10
0.0
 20
0.0
 30
0.0
  3
CDWK_EXTR_2
  1

  0
SOLID
  5
132
330
E8
100
AcDbEntity
  8
0
 62
     0
100
AcDbTrace
 10
0.0
 20
0.0
 30
0.0
 11
2.0
 21
0.5
 31
0.0
 12
2.0
 22
-0.5
 32
0.0
 13
2.0
 23
-0.5
 33
0.0
  0
ENDBLK
  5
133
330
E8
100
AcDbEntity
  8
0
100
AcDbBlockEnd
  0
BLOCK
  5
134
330
E9
100
AcDbEntity
  8
0
100
AcDbBlockBegin
  2
CDWK_EXTR_3
 70
     0
 10
0.0
 20
0.0
 30
0.0
  3
CDWK_EXTR_3
  1

  0
SOLID
  5
135
330
E9
100
AcDbEntity
  8
0
 62
     0
100
AcDbTrace
 10
0.0
 20
0.0
 30
0.0
 11
2.0
 21
0.5
 31
0.0
 12
2.0
 22
-0.5
 32
0.0
 13
2.0
 23
-0.5
 33
0.0
  0
LINE
  5
136
330
E9
100
AcDbEntity
  8
0
 62
     0
370
    -2
100
AcDbLine
 10
0.0
 20
1.0
 30
0.0
 11
0.0
 21
-1.0
 31
0.0
  0
ENDBLK
  5
137
330
E9
100
AcDbEntity
  8
0
100
AcDbBlockEnd
  0
BLOCK
  5
138
330
EA
100
AcDbEntity
  8
0
100
AcDbBlockBegin
  2
CDWK_EXTR_4
 70
     0
 10
0.0
 20
0.0
 30
0.0
  3
CDWK_EXTR_4
  1

  0
HATCH
  5
139
330
EA
100
AcDbEntity
  8
0
 62
     0
370
    20
100
AcDbHatch
 10
0.0
 20
0.0
 30
0.0
210
0.0
220
0.0
230
1.0
  2
SOLID
 70
     1
 71
     0
 91
        1
 92
        1
 93
        1
 72
     2
 10
0.0
 20
0.0
 40
0.5
 50
0.0
 51
360.0
 73
     1
 97
        0
 75
     0
 76
     1
 98
        1
 10
0.0
 20
0.0
  0
ENDBLK
  5
13A
330
EA
100
AcDbEntity
  8
0
100
AcDbBlockEnd
  0
BLOCK
  5
13B
330
EB
100
AcDbEntity
  8
0
100
AcDbBlockBegin
  2
CDWK_PTTYP0
 70
     0
 10
0.0
 20
0.0
 30
0.0
  3
CDWK_PTTYP0
  1

  0
POINT
  5
13C
330
EB
100
AcDbEntity
  8
0
 62
     0
100
AcDbPoint
 10
0.0
 20
0.0
 30
0.0
  0
ENDBLK
  5
13D
330
EB
100
AcDbEntity
  8
0
100
AcDbBlockEnd
  0
BLOCK
  5
13E
330
EC
100
AcDbEntity
  8
0
100
AcDbBlockBegin
  2
CDWK_PTTYP1
 70
     0
 10
0.0
 20
0.0
 30
0.0
  3
CDWK_PTTYP1
  1

  0
LINE
  5
13F
330
EC
100
AcDbEntity
  8
0
 62
     0
370
    -2
100
AcDbLine
 10
-0.5
 20
0.5
 30
0.0
 11
0.5
 21
0.5
 31
0.0
  0
LINE
  5
140
330
EC
100
AcDbEntity
  8
0
 62
     0
370
    -2
100
AcDbLine
 10
0.5
 20
0.5
 30
0.0
 11
0.5
 21
-0.5
 31
0.0
  0
LINE
  5
141
330
EC
100
AcDbEntity
  8
0
 62
     0
370
    -2
100
AcDbLine
 10
0.5
 20
-0.5
 30
0.0
 11
-0.5
 21
-0.5
 31
0.0
  0
LINE
  5
142
330
EC
100
AcDbEntity
  8
0
 62
     0
370
    -2
100
AcDbLine
 10
-0.5
 20
-0.5
 30
0.0
 11
-0.5
 21
0.5
 31
0.0
  0
ENDBLK
  5
143
330
EC
100
AcDbEntity
  8
0
100
AcDbBlockEnd
  0
BLOCK
  5
144
330
ED
100
AcDbEntity
  8
0
100
AcDbBlockBegin
  2
CDWK_PTTYP2
 70
     0
 10
0.0
 20
0.0
 30
0.0
  3
CDWK_PTTYP2
  1

  0
LINE
  5
145
330
ED
100
AcDbEntity
  8
0
 62
     0
370
    -2
100
AcDbLine
 10
0.0
 20
0.5
 30
0.0
 11
0.0
 21
-0.5
 31
0.0
  0
LINE
  5
146
330
ED
100
AcDbEntity
  8
0
 62
     0
370
    -2
100
AcDbLine
 10
-0.5
 20
0.0
 30
0.0
 11
0.5
 21
0.0
 31
0.0
  0
ENDBLK
  5
147
330
ED
100
AcDbEntity
  8
0
100
AcDbBlockEnd
  0
BLOCK
  5
148
330
EE
100
AcDbEntity
  8
0
100
AcDbBlockBegin
  2
CDWK_PTTYP3
 70
     0
 10
0.0
 20
0.0
 30
0.0
  3
CDWK_PTTYP3
  1

  0
CIRCLE
  5
149
330
EE
100
AcDbEntity
  8
0
 62
     0
370
    -2
100
AcDbCircle
 10
0.0
 20
0.0
 30
0.0
 40
0.5
  0
ENDBLK
  5
14A
330
EE
100
AcDbEntity
  8
0
100
AcDbBlockEnd
  0
BLOCK
  5
14B
330
EF
100
AcDbEntity
  8
0
100
AcDbBlockBegin
  2
CDWK_PTTYP4
 70
     0
 10
0.0
 20
0.0
 30
0.0
  3
CDWK_PTTYP4
  1

  0
HATCH
  5
14C
330
EF
100
AcDbEntity
  8
0
 62
     0
370
    20
100
AcDbHatch
 10
0.0
 20
0.0
 30
0.0
210
0.0
220
0.0
230
1.0
  2
SOLID
 70
     1
 71
     0
 91
        1
 92
        1
 93
        1
 72
     2
 10
0.0
 20
0.0
 40
0.5
 50
0.0
 51
360.0
 73
     1
 97
        0
 75
     0
 76
     1
 98
        1
 10
0.0
 20
0.0
  0
ENDBLK
  5
14D
330
EF
100
AcDbEntity
  8
0
100
AcDbBlockEnd
  0
BLOCK
  5
14E
330
F0
100
AcDbEntity
  8
0
100
AcDbBlockBegin
  2
CDWK_PTTYP5
 70
     0
 10
0.0
 20
0.0
 30
0.0
  3
CDWK_PTTYP5
  1

  0
LINE
  5
14F
330
F0
100
AcDbEntity
  8
0
 62
     0
370
    -2
100
AcDbLine
 10
-0.5
 20
0.5
 30
0.0
 11
0.5
 21
0.5
 31
0.0
  0
LINE
  5
150
330
F0
100
AcDbEntity
  8
0
 62
     0
370
    -2
100
AcDbLine
 10
0.5
 20
0.5
 30
0.0
 11
0.5
 21
-0.5
 31
0.0
  0
LINE
  5
151
330
F0
100
AcDbEntity
  8
0
 62
     0
370
    -2
100
AcDbLine
 10
0.5
 20
-0.5
 30
0.0
 11
-0.5
 21
-0.5
 31
0.0
  0
LINE
  5
152
330
F0
100
AcDbEntity
  8
0
 62
     0
370
    -2
100
AcDbLine
 10
-0.5
 20
-0.5
 30
0.0
 11
-0.5
 21
0.5
 31
0.0
  0
SOLID
  5
153
330
F0
100
AcDbEntity
  8
0
 62
     0
100
AcDbTrace
 10
-0.5
 20
-0.5
 30
0.0
 11
-0.5
 21
0.0
 31
0.0
 12
0.0
 22
-0.5
 32
0.0
 13
0.0
 23
0.0
 33
0.0
  0
SOLID
  5
154
330
F0
100
AcDbEntity
  8
0
 62
     0
100
AcDbTrace
 10
0.0
 20
0.0
 30
0.0
 11
0.0
 21
0.5
 31
0.0
 12
0.5
 22
0.0
 32
0.0
 13
0.5
 23
0.5
 33
0.0
  0
ENDBLK
  5
155
330
F0
100
AcDbEntity
  8
0
100
AcDbBlockEnd
  0
BLOCK
  5
156
330
F1
100
AcDbEntity
  8
0
100
AcDbBlockBegin
  2
CDWK_PTTYP6
 70
     0
 10
0.0
 20
0.0
 30
0.0
  3
CDWK_PTTYP6
  1

  0
LINE
  5
157
330
F1
100
AcDbEntity
  8
0
 62
     0
370
    -2
100
AcDbLine
 10
-0.5
 20
0.5
 30
0.0
 11
0.5
 21
0.5
 31
0.0
  0
LINE
  5
158
330
F1
100
AcDbEntity
  8
0
 62
     0
370
    -2
100
AcDbLine
 10
0.5
 20
0.5
 30
0.0
 11
0.5
 21
-0.5
 31
0.0
  0
LINE
  5
159
330
F1
100
AcDbEntity
  8
0
 62
     0
370
    -2
100
AcDbLine
 10
0.5
 20
-0.5
 30
0.0
 11
-0.5
 21
-0.5
 31
0.0
  0
LINE
  5
15A
330
F1
100
AcDbEntity
  8
0
 62
     0
370
    -2
100
AcDbLine
 10
-0.5
 20
-0.5
 30
0.0
 11
-0.5
 21
0.5
 31
0.0
  0
SOLID
  5
15B
330
F1
100
AcDbEntity
  8
0
 62
     0
100
AcDbTrace
 10
-0.5
 20
-0.5
 30
0.0
 11
-0.5
 21
0.5
 31
0.0
 12
0.5
 22
0.5
 32
0.0
 13
0.5
 23
0.5
 33
0.0
  0
ENDBLK
  5
15C
330
F1
100
AcDbEntity
  8
0
100
AcDbBlockEnd
  0
BLOCK
  5
15D
330
F2
100
AcDbEntity
  8
0
100
AcDbBlockBegin
  2
CDWK_PTTYP7
 70
     0
 10
0.0
 20
0.0
 30
0.0
  3
CDWK_PTTYP7
  1

  0
LINE
  5
15E
330
F2
100
AcDbEntity
  8
0
 62
     0
370
    -2
100
AcDbLine
 10
-0.5
 20
0.5
 30
0.0
 11
0.5
 21
0.5
 31
0.0
  0
LINE
  5
15F
330
F2
100
AcDbEntity
  8
0
 62
     0
370
    -2
100
AcDbLine
 10
0.5
 20
0.5
 30
0.0
 11
0.5
 21
-0.5
 31
0.0
  0
LINE
  5
160
330
F2
100
AcDbEntity
  8
0
 62
     0
370
    -2
100
AcDbLine
 10
0.5
 20
-0.5
 30
0.0
 11
-0.5
 21
-0.5
 31
0.0
  0
LINE
  5
161
330
F2
100
AcDbEntity
  8
0
 62
     0
370
    -2
100
AcDbLine
 10
-0.5
 20
-0.5
 30
0.0
 11
-0.5
 21
0.5
 31
0.0
  0
LINE
  5
162
330
F2
100
AcDbEntity
  8
0
 62
     0
370
    -2
100
AcDbLine
 10
0.0
 20
0.5
 30
0.0
 11
0.0
 21
-0.5
 31
0.0
  0
LINE
  5
163
330
F2
100
AcDbEntity
  8
0
 62
     0
370
    -2
100
AcDbLine
 10
-0.5
 20
0.0
 30
0.0
 11
0.5
 21
0.0
 31
0.0
  0
ENDBLK
  5
164
330
F2
100
AcDbEntity
  8
0
100
AcDbBlockEnd
  0
BLOCK
  5
165
330
F3
100
AcDbEntity
  8
0
100
AcDbBlockBegin
  2
CDWK_PTTYP8
 70
     0
 10
0.0
 20
0.0
 30
0.0
  3
CDWK_PTTYP8
  1

  0
SOLID
  5
166
330
F3
100
AcDbEntity
  8
0
 62
     0
100
AcDbTrace
 10
-0.5
 20
0.5
 30
0.0
 11
0.5
 21
0.5
 31
0.0
 12
-0.5
 22
-0.5
 32
0.0
 13
0.5
 23
-0.5
 33
0.0
  0
ENDBLK
  5
167
330
F3
100
AcDbEntity
  8
0
100
AcDbBlockEnd
  0
BLOCK
  5
168
330
F4
100
AcDbEntity
  8
0
100
AcDbBlockBegin
  2
CDWK_PTTYP9
 70
     0
 10
0.0
 20
0.0
 30
0.0
  3
CDWK_PTTYP9
  1

  0
CIRCLE
  5
169
330
F4
100
AcDbEntity
  8
0
 62
     0
370
    -2
100
AcDbCircle
 10
0.0
 20
0.0
 30
0.0
 40
0.5
  0
CIRCLE
  5
16A
330
F4
100
AcDbEntity
  8
0
 62
     0
370
    -2
100
AcDbCircle
 10
0.0
 20
0.0
 30
0.0
 40
0.16666667
  0
ENDBLK
  5
16B
330
F4
100
AcDbEntity
  8
0
100
AcDbBlockEnd
  0
BLOCK
  5
16C
330
F5
100
AcDbEntity
  8
0
100
AcDbBlockBegin
  2
CDWK_PTTYP10
 70
     0
 10
0.0
 20
0.0
 30
0.0
  3
CDWK_PTTYP10
  1

  0
CIRCLE
  5
16D
330
F5
100
AcDbEntity
  8
0
 62
     0
370
    -2
100
AcDbCircle
 10
0.0
 20
0.0
 30
0.0
 40
0.5
  0
ENDBLK
  5
16E
330
F5
100
AcDbEntity
  8
0
100
AcDbBlockEnd
  0
BLOCK
  5
16F
330
F6
100
AcDbEntity
  8
0
100
AcDbBlockBegin
  2
CDWK_PTTYP11
 70
     0
 10
0.0
 20
0.0
 30
0.0
  3
CDWK_PTTYP11
  1

  0
CIRCLE
  5
170
330
F6
100
AcDbEntity
  8
0
 62
     0
370
    -2
100
AcDbCircle
 10
0.0
 20
0.0
 30
0.0
 40
0.5
  0
CIRCLE
  5
171
330
F6
100
AcDbEntity
  8
0
 62
     0
370
    -2
100
AcDbCircle
 10
0.0
 20
0.0
 30
0.0
 40
0.25
  0
ENDBLK
  5
172
330
F6
100
AcDbEntity
  8
0
100
AcDbBlockEnd
  0
BLOCK
  5
173
330
F7
100
AcDbEntity
  8
0
100
AcDbBlockBegin
  2
CDWK_PTTYP12
 70
     0
 10
0.0
 20
0.0
 30
0.0
  3
CDWK_PTTYP12
  1

  0
CIRCLE
  5
174
330
F7
100
AcDbEntity
  8
0
 62
     0
370
    -2
100
AcDbCircle
 10
0.0
 20
0.0
 30
0.0
 40
0.5
  0
CIRCLE
  5
175
330
F7
100
AcDbEntity
  8
0
 62
     0
370
    -2
100
AcDbCircle
 10
0.25
 20
0.0
 30
0.0
 40
0.25
  0
ENDBLK
  5
176
330
F7
100
AcDbEntity
  8
0
100
AcDbBlockEnd
  0
BLOCK
  5
177
330
F8
100
AcDbEntity
  8
0
100
AcDbBlockBegin
  2
CDWK_PTTYP13
 70
     0
 10
0.0
 20
0.0
 30
0.0
  3
CDWK_PTTYP13
  1

  0
CIRCLE
  5
178
330
F8
100
AcDbEntity
  8
0
 62
     0
370
    -2
100
AcDbCircle
 10
0.0
 20
0.0
 30
0.0
 40
0.5
  0
CIRCLE
  5
179
330
F8
100
AcDbEntity
  8
0
 62
     0
370
    -2
100
AcDbCircle
 10
0.25
 20
0.0
 30
0.0
 40
0.25
  0
CIRCLE
  5
17A
330
F8
100
AcDbEntity
  8
0
 62
     0
370
    -2
100
AcDbCircle
 10
-0.25
 20
0.0
 30
0.0
 40
0.25
  0
ENDBLK
  5
17B
330
F8
100
AcDbEntity
  8
0
100
AcDbBlockEnd
  0
BLOCK
  5
17C
330
F9
100
AcDbEntity
  8
0
100
AcDbBlockBegin
  2
CDWK_PTTYP14
 70
     0
 10
0.0
 20
0.0
 30
0.0
  3
CDWK_PTTYP14
  1

  0
POINT
  5
17D
330
F9
100
AcDbEntity
  8
0
 62
     0
100
AcDbPoint
 10
0.0
 20
0.0
 30
0.0
  0
ENDBLK
  5
17E
330
F9
100
AcDbEntity
  8
0
100
AcDbBlockEnd
  0
BLOCK
  5
17F
330
FA
100
AcDbEntity
  8
0
100
AcDbBlockBegin
  2
CDWK_PTTYP15
 70
     0
 10
0.0
 20
0.0
 30
0.0
  3
CDWK_PTTYP15
  1

  0
POINT
  5
180
330
FA
100
AcDbEntity
  8
0
 62
     0
100
AcDbPoint
 10
0.0
 20
0.0
 30
0.0
  0
ENDBLK
  5
181
330
FA
100
AcDbEntity
  8
0
100
AcDbBlockEnd
  0
BLOCK
  5
182
330
FB
100
AcDbEntity
  8
0
100
AcDbBlockBegin
  2
CDWK_PTTYP16
 70
     0
 10
0.0
 20
0.0
 30
0.0
  3
CDWK_PTTYP16
  1

  0
LINE
  5
183
330
FB
100
AcDbEntity
  8
0
 62
     0
370
    -2
100
AcDbLine
 10
-0.5
 20
-0.28867513
 30
0.0
 11
0.5
 21
-0.28867513
 31
0.0
  0
LINE
  5
184
330
FB
100
AcDbEntity
  8
0
 62
     0
370
    -2
100
AcDbLine
 10
0.5
 20
-0.28867513
 30
0.0
 11
0.0
 21
0.5773502700000001
 31
0.0
  0
LINE
  5
185
330
FB
100
AcDbEntity
  8
0
 62
     0
370
    -2
100
AcDbLine
 10
0.0
 20
0.5773502700000001
 30
0.0
 11
-0.5
 21
-0.28867513
 31
0.0
  0
CIRCLE
  5
186
330
FB
100
AcDbEntity
  8
0
 62
     0
370
    -2
100
AcDbCircle
 10
0.0
 20
0.0
 30
0.0
 40
0.28867513
  0
ENDBLK
  5
187
330
FB
100
AcDbEntity
  8
0
100
AcDbBlockEnd
  0
BLOCK
  5
188
330
FC
100
AcDbEntity
  8
0
100
AcDbBlockBegin
  2
CDWK_PTTYP17
 70
     0
 10
0.0
 20
0.0
 30
0.0
  3
CDWK_PTTYP17
  1

  0
CIRCLE
  5
189
330
FC
100
AcDbEntity
  8
0
 62
     0
370
    -2
100
AcDbCircle
 10
0.0
 20
0.0
 30
0.0
 40
0.5
  0
HATCH
  5
18A
330
FC
100
AcDbEntity
  8
0
 62
     0
370
   211
100
AcDbHatch
 10
0.0
 20
0.0
 30
0.0
210
0.0
220
0.0
230
1.0
  2
SOLID
 70
     1
 71
     0
 91
        1
 92
        1
 93
        1
 72
     2
 10
0.0
 20
0.0
 40
0.25
 50
0.0
 51
360.0
 73
     1
 97
        0
 75
     0
 76
     1
 98
        1
 10
0.0
 20
0.0
  0
ENDBLK
  5
18B
330
FC
100
AcDbEntity
  8
0
100
AcDbBlockEnd
  0
BLOCK
  5
18C
330
FD
100
AcDbEntity
  8
0
100
AcDbBlockBegin
  2
CDWK_PTTYP18
 70
     0
 10
0.0
 20
0.0
 30
0.0
  3
CDWK_PTTYP18
  1

  0
CIRCLE
  5
18D
330
FD
100
AcDbEntity
  8
0
 62
     0
370
    -2
100
AcDbCircle
 10
0.0
 20
0.0
 30
0.0
 40
0.5
  0
CIRCLE
  5
18E
330
FD
100
AcDbEntity
  8
0
 62
     0
370
    -2
100
AcDbCircle
 10
0.0
 20
0.0
 30
0.0
 40
0.2
  0
ENDBLK
  5
18F
330
FD
100
AcDbEntity
  8
0
100
AcDbBlockEnd
  0
BLOCK
  5
190
330
FE
100
AcDbEntity
  8
0
100
AcDbBlockBegin
  2
CDWK_PTTYP19
 70
     0
 10
0.0
 20
0.0
 30
0.0
  3
CDWK_PTTYP19
  1

  0
CIRCLE
  5
191
330
FE
100
AcDbEntity
  8
0
 62
     0
370
    -2
100
AcDbCircle
 10
0.0
 20
0.0
 30
0.0
 40
0.4
  0
CIRCLE
  5
192
330
FE
100
AcDbEntity
  8
0
 62
     0
370
    -2
100
AcDbCircle
 10
0.0
 20
0.0
 30
0.0
 40
0.25
  0
LINE
  5
193
330
FE
100
AcDbEntity
  8
0
 62
     0
370
    -2
100
AcDbLine
 10
-0.25
 20
0.0
 30
0.0
 11
0.25
 21
0.0
 31
0.0
  0
ENDBLK
  5
194
330
FE
100
AcDbEntity
  8
0
100
AcDbBlockEnd
  0
BLOCK
  5
195
330
FF
100
AcDbEntity
  8
0
100
AcDbBlockBegin
  2
CDWK_PTTYP20
 70
     0
 10
0.0
 20
0.0
 30
0.0
  3
CDWK_PTTYP20
  1

  0
CIRCLE
  5
196
330
FF
100
AcDbEntity
  8
0
 62
     0
370
    -2
100
AcDbCircle
 10
0.0
 20
0.0
 30
0.0
 40
0.5
  0
CIRCLE
  5
197
330
FF
100
AcDbEntity
  8
0
 62
     0
370
    -2
100
AcDbCircle
 10
0.0
 20
0.0
 30
0.0
 40
0.3
  0
ENDBLK
  5
198
330
FF
100
AcDbEntity
  8
0
100
AcDbBlockEnd
  0
BLOCK
  5
199
330
100
100
AcDbEntity
  8
0
100
AcDbBlockBegin
  2
CDWK_PTTYP21
 70
     0
 10
0.0
 20
0.0
 30
0.0
  3
CDWK_PTTYP21
  1

  0
CIRCLE
  5
19A
330
100
100
AcDbEntity
  8
0
 62
     0
370
    -2
100
AcDbCircle
 10
0.0
 20
0.0
 30
0.0
 40
0.5
  0
LINE
  5
19B
330
100
100
AcDbEntity
  8
0
 62
     0
370
    -2
100
AcDbLine
 10
-0.5
 20
0.0
 30
0.0
 11
0.5
 21
0.0
 31
0.0
  0
ENDBLK
  5
19C
330
100
100
AcDbEntity
  8
0
100
AcDbBlockEnd
  0
BLOCK
  5
19D
330
101
100
AcDbEntity
  8
0
100
AcDbBlockBegin
  2
CDWK_PTTYP22
 70
     0
 10
0.0
 20
0.0
 30
0.0
  3
CDWK_PTTYP22
  1

  0
POINT
  5
19E
330
101
100
AcDbEntity
  8
0
 62
     0
100
AcDbPoint
 10
0.0
 20
0.0
 30
0.0
  0
ENDBLK
  5
19F
330
101
100
AcDbEntity
  8
0
100
AcDbBlockEnd
  0
BLOCK
  5
1A0
330
102
100
AcDbEntity
  8
0
100
AcDbBlockBegin
  2
CDWK_PTTYP23
 70
     0
 10
0.0
 20
0.0
 30
0.0
  3
CDWK_PTTYP23
  1

  0
POINT
  5
1A1
330
102
100
AcDbEntity
  8
0
 62
     0
100
AcDbPoint
 10
0.0
 20
0.0
 30
0.0
  0
ENDBLK
  5
1A2
330
102
100
AcDbEntity
  8
0
100
AcDbBlockEnd
  0
BLOCK
  5
1A3
330
103
100
AcDbEntity
  8
0
100
AcDbBlockBegin
  2
CDWK_PTTYP24
 70
     0
 10
0.0
 20
0.0
 30
0.0
  3
CDWK_PTTYP24
  1

  0
POINT
  5
1A4
330
103
100
AcDbEntity
  8
0
 62
     0
100
AcDbPoint
 10
0.0
 20
0.0
 30
0.0
  0
ENDBLK
  5
1A5
330
103
100
AcDbEntity
  8
0
100
AcDbBlockEnd
  0
BLOCK
  5
1A6
330
104
100
AcDbEntity
  8
0
100
AcDbBlockBegin
  2
CDWK_PTTYP25
 70
     0
 10
0.0
 20
0.0
 30
0.0
  3
CDWK_PTTYP25
  1

  0
LINE
  5
1A7
330
104
100
AcDbEntity
  8
0
 62
     0
370
    -2
100
AcDbLine
 10
-0.43290044
 20
-0.25
 30
0.0
 11
0.43290044
 21
-0.25
 31
0.0
  0
LINE
  5
1A8
330
104
100
AcDbEntity
  8
0
 62
     0
370
    -2
100
AcDbLine
 10
-0.43290044
 20
-0.25
 30
0.0
 11
0.0
 21
0.5
 31
0.0
  0
LINE
  5
1A9
330
104
100
AcDbEntity
  8
0
 62
     0
370
    -2
100
AcDbLine
 10
0.43290044
 20
-0.25
 30
0.0
 11
0.0
 21
0.5
 31
0.0
  0
CIRCLE
  5
1AA
330
104
100
AcDbEntity
  8
0
 62
     0
370
    -2
100
AcDbCircle
 10
0.0
 20
0.0
 30
0.0
 40
0.5
  0
ENDBLK
  5
1AB
330
104
100
AcDbEntity
  8
0
100
AcDbBlockEnd
  0
BLOCK
  5
1AC
330
105
100
AcDbEntity
  8
0
100
AcDbBlockBegin
  2
CDWK_PTTYP26
 70
     0
 10
0.0
 20
0.0
 30
0.0
  3
CDWK_PTTYP26
  1

  0
LINE
  5
1AD
330
105
100
AcDbEntity
  8
0
 62
     0
370
    -2
100
AcDbLine
 10
-0.5
 20
-0.28850001
 30
0.0
 11
0.5
 21
-0.28850001
 31
0.0
  0
LINE
  5
1AE
330
105
100
AcDbEntity
  8
0
 62
     0
370
    -2
100
AcDbLine
 10
-0.5
 20
-0.28850001
 30
0.0
 11
0.0
 21
0.5773672100000001
 31
0.0
  0
LINE
  5
1AF
330
105
100
AcDbEntity
  8
0
 62
     0
370
    -2
100
AcDbLine
 10
0.5
 20
-0.28850001
 30
0.0
 11
0.0
 21
0.5773672100000001
 31
0.0
  0
CIRCLE
  5
1B0
330
105
100
AcDbEntity
  8
0
 62
     0
370
    -2
100
AcDbCircle
 10
0.0
 20
0.0
 30
0.0
 40
0.1312336
  0
ENDBLK
  5
1B1
330
105
100
AcDbEntity
  8
0
100
AcDbBlockEnd
  0
BLOCK
  5
1B2
330
106
100
AcDbEntity
  8
0
100
AcDbBlockBegin
  2
CDWK_PTTYP27
 70
     0
 10
0.0
 20
0.0
 30
0.0
  3
CDWK_PTTYP27
  1

  0
LINE
  5
1B3
330
106
100
AcDbEntity
  8
0
 62
     0
370
    -2
100
AcDbLine
 10
-0.43290044
 20
-0.25
 30
0.0
 11
0.43290044
 21
-0.25
 31
0.0
  0
LINE
  5
1B4
330
106
100
AcDbEntity
  8
0
 62
     0
370
    -2
100
AcDbLine
 10
-0.43290044
 20
-0.25
 30
0.0
 11
0.0
 21
0.5
 31
0.0
  0
LINE
  5
1B5
330
106
100
AcDbEntity
  8
0
 62
     0
370
    -2
100
AcDbLine
 10
0.43290044
 20
-0.25
 30
0.0
 11
0.0
 21
0.5
 31
0.0
  0
CIRCLE
  5
1B6
330
106
100
AcDbEntity
  8
0
 62
     0
370
    -2
100
AcDbCircle
 10
0.0
 20
0.0
 30
0.0
 40
0.5
  0
CIRCLE
  5
1B7
330
106
100
AcDbEntity
  8
0
 62
     0
370
    -2
100
AcDbCircle
 10
0.0
 20
0.0
 30
0.0
 40
0.1312336
  0
ENDBLK
  5
1B8
330
106
100
AcDbEntity
  8
0
100
AcDbBlockEnd
  0
BLOCK
  5
1B9
330
107
100
AcDbEntity
  8
0
100
AcDbBlockBegin
  2
CDWK_PTTYP28
 70
     0
 10
0.0
 20
0.0
 30
0.0
  3
CDWK_PTTYP28
  1

  0
POINT
  5
1BA
330
107
100
AcDbEntity
  8
0
 62
     0
100
AcDbPoint
 10
0.0
 20
0.0
 30
0.0
  0
ENDBLK
  5
1BB
330
107
100
AcDbEntity
  8
0
100
AcDbBlockEnd
  0
BLOCK
  5
1BC
330
108
100
AcDbEntity
  8
0
100
AcDbBlockBegin
  2
CDWK_PTTYP29
 70
     0
 10
0.0
 20
0.0
 30
0.0
  3
CDWK_PTTYP29
  1

  0
CIRCLE
  5
1BD
330
108
100
AcDbEntity
  8
0
 62
     0
370
    -2
100
AcDbCircle
 10
0.0
 20
0.0
 30
0.0
 40
0.5
  0
CIRCLE
  5
1BE
330
108
100
AcDbEntity
  8
0
 62
     0
370
    -2
100
AcDbCircle
 10
0.0
 20
0.0
 30
0.0
 40
0.375
  0
CIRCLE
  5
1BF
330
108
100
AcDbEntity
  8
0
 62
     0
370
    -2
100
AcDbCircle
 10
0.0
 20
0.0
 30
0.0
 40
0.21875
  0
ENDBLK
  5
1C0
330
108
100
AcDbEntity
  8
0
100
AcDbBlockEnd
  0
BLOCK
  5
1C1
330
109
100
AcDbEntity
  8
0
100
AcDbBlockBegin
  2
CDWK_PTTYP30
 70
     0
 10
0.0
 20
0.0
 30
0.0
  3
CDWK_PTTYP30
  1

  0
LINE
  5
1C2
330
109
100
AcDbEntity
  8
0
 62
     0
370
    -2
100
AcDbLine
 10
0.17680339
 20
0.17680339
 30
0.0
 11
0.5
 21
0.5
 31
0.0
  0
LINE
  5
1C3
330
109
100
AcDbEntity
  8
0
 62
     0
370
    -2
100
AcDbLine
 10
-0.17680339
 20
0.17680339
 30
0.0
 11
-0.5
 21
0.5
 31
0.0
  0
LINE
  5
1C4
330
109
100
AcDbEntity
  8
0
 62
     0
370
    -2
100
AcDbLine
 10
0.17680339
 20
-0.17680339
 30
0.0
 11
0.5
 21
-0.5
 31
0.0
  0
LINE
  5
1C5
330
109
100
AcDbEntity
  8
0
 62
     0
370
    -2
100
AcDbLine
 10
-0.17680339
 20
-0.17680339
 30
0.0
 11
-0.5
 21
-0.5
 31
0.0
  0
ENDBLK
  5
1C6
330
109
100
AcDbEntity
  8
0
100
AcDbBlockEnd
  0
BLOCK
  5
1C7
330
10A
100
AcDbEntity
  8
0
100
AcDbBlockBegin
  2
CDWK_PTTYP31
 70
     0
 10
0.0
 20
0.0
 30
0.0
  3
CDWK_PTTYP31
  1

  0
CIRCLE
  5
1C8
330
10A
100
AcDbEntity
  8
0
 62
     0
370
    -2
100
AcDbCircle
 10
0.0
 20
0.0
 30
0.0
 40
0.075
  0
LINE
  5
1C9
330
10A
100
AcDbEntity
  8
0
 62
     0
370
    -2
100
AcDbLine
 10
0.075
 20
0.0
 30
0.0
 11
0.5
 21
0.0
 31
0.0
  0
LINE
  5
1CA
330
10A
100
AcDbEntity
  8
0
 62
     0
370
    -2
100
AcDbLine
 10
-0.075
 20
0.0
 30
0.0
 11
-0.5
 21
0.0
 31
0.0
  0
LINE
  5
1CB
330
10A
100
AcDbEntity
  8
0
 62
     0
370
    -2
100
AcDbLine
 10
0.0
 20
0.075
 30
0.0
 11
0.0
 21
0.5
 31
0.0
  0
LINE
  5
1CC
330
10A
100
AcDbEntity
  8
0
 62
     0
370
    -2
100
AcDbLine
 10
0.0
 20
-0.075
 30
0.0
 11
0.0
 21
-0.5
 31
0.0
  0
ENDBLK
  5
1CD
330
10A
100
AcDbEntity
  8
0
100
AcDbBlockEnd
  0
BLOCK
  5
1CE
330
10B
100
AcDbEntity
  8
0
100
AcDbBlockBegin
  2
CDWK_PTTYP32
 70
     0
 10
0.0
 20
0.0
 30
0.0
  3
CDWK_PTTYP32
  1

  0
CIRCLE
  5
1CF
330
10B
100
AcDbEntity
  8
0
 62
     0
370
    -2
100
AcDbCircle
 10
0.0
 20
0.0
 30
0.0
 40
0.5
  0
CIRCLE
  5
1D0
330
10B
100
AcDbEntity
  8
0
 62
     0
370
    -2
100
AcDbCircle
 10
0.0
 20
0.0
 30
0.0
 40
0.16666667
  0
LINE
  5
1D1
330
10B
100
AcDbEntity
  8
0
 62
     0
370
    -2
100
AcDbLine
 10
0.11786893
 20
0.11786893
 30
0.0
 11
0.35360678
 21
0.35360678
 31
0.0
  0
LINE
  5
1D2
330
10B
100
AcDbEntity
  8
0
 62
     0
370
    -2
100
AcDbLine
 10
-0.11786893
 20
0.11786893
 30
0.0
 11
-0.35360678
 21
0.35360678
 31
0.0
  0
LINE
  5
1D3
330
10B
100
AcDbEntity
  8
0
 62
     0
370
    -2
100
AcDbLine
 10
0.11786893
 20
-0.11786893
 30
0.0
 11
0.35360678
 21
-0.35360678
 31
0.0
  0
LINE
  5
1D4
330
10B
100
AcDbEntity
  8
0
 62
     0
370
    -2
100
AcDbLine
 10
-0.11786893
 20
-0.11786893
 30
0.0
 11
-0.35360678
 21
-0.35360678
 31
0.0
  0
ENDBLK
  5
1D5
330
10B
100
AcDbEntity
  8
0
100
AcDbBlockEnd
  0
BLOCK
  5
1D6
330
10C
100
AcDbEntity
  8
0
100
AcDbBlockBegin
  2
CDWK_PTTYP33
 70
     0
 10
0.0
 20
0.0
 30
0.0
  3
CDWK_PTTYP33
  1

  0
CIRCLE
  5
1D7
330
10C
100
AcDbEntity
  8
0
 62
     0
370
    -2
100
AcDbCircle
 10
0.0
 20
0.0
 30
0.0
 40
0.5
  0
LINE
  5
1D8
330
10C
100
AcDbEntity
  8
0
 62
     0
370
    -2
100
AcDbLine
 10
0.0
 20
0.5
 30
0.0
 11
0.0
 21
-0.5
 31
0.0
  0
LINE
  5
1D9
330
10C
100
AcDbEntity
  8
0
 62
     0
370
    -2
100
AcDbLine
 10
-0.5
 20
0.0
 30
0.0
 11
0.5
 21
0.0
 31
0.0
  0
ENDBLK
  5
1DA
330
10C
100
AcDbEntity
  8
0
100
AcDbBlockEnd
  0
BLOCK
  5
1DB
330
10D
100
AcDbEntity
  8
0
100
AcDbBlockBegin
  2
CDWK_PTTYP34
 70
     0
 10
0.0
 20
0.0
 30
0.0
  3
CDWK_PTTYP34
  1

  0
CIRCLE
  5
1DC
330
10D
100
AcDbEntity
  8
0
 62
     0
370
    -2
100
AcDbCircle
 10
0.0
 20
0.0
 30
0.0
 40
0.5
  0
LINE
  5
1DD
330
10D
100
AcDbEntity
  8
0
 62
     0
370
    -2
100
AcDbLine
 10
-0.30360678
 20
-0.40360678
 30
0.0
 11
0.40360678
 21
0.30360678
 31
0.0
  0
LINE
  5
1DE
330
10D
100
AcDbEntity
  8
0
 62
     0
370
    -2
100
AcDbLine
 10
-0.40360678
 20
-0.30360678
 30
0.0
 11
0.30360678
 21
0.40360678
 31
0.0
  0
ENDBLK
  5
1DF
330
10D
100
AcDbEntity
  8
0
100
AcDbBlockEnd
  0
BLOCK
  5
1E0
330
10E
100
AcDbEntity
  8
0
100
AcDbBlockBegin
  2
CDWK_PTTYP35
 70
     0
 10
0.0
 20
0.0
 30
0.0
  3
CDWK_PTTYP35
  1

  0
CIRCLE
  5
1E1
330
10E
100
AcDbEntity
  8
0
 62
     0
370
    -2
100
AcDbCircle
 10
0.0
 20
0.0
 30
0.0
 40
0.21431634
  0
LINE
  5
1E2
330
10E
100
AcDbEntity
  8
0
 62
     0
370
    -2
100
AcDbLine
 10
0.0
 20
0.21431634
 30
0.0
 11
0.0
 21
0.5
 31
0.0
  0
LINE
  5
1E3
330
10E
100
AcDbEntity
  8
0
 62
     0
370
    -2
100
AcDbLine
 10
0.0
 20
-0.21431634
 30
0.0
 11
0.0
 21
-0.5
 31
0.0
  0
ENDBLK
  5
1E4
330
10E
100
AcDbEntity
  8
0
100
AcDbBlockEnd
  0
BLOCK
  5
1E5
330
10F
100
AcDbEntity
  8
0
100
AcDbBlockBegin
  2
CDWK_PTTYP36
 70
     0
 10
0.0
 20
0.0
 30
0.0
  3
CDWK_PTTYP36
  1

  0
LINE
  5
1E6
330
10F
100
AcDbEntity
  8
0
 62
     0
370
    -2
100
AcDbLine
 10
-0.5
 20
-0.16666667
 30
0.0
 11
0.5
 21
-0.16666667
 31
0.0
  0
LINE
  5
1E7
330
10F
100
AcDbEntity
  8
0
 62
     0
370
    -2
100
AcDbLine
 10
0.5
 20
-0.16666667
 30
0.0
 11
0.5
 21
0.16666667
 31
0.0
  0
LINE
  5
1E8
330
10F
100
AcDbEntity
  8
0
 62
     0
370
    -2
100
AcDbLine
 10
0.5
 20
0.16666667
 30
0.0
 11
-0.5
 21
0.16666667
 31
0.0
  0
LINE
  5
1E9
330
10F
100
AcDbEntity
  8
0
 62
     0
370
    -2
100
AcDbLine
 10
-0.5
 20
0.16666667
 30
0.0
 11
-0.5
 21
-0.16666667
 31
0.0
  0
SOLID
  5
1EA
330
10F
100
AcDbEntity
  8
0
 62
     0
100
AcDbTrace
 10
-0.5
 20
-0.16666667
 30
0.0
 11
0.5
 21
0.16666667
 31
0.0
 12
0.5
 22
-0.16666667
 32
0.0
 13
0.5
 23
-0.16666667
 33
0.0
  0
ENDBLK
  5
1EB
330
10F
100
AcDbEntity
  8
0
100
AcDbBlockEnd
  0
BLOCK
  5
1EC
330
110
100
AcDbEntity
  8
0
100
AcDbBlockBegin
  2
CDWK_PTTYP37
 70
     0
 10
0.0
 20
0.0
 30
0.0
  3
CDWK_PTTYP37
  1

  0
CIRCLE
  5
1ED
330
110
100
AcDbEntity
  8
0
 62
     0
370
    -2
100
AcDbCircle
 10
0.0
 20
0.0
 30
0.0
 40
0.5
  0
SOLID
  5
1EE
330
110
100
AcDbEntity
  8
0
 62
     0
100
AcDbTrace
 10
0.0
 20
0.0
 30
0.0
 11
0.3535000099999999
 21
0.3535000099999999
 31
0.0
 12
0.5
 22
0.0
 32
0.0
 13
0.4620000100000001
 23
0.19149999
 33
0.0
  0
SOLID
  5
1EF
330
110
100
AcDbEntity
  8
0
 62
     0
100
AcDbTrace
 10
0.0
 20
0.0
 30
0.0
 11
0.3535000099999999
 21
-0.3535000099999999
 31
0.0
 12
0.5
 22
0.0
 32
0.0
 13
0.4620000100000001
 23
-0.19149999
 33
0.0
  0
SOLID
  5
1F0
330
110
100
AcDbEntity
  8
0
 62
     0
100
AcDbTrace
 10
0.0
 20
0.0
 30
0.0
 11
0.0
 21
-0.5
 31
0.0
 12
0.3535000099999999
 22
-0.3535000099999999
 32
0.0
 13
0.19149999
 23
-0.4620000100000001
 33
0.0
  0
SOLID
  5
1F1
330
110
100
AcDbEntity
  8
0
 62
     0
100
AcDbTrace
 10
0.0
 20
0.0
 30
0.0
 11
0.0
 21
-0.5
 31
0.0
 12
-0.3535000099999999
 22
-0.3535000099999999
 32
0.0
 13
-0.19149999
 23
-0.4620000100000001
 33
0.0
  0
ENDBLK
  5
1F2
330
110
100
AcDbEntity
  8
0
100
AcDbBlockEnd
  0
BLOCK
  5
1F3
330
111
100
AcDbEntity
  8
0
100
AcDbBlockBegin
  2
CDWK_PTTYP38
 70
     0
 10
0.0
 20
0.0
 30
0.0
  3
CDWK_PTTYP38
  1

  0
CIRCLE
  5
1F4
330
111
100
AcDbEntity
  8
0
 62
     0
370
    -2
100
AcDbCircle
 10
0.0
 20
0.0
 30
0.0
 40
0.5
  0
SOLID
  5
1F5
330
111
100
AcDbEntity
  8
0
 62
     0
100
AcDbTrace
 10
0.0
 20
0.0
 30
0.0
 11
0.3535000099999999
 21
0.3535000099999999
 31
0.0
 12
0.0
 22
0.5
 32
0.0
 13
0.19149999
 23
0.4620000100000001
 33
0.0
  0
SOLID
  5
1F6
330
111
100
AcDbEntity
  8
0
 62
     0
100
AcDbTrace
 10
0.0
 20
0.0
 30
0.0
 11
0.5
 21
0.0
 31
0.0
 12
0.3535000099999999
 22
0.3535000099999999
 32
0.0
 13
0.4620000100000001
 23
0.19149999
 33
0.0
  0
SOLID
  5
1F7
330
111
100
AcDbEntity
  8
0
 62
     0
100
AcDbTrace
 10
0.0
 20
0.0
 30
0.0
 11
0.0
 21
-0.5
 31
0.0
 12
-0.3535000099999999
 22
-0.3535000099999999
 32
0.0
 13
-0.19149999
 23
-0.4620000100000001
 33
0.0
  0
SOLID
  5
1F8
330
111
100
AcDbEntity
  8
0
 62
     0
100
AcDbTrace
 10
0.0
 20
0.0
 30
0.0
 11
-0.5
 21
0.0
 31
0.0
 12
-0.3535000099999999
 22
-0.3535000099999999
 32
0.0
 13
-0.4620000100000001
 23
-0.19149999
 33
0.0
  0
ENDBLK
  5
1F9
330
111
100
AcDbEntity
  8
0
100
AcDbBlockEnd
  0
BLOCK
  5
1FA
330
112
100
AcDbEntity
  8
Ech.1_5
100
AcDbBlockBegin
  2
*X45
 70
     1
 10
0.0
 20
0.0
 30
0.0
  3
*X45
  1

  0
ENDBLK
  5
1FB
330
112
100
AcDbEntity
  8
0
100
AcDbBlockEnd
  0
BLOCK
  5
1FC
330
113
100
AcDbEntity
  8
Ech.1_5
100
AcDbBlockBegin
  2
*X46
 70
     1
 10
0.0
 20
0.0
 30
0.0
  3
*X46
  1

  0
ENDBLK
  5
1FD
330
113
100
AcDbEntity
  8
0
100
AcDbBlockEnd
  0
BLOCK
  5
1FE
330
114
100
AcDbEntity
  8
Ech.1_5
100
AcDbBlockBegin
  2
*X47
 70
     1
 10
0.0
 20
0.0
 30
0.0
  3
*X47
  1

  0
ENDBLK
  5
1FF
330
114
100
AcDbEntity
  8
0
100
AcDbBlockEnd
  0
BLOCK
  5
200
330
115
100
AcDbEntity
  8
Ech.1_5
100
AcDbBlockBegin
  2
*X48
 70
     1
 10
0.0
 20
0.0
 30
0.0
  3
*X48
  1

  0
ENDBLK
  5
201
330
115
100
AcDbEntity
  8
0
100
AcDbBlockEnd
  0
BLOCK
  5
202
330
116
100
AcDbEntity
  8
Ech.1_5
100
AcDbBlockBegin
  2
*X49
 70
     1
 10
0.0
 20
0.0
 30
0.0
  3
*X49
  1

  0
LINE
  5
203
330
116
100
AcDbEntity
  8
Ech.1_5
  6
Continuous
 62
     7
370
    -2
100
AcDbLine
 10
43296.70210599999
 20
10790.78241331
 30
0.0
 11
43320.31994109
 21
10565.26012358
 31
0.0
  0
LINE
  5
204
330
116
100
AcDbEntity
  8
Ech.1_5
  6
Continuous
 62
     7
370
    -2
100
AcDbLine
 10
43268.50952716999
 20
10565.26012358
 30
0.0
 11
43348.51251991
 21
10790.78241331
 31
0.0
  0
ENDBLK
  5
205
330
116
100
AcDbEntity
  8
0
100
AcDbBlockEnd
  0
BLOCK
  5
206
330
117
100
AcDbEntity
  8
Ech.1_5
100
AcDbBlockBegin
  2
*X50
 70
     1
 10
0.0
 20
0.0
 30
0.0
  3
*X50
  1

  0
LINE
  5
207
330
117
100
AcDbEntity
  8
Ech.1_5
  6
Continuous
 62
     7
370
    -2
100
AcDbLine
 10
43847.46876262
 20
10875.43613351
 30
0.0
 11
43997.89031937
 21
10696.06740103
 31
0.0
  0
LINE
  5
208
330
117
100
AcDbEntity
  8
Ech.1_5
  6
Continuous
 62
     7
370
    -2
100
AcDbLine
 10
43922.71360266
 20
10668.7027827
 30
0.0
 11
43922.64547933
 21
10902.79813172
 31
0.0
  0
ENDBLK
  5
209
330
117
100
AcDbEntity
  8
0
100
AcDbBlockEnd
  0
BLOCK
  5
20A
330
118
100
AcDbEntity
  8
Ech.1_5
100
AcDbBlockBegin
  2
*D51
 70
     1
 10
0.0
 20
0.0
 30
0.0
  3
*D51
  1

  0
TEXT
  5
20B
330
118
100
AcDbEntity
  8
Ech.1_5
 62
     7
370
    18
100
AcDbText
 10
43719.15075128
 20
10842.65254347
 30
0.0
 40
25.0
  1
2/3*
 50
290.00000195
  7
ARIAL
100
AcDbText
  0
LINE
  5
20C
330
118
100
AcDbEntity
  8
Ech.1_5
 62
     7
370
    -2
100
AcDbLine
 10
43686.40407966
 20
10932.62328429
 30
0.0
 11
43397.79106121
 21
10827.57673635
 31
0.0
  0
LINE
  5
20D
330
118
100
AcDbEntity
  8
Ech.1_5
 62
     7
370
    -2
100
AcDbLine
 10
43761.6485112
 20
10725.89090772
 30
0.0
 11
43473.03549275
 21
10620.84435978
 31
0.0
  0
LINE
  5
20E
330
118
100
AcDbEntity
  8
Ech.1_5
 62
     7
370
    -2
100
AcDbLine
 10
43679.99551583999
 20
10935.61164668
 30
0.0
 11
43758.66014880999
 21
10719.4823439
 31
0.0
  0
LINE
  5
20F
330
118
100
AcDbEntity
  8
Ech.1_5
 62
     7
370
    -2
100
AcDbLine
 10
43678.50133464999
 20
10932.40736477
 30
0.0
 11
43684.90989847
 21
10929.41900238
 31
0.0
  0
LINE
  5
210
330
118
100
AcDbEntity
  8
Ech.1_5
 62
     7
370
    -2
100
AcDbLine
 10
43753.74576618
 20
10725.6749882
 30
0.0
 11
43760.15433
 21
10722.68662581
 31
0.0
  0
ENDBLK
  5
211
330
118
100
AcDbEntity
  8
0
100
AcDbBlockEnd
  0
BLOCK
  5
212
330
119
100
AcDbEntity
  8
Ech.1_5
100
AcDbBlockBegin
  2
*D52
 70
     1
 10
0.0
 20
0.0
 30
0.0
  3
*D52
  1

  0
TEXT
  5
213
330
119
100
AcDbEntity
  8
Ech.1_5
 62
     7
370
    18
100
AcDbText
 10
43782.93751961
 20
10667.39983725
 30
0.0
 40
25.0
  1
1/3*
 50
290.00000195
  7
ARIAL
100
AcDbText
  0
LINE
  5
214
330
119
100
AcDbEntity
  8
Ech.1_5
 62
     7
370
    -2
100
AcDbLine
 10
43761.6485112
 20
10725.89090772
 30
0.0
 11
43473.03549275
 21
10620.84435978
 31
0.0
  0
LINE
  5
215
330
119
100
AcDbEntity
  8
Ech.1_5
 62
     7
370
    -2
100
AcDbLine
 10
43813.97761634
 20
10582.11787185
 30
0.0
 11
43778.7992768
 21
10569.31400285
 31
0.0
  0
LINE
  5
216
330
119
100
AcDbEntity
  8
Ech.1_5
 62
     7
370
    -2
100
AcDbLine
 10
43755.23994738999
 20
10728.87927011
 30
0.0
 11
43810.98925394
 21
10575.70930803
 31
0.0
  0
LINE
  5
217
330
119
100
AcDbEntity
  8
Ech.1_5
 62
     7
370
    -2
100
AcDbLine
 10
43753.74576618999
 20
10725.6749882
 30
0.0
 11
43760.15433
 21
10722.6866258
 31
0.0
  0
LINE
  5
218
330
119
100
AcDbEntity
  8
Ech.1_5
 62
     7
370
    -2
100
AcDbLine
 10
43806.07487131999
 20
10581.90195234
 30
0.0
 11
43812.48343513999
 21
10578.91358994
 31
0.0
  0
ENDBLK
  5
219
330
119
100
AcDbEntity
  8
0
100
AcDbBlockEnd
  0
BLOCK
  5
21A
330
11A
100
AcDbEntity
  8
Ech.1_1
100
AcDbBlockBegin
  2
A$C42653196
 70
     0
 10
0.0
 20
0.0
 30
0.0
  3
A$C42653196
  1

  0
HATCH
  5
21B
330
11A
100
AcDbEntity
  8
Ech.1_1
 62
    44
100
AcDbHatch
 10
0.0
 20
0.0
 30
0.0
210
0.0
220
0.0
230
1.0
  2
USER
 70
     0
 71
     0
 91
        1
 92
        7
 72
     0
 73
     1
 93
       60
 10
117.85866598
 20
6.04795498
 10
118.14635307
 20
5.78124937
 10
118.4722202
 20
5.56283153
 10
118.82824344
 20
5.398079619999999
 10
119.20565633
 20
5.291050389999999
 10
119.5951657
 20
5.244379249999999
 10
124.72676034
 20
5.03534633
 10
125.62869615
 20
5.164793069999999
 10
126.42433621
 20
5.608866899999999
 10
127.00798837
 20
6.308577429999999
 10
127.30212077
 20
7.170975709999999
 10
127.26766112
 20
8.081501499999999
 10
124.91726737
 20
18.53878175
 10
126.98610403
 20
18.45450873
 10
130.05096074
 20
4.81846771
 10
129.92885851
 20
1.820953569999999
 10
124.3723648
 20
0.54605058
 10
124.43341592
 20
2.04480765
 10
118.87692221
 20
0.76990466
 10
118.93797332
 20
2.268661729999999
 10
113.38147961
 20
0.9937587399999999
 10
113.44253072
 20
2.492515809999999
 10
101.95205983
 20
2.960574349999999
 10
56.38917232
 20
1.634266009999999
 10
3.24601796
 20
0.08730066
 10
1.746653069999999
 20
0.04365504
 10
0.24728819
 20
0.0000094313872978
 10
-0.0000369506597053
 20
8.49641045
 10
0.05985995
 20
8.96187585
 10
0.26066201
 20
9.386050589999999
 10
0.58271332
 20
9.727413489999999
 10
0.9944892600000001
 20
9.95254957
 10
1.45568232
 20
10.03942095
 10
1.92114772
 20
9.979524039999999
 10
2.34532246
 20
9.77872198
 10
2.686685359999999
 20
9.456670669999999
 10
2.91182144
 20
9.04489474
 10
2.99869282
 20
8.58370168
 10
3.15872673
 20
3.08603043
 10
51.97358749
 20
4.507001749999999
 10
56.22913839999999
 20
7.131937259999999
 10
100.77828017
 20
8.42873606
 10
101.21970253
 20
8.508696479999999
 10
101.61773883
 20
8.715613069999999
 10
101.93678738
 20
9.030978559999999
 10
102.14831145
 20
9.42658561
 10
102.23339163
 20
9.867049839999999
 10
102.50151985
 20
16.449388
 10
102.59374007
 20
16.90954135
 10
102.82364192
 20
17.31867558
 10
103.16872101
 20
17.63674177
 10
103.59519858
 20
17.83260539
 10
104.06132804
 20
17.88709396
 10
104.52148139
 20
17.79487373
 10
104.93061561
 20
17.56497188
 10
105.24868181
 20
17.2198928
 10
105.44454543
 20
16.79341523
 10
105.499034
 20
16.32728577
 10
105.45833325
 20
15.32811439
 10
110.41348942
 20
14.1254393
 97
        0
 75
     0
 76
     2
 52
0.0
 41
1.0
 77
     0
 78
     1
 53
132.66740417
 43
0.0
 44
0.0
 45
-2.57355095
 46
-2.372095079999999
 79
     2
 49
50.0
 49
0.0
 47
0.775229
 98
        1
 10
0.0
 20
0.0
  0
ARC
  5
21C
330
11A
100
AcDbEntity
  8
Ech.1_1
  6
Continuous
 62
    44
100
AcDbCircle
 10
1.499327939999999
 20
8.540056059999999
 30
0.0
 40
1.5
100
AcDbArc
 50
1.66737493
 51
91.66737494000001
  0
ARC
  5
21D
330
11A
100
AcDbEntity
  8
Ech.1_1
  6
Continuous
 62
    44
100
AcDbCircle
 10
1.499327939999999
 20
8.540056059999999
 30
0.0
 40
1.5
100
AcDbArc
 50
91.66737494999999
 51
181.66738495
  0
ARC
  5
21E
330
11A
100
AcDbEntity
  8
Ech.1_1
  6
Continuous
 62
    44
100
AcDbCircle
 10
119.69691755
 20
7.7423077
 30
0.0
 40
2.5
100
AcDbArc
 50
222.66738496
 51
267.66738494
  0
ARC
  5
21F
330
11A
100
AcDbEntity
  8
Ech.1_1
  6
Continuous
 62
    44
100
AcDbCircle
 10
124.82851219
 20
7.53327478
 30
0.0
 40
2.5
100
AcDbArc
 50
267.66738496
 51
12.66737494
  0
ARC
  5
220
330
11A
100
AcDbEntity
  8
Ech.1_1
  6
Continuous
 62
    44
100
AcDbCircle
 10
100.73463456
 20
9.928100949999999
 30
0.0
 40
1.5
100
AcDbArc
 50
271.66738495
 51
357.66738496
  0
CIRCLE
  5
221
330
11A
100
AcDbEntity
  8
Ech.1_1
  6
Continuous
 62
    44
100
AcDbCircle
 10
46.27791422
 20
8.20582032
 30
0.0
 40
1.28741883
  0
CIRCLE
  5
222
330
11A
100
AcDbEntity
  8
Ech.1_1
  6
Continuous
 62
    44
100
AcDbCircle
 10
33.43004406
 20
7.08585325
 30
0.0
 40
1.28741883
  0
CIRCLE
  5
223
330
11A
100
AcDbEntity
  8
Ech.1_1
  6
Continuous
 62
    44
100
AcDbCircle
 10
18.68870005
 20
7.80056724
 30
0.0
 40
1.28741883
  0
CIRCLE
  5
224
330
11A
100
AcDbEntity
  8
Ech.1_1
  6
Continuous
 62
    44
100
AcDbCircle
 10
8.064858759999999
 20
10.57466976
 30
0.0
 40
1.28741883
  0
CIRCLE
  5
225
330
11A
100
AcDbEntity
  8
Ech.1_1
  6
Continuous
 62
    44
100
AcDbCircle
 10
9.809947199999999
 20
20.67124156
 30
0.0
 40
1.28741883
  0
CIRCLE
  5
226
330
11A
100
AcDbEntity
  8
Ech.1_1
  6
Continuous
 62
    44
100
AcDbCircle
 10
23.86159679
 20
29.98222429
 30
0.0
 40
1.28741883
  0
CIRCLE
  5
227
330
11A
100
AcDbEntity
  8
Ech.1_1
  6
Continuous
 62
    44
100
AcDbCircle
 10
28.22193483
 20
31.84932759
 30
0.0
 40
0.6942115300000001
  0
CIRCLE
  5
228
330
11A
100
AcDbEntity
  8
Ech.1_1
  6
Continuous
 62
    44
100
AcDbCircle
 10
21.25902975
 20
25.0323453
 30
0.0
 40
0.6942115300000001
  0
CIRCLE
  5
229
330
11A
100
AcDbEntity
  8
Ech.1_1
  6
Continuous
 62
    44
100
AcDbCircle
 10
15.94132338
 20
26.61815435
 30
0.0
 40
0.6942115300000001
  0
CIRCLE
  5
22A
330
11A
100
AcDbEntity
  8
Ech.1_1
  6
Continuous
 62
    44
100
AcDbCircle
 10
6.7341394
 20
16.60275473
 30
0.0
 40
0.6942115300000001
  0
CIRCLE
  5
22B
330
11A
100
AcDbEntity
  8
Ech.1_1
  6
Continuous
 62
    44
100
AcDbCircle
 10
11.26200347
 20
7.981805149999999
 30
0.0
 40
0.6942115300000001
  0
CIRCLE
  5
22C
330
11A
100
AcDbEntity
  8
Ech.1_1
  6
Continuous
 62
    44
100
AcDbCircle
 10
14.81113978
 20
5.648272379999999
 30
0.0
 40
0.6942115300000001
  0
CIRCLE
  5
22D
330
11A
100
AcDbEntity
  8
Ech.1_1
  6
Continuous
 62
    44
100
AcDbCircle
 10
24.58745367
 20
8.071311709999999
 30
0.0
 40
0.6942115300000001
  0
CIRCLE
  5
22E
330
11A
100
AcDbEntity
  8
Ech.1_1
  6
Continuous
 62
    44
100
AcDbCircle
 10
41.67917679
 20
8.61857307
 30
0.0
 40
0.6942115300000001
  0
CIRCLE
  5
22F
330
11A
100
AcDbEntity
  8
Ech.1_1
  6
Continuous
 62
    44
100
AcDbCircle
 10
37.76621757
 20
6.366212479999999
 30
0.0
 40
0.6942115300000001
  0
CIRCLE
  5
230
330
11A
100
AcDbEntity
  8
Ech.1_1
  6
Continuous
 62
    44
100
AcDbCircle
 10
28.50346921
 20
34.32757278
 30
0.0
 40
0.3440962
  0
CIRCLE
  5
231
330
11A
100
AcDbEntity
  8
Ech.1_1
  6
Continuous
 62
    44
100
AcDbCircle
 10
29.88413787
 20
33.02501134
 30
0.0
 40
0.3440962
  0
CIRCLE
  5
232
330
11A
100
AcDbEntity
  8
Ech.1_1
  6
Continuous
 62
    44
100
AcDbCircle
 10
30.04426683
 20
30.94094745
 30
0.0
 40
0.3440962
  0
CIRCLE
  5
233
330
11A
100
AcDbEntity
  8
Ech.1_1
  6
Continuous
 62
    44
100
AcDbCircle
 10
27.70979845
 20
29.13238819
 30
0.0
 40
0.3440962
  0
CIRCLE
  5
234
330
11A
100
AcDbEntity
  8
Ech.1_1
  6
Continuous
 62
    44
100
AcDbCircle
 10
26.99202498
 20
33.28894452
 30
0.0
 40
0.3440962
  0
CIRCLE
  5
235
330
11A
100
AcDbEntity
  8
Ech.1_1
  6
Continuous
 62
    44
100
AcDbCircle
 10
25.34938039
 20
33.34059123
 30
0.0
 40
0.3440962
  0
CIRCLE
  5
236
330
11A
100
AcDbEntity
  8
Ech.1_1
  6
Continuous
 62
    44
100
AcDbCircle
 10
25.96394651
 20
31.02109798
 30
0.0
 40
0.3440962
  0
CIRCLE
  5
237
330
11A
100
AcDbEntity
  8
Ech.1_1
  6
Continuous
 62
    44
100
AcDbCircle
 10
26.05217873
 20
27.99004175
 30
0.0
 40
0.3440962
  0
CIRCLE
  5
238
330
11A
100
AcDbEntity
  8
Ech.1_1
  6
Continuous
 62
    44
100
AcDbCircle
 10
23.5628563
 20
26.37590098
 30
0.0
 40
0.3440962
  0
CIRCLE
  5
239
330
11A
100
AcDbEntity
  8
Ech.1_1
  6
Continuous
 62
    44
100
AcDbCircle
 10
21.66019304
 20
26.81783111
 30
0.0
 40
0.3440962
  0
CIRCLE
  5
23A
330
11A
100
AcDbEntity
  8
Ech.1_1
  6
Continuous
 62
    44
100
AcDbCircle
 10
21.50295695
 20
28.8025161
 30
0.0
 40
0.3440962
  0
CIRCLE
  5
23B
330
11A
100
AcDbEntity
  8
Ech.1_1
  6
Continuous
 62
    44
100
AcDbCircle
 10
22.94931183
 20
32.07716945
 30
0.0
 40
0.3440962
  0
CIRCLE
  5
23C
330
11A
100
AcDbEntity
  8
Ech.1_1
  6
Continuous
 62
    44
100
AcDbCircle
 10
20.27135662
 20
30.10941683
 30
0.0
 40
0.3440962
  0
CIRCLE
  5
23D
330
11A
100
AcDbEntity
  8
Ech.1_1
  6
Continuous
 62
    44
100
AcDbCircle
 10
17.5832764
 20
28.48949035
 30
0.0
 40
0.3440962
  0
CIRCLE
  5
23E
330
11A
100
AcDbEntity
  8
Ech.1_1
  6
Continuous
 62
    44
100
AcDbCircle
 10
19.38511434
 20
28.09435681
 30
0.0
 40
0.3440962
  0
CIRCLE
  5
23F
330
11A
100
AcDbEntity
  8
Ech.1_1
  6
Continuous
 62
    44
100
AcDbCircle
 10
18.14815308
 20
26.16855067
 30
0.0
 40
0.3440962
  0
CIRCLE
  5
240
330
11A
100
AcDbEntity
  8
Ech.1_1
  6
Continuous
 62
    44
100
AcDbCircle
 10
19.5037216
 20
24.01982221
 30
0.0
 40
0.3440962
  0
CIRCLE
  5
241
330
11A
100
AcDbEntity
  8
Ech.1_1
  6
Continuous
 62
    44
100
AcDbCircle
 10
18.11479914
 20
22.18905567
 30
0.0
 40
0.3440962
  0
CIRCLE
  5
242
330
11A
100
AcDbEntity
  8
Ech.1_1
  6
Continuous
 62
    44
100
AcDbCircle
 10
16.41574378
 20
24.17859078
 30
0.0
 40
0.3440962
  0
CIRCLE
  5
243
330
11A
100
AcDbEntity
  8
Ech.1_1
  6
Continuous
 62
    44
100
AcDbCircle
 10
13.68912077
 20
25.59116695
 30
0.0
 40
0.3440962
  0
CIRCLE
  5
244
330
11A
100
AcDbEntity
  8
Ech.1_1
  6
Continuous
 62
    44
100
AcDbCircle
 10
11.05217643
 20
23.92299745
 30
0.0
 40
0.3440962
  0
CIRCLE
  5
245
330
11A
100
AcDbEntity
  8
Ech.1_1
  6
Continuous
 62
    44
100
AcDbCircle
 10
13.34367668
 20
23.79077544
 30
0.0
 40
0.3440962
  0
CIRCLE
  5
246
330
11A
100
AcDbEntity
  8
Ech.1_1
  6
Continuous
 62
    44
100
AcDbCircle
 10
14.77548122
 20
22.43997099
 30
0.0
 40
0.3440962
  0
CIRCLE
  5
247
330
11A
100
AcDbEntity
  8
Ech.1_1
  6
Continuous
 62
    44
100
AcDbCircle
 10
14.73395953
 20
20.44950027
 30
0.0
 40
0.3440962
  0
CIRCLE
  5
248
330
11A
100
AcDbEntity
  8
Ech.1_1
  6
Continuous
 62
    44
100
AcDbCircle
 10
12.67065649
 20
21.28460668
 30
0.0
 40
0.3440962
  0
CIRCLE
  5
249
330
11A
100
AcDbEntity
  8
Ech.1_1
  6
Continuous
 62
    44
100
AcDbCircle
 10
12.20073337
 20
18.63515529
 30
0.0
 40
0.3440962
  0
CIRCLE
  5
24A
330
11A
100
AcDbEntity
  8
Ech.1_1
  6
Continuous
 62
    44
100
AcDbCircle
 10
10.57255308
 20
18.18990753
 30
0.0
 40
0.3440962
  0
CIRCLE
  5
24B
330
11A
100
AcDbEntity
  8
Ech.1_1
  6
Continuous
 62
    44
100
AcDbCircle
 10
7.522693259999999
 20
18.7476381
 30
0.0
 40
0.3440962
  0
CIRCLE
  5
24C
330
11A
100
AcDbEntity
  8
Ech.1_1
  6
Continuous
 62
    44
100
AcDbCircle
 10
8.17546343
 20
21.94945912
 30
0.0
 40
0.3440962
  0
CIRCLE
  5
24D
330
11A
100
AcDbEntity
  8
Ech.1_1
  6
Continuous
 62
    44
100
AcDbCircle
 10
6.216303349999999
 20
19.20692539
 30
0.0
 40
0.3440962
  0
CIRCLE
  5
24E
330
11A
100
AcDbEntity
  8
Ech.1_1
  6
Continuous
 62
    44
100
AcDbCircle
 10
5.16891047
 20
15.89415404
 30
0.0
 40
0.3440962
  0
CIRCLE
  5
24F
330
11A
100
AcDbEntity
  8
Ech.1_1
  6
Continuous
 62
    44
100
AcDbCircle
 10
5.537922209999999
 20
13.46804974
 30
0.0
 40
0.3440962
  0
CIRCLE
  5
250
330
11A
100
AcDbEntity
  8
Ech.1_1
  6
Continuous
 62
    44
100
AcDbCircle
 10
6.09267388
 20
11.49493619
 30
0.0
 40
0.3440962
  0
CIRCLE
  5
251
330
11A
100
AcDbEntity
  8
Ech.1_1
  6
Continuous
 62
    44
100
AcDbCircle
 10
7.740168579999999
 20
12.98510875
 30
0.0
 40
0.3440962
  0
CIRCLE
  5
252
330
11A
100
AcDbEntity
  8
Ech.1_1
  6
Continuous
 62
    44
100
AcDbCircle
 10
7.3035994
 20
14.31515237
 30
0.0
 40
0.3440962
  0
CIRCLE
  5
253
330
11A
100
AcDbEntity
  8
Ech.1_1
  6
Continuous
 62
    44
100
AcDbCircle
 10
8.869583199999999
 20
16.89704632
 30
0.0
 40
0.3440962
  0
CIRCLE
  5
254
330
11A
100
AcDbEntity
  8
Ech.1_1
  6
Continuous
 62
    44
100
AcDbCircle
 10
10.30283417
 20
15.49655241
 30
0.0
 40
0.3440962
  0
CIRCLE
  5
255
330
11A
100
AcDbEntity
  8
Ech.1_1
  6
Continuous
 62
    44
100
AcDbCircle
 10
9.013290599999999
 20
13.66867874
 30
0.0
 40
0.3440962
  0
CIRCLE
  5
256
330
11A
100
AcDbEntity
  8
Ech.1_1
  6
Continuous
 62
    44
100
AcDbCircle
 10
10.84261071
 20
12.32944572
 30
0.0
 40
0.3440962
  0
CIRCLE
  5
257
330
11A
100
AcDbEntity
  8
Ech.1_1
  6
Continuous
 62
    44
100
AcDbCircle
 10
10.39634129
 20
10.5758508
 30
0.0
 40
0.3440962
  0
CIRCLE
  5
258
330
11A
100
AcDbEntity
  8
Ech.1_1
  6
Continuous
 62
    44
100
AcDbCircle
 10
11.7977708
 20
10.26852471
 30
0.0
 40
0.3440962
  0
CIRCLE
  5
259
330
11A
100
AcDbEntity
  8
Ech.1_1
  6
Continuous
 62
    44
100
AcDbCircle
 10
9.46185599
 20
8.50965489
 30
0.0
 40
0.3440962
  0
CIRCLE
  5
25A
330
11A
100
AcDbEntity
  8
Ech.1_1
  6
Continuous
 62
    44
100
AcDbCircle
 10
10.61577387
 20
6.45451961
 30
0.0
 40
0.3440962
  0
CIRCLE
  5
25B
330
11A
100
AcDbEntity
  8
Ech.1_1
  6
Continuous
 62
    44
100
AcDbCircle
 10
12.33848294
 20
5.360840959999999
 30
0.0
 40
0.3440962
  0
CIRCLE
  5
25C
330
11A
100
AcDbEntity
  8
Ech.1_1
  6
Continuous
 62
    44
100
AcDbCircle
 10
13.88081303
 20
7.04687845
 30
0.0
 40
0.3440962
  0
CIRCLE
  5
25D
330
11A
100
AcDbEntity
  8
Ech.1_1
  6
Continuous
 62
    44
100
AcDbCircle
 10
13.04383542
 20
8.464729509999999
 30
0.0
 40
0.3440962
  0
CIRCLE
  5
25E
330
11A
100
AcDbEntity
  8
Ech.1_1
  6
Continuous
 62
    44
100
AcDbCircle
 10
15.44773244
 20
7.88819535
 30
0.0
 40
0.3440962
  0
CIRCLE
  5
25F
330
11A
100
AcDbEntity
  8
Ech.1_1
  6
Continuous
 62
    44
100
AcDbCircle
 10
17.10866979
 20
5.499698239999999
 30
0.0
 40
0.3440962
  0
CIRCLE
  5
260
330
11A
100
AcDbEntity
  8
Ech.1_1
  6
Continuous
 62
    44
100
AcDbCircle
 10
19.34758774
 20
5.4654087
 30
0.0
 40
0.3440962
  0
CIRCLE
  5
261
330
11A
100
AcDbEntity
  8
Ech.1_1
  6
Continuous
 62
    44
100
AcDbCircle
 10
21.4538589
 20
6.571083559999999
 30
0.0
 40
0.3440962
  0
CIRCLE
  5
262
330
11A
100
AcDbEntity
  8
Ech.1_1
  6
Continuous
 62
    44
100
AcDbCircle
 10
21.79785656
 20
8.42116451
 30
0.0
 40
0.3440962
  0
CIRCLE
  5
263
330
11A
100
AcDbEntity
  8
Ech.1_1
  6
Continuous
 62
    44
100
AcDbCircle
 10
22.89919214
 20
6.463961689999999
 30
0.0
 40
0.3440962
  0
CIRCLE
  5
264
330
11A
100
AcDbEntity
  8
Ech.1_1
  6
Continuous
 62
    44
100
AcDbCircle
 10
24.47572572
 20
5.266564859999999
 30
0.0
 40
0.3440962
  0
CIRCLE
  5
265
330
11A
100
AcDbEntity
  8
Ech.1_1
  6
Continuous
 62
    44
100
AcDbCircle
 10
26.43437498
 20
6.318210989999999
 30
0.0
 40
0.3440962
  0
CIRCLE
  5
266
330
11A
100
AcDbEntity
  8
Ech.1_1
  6
Continuous
 62
    44
100
AcDbCircle
 10
26.92454812
 20
8.272010119999999
 30
0.0
 40
0.3440962
  0
CIRCLE
  5
267
330
11A
100
AcDbEntity
  8
Ech.1_1
  6
Continuous
 62
    44
100
AcDbCircle
 10
30.04630466
 20
8.66127189
 30
0.0
 40
0.3440962
  0
CIRCLE
  5
268
330
11A
100
AcDbEntity
  8
Ech.1_1
  6
Continuous
 62
    44
100
AcDbCircle
 10
30.35260909
 20
6.68092619
 30
0.0
 40
0.3440962
  0
CIRCLE
  5
269
330
11A
100
AcDbEntity
  8
Ech.1_1
  6
Continuous
 62
    44
100
AcDbCircle
 10
28.79198623
 20
7.33173911
 30
0.0
 40
0.3440962
  0
CIRCLE
  5
26A
330
11A
100
AcDbEntity
  8
Ech.1_1
  6
Continuous
 62
    44
100
AcDbCircle
 10
27.99933712
 20
5.518329729999999
 30
0.0
 40
0.3440962
  0
CIRCLE
  5
26B
330
11A
100
AcDbEntity
  8
Ech.1_1
  6
Continuous
 62
    44
100
AcDbCircle
 10
31.53988091
 20
8.6052859
 30
0.0
 40
0.3440962
  0
CIRCLE
  5
26C
330
11A
100
AcDbEntity
  8
Ech.1_1
  6
Continuous
 62
    44
100
AcDbCircle
 10
34.55791927
 20
9.140723149999999
 30
0.0
 40
0.3440962
  0
CIRCLE
  5
26D
330
11A
100
AcDbEntity
  8
Ech.1_1
  6
Continuous
 62
    44
100
AcDbCircle
 10
37.15189549
 20
8.86811138
 30
0.0
 40
0.3440962
  0
CIRCLE
  5
26E
330
11A
100
AcDbEntity
  8
Ech.1_1
  6
Continuous
 62
    44
100
AcDbCircle
 10
39.42893144
 20
9.232783839999999
 30
0.0
 40
0.3440962
  0
CIRCLE
  5
26F
330
11A
100
AcDbEntity
  8
Ech.1_1
  6
Continuous
 62
    44
100
AcDbCircle
 10
39.37728474
 20
7.59013925
 30
0.0
 40
0.3440962
  0
CIRCLE
  5
270
330
11A
100
AcDbEntity
  8
Ech.1_1
  6
Continuous
 62
    44
100
AcDbCircle
 10
36.29075334
 20
7.699218369999999
 30
0.0
 40
0.3440962
  0
CIRCLE
  5
271
330
11A
100
AcDbEntity
  8
Ech.1_1
  6
Continuous
 62
    44
100
AcDbCircle
 10
35.30485754
 20
6.13219059
 30
0.0
 40
0.3440962
  0
CIRCLE
  5
272
330
11A
100
AcDbEntity
  8
Ech.1_1
  6
Continuous
 62
    44
100
AcDbCircle
 10
39.82370429999999
 20
6.363194609999999
 30
0.0
 40
0.3440962
  0
CIRCLE
  5
273
330
11A
100
AcDbEntity
  8
Ech.1_1
  6
Continuous
 62
    44
100
AcDbCircle
 10
41.95339297
 20
6.222913229999999
 30
0.0
 40
0.3440962
  0
CIRCLE
  5
274
330
11A
100
AcDbEntity
  8
Ech.1_1
  6
Continuous
 62
    44
100
AcDbCircle
 10
43.70367026
 20
9.30748737
 30
0.0
 40
0.3440962
  0
CIRCLE
  5
275
330
11A
100
AcDbEntity
  8
Ech.1_1
  6
Continuous
 62
    44
100
AcDbCircle
 10
43.27331156999999
 20
7.00730854
 30
0.0
 40
0.3440962
  0
CIRCLE
  5
276
330
11A
100
AcDbEntity
  8
Ech.1_1
  6
Continuous
 62
    44
100
AcDbCircle
 10
44.89374888999999
 20
6.010115919999999
 30
0.0
 40
0.3440962
  0
CIRCLE
  5
277
330
11A
100
AcDbEntity
  8
Ech.1_1
  6
Continuous
 62
    44
100
AcDbCircle
 10
47.92335869
 20
6.148037599999999
 30
0.0
 40
0.3440962
  0
CIRCLE
  5
278
330
11A
100
AcDbEntity
  8
Ech.1_1
  6
Continuous
 62
    44
100
AcDbCircle
 10
49.19988439
 20
8.4231163
 30
0.0
 40
0.3440962
  0
CIRCLE
  5
279
330
11A
100
AcDbEntity
  8
Ech.1_1
  6
Continuous
 62
    44
100
AcDbCircle
 10
48.27365289
 20
9.49024838
 30
0.0
 40
0.3440962
  0
CIRCLE
  5
27A
330
11A
100
AcDbEntity
  8
Ech.1_1
  6
Continuous
 62
    44
100
AcDbCircle
 10
28.49002109
 20
9.16301647
 30
0.0
 40
0.3440962
  0
CIRCLE
  5
27B
330
11A
100
AcDbEntity
  8
Ech.1_1
  6
Continuous
 62
    44
100
AcDbCircle
 10
14.1678891
 20
9.143960209999999
 30
0.0
 40
0.3440962
  0
ARC
  5
27C
330
11A
100
AcDbEntity
  8
Ech.1_1
  6
Continuous
 62
    44
100
AcDbCircle
 10
27.42266169
 20
31.80419951
 30
0.0
 40
4.5
100
AcDbArc
 50
1.66737494
 51
91.66737494000001
  0
ARC
  5
27D
330
11A
100
AcDbEntity
  8
Ech.1_1
  6
Continuous
 62
    44
100
AcDbCircle
 10
27.42266169
 20
31.80419951
 30
0.0
 40
4.5
100
AcDbArc
 50
91.66737494000001
 51
123.12490237
  0
ARC
  5
27E
330
11A
100
AcDbEntity
  8
Ech.1_1
  6
Continuous
 62
    44
100
AcDbCircle
 10
16.42218118
 20
14.47678111
 30
0.0
 40
4.0
100
AcDbArc
 50
181.66738495
 51
271.66738496
  0
ARC
  5
27F
330
11A
100
AcDbEntity
  8
Ech.1_1
  6
Continuous
 62
    44
100
AcDbCircle
 10
27.42266169
 20
31.80419951
 30
0.0
 40
4.5
100
AcDbArc
 50
303.12491239
 51
1.66737494
  0
ARC
  5
280
330
11A
100
AcDbEntity
  8
Ech.1_1
  6
Continuous
 62
    44
100
AcDbCircle
 10
16.42218118
 20
14.47678111
 30
0.0
 40
4.0
100
AcDbArc
 50
123.12490237
 51
181.66738496
  0
ARC
  5
281
330
11A
100
AcDbEntity
  8
Ech.1_1
  6
Continuous
 62
    44
100
AcDbCircle
 10
47.62728355
 20
7.88196601
 30
0.0
 40
3.5
100
AcDbArc
 50
1.66737494
 51
91.66737492999999
  0
ARC
  5
282
330
11A
100
AcDbEntity
  8
Ech.1_1
  6
Continuous
 62
    44
100
AcDbCircle
 10
47.62728355
 20
7.88196601
 30
0.0
 40
3.5
100
AcDbArc
 50
271.66738496
 51
1.66737493
  0
ARC
  5
283
330
11A
100
AcDbEntity
  8
Ech.1_1
  6
Continuous
 62
    44
100
AcDbCircle
 10
15.12019226
 20
15.1575562
 30
0.0
 40
11.71837091
100
AcDbArc
 50
123.12490237
 51
181.66738495
  0
ARC
  5
284
330
11A
100
AcDbEntity
  8
Ech.1_1
  6
Continuous
 62
    44
100
AcDbCircle
 10
15.12019226
 20
15.1575562
 30
0.0
 40
10.96837091
100
AcDbArc
 50
123.12490238
 51
271.66738495
  0
ARC
  5
285
330
11A
100
AcDbEntity
  8
Ech.1_1
  6
Continuous
 62
    44
100
AcDbCircle
 10
27.42266169
 20
31.80419951
 30
0.0
 40
3.75
100
AcDbArc
 50
91.66737494000001
 51
123.12490237
  0
ARC
  5
286
330
11A
100
AcDbEntity
  8
Ech.1_1
  6
Continuous
 62
    44
100
AcDbCircle
 10
27.42266169
 20
31.80419951
 30
0.0
 40
3.75
100
AcDbArc
 50
1.66737494
 51
91.66737492999999
  0
ARC
  5
287
330
11A
100
AcDbEntity
  8
Ech.1_1
  6
Continuous
 62
    44
100
AcDbCircle
 10
27.42266169
 20
31.80419951
 30
0.0
 40
3.75
100
AcDbArc
 50
303.12491239
 51
1.66737494
  0
ARC
  5
288
330
11A
100
AcDbEntity
  8
Ech.1_1
  6
Continuous
 62
    44
100
AcDbCircle
 10
16.42218118
 20
14.47678111
 30
0.0
 40
4.75
100
AcDbArc
 50
123.12490237
 51
181.66738496
  0
ARC
  5
289
330
11A
100
AcDbEntity
  8
Ech.1_1
  6
Continuous
 62
    44
100
AcDbCircle
 10
16.42218118
 20
14.47678111
 30
0.0
 40
4.75
100
AcDbArc
 50
181.66738496
 51
271.66738495
  0
ARC
  5
28A
330
11A
100
AcDbEntity
  8
Ech.1_1
  6
Continuous
 62
    44
100
AcDbCircle
 10
47.62728355
 20
7.88196601
 30
0.0
 40
2.75
100
AcDbArc
 50
1.66737493
 51
91.66737494000001
  0
ARC
  5
28B
330
11A
100
AcDbEntity
  8
Ech.1_1
  6
Continuous
 62
    44
100
AcDbCircle
 10
47.62728355
 20
7.88196601
 30
0.0
 40
2.75
100
AcDbArc
 50
271.66738496
 51
1.66737493
  0
ARC
  5
28C
330
11A
100
AcDbEntity
  8
Ech.1_1
  6
Continuous
 62
    44
100
AcDbCircle
 10
15.12019226
 20
15.1575562
 30
0.0
 40
11.71837091
100
AcDbArc
 50
181.66738495
 51
271.66738495
  0
ARC
  5
28D
330
11A
100
AcDbEntity
  8
Ech.1_1
  6
Continuous
 62
    44
100
AcDbCircle
 10
104.00027692
 20
16.38833688
 30
0.0
 40
1.5
100
AcDbArc
 50
87.66737494
 51
177.66737493
  0
ARC
  5
28E
330
11A
100
AcDbEntity
  8
Ech.1_1
  6
Continuous
 62
    44
100
AcDbCircle
 10
104.00027692
 20
16.38833688
 30
0.0
 40
1.5
100
AcDbArc
 50
357.66738495
 51
87.66737494999999
  0
LINE
  5
28F
330
11A
100
AcDbEntity
  8
Ech.1_1
  6
Continuous
 62
    44
100
AcDbLine
 10
29.88175872
 20
28.03553373
 30
0.0
 11
14.23631716
 21
17.82670626
 31
0.0
  0
LINE
  5
290
330
11A
100
AcDbEntity
  8
Ech.1_1
  6
Continuous
 62
    44
100
AcDbLine
 10
8.71650091
 20
24.97147255
 30
0.0
 11
24.96356467
 21
35.5728653
 31
0.0
  0
LINE
  5
291
330
11A
100
AcDbEntity
  8
Ech.1_1
  6
Continuous
 62
    44
100
AcDbLine
 10
16.53856948
 20
10.47847475
 30
0.0
 11
47.52544378999999
 21
11.38048408
 31
0.0
  0
LINE
  5
292
330
11A
100
AcDbEntity
  8
Ech.1_1
  6
Continuous
 62
    44
100
AcDbLine
 10
15.46116258
 20
3.444146959999999
 30
0.0
 11
31.23610957
 21
3.90334621
 31
0.0
  0
LINE
  5
293
330
11A
100
AcDbEntity
  8
Ech.1_1
  6
Continuous
 62
    44
100
AcDbLine
 10
9.12635041
 20
24.34336158
 30
0.0
 11
25.37341417
 21
34.94475434
 31
0.0
  0
LINE
  5
294
330
11A
100
AcDbEntity
  8
Ech.1_1
  6
Continuous
 62
    44
100
AcDbLine
 10
29.47190922
 20
28.66364469
 30
0.0
 11
13.82646765
 21
18.45481722
 31
0.0
  0
LINE
  5
295
330
11A
100
AcDbEntity
  8
Ech.1_1
  6
Continuous
 62
    44
100
AcDbLine
 10
16.56039229
 20
9.728792309999999
 30
0.0
 11
47.54726659
 21
10.63080164
 31
0.0
  0
LINE
  5
296
330
11A
100
AcDbEntity
  8
Ech.1_1
  6
Continuous
 62
    44
100
AcDbLine
 10
47.70730051
 20
5.133130389999999
 30
0.0
 11
42.06938694
 21
4.969014109999999
 31
0.0
  0
LINE
  5
297
330
11A
100
AcDbEntity
  8
Ech.1_1
  6
Continuous
 62
    44
100
AcDbLine
 10
31.23610957
 20
3.90334621
 30
0.0
 11
41.03099867
 21
4.188469549999999
 31
0.0
  0
LINE
  5
298
330
11A
100
AcDbEntity
  8
Ech.1_1
  6
Continuous
 62
    44
100
AcDbLine
 10
41.78068111
 20
4.21029236
 30
0.0
 11
47.72912330999999
 21
4.383447949999999
 31
0.0
  0
LINE
  5
299
330
11A
100
AcDbEntity
  8
Ech.1_1
  6
Continuous
 62
    44
100
AcDbLine
 10
41.03099867
 20
4.188469549999999
 30
0.0
 11
41.00917586
 21
4.938151999999999
 31
0.0
  0
LINE
  5
29A
330
11A
100
AcDbEntity
  8
Ech.1_1
  6
Continuous
 62
    44
100
AcDbLine
 10
41.00917586
 20
4.938151999999999
 30
0.0
 11
31.21428676
 21
4.65302865
 31
0.0
  0
LINE
  5
29B
330
11A
100
AcDbEntity
  8
Ech.1_1
  6
Continuous
 62
    44
100
AcDbLine
 10
42.06938694
 20
4.969014109999999
 30
0.0
 11
41.29788169
 21
5.69687374
 31
0.0
  0
LINE
  5
29C
330
11A
100
AcDbEntity
  8
Ech.1_1
  6
Continuous
 62
    44
100
AcDbLine
 10
41.78068111
 20
4.21029236
 30
0.0
 11
41.00917586
 21
4.938151999999999
 31
0.0
  0
LINE
  5
29D
330
11A
100
AcDbEntity
  8
Ech.1_1
  6
Continuous
 62
    44
100
AcDbLine
 10
41.29788169
 20
5.69687374
 30
0.0
 11
31.19246396
 21
5.40271109
 31
0.0
  0
LINE
  5
29E
330
11A
100
AcDbEntity
  8
Ech.1_1
  6
Continuous
 62
    44
100
AcDbLine
 10
31.19246396
 20
5.40271109
 30
0.0
 11
31.21428676
 21
4.65302865
 31
0.0
  0
LINE
  5
29F
330
11A
100
AcDbEntity
  8
Ech.1_1
  6
Continuous
 62
    44
100
AcDbLine
 10
31.21428676
 20
4.65302865
 30
0.0
 11
15.43933977
 21
4.1938294
 31
0.0
  0
LINE
  5
2A0
330
11A
100
AcDbEntity
  8
Ech.1_1
  6
Continuous
 62
    44
100
AcDbLine
 10
3.15872673
 20
3.08603043
 30
0.0
 11
51.97358749
 21
4.507001749999999
 31
0.0
  0
LINE
  5
2A1
330
11A
100
AcDbEntity
  8
Ech.1_1
  6
Continuous
 62
    44
100
AcDbLine
 10
1.746653069999999
 20
0.04365504
 30
0.0
 11
0.24728819
 21
0.0000094313872978
 31
0.0
  0
LINE
  5
2A2
330
11A
100
AcDbEntity
  8
Ech.1_1
  6
Continuous
 62
    44
100
AcDbLine
 10
3.24601796
 20
0.08730066
 30
0.0
 11
1.746653069999999
 21
0.04365504
 31
0.0
  0
LINE
  5
2A3
330
11A
100
AcDbEntity
  8
Ech.1_1
  6
Continuous
 62
    44
100
AcDbLine
 10
124.3723648
 20
0.54605058
 30
0.0
 11
129.92885851
 21
1.820953569999999
 31
0.0
  0
LINE
  5
2A4
330
11A
100
AcDbEntity
  8
Ech.1_1
  6
Continuous
 62
    44
100
AcDbLine
 10
124.43341592
 20
2.04480765
 30
0.0
 11
124.3723648
 21
0.54605058
 31
0.0
  0
LINE
  5
2A5
330
11A
100
AcDbEntity
  8
Ech.1_1
  6
Continuous
 62
    44
100
AcDbLine
 10
118.87692221
 20
0.76990466
 30
0.0
 11
124.43341592
 21
2.04480765
 31
0.0
  0
LINE
  5
2A6
330
11A
100
AcDbEntity
  8
Ech.1_1
  6
Continuous
 62
    44
100
AcDbLine
 10
118.93797332
 20
2.268661729999999
 30
0.0
 11
118.87692221
 21
0.76990466
 31
0.0
  0
LINE
  5
2A7
330
11A
100
AcDbEntity
  8
Ech.1_1
  6
Continuous
 62
    44
100
AcDbLine
 10
113.38147961
 20
0.9937587399999999
 30
0.0
 11
118.93797332
 21
2.268661729999999
 31
0.0
  0
LINE
  5
2A8
330
11A
100
AcDbEntity
  8
Ech.1_1
  6
Continuous
 62
    44
100
AcDbLine
 10
113.44253072
 20
2.492515809999999
 30
0.0
 11
113.38147961
 21
0.9937587399999999
 31
0.0
  0
LINE
  5
2A9
330
11A
100
AcDbEntity
  8
Ech.1_1
  6
Continuous
 62
    44
100
AcDbLine
 10
101.95205983
 20
2.960574349999999
 30
0.0
 11
113.44253072
 21
2.492515809999999
 31
0.0
  0
LINE
  5
2AA
330
11A
100
AcDbEntity
  8
Ech.1_1
  6
Continuous
 62
    44
100
AcDbLine
 10
2.99869282
 20
8.58370168
 30
0.0
 11
3.15872673
 21
3.08603043
 31
0.0
  0
LINE
  5
2AB
330
11A
100
AcDbEntity
  8
Ech.1_1
  6
Continuous
 62
    44
100
AcDbLine
 10
0.24728819
 20
0.0000094313872978
 30
0.0
 11
-0.0000369506597053
 21
8.49641045
 31
0.0
  0
LINE
  5
2AC
330
11A
100
AcDbEntity
  8
Ech.1_1
  6
Continuous
 62
    44
100
AcDbLine
 10
101.95205983
 20
2.960574349999999
 30
0.0
 11
56.38917232
 21
1.634266009999999
 31
0.0
  0
LINE
  5
2AD
330
11A
100
AcDbEntity
  8
Ech.1_1
  6
Continuous
 62
    44
100
AcDbLine
 10
51.97358749
 20
4.507001749999999
 30
0.0
 11
56.22913839999999
 21
7.131937259999999
 31
0.0
  0
LINE
  5
2AE
330
11A
100
AcDbEntity
  8
Ech.1_1
  6
Continuous
 62
    44
100
AcDbLine
 10
56.22913839999999
 20
7.131937259999999
 30
0.0
 11
100.77828017
 21
8.42873606
 31
0.0
  0
LINE
  5
2AF
330
11A
100
AcDbEntity
  8
Ech.1_1
  6
Continuous
 62
    44
100
AcDbLine
 10
129.92885851
 20
1.820953569999999
 30
0.0
 11
130.05096074
 21
4.81846771
 31
0.0
  0
LINE
  5
2B0
330
11A
100
AcDbEntity
  8
Ech.1_1
  6
Continuous
 62
    44
100
AcDbLine
 10
102.23339163
 20
9.867049839999999
 30
0.0
 11
102.50151985
 21
16.449388
 31
0.0
  0
LINE
  5
2B1
330
11A
100
AcDbEntity
  8
Ech.1_1
  6
Continuous
 62
    44
100
AcDbLine
 10
105.45833325
 20
15.32811439
 30
0.0
 11
105.499034
 21
16.32728577
 31
0.0
  0
LINE
  5
2B2
330
11A
100
AcDbEntity
  8
Ech.1_1
  6
Continuous
 62
    44
100
AcDbLine
 10
105.45833325
 20
15.32811439
 30
0.0
 11
110.41348942
 21
14.1254393
 31
0.0
  0
LINE
  5
2B3
330
11A
100
AcDbEntity
  8
Ech.1_1
  6
Continuous
 62
    44
100
AcDbLine
 10
110.41348942
 20
14.1254393
 30
0.0
 11
117.85866598
 21
6.04795498
 31
0.0
  0
LINE
  5
2B4
330
11A
100
AcDbEntity
  8
Ech.1_1
  6
Continuous
 62
    44
100
AcDbLine
 10
119.5951657
 20
5.244379249999999
 30
0.0
 11
124.72676034
 21
5.03534633
 31
0.0
  0
LINE
  5
2B5
330
11A
100
AcDbEntity
  8
Ech.1_1
  6
Continuous
 62
    44
100
AcDbLine
 10
127.26766112
 20
8.081501499999999
 30
0.0
 11
124.91726737
 21
18.53878175
 31
0.0
  0
LINE
  5
2B6
330
11A
100
AcDbEntity
  8
Ech.1_1
  6
Continuous
 62
    44
100
AcDbLine
 10
130.05096074
 20
4.81846771
 30
0.0
 11
126.98610403
 21
18.45450873
 31
0.0
  0
LINE
  5
2B7
330
11A
100
AcDbEntity
  8
Ech.1_1
  6
Continuous
 62
    44
100
AcDbLine
 10
56.38917232
 20
1.634266009999999
 30
0.0
 11
3.24601796
 21
0.08730066
 31
0.0
  0
LINE
  5
2B8
330
11A
100
AcDbEntity
  8
Ech.1_1
  6
Continuous
 62
    44
100
AcDbLine
 10
32.14644786
 20
3.92984561
 30
0.0
 11
6.407350649999999
 21
3.18059592
 31
0.0
  0
LINE
  5
2B9
330
11A
100
AcDbEntity
  8
Ech.1_1
  6
Continuous
 62
    44
100
AcDbLine
 10
124.91726737
 20
18.53878175
 30
0.0
 11
126.98610403
 21
18.45450873
 31
0.0
  0
ENDBLK
  5
2BA
330
11A
100
AcDbEntity
  8
0
100
AcDbBlockEnd
  0
BLOCK
  5
2BB
330
11B
100
AcDbEntity
  8
Ech.1_1
100
AcDbBlockBegin
  2
A$C3F0A7B51
 70
     0
 10
0.0
 20
0.0
 30
0.0
  3
A$C3F0A7B51
  1

  0
HATCH
  5
2BC
330
11B
100
AcDbEntity
  8
Ech.1_1
 62
    44
100
AcDbHatch
 10
0.0
 20
0.0
 30
0.0
210
0.0
220
0.0
230
1.0
  2
USER
 70
     0
 71
     0
 91
        1
 92
        7
 72
     0
 73
     1
 93
       60
 10
12.19228711
 20
30.25432773
 10
11.90460002
 20
30.52103334
 10
11.57873289
 20
30.73945119
 10
11.22270964
 20
30.90420309
 10
10.84529676
 20
31.01123232
 10
10.45578739
 20
31.05790347
 10
5.324192749999999
 20
31.26693638
 10
4.422256929999999
 20
31.13748964
 10
3.626616879999999
 20
30.69341582
 10
3.04296472
 20
29.99370528
 10
2.748832319999999
 20
29.131307
 10
2.78329197
 20
28.22078122
 10
5.133685709999999
 20
17.76350096
 10
3.064849049999999
 20
17.84777398
 10
-0.0000076553988038
 20
31.48381500000001
 10
0.12209457
 20
34.48132915
 10
5.678588279999999
 20
35.75623214
 10
5.61753717
 20
34.25747506
 10
11.17403088
 20
35.53237805
 10
11.11297977
 20
34.03362098000001
 10
16.66947348
 20
35.30852397
 10
16.60842237
 20
33.8097669
 10
28.09889325
 20
33.34170837
 10
73.66178076999999
 20
34.66801670000001
 10
126.80493513
 20
36.21498206
 10
128.30430001
 20
36.25862767
 10
129.8036649
 20
36.30227328
 10
130.05099004
 20
27.80587226
 10
129.99109313
 20
27.34040686
 10
129.79029107
 20
26.91623213
 10
129.46823976
 20
26.57486922
 10
129.05646383
 20
26.34973314
 10
128.59527076
 20
26.26286176
 10
128.12980536
 20
26.32275867
 10
127.70563063
 20
26.52356073
 10
127.36426772
 20
26.84561204
 10
127.13913164
 20
27.25738798
 10
127.05226026
 20
27.71858104
 10
126.89222635
 20
33.21625229
 10
78.07736559999999
 20
31.79528096
 10
73.82181468
 20
29.17034545
 10
29.27267292
 20
27.87354665
 10
28.83125055
 20
27.79358624
 10
28.43321426
 20
27.58666964
 10
28.1141657
 20
27.27130415
 10
27.90264164
 20
26.8756971
 10
27.81756146
 20
26.43523288
 10
27.54943323
 20
19.85289472
 10
27.45721301
 20
19.39274137
 10
27.22731116
 20
18.98360714
 10
26.88223208
 20
18.66554094
 10
26.45575451
 20
18.46967732
 10
25.98962505
 20
18.41518876
 10
25.5294717
 20
18.50740898
 10
25.12033747
 20
18.73731083
 10
24.80227128
 20
19.08238991
 10
24.60640765
 20
19.50886748
 10
24.55191909
 20
19.97499694
 10
24.59261983
 20
20.97416833
 10
19.63746367
 20
22.17684342
 97
        0
 75
     0
 76
     2
 52
0.0
 41
1.0
 77
     0
 78
     1
 53
132.66740417
 43
0.0
 44
0.0
 45
-2.57355095
 46
-2.372095079999999
 79
     2
 49
50.0
 49
0.0
 47
0.775229
 98
        1
 10
0.0
 20
0.0
  0
ARC
  5
2BD
330
11B
100
AcDbEntity
  8
Ech.1_1
  6
Continuous
 62
    44
100
AcDbCircle
 10
128.55162515
 20
27.76222665
 30
0.0
 40
1.5
100
AcDbArc
 50
181.66738496
 51
271.66738495
  0
ARC
  5
2BE
330
11B
100
AcDbEntity
  8
Ech.1_1
  6
Continuous
 62
    44
100
AcDbCircle
 10
128.55162515
 20
27.76222665
 30
0.0
 40
1.5
100
AcDbArc
 50
271.66738495
 51
1.66737494
  0
ARC
  5
2BF
330
11B
100
AcDbEntity
  8
Ech.1_1
  6
Continuous
 62
    44
100
AcDbCircle
 10
10.35403553
 20
28.55997501
 30
0.0
 40
2.5
100
AcDbArc
 50
42.66737495
 51
87.66737492
  0
ARC
  5
2C0
330
11B
100
AcDbEntity
  8
Ech.1_1
  6
Continuous
 62
    44
100
AcDbCircle
 10
5.222440889999999
 20
28.76900793
 30
0.0
 40
2.5
100
AcDbArc
 50
87.66737492999999
 51
192.66738496
  0
ARC
  5
2C1
330
11B
100
AcDbEntity
  8
Ech.1_1
  6
Continuous
 62
    44
100
AcDbCircle
 10
29.31631853
 20
26.37418177
 30
0.0
 40
1.5
100
AcDbArc
 50
91.66737492999999
 51
177.66737493
  0
CIRCLE
  5
2C2
330
11B
100
AcDbEntity
  8
Ech.1_1
  6
Continuous
 62
    44
100
AcDbCircle
 10
83.77303887
 20
28.0964624
 30
0.0
 40
1.28741883
  0
CIRCLE
  5
2C3
330
11B
100
AcDbEntity
  8
Ech.1_1
  6
Continuous
 62
    44
100
AcDbCircle
 10
96.62090903000001
 20
29.21642946
 30
0.0
 40
1.28741883
  0
CIRCLE
  5
2C4
330
11B
100
AcDbEntity
  8
Ech.1_1
  6
Continuous
 62
    44
100
AcDbCircle
 10
111.36225304
 20
28.50171547
 30
0.0
 40
1.28741883
  0
CIRCLE
  5
2C5
330
11B
100
AcDbEntity
  8
Ech.1_1
  6
Continuous
 62
    44
100
AcDbCircle
 10
121.98609433
 20
25.72761295
 30
0.0
 40
1.28741883
  0
CIRCLE
  5
2C6
330
11B
100
AcDbEntity
  8
Ech.1_1
  6
Continuous
 62
    44
100
AcDbCircle
 10
120.24100588
 20
15.63104116
 30
0.0
 40
1.28741883
  0
CIRCLE
  5
2C7
330
11B
100
AcDbEntity
  8
Ech.1_1
  6
Continuous
 62
    44
100
AcDbCircle
 10
106.1893563
 20
6.320058419999999
 30
0.0
 40
1.28741883
  0
CIRCLE
  5
2C8
330
11B
100
AcDbEntity
  8
Ech.1_1
  6
Continuous
 62
    44
100
AcDbCircle
 10
101.82901825
 20
4.45295513
 30
0.0
 40
0.6942115300000001
  0
CIRCLE
  5
2C9
330
11B
100
AcDbEntity
  8
Ech.1_1
  6
Continuous
 62
    44
100
AcDbCircle
 10
108.79192334
 20
11.26993741
 30
0.0
 40
0.6942115300000001
  0
CIRCLE
  5
2CA
330
11B
100
AcDbEntity
  8
Ech.1_1
  6
Continuous
 62
    44
100
AcDbCircle
 10
114.1096297
 20
9.684128369999999
 30
0.0
 40
0.6942115300000001
  0
CIRCLE
  5
2CB
330
11B
100
AcDbEntity
  8
Ech.1_1
  6
Continuous
 62
    44
100
AcDbCircle
 10
123.31681368
 20
19.69952798
 30
0.0
 40
0.6942115300000001
  0
CIRCLE
  5
2CC
330
11B
100
AcDbEntity
  8
Ech.1_1
  6
Continuous
 62
    44
100
AcDbCircle
 10
118.78894962
 20
28.32047756
 30
0.0
 40
0.6942115300000001
  0
CIRCLE
  5
2CD
330
11B
100
AcDbEntity
  8
Ech.1_1
  6
Continuous
 62
    44
100
AcDbCircle
 10
115.2398133
 20
30.65401033
 30
0.0
 40
0.6942115300000001
  0
CIRCLE
  5
2CE
330
11B
100
AcDbEntity
  8
Ech.1_1
  6
Continuous
 62
    44
100
AcDbCircle
 10
105.46349941
 20
28.230971
 30
0.0
 40
0.6942115300000001
  0
CIRCLE
  5
2CF
330
11B
100
AcDbEntity
  8
Ech.1_1
  6
Continuous
 62
    44
100
AcDbCircle
 10
88.37177629000001
 20
27.68370964
 30
0.0
 40
0.6942115300000001
  0
CIRCLE
  5
2D0
330
11B
100
AcDbEntity
  8
Ech.1_1
  6
Continuous
 62
    44
100
AcDbCircle
 10
92.28473551
 20
29.93607023
 30
0.0
 40
0.6942115300000001
  0
CIRCLE
  5
2D1
330
11B
100
AcDbEntity
  8
Ech.1_1
  6
Continuous
 62
    44
100
AcDbCircle
 10
101.54748387
 20
1.974709929999999
 30
0.0
 40
0.3440962
  0
CIRCLE
  5
2D2
330
11B
100
AcDbEntity
  8
Ech.1_1
  6
Continuous
 62
    44
100
AcDbCircle
 10
100.16681521
 20
3.277271369999999
 30
0.0
 40
0.3440962
  0
CIRCLE
  5
2D3
330
11B
100
AcDbEntity
  8
Ech.1_1
  6
Continuous
 62
    44
100
AcDbCircle
 10
100.00668626
 20
5.361335259999999
 30
0.0
 40
0.3440962
  0
CIRCLE
  5
2D4
330
11B
100
AcDbEntity
  8
Ech.1_1
  6
Continuous
 62
    44
100
AcDbCircle
 10
102.34115463
 20
7.169894519999999
 30
0.0
 40
0.3440962
  0
CIRCLE
  5
2D5
330
11B
100
AcDbEntity
  8
Ech.1_1
  6
Continuous
 62
    44
100
AcDbCircle
 10
103.05892811
 20
3.013338189999999
 30
0.0
 40
0.3440962
  0
CIRCLE
  5
2D6
330
11B
100
AcDbEntity
  8
Ech.1_1
  6
Continuous
 62
    44
100
AcDbCircle
 10
104.7015727
 20
2.96169149
 30
0.0
 40
0.3440962
  0
CIRCLE
  5
2D7
330
11B
100
AcDbEntity
  8
Ech.1_1
  6
Continuous
 62
    44
100
AcDbCircle
 10
104.08700658
 20
5.281184739999999
 30
0.0
 40
0.3440962
  0
CIRCLE
  5
2D8
330
11B
100
AcDbEntity
  8
Ech.1_1
  6
Continuous
 62
    44
100
AcDbCircle
 10
103.99877435
 20
8.31224096
 30
0.0
 40
0.3440962
  0
CIRCLE
  5
2D9
330
11B
100
AcDbEntity
  8
Ech.1_1
  6
Continuous
 62
    44
100
AcDbCircle
 10
106.48809679
 20
9.926381729999999
 30
0.0
 40
0.3440962
  0
CIRCLE
  5
2DA
330
11B
100
AcDbEntity
  8
Ech.1_1
  6
Continuous
 62
    44
100
AcDbCircle
 10
108.39076005
 20
9.48445161
 30
0.0
 40
0.3440962
  0
CIRCLE
  5
2DB
330
11B
100
AcDbEntity
  8
Ech.1_1
  6
Continuous
 62
    44
100
AcDbCircle
 10
108.54799614
 20
7.49976661
 30
0.0
 40
0.3440962
  0
CIRCLE
  5
2DC
330
11B
100
AcDbEntity
  8
Ech.1_1
  6
Continuous
 62
    44
100
AcDbCircle
 10
107.10164125
 20
4.225113269999999
 30
0.0
 40
0.3440962
  0
CIRCLE
  5
2DD
330
11B
100
AcDbEntity
  8
Ech.1_1
  6
Continuous
 62
    44
100
AcDbCircle
 10
109.77959646
 20
6.19286588
 30
0.0
 40
0.3440962
  0
CIRCLE
  5
2DE
330
11B
100
AcDbEntity
  8
Ech.1_1
  6
Continuous
 62
    44
100
AcDbCircle
 10
112.46767668
 20
7.81279237
 30
0.0
 40
0.3440962
  0
CIRCLE
  5
2DF
330
11B
100
AcDbEntity
  8
Ech.1_1
  6
Continuous
 62
    44
100
AcDbCircle
 10
110.66583874
 20
8.207925900000001
 30
0.0
 40
0.3440962
  0
CIRCLE
  5
2E0
330
11B
100
AcDbEntity
  8
Ech.1_1
  6
Continuous
 62
    44
100
AcDbCircle
 10
111.90280001
 20
10.13373204
 30
0.0
 40
0.3440962
  0
CIRCLE
  5
2E1
330
11B
100
AcDbEntity
  8
Ech.1_1
  6
Continuous
 62
    44
100
AcDbCircle
 10
110.54723148
 20
12.28246051
 30
0.0
 40
0.3440962
  0
CIRCLE
  5
2E2
330
11B
100
AcDbEntity
  8
Ech.1_1
  6
Continuous
 62
    44
100
AcDbCircle
 10
111.93615395
 20
14.11322704
 30
0.0
 40
0.3440962
  0
CIRCLE
  5
2E3
330
11B
100
AcDbEntity
  8
Ech.1_1
  6
Continuous
 62
    44
100
AcDbCircle
 10
113.63520931
 20
12.12369193
 30
0.0
 40
0.3440962
  0
CIRCLE
  5
2E4
330
11B
100
AcDbEntity
  8
Ech.1_1
  6
Continuous
 62
    44
100
AcDbCircle
 10
116.36183231
 20
10.71111576
 30
0.0
 40
0.3440962
  0
CIRCLE
  5
2E5
330
11B
100
AcDbEntity
  8
Ech.1_1
  6
Continuous
 62
    44
100
AcDbCircle
 10
118.99877666
 20
12.37928526
 30
0.0
 40
0.3440962
  0
CIRCLE
  5
2E6
330
11B
100
AcDbEntity
  8
Ech.1_1
  6
Continuous
 62
    44
100
AcDbCircle
 10
116.7072764
 20
12.51150727
 30
0.0
 40
0.3440962
  0
CIRCLE
  5
2E7
330
11B
100
AcDbEntity
  8
Ech.1_1
  6
Continuous
 62
    44
100
AcDbCircle
 10
115.27547187
 20
13.86231173
 30
0.0
 40
0.3440962
  0
CIRCLE
  5
2E8
330
11B
100
AcDbEntity
  8
Ech.1_1
  6
Continuous
 62
    44
100
AcDbCircle
 10
115.31699356
 20
15.85278244
 30
0.0
 40
0.3440962
  0
CIRCLE
  5
2E9
330
11B
100
AcDbEntity
  8
Ech.1_1
  6
Continuous
 62
    44
100
AcDbCircle
 10
117.3802966
 20
15.01767604
 30
0.0
 40
0.3440962
  0
CIRCLE
  5
2EA
330
11B
100
AcDbEntity
  8
Ech.1_1
  6
Continuous
 62
    44
100
AcDbCircle
 10
117.85021972
 20
17.66712742
 30
0.0
 40
0.3440962
  0
CIRCLE
  5
2EB
330
11B
100
AcDbEntity
  8
Ech.1_1
  6
Continuous
 62
    44
100
AcDbCircle
 10
119.47840001
 20
18.11237519
 30
0.0
 40
0.3440962
  0
CIRCLE
  5
2EC
330
11B
100
AcDbEntity
  8
Ech.1_1
  6
Continuous
 62
    44
100
AcDbCircle
 10
122.52825983
 20
17.55464461
 30
0.0
 40
0.3440962
  0
CIRCLE
  5
2ED
330
11B
100
AcDbEntity
  8
Ech.1_1
  6
Continuous
 62
    44
100
AcDbCircle
 10
121.87548965
 20
14.35282359
 30
0.0
 40
0.3440962
  0
CIRCLE
  5
2EE
330
11B
100
AcDbEntity
  8
Ech.1_1
  6
Continuous
 62
    44
100
AcDbCircle
 10
123.83464973
 20
17.09535733
 30
0.0
 40
0.3440962
  0
CIRCLE
  5
2EF
330
11B
100
AcDbEntity
  8
Ech.1_1
  6
Continuous
 62
    44
100
AcDbCircle
 10
124.88204262
 20
20.40812868
 30
0.0
 40
0.3440962
  0
CIRCLE
  5
2F0
330
11B
100
AcDbEntity
  8
Ech.1_1
  6
Continuous
 62
    44
100
AcDbCircle
 10
124.51303087
 20
22.83423297
 30
0.0
 40
0.3440962
  0
CIRCLE
  5
2F1
330
11B
100
AcDbEntity
  8
Ech.1_1
  6
Continuous
 62
    44
100
AcDbCircle
 10
123.95827921
 20
24.80734652
 30
0.0
 40
0.3440962
  0
CIRCLE
  5
2F2
330
11B
100
AcDbEntity
  8
Ech.1_1
  6
Continuous
 62
    44
100
AcDbCircle
 10
122.3107845
 20
23.31717396
 30
0.0
 40
0.3440962
  0
CIRCLE
  5
2F3
330
11B
100
AcDbEntity
  8
Ech.1_1
  6
Continuous
 62
    44
100
AcDbCircle
 10
122.74735368
 20
21.98713035
 30
0.0
 40
0.3440962
  0
CIRCLE
  5
2F4
330
11B
100
AcDbEntity
  8
Ech.1_1
  6
Continuous
 62
    44
100
AcDbCircle
 10
121.18136988
 20
19.40523639
 30
0.0
 40
0.3440962
  0
CIRCLE
  5
2F5
330
11B
100
AcDbEntity
  8
Ech.1_1
  6
Continuous
 62
    44
100
AcDbCircle
 10
119.74811892
 20
20.8057303
 30
0.0
 40
0.3440962
  0
CIRCLE
  5
2F6
330
11B
100
AcDbEntity
  8
Ech.1_1
  6
Continuous
 62
    44
100
AcDbCircle
 10
121.03766249
 20
22.63360398
 30
0.0
 40
0.3440962
  0
CIRCLE
  5
2F7
330
11B
100
AcDbEntity
  8
Ech.1_1
  6
Continuous
 62
    44
100
AcDbCircle
 10
119.20834238
 20
23.972837
 30
0.0
 40
0.3440962
  0
CIRCLE
  5
2F8
330
11B
100
AcDbEntity
  8
Ech.1_1
  6
Continuous
 62
    44
100
AcDbCircle
 10
119.65461179
 20
25.72643192
 30
0.0
 40
0.3440962
  0
CIRCLE
  5
2F9
330
11B
100
AcDbEntity
  8
Ech.1_1
  6
Continuous
 62
    44
100
AcDbCircle
 10
118.25318228
 20
26.033758
 30
0.0
 40
0.3440962
  0
CIRCLE
  5
2FA
330
11B
100
AcDbEntity
  8
Ech.1_1
  6
Continuous
 62
    44
100
AcDbCircle
 10
120.58909709
 20
27.79262782
 30
0.0
 40
0.3440962
  0
CIRCLE
  5
2FB
330
11B
100
AcDbEntity
  8
Ech.1_1
  6
Continuous
 62
    44
100
AcDbCircle
 10
119.43517921
 20
29.84776311
 30
0.0
 40
0.3440962
  0
CIRCLE
  5
2FC
330
11B
100
AcDbEntity
  8
Ech.1_1
  6
Continuous
 62
    44
100
AcDbCircle
 10
117.71247015
 20
30.94144175
 30
0.0
 40
0.3440962
  0
CIRCLE
  5
2FD
330
11B
100
AcDbEntity
  8
Ech.1_1
  6
Continuous
 62
    44
100
AcDbCircle
 10
116.17014005
 20
29.25540426
 30
0.0
 40
0.3440962
  0
CIRCLE
  5
2FE
330
11B
100
AcDbEntity
  8
Ech.1_1
  6
Continuous
 62
    44
100
AcDbCircle
 10
117.00711766
 20
27.8375532
 30
0.0
 40
0.3440962
  0
CIRCLE
  5
2FF
330
11B
100
AcDbEntity
  8
Ech.1_1
  6
Continuous
 62
    44
100
AcDbCircle
 10
114.60322065
 20
28.41408736
 30
0.0
 40
0.3440962
  0
CIRCLE
  5
300
330
11B
100
AcDbEntity
  8
Ech.1_1
  6
Continuous
 62
    44
100
AcDbCircle
 10
112.94228329
 20
30.80258447
 30
0.0
 40
0.3440962
  0
CIRCLE
  5
301
330
11B
100
AcDbEntity
  8
Ech.1_1
  6
Continuous
 62
    44
100
AcDbCircle
 10
110.70336535
 20
30.83687402
 30
0.0
 40
0.3440962
  0
CIRCLE
  5
302
330
11B
100
AcDbEntity
  8
Ech.1_1
  6
Continuous
 62
    44
100
AcDbCircle
 10
108.59709418
 20
29.73119915
 30
0.0
 40
0.3440962
  0
CIRCLE
  5
303
330
11B
100
AcDbEntity
  8
Ech.1_1
  6
Continuous
 62
    44
100
AcDbCircle
 10
108.25309652
 20
27.8811182
 30
0.0
 40
0.3440962
  0
CIRCLE
  5
304
330
11B
100
AcDbEntity
  8
Ech.1_1
  6
Continuous
 62
    44
100
AcDbCircle
 10
107.15176095
 20
29.83832102
 30
0.0
 40
0.3440962
  0
CIRCLE
  5
305
330
11B
100
AcDbEntity
  8
Ech.1_1
  6
Continuous
 62
    44
100
AcDbCircle
 10
105.57522736
 20
31.03571785
 30
0.0
 40
0.3440962
  0
CIRCLE
  5
306
330
11B
100
AcDbEntity
  8
Ech.1_1
  6
Continuous
 62
    44
100
AcDbCircle
 10
103.61657811
 20
29.98407173
 30
0.0
 40
0.3440962
  0
CIRCLE
  5
307
330
11B
100
AcDbEntity
  8
Ech.1_1
  6
Continuous
 62
    44
100
AcDbCircle
 10
103.12640497
 20
28.03027259
 30
0.0
 40
0.3440962
  0
CIRCLE
  5
308
330
11B
100
AcDbEntity
  8
Ech.1_1
  6
Continuous
 62
    44
100
AcDbCircle
 10
100.00464843
 20
27.64101082
 30
0.0
 40
0.3440962
  0
CIRCLE
  5
309
330
11B
100
AcDbEntity
  8
Ech.1_1
  6
Continuous
 62
    44
100
AcDbCircle
 10
99.69834399999999
 20
29.62135653
 30
0.0
 40
0.3440962
  0
CIRCLE
  5
30A
330
11B
100
AcDbEntity
  8
Ech.1_1
  6
Continuous
 62
    44
100
AcDbCircle
 10
101.25896685
 20
28.97054361
 30
0.0
 40
0.3440962
  0
CIRCLE
  5
30B
330
11B
100
AcDbEntity
  8
Ech.1_1
  6
Continuous
 62
    44
100
AcDbCircle
 10
102.05161596
 20
30.78395299
 30
0.0
 40
0.3440962
  0
CIRCLE
  5
30C
330
11B
100
AcDbEntity
  8
Ech.1_1
  6
Continuous
 62
    44
100
AcDbCircle
 10
98.51107218
 20
27.69699681
 30
0.0
 40
0.3440962
  0
CIRCLE
  5
30D
330
11B
100
AcDbEntity
  8
Ech.1_1
  6
Continuous
 62
    44
100
AcDbCircle
 10
95.49303381999999
 20
27.16155957
 30
0.0
 40
0.3440962
  0
CIRCLE
  5
30E
330
11B
100
AcDbEntity
  8
Ech.1_1
  6
Continuous
 62
    44
100
AcDbCircle
 10
92.89905759999999
 20
27.43417133
 30
0.0
 40
0.3440962
  0
CIRCLE
  5
30F
330
11B
100
AcDbEntity
  8
Ech.1_1
  6
Continuous
 62
    44
100
AcDbCircle
 10
90.62202164
 20
27.06949888
 30
0.0
 40
0.3440962
  0
CIRCLE
  5
310
330
11B
100
AcDbEntity
  8
Ech.1_1
  6
Continuous
 62
    44
100
AcDbCircle
 10
90.67366834999999
 20
28.71214347
 30
0.0
 40
0.3440962
  0
CIRCLE
  5
311
330
11B
100
AcDbEntity
  8
Ech.1_1
  6
Continuous
 62
    44
100
AcDbCircle
 10
93.76019974
 20
28.60306434
 30
0.0
 40
0.3440962
  0
CIRCLE
  5
312
330
11B
100
AcDbEntity
  8
Ech.1_1
  6
Continuous
 62
    44
100
AcDbCircle
 10
94.74609555
 20
30.17009212
 30
0.0
 40
0.3440962
  0
CIRCLE
  5
313
330
11B
100
AcDbEntity
  8
Ech.1_1
  6
Continuous
 62
    44
100
AcDbCircle
 10
90.22724879
 20
29.9390881
 30
0.0
 40
0.3440962
  0
CIRCLE
  5
314
330
11B
100
AcDbEntity
  8
Ech.1_1
  6
Continuous
 62
    44
100
AcDbCircle
 10
88.09756011000001
 20
30.07936948
 30
0.0
 40
0.3440962
  0
CIRCLE
  5
315
330
11B
100
AcDbEntity
  8
Ech.1_1
  6
Continuous
 62
    44
100
AcDbCircle
 10
86.34728282999999
 20
26.99479534
 30
0.0
 40
0.3440962
  0
CIRCLE
  5
316
330
11B
100
AcDbEntity
  8
Ech.1_1
  6
Continuous
 62
    44
100
AcDbCircle
 10
86.77764150999999
 20
29.29497418
 30
0.0
 40
0.3440962
  0
CIRCLE
  5
317
330
11B
100
AcDbEntity
  8
Ech.1_1
  6
Continuous
 62
    44
100
AcDbCircle
 10
85.15720419999999
 20
30.29216679
 30
0.0
 40
0.3440962
  0
CIRCLE
  5
318
330
11B
100
AcDbEntity
  8
Ech.1_1
  6
Continuous
 62
    44
100
AcDbCircle
 10
82.12759440000001
 20
30.15424511
 30
0.0
 40
0.3440962
  0
CIRCLE
  5
319
330
11B
100
AcDbEntity
  8
Ech.1_1
  6
Continuous
 62
    44
100
AcDbCircle
 10
80.8510687
 20
27.87916642
 30
0.0
 40
0.3440962
  0
CIRCLE
  5
31A
330
11B
100
AcDbEntity
  8
Ech.1_1
  6
Continuous
 62
    44
100
AcDbCircle
 10
81.77730019
 20
26.81203434
 30
0.0
 40
0.3440962
  0
CIRCLE
  5
31B
330
11B
100
AcDbEntity
  8
Ech.1_1
  6
Continuous
 62
    44
100
AcDbCircle
 10
101.56093199
 20
27.13926624
 30
0.0
 40
0.3440962
  0
CIRCLE
  5
31C
330
11B
100
AcDbEntity
  8
Ech.1_1
  6
Continuous
 62
    44
100
AcDbCircle
 10
115.88306399
 20
27.15832251
 30
0.0
 40
0.3440962
  0
ARC
  5
31D
330
11B
100
AcDbEntity
  8
Ech.1_1
  6
Continuous
 62
    44
100
AcDbCircle
 10
102.62829139
 20
4.498083199999999
 30
0.0
 40
4.5
100
AcDbArc
 50
181.66738495
 51
303.1249124
  0
ARC
  5
31E
330
11B
100
AcDbEntity
  8
Ech.1_1
  6
Continuous
 62
    44
100
AcDbCircle
 10
113.6287719
 20
21.8255016
 30
0.0
 40
4.0
100
AcDbArc
 50
1.66737494
 51
91.66737492999999
  0
ARC
  5
31F
330
11B
100
AcDbEntity
  8
Ech.1_1
  6
Continuous
 62
    44
100
AcDbCircle
 10
102.62829139
 20
4.498083199999999
 30
0.0
 40
4.5
100
AcDbArc
 50
123.12490237
 51
181.66738496
  0
ARC
  5
320
330
11B
100
AcDbEntity
  8
Ech.1_1
  6
Continuous
 62
    44
100
AcDbCircle
 10
113.62877191
 20
21.8255016
 30
0.0
 40
4.0
100
AcDbArc
 50
303.12491239
 51
1.66737494
  0
ARC
  5
321
330
11B
100
AcDbEntity
  8
Ech.1_1
  6
Continuous
 62
    44
100
AcDbCircle
 10
82.42366954000001
 20
28.4203167
 30
0.0
 40
3.5
100
AcDbArc
 50
181.66738495
 51
271.66738496
  0
ARC
  5
322
330
11B
100
AcDbEntity
  8
Ech.1_1
  6
Continuous
 62
    44
100
AcDbCircle
 10
82.42366954000001
 20
28.4203167
 30
0.0
 40
3.5
100
AcDbArc
 50
91.66737494000001
 51
181.66738495
  0
ARC
  5
323
330
11B
100
AcDbEntity
  8
Ech.1_1
  6
Continuous
 62
    44
100
AcDbCircle
 10
114.93076083
 20
21.14472651
 30
0.0
 40
11.71837091
100
AcDbArc
 50
303.12491239
 51
1.66737494
  0
ARC
  5
324
330
11B
100
AcDbEntity
  8
Ech.1_1
  6
Continuous
 62
    44
100
AcDbCircle
 10
114.93076083
 20
21.14472651
 30
0.0
 40
10.96837091
100
AcDbArc
 50
303.12491239
 51
91.66737494000001
  0
ARC
  5
325
330
11B
100
AcDbEntity
  8
Ech.1_1
  6
Continuous
 62
    44
100
AcDbCircle
 10
102.62829139
 20
4.498083199999999
 30
0.0
 40
3.75
100
AcDbArc
 50
181.66738495
 51
303.12491239
  0
ARC
  5
326
330
11B
100
AcDbEntity
  8
Ech.1_1
  6
Continuous
 62
    44
100
AcDbCircle
 10
102.62829139
 20
4.498083199999999
 30
0.0
 40
3.75
100
AcDbArc
 50
123.12490237
 51
181.66738495
  0
ARC
  5
327
330
11B
100
AcDbEntity
  8
Ech.1_1
  6
Continuous
 62
    44
100
AcDbCircle
 10
113.6287719
 20
21.8255016
 30
0.0
 40
4.75
100
AcDbArc
 50
303.1249124
 51
1.66737493
  0
ARC
  5
328
330
11B
100
AcDbEntity
  8
Ech.1_1
  6
Continuous
 62
    44
100
AcDbCircle
 10
113.62877191
 20
21.8255016
 30
0.0
 40
4.75
100
AcDbArc
 50
1.66737493
 51
91.66737494000001
  0
ARC
  5
329
330
11B
100
AcDbEntity
  8
Ech.1_1
  6
Continuous
 62
    44
100
AcDbCircle
 10
82.42366954000001
 20
28.4203167
 30
0.0
 40
2.75
100
AcDbArc
 50
181.66738495
 51
271.66738496
  0
ARC
  5
32A
330
11B
100
AcDbEntity
  8
Ech.1_1
  6
Continuous
 62
    44
100
AcDbCircle
 10
82.42366954000001
 20
28.4203167
 30
0.0
 40
2.75
100
AcDbArc
 50
91.66737494000001
 51
181.66738495
  0
ARC
  5
32B
330
11B
100
AcDbEntity
  8
Ech.1_1
  6
Continuous
 62
    44
100
AcDbCircle
 10
114.93076083
 20
21.14472651
 30
0.0
 40
11.71837091
100
AcDbArc
 50
1.66737494
 51
91.66737494000001
  0
ARC
  5
32C
330
11B
100
AcDbEntity
  8
Ech.1_1
  6
Continuous
 62
    44
100
AcDbCircle
 10
26.05067616
 20
19.91394583
 30
0.0
 40
1.5
100
AcDbArc
 50
267.66738495
 51
357.66738496
  0
ARC
  5
32D
330
11B
100
AcDbEntity
  8
Ech.1_1
  6
Continuous
 62
    44
100
AcDbCircle
 10
26.05067616
 20
19.91394583
 30
0.0
 40
1.5
100
AcDbArc
 50
177.66737495
 51
267.66738495
  0
LINE
  5
32E
330
11B
100
AcDbEntity
  8
Ech.1_1
  6
Continuous
 62
    44
100
AcDbLine
 10
100.16919437
 20
8.266748989999999
 30
0.0
 11
115.81463593
 21
18.47557646
 31
0.0
  0
LINE
  5
32F
330
11B
100
AcDbEntity
  8
Ech.1_1
  6
Continuous
 62
    44
100
AcDbLine
 10
121.33445218
 20
11.33081017
 30
0.0
 11
105.08738842
 21
0.7294174100000001
 31
0.0
  0
LINE
  5
330
330
11B
100
AcDbEntity
  8
Ech.1_1
  6
Continuous
 62
    44
100
AcDbLine
 10
113.5123836
 20
25.82380796
 30
0.0
 11
82.52550929999999
 21
24.92179863
 31
0.0
  0
LINE
  5
331
330
11B
100
AcDbEntity
  8
Ech.1_1
  6
Continuous
 62
    44
100
AcDbLine
 10
114.58979051
 20
32.85813576000001
 30
0.0
 11
98.81484352000001
 21
32.39893651
 31
0.0
  0
LINE
  5
332
330
11B
100
AcDbEntity
  8
Ech.1_1
  6
Continuous
 62
    44
100
AcDbLine
 10
120.92460267
 20
11.95892113
 30
0.0
 11
104.67753891
 21
1.357528379999999
 31
0.0
  0
LINE
  5
333
330
11B
100
AcDbEntity
  8
Ech.1_1
  6
Continuous
 62
    44
100
AcDbLine
 10
100.57904387
 20
7.63863802
 30
0.0
 11
116.22448543
 21
17.84746549
 31
0.0
  0
LINE
  5
334
330
11B
100
AcDbEntity
  8
Ech.1_1
  6
Continuous
 62
    44
100
AcDbLine
 10
113.4905608
 20
26.57349041
 30
0.0
 11
82.50368649
 21
25.67148108
 31
0.0
  0
LINE
  5
335
330
11B
100
AcDbEntity
  8
Ech.1_1
  6
Continuous
 62
    44
100
AcDbLine
 10
82.34365258
 20
31.16915233
 30
0.0
 11
87.98156615000001
 21
31.33326861
 31
0.0
  0
LINE
  5
336
330
11B
100
AcDbEntity
  8
Ech.1_1
  6
Continuous
 62
    44
100
AcDbLine
 10
98.81484352000001
 20
32.39893651
 30
0.0
 11
89.01995442
 21
32.11381316
 31
0.0
  0
LINE
  5
337
330
11B
100
AcDbEntity
  8
Ech.1_1
  6
Continuous
 62
    44
100
AcDbLine
 10
88.27027196999999
 20
32.09199035000001
 30
0.0
 11
82.32182976999999
 21
31.91883477
 31
0.0
  0
LINE
  5
338
330
11B
100
AcDbEntity
  8
Ech.1_1
  6
Continuous
 62
    44
100
AcDbLine
 10
89.01995442
 20
32.11381316
 30
0.0
 11
89.04177722
 21
31.36413072
 31
0.0
  0
LINE
  5
339
330
11B
100
AcDbEntity
  8
Ech.1_1
  6
Continuous
 62
    44
100
AcDbLine
 10
89.04177722
 20
31.36413072
 30
0.0
 11
98.83666632
 21
31.64925407
 31
0.0
  0
LINE
  5
33A
330
11B
100
AcDbEntity
  8
Ech.1_1
  6
Continuous
 62
    44
100
AcDbLine
 10
87.98156615000001
 20
31.33326861
 30
0.0
 11
88.75307139
 21
30.60540897
 31
0.0
  0
LINE
  5
33B
330
11B
100
AcDbEntity
  8
Ech.1_1
  6
Continuous
 62
    44
100
AcDbLine
 10
88.27027196999999
 20
32.09199035000001
 30
0.0
 11
89.04177722
 21
31.36413072
 31
0.0
  0
LINE
  5
33C
330
11B
100
AcDbEntity
  8
Ech.1_1
  6
Continuous
 62
    44
100
AcDbLine
 10
88.75307139
 20
30.60540897
 30
0.0
 11
98.85848913
 21
30.89957162
 31
0.0
  0
LINE
  5
33D
330
11B
100
AcDbEntity
  8
Ech.1_1
  6
Continuous
 62
    44
100
AcDbLine
 10
98.85848913
 20
30.89957162
 30
0.0
 11
98.83666632
 21
31.64925407
 31
0.0
  0
LINE
  5
33E
330
11B
100
AcDbEntity
  8
Ech.1_1
  6
Continuous
 62
    44
100
AcDbLine
 10
98.83666632
 20
31.64925407
 30
0.0
 11
114.61161332
 21
32.10845331
 31
0.0
  0
LINE
  5
33F
330
11B
100
AcDbEntity
  8
Ech.1_1
  6
Continuous
 62
    44
100
AcDbLine
 10
126.89222635
 20
33.21625229
 30
0.0
 11
78.07736559999999
 21
31.79528096
 31
0.0
  0
LINE
  5
340
330
11B
100
AcDbEntity
  8
Ech.1_1
  6
Continuous
 62
    44
100
AcDbLine
 10
128.30430001
 20
36.25862767
 30
0.0
 11
129.8036649
 21
36.30227328
 31
0.0
  0
LINE
  5
341
330
11B
100
AcDbEntity
  8
Ech.1_1
  6
Continuous
 62
    44
100
AcDbLine
 10
126.80493513
 20
36.21498206
 30
0.0
 11
128.30430001
 21
36.25862767
 31
0.0
  0
LINE
  5
342
330
11B
100
AcDbEntity
  8
Ech.1_1
  6
Continuous
 62
    44
100
AcDbLine
 10
5.678588279999999
 20
35.75623214
 30
0.0
 11
0.12209457
 21
34.48132915
 31
0.0
  0
LINE
  5
343
330
11B
100
AcDbEntity
  8
Ech.1_1
  6
Continuous
 62
    44
100
AcDbLine
 10
5.61753717
 20
34.25747506
 30
0.0
 11
5.678588279999999
 21
35.75623214
 31
0.0
  0
LINE
  5
344
330
11B
100
AcDbEntity
  8
Ech.1_1
  6
Continuous
 62
    44
100
AcDbLine
 10
11.17403088
 20
35.53237805
 30
0.0
 11
5.61753717
 21
34.25747506
 31
0.0
  0
LINE
  5
345
330
11B
100
AcDbEntity
  8
Ech.1_1
  6
Continuous
 62
    44
100
AcDbLine
 10
11.11297977
 20
34.03362098000001
 30
0.0
 11
11.17403088
 21
35.53237805
 31
0.0
  0
LINE
  5
346
330
11B
100
AcDbEntity
  8
Ech.1_1
  6
Continuous
 62
    44
100
AcDbLine
 10
16.66947348
 20
35.30852397
 30
0.0
 11
11.11297977
 21
34.03362098000001
 31
0.0
  0
LINE
  5
347
330
11B
100
AcDbEntity
  8
Ech.1_1
  6
Continuous
 62
    44
100
AcDbLine
 10
16.60842237
 20
33.8097669
 30
0.0
 11
16.66947348
 21
35.30852397
 31
0.0
  0
LINE
  5
348
330
11B
100
AcDbEntity
  8
Ech.1_1
  6
Continuous
 62
    44
100
AcDbLine
 10
28.09889325
 20
33.34170837
 30
0.0
 11
16.60842237
 21
33.8097669
 31
0.0
  0
LINE
  5
349
330
11B
100
AcDbEntity
  8
Ech.1_1
  6
Continuous
 62
    44
100
AcDbLine
 10
127.05226026
 20
27.71858104
 30
0.0
 11
126.89222635
 21
33.21625229
 31
0.0
  0
LINE
  5
34A
330
11B
100
AcDbEntity
  8
Ech.1_1
  6
Continuous
 62
    44
100
AcDbLine
 10
129.8036649
 20
36.30227328
 30
0.0
 11
130.05099004
 21
27.80587226
 31
0.0
  0
LINE
  5
34B
330
11B
100
AcDbEntity
  8
Ech.1_1
  6
Continuous
 62
    44
100
AcDbLine
 10
28.09889325
 20
33.34170837
 30
0.0
 11
73.66178076999999
 21
34.66801670000001
 31
0.0
  0
LINE
  5
34C
330
11B
100
AcDbEntity
  8
Ech.1_1
  6
Continuous
 62
    44
100
AcDbLine
 10
78.07736559999999
 20
31.79528096
 30
0.0
 11
73.82181468
 21
29.17034545
 31
0.0
  0
LINE
  5
34D
330
11B
100
AcDbEntity
  8
Ech.1_1
  6
Continuous
 62
    44
100
AcDbLine
 10
73.82181468
 20
29.17034545
 30
0.0
 11
29.27267292
 21
27.87354665
 31
0.0
  0
LINE
  5
34E
330
11B
100
AcDbEntity
  8
Ech.1_1
  6
Continuous
 62
    44
100
AcDbLine
 10
0.12209457
 20
34.48132915
 30
0.0
 11
-0.0000076553988038
 21
31.48381500000001
 31
0.0
  0
LINE
  5
34F
330
11B
100
AcDbEntity
  8
Ech.1_1
  6
Continuous
 62
    44
100
AcDbLine
 10
27.81756146
 20
26.43523288
 30
0.0
 11
27.54943323
 21
19.85289472
 31
0.0
  0
LINE
  5
350
330
11B
100
AcDbEntity
  8
Ech.1_1
  6
Continuous
 62
    44
100
AcDbLine
 10
24.59261983
 20
20.97416833
 30
0.0
 11
24.55191909
 21
19.97499694
 31
0.0
  0
LINE
  5
351
330
11B
100
AcDbEntity
  8
Ech.1_1
  6
Continuous
 62
    44
100
AcDbLine
 10
24.59261983
 20
20.97416833
 30
0.0
 11
19.63746367
 21
22.17684342
 31
0.0
  0
LINE
  5
352
330
11B
100
AcDbEntity
  8
Ech.1_1
  6
Continuous
 62
    44
100
AcDbLine
 10
19.63746367
 20
22.17684342
 30
0.0
 11
12.19228711
 21
30.25432773
 31
0.0
  0
LINE
  5
353
330
11B
100
AcDbEntity
  8
Ech.1_1
  6
Continuous
 62
    44
100
AcDbLine
 10
10.45578739
 20
31.05790347
 30
0.0
 11
5.324192749999999
 21
31.26693638
 31
0.0
  0
LINE
  5
354
330
11B
100
AcDbEntity
  8
Ech.1_1
  6
Continuous
 62
    44
100
AcDbLine
 10
2.78329197
 20
28.22078122
 30
0.0
 11
5.133685709999999
 21
17.76350096
 31
0.0
  0
LINE
  5
355
330
11B
100
AcDbEntity
  8
Ech.1_1
  6
Continuous
 62
    44
100
AcDbLine
 10
-0.0000076553988038
 20
31.48381500000001
 30
0.0
 11
3.064849049999999
 21
17.84777398
 31
0.0
  0
LINE
  5
356
330
11B
100
AcDbEntity
  8
Ech.1_1
  6
Continuous
 62
    44
100
AcDbLine
 10
73.66178076999999
 20
34.66801670000001
 30
0.0
 11
126.80493513
 21
36.21498206
 31
0.0
  0
LINE
  5
357
330
11B
100
AcDbEntity
  8
Ech.1_1
  6
Continuous
 62
    44
100
AcDbLine
 10
97.90450523
 20
32.37243711
 30
0.0
 11
123.64360243
 21
33.12168679
 31
0.0
  0
LINE
  5
358
330
11B
100
AcDbEntity
  8
Ech.1_1
  6
Continuous
 62
    44
100
AcDbLine
 10
5.133685709999999
 20
17.76350096
 30
0.0
 11
3.064849049999999
 21
17.84777398
 31
0.0
  0
ENDBLK
  5
359
330
11B
100
AcDbEntity
  8
0
100
AcDbBlockEnd
  0
BLOCK
  5
35A
330
11C
100
AcDbEntity
  8
Ech.1_1
100
AcDbBlockBegin
  2
PROFIL_L
 70
     0
 10
0.0
 20
0.0
 30
0.0
  3
PROFIL_L
  1

  0
HATCH
  5
35B
330
11C
100
AcDbEntity
  8
Ech.1_1
 62
   252
100
AcDbHatch
 10
0.0
 20
0.0
 30
0.0
210
0.0
220
0.0
230
1.0
  2
SOLID
 70
     1
 71
     0
 91
        1
 92
        7
 72
     1
 73
     1
 93
        6
 10
62.5
 20
-59.84638896999999
 42
0.0
 10
10.60042638
 20
-59.84638896999999
 42
0.0
 10
15.13881924
 20
-65.59638897000001
 42
0.0
 10
55.0
 20
-65.59638897000001
 42
0.0
 10
55.0
 20
-96.09638897000001
 42
1.0
 10
62.5
 20
-96.09638897000001
 42
0.0
 97
        0
 75
     0
 76
     2
 47
0.775229
 98
        1
 10
0.0
 20
0.0
  0
HATCH
  5
35C
330
11C
100
AcDbEntity
  8
Ech.1_1
 62
   252
100
AcDbHatch
 10
0.0
 20
0.0
 30
0.0
210
0.0
220
0.0
230
1.0
  2
SOLID
 70
     1
 71
     0
 91
        1
 92
        7
 72
     1
 73
     1
 93
        4
 10
-17.42278791
 20
-59.84638896999999
 42
0.0
 10
-59.625
 20
-59.84638896999999
 42
1.0
 10
-59.625
 20
-65.59638897000001
 42
0.0
 10
-21.96118076
 20
-65.59638897000001
 42
0.0
 97
        0
 75
     0
 76
     2
 47
0.775229
 98
        1
 10
0.0
 20
0.0
  0
HATCH
  5
35D
330
11C
100
AcDbEntity
  8
Ech.1_1
 62
   252
100
AcDbHatch
 10
0.0
 20
0.0
 30
0.0
210
0.0
220
0.0
230
1.0
  2
SOLID
 70
     1
 71
     0
 91
        1
 92
        7
 72
     0
 73
     1
 93
        4
 10
10.60042638
 20
-59.84638896999999
 10
-17.42278791
 20
-59.84638896999999
 10
-21.96118076
 20
-65.59638897000001
 10
15.13881924
 20
-65.59638897000001
 97
        0
 75
     0
 76
     2
 47
0.775229
 98
        1
 10
0.0
 20
0.0
  0
LINE
  5
35E
330
11C
100
AcDbEntity
  8
Ech.1_1
 62
     0
100
AcDbLine
 10
-59.625
 20
-65.59638897000001
 30
0.0
 11
55.0
 21
-65.59638897000001
 31
0.0
  0
LINE
  5
35F
330
11C
100
AcDbEntity
  8
Ech.1_1
 62
     0
100
AcDbLine
 10
55.0
 20
-96.09638897000001
 30
0.0
 11
55.0
 21
-65.59638897000001
 31
0.0
  0
LINE
  5
360
330
11C
100
AcDbEntity
  8
Ech.1_1
 62
     0
100
AcDbLine
 10
-21.96118076
 20
-65.59638897000001
 30
0.0
 11
15.13881924
 21
-65.59638897000001
 31
0.0
  0
LINE
  5
361
330
11C
100
AcDbEntity
  8
Ech.1_1
 62
     0
100
AcDbLine
 10
4.08881924
 20
-51.59638897
 30
0.0
 11
4.08881924
 21
17.90361103
 31
0.0
  0
LINE
  5
362
330
11C
100
AcDbEntity
  8
Ech.1_1
 62
     0
100
AcDbLine
 10
15.13881924
 20
-65.59638897000001
 30
0.0
 11
4.08881924
 21
-51.59638897
 31
0.0
  0
LINE
  5
363
330
11C
100
AcDbEntity
  8
Ech.1_1
 62
     0
100
AcDbLine
 10
-21.96118076
 20
-65.59638897000001
 30
0.0
 11
-10.91118076
 21
-51.59638897
 31
0.0
  0
LINE
  5
364
330
11C
100
AcDbEntity
  8
Ech.1_1
 62
     0
100
AcDbLine
 10
-3.41118076
 20
84.40361102999998
 30
0.0
 11
4.08881924
 21
67.90361102999999
 31
0.0
  0
LINE
  5
365
330
11C
100
AcDbEntity
  8
Ech.1_1
 62
     0
100
AcDbLine
 10
-3.41118076
 20
84.40361102999998
 30
0.0
 11
-10.91118076
 21
67.90361102999999
 31
0.0
  0
LINE
  5
366
330
11C
100
AcDbEntity
  8
Ech.1_1
 62
     7
100
AcDbLine
 10
-13.41118076
 20
2.769016119999999
 30
0.0
 11
6.58881924
 21
16.2910497
 31
0.0
  0
LINE
  5
367
330
11C
100
AcDbEntity
  8
Ech.1_1
 62
     7
100
AcDbLine
 10
-13.41118076
 20
-4.997470319999999
 30
0.0
 11
6.58881924
 21
8.52456326
 31
0.0
  0
LINE
  5
368
330
11C
100
AcDbEntity
  8
Ech.1_1
 62
     7
100
AcDbLine
 10
-13.41118076
 20
-12.76395677
 30
0.0
 11
6.58881924
 21
0.7580768100000001
 31
0.0
  0
LINE
  5
369
330
11C
100
AcDbEntity
  8
Ech.1_1
 62
     7
100
AcDbLine
 10
-13.41118076
 20
-20.53044321
 30
0.0
 11
6.58881924
 21
-7.00840963
 31
0.0
  0
LINE
  5
36A
330
11C
100
AcDbEntity
  8
Ech.1_1
 62
     7
100
AcDbLine
 10
-13.41118076
 20
-28.29692965
 30
0.0
 11
6.58881924
 21
-14.77489607
 31
0.0
  0
LINE
  5
36B
330
11C
100
AcDbEntity
  8
Ech.1_1
 62
     7
100
AcDbLine
 10
-13.41118076
 20
-36.06341609
 30
0.0
 11
6.58881924
 21
-22.54138251
 31
0.0
  0
LINE
  5
36C
330
11C
100
AcDbEntity
  8
Ech.1_1
 62
     7
100
AcDbLine
 10
-13.41118076
 20
-43.82990253
 30
0.0
 11
6.58881924
 21
-30.30786895
 31
0.0
  0
LINE
  5
36D
330
11C
100
AcDbEntity
  8
Ech.1_1
 62
     7
100
AcDbLine
 10
6.58881924
 20
-45.84084183
 30
0.0
 11
-1.924023309999999
 21
-51.59638897
 31
0.0
  0
LINE
  5
36E
330
11C
100
AcDbEntity
  8
Ech.1_1
 62
     7
100
AcDbLine
 10
6.58881924
 20
-38.07435539
 30
0.0
 11
-13.41118076
 21
-51.59638897
 31
0.0
  0
LINE
  5
36F
330
11C
100
AcDbEntity
  8
Ech.1_1
 62
     0
100
AcDbLine
 10
-10.91118076
 20
-51.59638897
 30
0.0
 11
-10.91118076
 21
67.90361102999999
 31
0.0
  0
LINE
  5
370
330
11C
100
AcDbEntity
  8
Ech.1_1
 62
     0
100
AcDbLine
 10
-21.96118076
 20
-65.59638897000001
 30
0.0
 11
15.13881924
 21
-65.59638897000001
 31
0.0
  0
LINE
  5
371
330
11C
100
AcDbEntity
  8
Ech.1_1
 62
     0
100
AcDbLine
 10
4.08881924
 20
-51.59638897
 30
0.0
 11
4.08881924
 21
67.90361102999999
 31
0.0
  0
LINE
  5
372
330
11C
100
AcDbEntity
  8
Ech.1_1
 62
     0
100
AcDbLine
 10
-3.41118076
 20
84.40361102999998
 30
0.0
 11
4.08881924
 21
67.90361102999999
 31
0.0
  0
LINE
  5
373
330
11C
100
AcDbEntity
  8
Ech.1_1
 62
     0
100
AcDbLine
 10
-3.41118076
 20
84.40361102999998
 30
0.0
 11
-10.91118076
 21
67.90361102999999
 31
0.0
  0
LINE
  5
374
330
11C
100
AcDbEntity
  8
Ech.1_1
 62
     7
100
AcDbLine
 10
-13.41118076
 20
2.769016119999999
 30
0.0
 11
6.58881924
 21
16.2910497
 31
0.0
  0
LINE
  5
375
330
11C
100
AcDbEntity
  8
Ech.1_1
 62
     7
100
AcDbLine
 10
-13.41118076
 20
-4.997470319999999
 30
0.0
 11
6.58881924
 21
8.52456326
 31
0.0
  0
LINE
  5
376
330
11C
100
AcDbEntity
  8
Ech.1_1
 62
     7
100
AcDbLine
 10
-13.41118076
 20
-12.76395677
 30
0.0
 11
6.58881924
 21
0.7580768100000001
 31
0.0
  0
LINE
  5
377
330
11C
100
AcDbEntity
  8
Ech.1_1
 62
     7
100
AcDbLine
 10
-13.41118076
 20
-20.53044321
 30
0.0
 11
6.58881924
 21
-7.00840963
 31
0.0
  0
LINE
  5
378
330
11C
100
AcDbEntity
  8
Ech.1_1
 62
     7
100
AcDbLine
 10
-13.41118076
 20
-28.29692965
 30
0.0
 11
6.58881924
 21
-14.77489607
 31
0.0
  0
LINE
  5
379
330
11C
100
AcDbEntity
  8
Ech.1_1
 62
     7
100
AcDbLine
 10
-13.41118076
 20
-36.06341609
 30
0.0
 11
6.58881924
 21
-22.54138251
 31
0.0
  0
LINE
  5
37A
330
11C
100
AcDbEntity
  8
Ech.1_1
 62
     7
100
AcDbLine
 10
-13.41118076
 20
-43.82990253
 30
0.0
 11
6.58881924
 21
-30.30786895
 31
0.0
  0
LINE
  5
37B
330
11C
100
AcDbEntity
  8
Ech.1_1
 62
     7
100
AcDbLine
 10
6.58881924
 20
-45.84084183
 30
0.0
 11
-1.924023309999999
 21
-51.59638897
 31
0.0
  0
LINE
  5
37C
330
11C
100
AcDbEntity
  8
Ech.1_1
 62
     7
100
AcDbLine
 10
6.58881924
 20
-38.07435539
 30
0.0
 11
-13.41118076
 21
-51.59638897
 31
0.0
  0
LINE
  5
37D
330
11C
100
AcDbEntity
  8
Ech.1_1
 62
     0
100
AcDbLine
 10
-10.91118076
 20
-51.59638897
 30
0.0
 11
-10.91118076
 21
67.90361102999999
 31
0.0
  0
LINE
  5
37E
330
11C
100
AcDbEntity
  8
Ech.1_1
 62
     0
100
AcDbLine
 10
-59.625
 20
-59.84638896999999
 30
0.0
 11
62.5
 21
-59.84638896999999
 31
0.0
  0
LINE
  5
37F
330
11C
100
AcDbEntity
  8
Ech.1_1
 62
     0
100
AcDbLine
 10
62.5
 20
-96.09638897000001
 30
0.0
 11
62.5
 21
-59.84638896999999
 31
0.0
  0
ARC
  5
380
330
11C
100
AcDbEntity
  8
Ech.1_1
 62
     7
100
AcDbCircle
 10
-59.625
 20
-62.72138897
 30
0.0
 40
2.875
100
AcDbArc
 50
90.0
 51
270.00001002
  0
ARC
  5
381
330
11C
100
AcDbEntity
  8
Ech.1_1
 62
     7
100
AcDbCircle
 10
58.75
 20
-96.09638897000001
 30
0.0
 40
3.75
100
AcDbArc
 50
180.0
 51
0.0
  0
LINE
  5
382
330
11C
100
AcDbEntity
  8
Ech.1_1
 62
     7
100
AcDbLine
 10
-13.41118076
 20
33.83496188
 30
0.0
 11
6.58881924
 21
47.35699546
 31
0.0
  0
LINE
  5
383
330
11C
100
AcDbEntity
  8
Ech.1_1
 62
     7
100
AcDbLine
 10
-13.41118076
 20
26.06847544
 30
0.0
 11
6.58881924
 21
39.59050902
 31
0.0
  0
LINE
  5
384
330
11C
100
AcDbEntity
  8
Ech.1_1
 62
     7
100
AcDbLine
 10
-13.41118076
 20
18.301989
 30
0.0
 11
6.58881924
 21
31.82402258
 31
0.0
  0
LINE
  5
385
330
11C
100
AcDbEntity
  8
Ech.1_1
 62
     7
100
AcDbLine
 10
-13.41118076
 20
10.53550256
 30
0.0
 11
6.58881924
 21
24.05753614
 31
0.0
  0
LINE
  5
386
330
11C
100
AcDbEntity
  8
Ech.1_1
 62
     7
100
AcDbLine
 10
-13.41118076
 20
33.83496188
 30
0.0
 11
6.58881924
 21
47.35699546
 31
0.0
  0
LINE
  5
387
330
11C
100
AcDbEntity
  8
Ech.1_1
 62
     7
100
AcDbLine
 10
-13.41118076
 20
26.06847544
 30
0.0
 11
6.58881924
 21
39.59050902
 31
0.0
  0
LINE
  5
388
330
11C
100
AcDbEntity
  8
Ech.1_1
 62
     7
100
AcDbLine
 10
-13.41118076
 20
18.301989
 30
0.0
 11
6.58881924
 21
31.82402258
 31
0.0
  0
LINE
  5
389
330
11C
100
AcDbEntity
  8
Ech.1_1
 62
     7
100
AcDbLine
 10
-13.41118076
 20
10.53550256
 30
0.0
 11
6.58881924
 21
24.05753614
 31
0.0
  0
LINE
  5
38A
330
11C
100
AcDbEntity
  8
Ech.1_1
 62
     7
100
AcDbLine
 10
-13.41118076
 20
64.90090764999999
 30
0.0
 11
1.01901261
 21
74.65718561
 31
0.0
  0
LINE
  5
38B
330
11C
100
AcDbEntity
  8
Ech.1_1
 62
     7
100
AcDbLine
 10
-13.41118076
 20
57.13442120999999
 30
0.0
 11
3.71936444
 21
68.71641158
 31
0.0
  0
LINE
  5
38C
330
11C
100
AcDbEntity
  8
Ech.1_1
 62
     7
100
AcDbLine
 10
-13.41118076
 20
49.36793476
 30
0.0
 11
6.58881924
 21
62.88996834
 31
0.0
  0
LINE
  5
38D
330
11C
100
AcDbEntity
  8
Ech.1_1
 62
     7
100
AcDbLine
 10
-13.41118076
 20
41.60144832
 30
0.0
 11
6.58881924
 21
55.1234819
 31
0.0
  0
LINE
  5
38E
330
11C
100
AcDbEntity
  8
Ech.1_1
 62
     7
100
AcDbLine
 10
-13.41118076
 20
64.90090764999999
 30
0.0
 11
1.01901261
 21
74.65718561
 31
0.0
  0
LINE
  5
38F
330
11C
100
AcDbEntity
  8
Ech.1_1
 62
     7
100
AcDbLine
 10
-13.41118076
 20
57.1344212
 30
0.0
 11
3.71936444
 21
68.71641158
 31
0.0
  0
LINE
  5
390
330
11C
100
AcDbEntity
  8
Ech.1_1
 62
     7
100
AcDbLine
 10
-13.41118076
 20
49.36793476
 30
0.0
 11
6.58881924
 21
62.88996834
 31
0.0
  0
LINE
  5
391
330
11C
100
AcDbEntity
  8
Ech.1_1
 62
     7
100
AcDbLine
 10
-13.41118076
 20
41.60144832
 30
0.0
 11
6.58881924
 21
55.1234819
 31
0.0
  0
LINE
  5
392
330
11C
100
AcDbEntity
  8
Ech.1_1
 62
     7
100
AcDbLine
 10
-6.67596561
 20
77.22108436
 30
0.0
 11
-1.68133923
 21
80.59795965000001
 31
0.0
  0
LINE
  5
393
330
11C
100
AcDbEntity
  8
Ech.1_1
 62
     7
100
AcDbLine
 10
-6.67596561
 20
77.22108436
 30
0.0
 11
-1.68133923
 21
80.59795965000001
 31
0.0
  0
LINE
  5
394
330
11C
100
AcDbEntity
  8
Ech.1_1
 62
     7
100
AcDbLine
 10
4.08881924
 20
-51.59638897
 30
0.0
 11
-10.91118076
 21
-51.59638897
 31
0.0
  0
LINE
  5
395
330
11C
100
AcDbEntity
  8
Ech.1_1
 62
     1
100
AcDbLine
 10
-3.41118076
 20
-82.20447955999999
 30
0.0
 11
-3.41118076
 21
99.84638897000001
 31
0.0
  0
ENDBLK
  5
396
330
11C
100
AcDbEntity
  8
0
100
AcDbBlockEnd
  0
BLOCK
  5
397
330
11D
100
AcDbEntity
  8
Ech.1_1
100
AcDbBlockBegin
  2
A$C4DC86443
 70
     0
 10
0.0
 20
0.0
 30
0.0
  3
A$C4DC86443
  1

  0
HATCH
  5
398
330
11D
100
AcDbEntity
  8
Ech.1_1
 62
    24
100
AcDbHatch
 10
0.0
 20
0.0
 30
0.0
210
0.0
220
0.0
230
1.0
  2
ANSI33
 70
     0
 71
     0
 91
        1
 92
        7
 72
     0
 73
     1
 93
       24
 10
222.50003256
 20
199.99994333
 10
242.50003256
 20
199.99994333
 10
242.50003256
 20
214.9999744
 10
212.50003261
 20
214.9999744
 10
212.50003261
 20
229.9999744
 10
350.00003261
 20
229.9999744
 10
337.6586257
 20
299.9999744
 10
125.00003256
 20
299.9999744
 10
125.00003256
 20
279.9999744
 10
75.00003255999999
 20
279.9999744
 10
75.00003255999999
 20
299.9999744
 10
25.00003256
 20
299.9999744
 10
25.0000326
 20
49.99997442
 10
0.0000325975997839
 20
49.99997442
 10
0.000032562056731
 20
2.49997229
 10
0.0000379113043891
 20
2.49997229
 10
0.0000379113043891
 20
-0.0000255848863162
 10
242.50003256
 20
-0.0000255848863162
 10
242.50003256
 20
14.99997442
 10
202.50003256
 20
14.99997442
 10
202.50003256
 20
34.99997442
 10
242.50003256
 20
34.99997442
 10
242.50003256
 20
49.99997442
 10
222.50003256
 20
49.99997442
 97
        0
 75
     0
 76
     2
 52
0.0
 41
5.000000299999999
 77
     0
 78
     2
 53
45.0
 43
0.0
 44
0.0
 45
-22.85985804
 46
22.85985804
 79
     0
 53
45.0
 43
0.0
 44
22.85985804
 45
-22.85985804
 46
22.85985804
 79
     2
 49
13.96991324
 49
-6.98495662
 47
0.775229
 98
        1
 10
0.0
 20
0.0
  0
LINE
  5
399
330
11D
100
AcDbEntity
  8
Ech.1_1
 62
     0
100
AcDbLine
 10
0.000032560164982
 20
-0.0000255848863162
 30
0.0
 11
242.50003256
 21
-0.0000255848863162
 31
0.0
  0
LINE
  5
39A
330
11D
100
AcDbEntity
  8
Ech.1_1
 62
     0
100
AcDbLine
 10
242.50003256
 20
14.99997442
 30
0.0
 11
202.50003256
 21
14.99997442
 31
0.0
  0
LINE
  5
39B
330
11D
100
AcDbEntity
  8
Ech.1_1
 62
     0
100
AcDbLine
 10
202.50003256
 20
34.99997442
 30
0.0
 11
242.50003256
 21
34.99997442
 31
0.0
  0
LINE
  5
39C
330
11D
100
AcDbEntity
  8
Ech.1_1
 62
     0
100
AcDbLine
 10
242.50003256
 20
34.99997442
 30
0.0
 11
242.50003256
 21
49.99997442
 31
0.0
  0
LINE
  5
39D
330
11D
100
AcDbEntity
  8
Ech.1_1
 62
     0
100
AcDbLine
 10
25.0000326
 20
49.99997442
 30
0.0
 11
0.000032560164982
 21
49.99997442
 31
0.0
  0
LINE
  5
39E
330
11D
100
AcDbEntity
  8
Ech.1_1
 62
     0
100
AcDbLine
 10
0.000032560164982
 20
49.99997442
 30
0.0
 11
0.000032560164982
 21
-0.0000255848863162
 31
0.0
  0
LINE
  5
39F
330
11D
100
AcDbEntity
  8
Ech.1_1
 62
     0
100
AcDbLine
 10
212.50003261
 20
229.9999744
 30
0.0
 11
350.00003261
 21
229.9999744
 31
0.0
  0
LINE
  5
3A0
330
11D
100
AcDbEntity
  8
Ech.1_1
 62
     0
100
AcDbLine
 10
337.6586257
 20
299.9999744
 30
0.0
 11
140.00003256
 21
299.9999744
 31
0.0
  0
LINE
  5
3A1
330
11D
100
AcDbEntity
  8
Ech.1_1
 62
     0
100
AcDbLine
 10
350.00003261
 20
229.9999744
 30
0.0
 11
337.6586257
 21
299.9999744
 31
0.0
  0
LINE
  5
3A2
330
11D
100
AcDbEntity
  8
Ech.1_1
 62
     0
100
AcDbLine
 10
212.50003261
 20
229.9999744
 30
0.0
 11
212.50003261
 21
214.9999744
 31
0.0
  0
LINE
  5
3A3
330
11D
100
AcDbEntity
  8
Ech.1_1
 62
     0
100
AcDbLine
 10
212.50003261
 20
214.9999744
 30
0.0
 11
242.50003256
 21
214.9999744
 31
0.0
  0
LINE
  5
3A4
330
11D
100
AcDbEntity
  8
Ech.1_1
 62
     0
100
AcDbLine
 10
222.50003256
 20
49.99997442
 30
0.0
 11
242.50003256
 21
49.99997442
 31
0.0
  0
LINE
  5
3A5
330
11D
100
AcDbEntity
  8
Ech.1_1
 62
     7
100
AcDbLine
 10
125.00003256
 20
299.9999744
 30
0.0
 11
337.6586257
 21
299.9999744
 31
0.0
  0
LINE
  5
3A6
330
11D
100
AcDbEntity
  8
Ech.1_1
 62
     7
100
AcDbLine
 10
337.6586257
 20
299.9999744
 30
0.0
 11
350.00003261
 21
229.9999744
 31
0.0
  0
LINE
  5
3A7
330
11D
100
AcDbEntity
  8
Ech.1_1
 62
     7
100
AcDbLine
 10
350.00003261
 20
229.9999744
 30
0.0
 11
212.50003261
 21
229.9999744
 31
0.0
  0
LINE
  5
3A8
330
11D
100
AcDbEntity
  8
Ech.1_1
 62
     7
100
AcDbLine
 10
212.50003261
 20
229.9999744
 30
0.0
 11
212.50003261
 21
214.9999744
 31
0.0
  0
LINE
  5
3A9
330
11D
100
AcDbEntity
  8
Ech.1_1
 62
     7
100
AcDbLine
 10
212.50003261
 20
214.9999744
 30
0.0
 11
242.50003256
 21
214.9999744
 31
0.0
  0
LINE
  5
3AA
330
11D
100
AcDbEntity
  8
Ech.1_1
 62
     7
100
AcDbLine
 10
242.50003256
 20
214.9999744
 30
0.0
 11
242.50003256
 21
199.99994333
 31
0.0
  0
LINE
  5
3AB
330
11D
100
AcDbEntity
  8
Ech.1_1
 62
     7
100
AcDbLine
 10
222.50003256
 20
199.99994333
 30
0.0
 11
222.50003256
 21
49.99997442
 31
0.0
  0
LINE
  5
3AC
330
11D
100
AcDbEntity
  8
Ech.1_1
 62
     7
100
AcDbLine
 10
222.50003256
 20
49.99997442
 30
0.0
 11
242.50003256
 21
49.99997442
 31
0.0
  0
LINE
  5
3AD
330
11D
100
AcDbEntity
  8
Ech.1_1
 62
     7
100
AcDbLine
 10
242.50003256
 20
49.99997442
 30
0.0
 11
242.50003256
 21
34.99997442
 31
0.0
  0
LINE
  5
3AE
330
11D
100
AcDbEntity
  8
Ech.1_1
 62
     7
100
AcDbLine
 10
242.50003256
 20
34.99997442
 30
0.0
 11
202.50003256
 21
34.99997442
 31
0.0
  0
LINE
  5
3AF
330
11D
100
AcDbEntity
  8
Ech.1_1
 62
     7
100
AcDbLine
 10
202.50003256
 20
34.99997442
 30
0.0
 11
202.50003256
 21
14.99997442
 31
0.0
  0
LINE
  5
3B0
330
11D
100
AcDbEntity
  8
Ech.1_1
 62
     7
100
AcDbLine
 10
202.50003256
 20
14.99997442
 30
0.0
 11
242.50003256
 21
14.99997442
 31
0.0
  0
LINE
  5
3B1
330
11D
100
AcDbEntity
  8
Ech.1_1
 62
     7
100
AcDbLine
 10
242.50003256
 20
14.99997442
 30
0.0
 11
242.50003256
 21
-0.0000255848863162
 31
0.0
  0
LINE
  5
3B2
330
11D
100
AcDbEntity
  8
Ech.1_1
 62
     7
100
AcDbLine
 10
242.50003256
 20
-0.0000255848863162
 30
0.0
 11
0.000032560164982
 21
-0.0000255848863162
 31
0.0
  0
LINE
  5
3B3
330
11D
100
AcDbEntity
  8
Ech.1_1
 62
     7
100
AcDbLine
 10
0.0000325975997839
 20
49.99997442
 30
0.0
 11
25.0000326
 21
49.99997442
 31
0.0
  0
LINE
  5
3B4
330
11D
100
AcDbEntity
  8
Ech.1_1
 62
     7
100
AcDbLine
 10
25.0000326
 20
49.99997442
 30
0.0
 11
25.00003256
 21
299.9999744
 31
0.0
  0
LINE
  5
3B5
330
11D
100
AcDbEntity
  8
Ech.1_1
 62
     7
100
AcDbLine
 10
242.50003256
 20
199.99994333
 30
0.0
 11
222.50003256
 21
199.99994333
 31
0.0
  0
LINE
  5
3B6
330
11D
100
AcDbEntity
  8
Ech.1_1
 62
     7
100
AcDbLine
 10
25.00003256
 20
299.9999744
 30
0.0
 11
75.00003255999999
 21
299.9999744
 31
0.0
  0
LINE
  5
3B7
330
11D
100
AcDbEntity
  8
Ech.1_1
 62
     7
100
AcDbLine
 10
75.00003255999999
 20
299.9999744
 30
0.0
 11
75.00003255999999
 21
279.9999744
 31
0.0
  0
LINE
  5
3B8
330
11D
100
AcDbEntity
  8
Ech.1_1
 62
     7
100
AcDbLine
 10
75.00003255999999
 20
279.9999744
 30
0.0
 11
125.00003256
 21
279.9999744
 31
0.0
  0
LINE
  5
3B9
330
11D
100
AcDbEntity
  8
Ech.1_1
 62
     7
100
AcDbLine
 10
125.00003256
 20
279.9999744
 30
0.0
 11
125.00003256
 21
299.9999744
 31
0.0
  0
ENDBLK
  5
3BA
330
11D
100
AcDbEntity
  8
0
100
AcDbBlockEnd
  0
ENDSEC
  0
SECTION
  2
ENTITIES
  0
INSERT
  5
3BB
330
E3
100
AcDbEntity
  8
Ech.1_5
 62
     0
100
AcDbBlockReference
  2
*X45
 10
0.0
 20
0.0
 30
0.0
  0
INSERT
  5
3BC
330
E3
100
AcDbEntity
  8
Ech.1_5
 62
     0
100
AcDbBlockReference
  2
*X46
 10
0.0
 20
0.0
 30
0.0
  0
INSERT
  5
3BD
330
E3
100
AcDbEntity
  8
Ech.1_5
 62
     0
100
AcDbBlockReference
  2
*X47
 10
0.0
 20
0.0
 30
0.0
  0
INSERT
  5
3BE
330
E3
100
AcDbEntity
  8
Ech.1_5
 62
     0
100
AcDbBlockReference
  2
*X48
 10
0.0
 20
0.0
 30
0.0
  0
INSERT
  5
3C0
330
E3
100
AcDbEntity
  8
Ech.1_5
 62
     0
100
AcDbBlockReference
  2
*X50
 10
0.0
 20
0.0
 30
0.0
  0
LINE
  5
3CD
330
E3
100
AcDbEntity
  8
Ech.1_5
  6
Continuous
 62
     7
370
    -3
100
AcDbLine
 10
42847.68357153
 20
10820.04841997
 30
0.0
 11
43049.04294113999
 21
10868.67273917
 31
0.0
  0
LINE
  5
3CE
330
E3
100
AcDbEntity
  8
Ech.1_5
 62
     7
100
AcDbLine
 10
43039.57915315999
 20
10907.86346541
 30
0.0
 11
43387.65069506999
 21
10991.91588269
 31
0.0
  0
LWPOLYLINE
  5
3CF
330
E3
100
AcDbEntity
  8
Ech.1_5
  6
Continuous
 62
     7
370
    -3
100
AcDbPolyline
 90
       23
 70
     0
 43
0.0
 10
43434.58423272
 20
11014.54644587
 10
43444.02865119
 20
11016.82708679
 10
43456.63290984999
 20
10964.63127983
 10
43432.90024555
 20
10958.26554299
 10
43426.79133079
 20
10981.04072628
 10
43092.94682604
 20
10891.49467968
 10
43095.13005856
 20
10882.45364157
 10
43084.67086073
 20
10879.6482043
 10
43082.17544361
 20
10889.98203779
 10
43066.39078654
 20
10885.81121971
 10
43068.92403921
 20
10875.32070449
 10
43048.62148586999
 20
10870.41803799
 10
43039.57915315999
 20
10907.86346541
 10
43031.68493791
 20
10940.55439522
 42
-0.41421356
 10
43048.13276081
 20
10967.47478731
 10
43374.56814483
 20
11046.30249888
 10
43387.69864467
 20
10991.92746158
 10
43410.76499346
 20
10997.4975302
 10
43408.18729393
 20
11008.1721054
 10
43417.63171239
 20
11010.45274632
 10
43420.20941191999
 20
10999.77817112
 10
43437.16193225
 20
11003.87187066
 10
43434.58423272
 20
11014.54644587
  0
LINE
  5
3D0
330
E3
100
AcDbEntity
  8
Ech.1_5
  6
Continuous
 62
     7
370
    -3
100
AcDbLine
 10
43039.57197802
 20
10907.86173276
 30
0.0
 11
43387.64351994
 21
10991.91415004
 31
0.0
  0
LWPOLYLINE
  5
3D1
330
E3
100
AcDbEntity
  8
Ech.1_5
  6
Continuous
 62
     7
370
    -3
100
AcDbPolyline
 90
        4
 70
     0
 43
0.0
 10
43084.43259626
 20
10856.19360956
 10
43056.0794353
 20
10817.14110306
 10
43093.66714012999
 20
10830.8219088
 10
43046.84489143
 20
10842.51280383
  0
LWPOLYLINE
  5
3D2
330
E3
100
AcDbEntity
  8
Ech.1_5
  6
Continuous
 62
     7
370
    -3
100
AcDbPolyline
 90
        4
 70
     0
 43
0.0
 10
43423.03317506
 20
10979.43502043
 10
43394.6800141
 20
10940.38251394
 10
43432.26771893
 20
10954.06331967
 10
43385.44547022999
 20
10965.7542147
  0
LWPOLYLINE
  5
3D3
330
E3
100
AcDbEntity
  8
Ech.1_5
  6
Continuous
 62
     7
370
    -3
100
AcDbPolyline
 90
        4
 70
     0
 43
0.0
 10
42874.4046674
 20
10750.94671614
 10
43598.70962658
 20
11014.57218664
 10
43607.90845076
 20
10990.78370031
 10
42884.14458944
 20
10725.75893149
  0
LWPOLYLINE
  5
3D4
330
E3
100
AcDbEntity
  8
Ech.1_5
 62
     7
100
AcDbPolyline
 90
        5
 70
     0
 43
0.0
 10
42829.06424317999
 20
10327.01813292
 10
42963.49302215999
 20
10327.01813292
 10
42963.49302215999
 20
10270.29517411
 10
42829.06424317999
 20
10270.29517411
 10
42829.06424317999
 20
10327.01813292
  0
LWPOLYLINE
  5
3D5
330
E3
100
AcDbEntity
  8
Ech.1_5
 62
     7
100
AcDbPolyline
 90
        5
 70
     0
 43
0.0
 10
42847.34428895999
 20
10293.36132179
 10
42897.34428895999
 20
10293.36132179
 10
42897.34428895999
 20
10300.77645932
 10
42847.34428895999
 20
10300.77645932
 10
42847.34428895999
 20
10293.36132179
  0
LWPOLYLINE
  5
3D6
330
E3
100
AcDbEntity
  8
Ech.1_5
 62
     7
100
AcDbPolyline
 90
        5
 70
     0
 43
0.0
 10
42897.34428895999
 20
10293.36132179
 10
42947.34428895999
 20
10293.36132179
 10
42947.34428895999
 20
10300.77645932
 10
42897.34428895999
 20
10300.77645932
 10
42897.34428895999
 20
10293.36132179
  0
LWPOLYLINE
  5
3D7
330
E3
100
AcDbEntity
  8
Ech.1_5
  6
Continuous
 62
     7
370
    -3
100
AcDbPolyline
 90
        5
 70
     0
 43
0.0
 10
43046.88297146999
 20
10842.56525376
 10
43084.47067630999
 20
10856.24605949
 10
43093.70522018
 20
10830.87435873
 10
43056.11751534
 20
10817.193553
 10
43046.88297146999
 20
10842.56525376
  0
LWPOLYLINE
  5
3D8
330
E3
100
AcDbEntity
  8
Ech.1_5
  6
Continuous
 62
     7
370
    -3
100
AcDbPolyline
 90
        5
 70
     0
 43
0.0
 10
43385.48355028
 20
10965.80666463
 10
43423.07125511
 20
10979.48747036
 10
43432.30579897999
 20
10954.1157696
 10
43394.71809414999
 20
10940.43496387
 10
43385.48355028
 20
10965.80666463
  0
LINE
  5
3D9
330
E3
100
AcDbEntity
  8
Ech.1_5
  6
CADWORK_22
 62
   150
370
    35
100
AcDbLine
 10
42883.60348315999
 20
10727.15825157
 30
2500.0
 11
43607.90845076
 21
10990.78370031
 31
2500.0
  0
LWPOLYLINE
  5
3DA
330
E3
100
AcDbEntity
  8
Ech.1_5
  6
Continuous
 62
     7
370
    -3
100
AcDbPolyline
 90
        4
 70
     0
 43
0.0
 10
42913.00359108999
 20
10651.12852728
 10
43637.30855869
 20
10914.75397602
 10
43608.44955704
 20
10989.38438023
 10
42884.14458944
 20
10725.75893149
  0
ARC
  5
3DB
330
E3
100
AcDbEntity
  8
Ech.1_5
  6
Continuous
 62
     7
370
    -3
100
AcDbCircle
 10
43007.67227462999
 20
10540.14793927
 30
0.0
 40
16.66620749
100
AcDbArc
 50
128.40061582
 51
138.4089803
  0
LWPOLYLINE
  5
3DC
330
E3
100
AcDbEntity
  8
Ech.1_5
  6
Continuous
 62
     7
370
    -3
100
AcDbPolyline
 90
        4
 70
     1
 43
0.0
 10
43760.25761693999
 20
10576.39972537
 10
43038.98093281
 20
10313.87608707
 10
43043.64384543999
 20
10301.73893743
 10
43764.70387984999
 20
10564.18372168
  0
HATCH
  5
3DD
330
E3
100
AcDbEntity
  8
Ech.1_5
  6
Continuous
 62
     7
100
AcDbHatch
 10
0.0
 20
0.0
 30
0.0
210
0.0
220
0.0
230
1.0
  2
DOTS2
 70
     0
 71
     0
 91
        1
 92
        7
 72
     0
 73
     1
 93
        4
 10
43760.25761693999
 20
10576.39972537
 10
43038.98093281
 20
10313.87608707
 10
43043.64384543999
 20
10301.73893743
 10
43764.70387984999
 20
10564.18372168
 97
        0
 75
     0
 76
     2
 52
0.0
 41
4.72440952
 77
     0
 78
     1
 53
0.0
 43
0.0
 44
0.0
 45
3.75
 46
3.535
 79
     2
 49
0.0
 49
-3.535
 47
0.775229
 98
        1
 10
0.0
 20
0.0
  0
LWPOLYLINE
  5
3DE
330
E3
100
AcDbEntity
  8
Ech.1_5
  6
Continuous
 62
     7
370
    -3
100
AcDbPolyline
 90
       32
 70
     0
 43
0.0
 10
43676.10488451999
 20
10803.00285148
 42
-0.6306432900000026
 10
43642.29981029
 20
10815.65915072
 10
43635.9919916
 20
10887.48201227
 42
1.303226189999999
 10
43599.68422897999
 20
10874.2670674
 10
43641.01900502999
 20
10815.19297573
 42
-1.303226189999999
 10
43604.71124241
 20
10801.97803086
 10
43598.40342372
 20
10873.80089241
 42
1.303226189999999
 10
43562.0956611
 20
10860.58594754
 10
43603.43043714999
 20
10801.51185587
 42
-1.303226189999999
 10
43567.12267453
 20
10788.296911
 10
43560.81485584
 20
10860.11977255
 42
1.303226189999999
 10
43524.50709322
 20
10846.90482768
 10
43565.84186926
 20
10787.83073601
 42
-1.303226189999999
 10
43529.53410663999
 20
10774.61579114
 10
43523.22628796
 20
10846.43865269
 42
1.303226189999999
 10
43486.91852534
 20
10833.22370783
 10
43528.25330137999
 20
10774.14961615
 42
-1.303226189999999
 10
43491.94553876
 20
10760.93467129
 10
43485.63772008
 20
10832.75753284
 42
1.303226189999999
 10
43449.32995746
 20
10819.54258797
 10
43490.66473349999
 20
10760.4684963
 42
-1.303226189999999
 10
43454.35697087999
 20
10747.25355143
 10
43448.04915219999
 20
10819.07641298
 42
1.303226189999999
 10
43411.74138958
 20
10805.86146811
 10
43453.07616561999
 20
10746.78737644
 42
-1.303226189999999
 10
43416.76840299999
 20
10733.57243157
 10
43410.46058432
 20
10805.39529312
 42
1.303226189999999
 10
43374.15282169999
 20
10792.18034825
 10
43415.48759774
 20
10733.10625658
 42
-1.303226189999999
 10
43379.17983511999
 20
10719.89131172
 10
43372.87201643
 20
10791.71417326
 42
0.9380165849072163
 10
43332.96370443954
 20
10790.78326967
 42
0.9380165849072163
  0
LWPOLYLINE
  5
3DF
330
E3
100
AcDbEntity
  8
Ech.1_5
  6
Continuous
 62
     7
370
    -3
100
AcDbPolyline
 90
        3
 70
     0
 43
0.0
 10
43638.28833015999
 20
10912.22025217
 42
0.33844115
 10
43637.27279686
 20
10887.94818726
 10
43660.52362698
 20
10854.71898412
  0
LWPOLYLINE
  5
3E0
330
E3
100
AcDbEntity
  8
Ech.1_5
  6
Continuous
 62
     7
370
    -3
100
AcDbPolyline
 90
        3
 70
     0
 43
0.0
 10
42922.06141399999
 20
10624.66896604
 10
42921.80920186
 20
10627.54073497
 42
0.16703871
 10
42916.5283873
 20
10639.42055677
  0
LWPOLYLINE
  5
3E1
330
E3
100
AcDbEntity
  8
Ech.1_5
  6
Continuous
 62
     7
370
    -3
100
AcDbPolyline
 90
       44
 70
     0
 43
0.0
 10
43716.02991596
 20
10711.17774757
 42
-0.6475229600000577
 10
43687.29876137
 20
10721.15614057
 10
43682.04267773
 20
10781.00551661
 42
1.303226189999999
 10
43651.78770654
 20
10769.99370293
 10
43686.23147649
 20
10720.767684
 42
-1.303226189999999
 10
43655.9765053
 20
10709.75587032
 10
43650.72042165
 20
10769.60524636
 42
1.303226189999999
 10
43620.46545047
 20
10758.59343268
 10
43654.90922041
 20
10709.36741375
 42
-1.303226189999999
 10
43624.65424923
 20
10698.35560007
 10
43619.39816558
 20
10758.20497611
 42
1.303226189999999
 10
43589.14319439
 20
10747.19316243
 10
43623.58696434
 20
10697.9671435
 42
-1.303226189999999
 10
43593.33199315
 20
10686.95532982
 10
43588.07590950999
 20
10746.80470586
 42
1.303226189999999
 10
43557.82093832
 20
10735.79289218
 10
43592.26470827
 20
10686.56687325
 42
-1.303226189999999
 10
43562.00973707999
 20
10675.55505957
 10
43556.75365343
 20
10735.40443561
 42
1.303226189999999
 10
43526.49868224999
 20
10724.39262193
 10
43560.94245219
 20
10675.166603
 42
-1.303226189999999
 10
43530.68748101
 20
10664.15478932
 10
43525.43139736
 20
10724.00416536
 42
1.303226189999999
 10
43495.17642617
 20
10712.99235168
 10
43529.62019611999
 20
10663.76633275
 42
-1.303226189999999
 10
43499.36522493
 20
10652.75451907
 10
43494.10914128999
 20
10712.60389511
 42
1.303226189999999
 10
43463.8541701
 20
10701.59208143
 10
43498.29794005
 20
10652.3660625
 42
-1.303226189999999
 10
43468.04296885999
 20
10641.35424882
 10
43462.78688521
 20
10701.20362486
 42
1.303226189999999
 10
43432.53191402
 20
10690.19181118
 10
43466.97568397
 20
10640.96579225
 42
-1.303226189999999
 10
43436.72071278
 20
10629.95397857
 10
43431.46462914
 20
10689.80335461
 42
1.303226189999999
 10
43401.20965795
 20
10678.79154093
 10
43435.6534279
 20
10629.565522
 42
-1.303226189999999
 10
43405.39845670999
 20
10618.55370832
 10
43400.14237306999
 20
10678.40308436
 42
1.303226189999999
 10
43369.88740187999
 20
10667.39127068
 10
43404.33117183
 20
10618.16525175
 42
-1.303226189999999
 10
43374.07620063999
 20
10607.15343807
 10
43368.82011699
 20
10667.00281411
 42
0.4549316324607903
 10
43348.51106369
 20
10681.79919468594
 42
0.4549316324607903
  0
ARC
  5
3E2
330
E3
100
AcDbEntity
  8
Ech.1_5
  6
Continuous
 62
     7
370
    -3
100
AcDbCircle
 10
42945.02799558999
 20
10517.34680135
 30
0.0
 40
16.66620748
100
AcDbArc
 50
6.782213089999999
 51
34.33791456
  0
CIRCLE
  5
3E3
330
E3
100
AcDbEntity
  8
Ech.1_5
  6
Continuous
 62
     7
370
    -3
100
AcDbCircle
 10
43224.76874866
 20
10428.25512883
 30
0.0
 40
2.518023729999999
  0
LINE
  5
3E4
330
E3
100
AcDbEntity
  8
Ech.1_5
  6
Continuous
 62
     7
370
    -3
100
AcDbLine
 10
43207.53400097
 20
10515.07856832
 30
0.0
 11
43243.93217683
 21
10415.07540206
 31
0.0
  0
CIRCLE
  5
3E5
330
E3
100
AcDbEntity
  8
Ech.1_5
  6
Continuous
 62
     7
370
    -3
100
AcDbCircle
 10
43209.37784220999
 20
10470.54129677
 30
0.0
 40
2.518023729999999
  0
ARC
  5
3E6
330
E3
100
AcDbEntity
  8
Ech.1_5
  6
Continuous
 62
     7
370
    -3
100
AcDbCircle
 10
43213.86201296
 20
10404.13075748
 30
0.0
 40
5.0
100
AcDbArc
 50
290.00001002
 51
20.0
  0
LINE
  5
3E7
330
E3
100
AcDbEntity
  8
Ech.1_5
  6
Continuous
 62
     7
370
    -3
100
AcDbLine
 10
43218.4615325
 20
10390.82090725
 30
0.0
 11
43217.77749221999
 21
10392.7002925
 31
0.0
  0
LINE
  5
3E8
330
E3
100
AcDbEntity
  8
Ech.1_5
  6
Continuous
 62
     7
370
    -3
100
AcDbLine
 10
43211.81334319
 20
10398.0642138
 30
0.0
 11
43215.57211367999
 21
10399.43229437
 31
0.0
  0
ARC
  5
3E9
330
E3
100
AcDbEntity
  8
Ech.1_5
  6
Continuous
 62
     7
370
    -3
100
AcDbCircle
 10
43222.8667663
 20
10407.94509139
 30
0.0
 40
14.82598747
100
AcDbArc
 50
221.7941811
 51
258.13516837
  0
ARC
  5
3EA
330
E3
100
AcDbEntity
  8
Ech.1_5
  6
Continuous
 62
     7
370
    -3
100
AcDbCircle
 10
43226.10769528
 20
10394.78511927
 30
0.0
 40
12.47697948
100
AcDbArc
 50
209.36225397
 51
274.61219105
  0
LINE
  5
3EB
330
E3
100
AcDbEntity
  8
Ech.1_5
  6
Continuous
 62
     7
370
    -3
100
AcDbLine
 10
43218.4615325
 20
10390.82090725
 30
0.0
 11
43214.580213
 21
10389.40822249
 31
0.0
  0
LINE
  5
3EC
330
E3
100
AcDbEntity
  8
Ech.1_5
  6
Continuous
 62
     7
370
    -3
100
AcDbLine
 10
43214.580213
 20
10389.40822249
 30
0.0
 11
43218.31497161
 21
10379.14705756
 31
0.0
  0
LINE
  5
3ED
330
E3
100
AcDbEntity
  8
Ech.1_5
  6
Continuous
 62
     7
370
    -3
100
AcDbLine
 10
43217.77749221999
 20
10392.7002925
 30
0.0
 11
43212.01678748
 21
10390.60356744
 31
0.0
  0
LINE
  5
3EE
330
E3
100
AcDbEntity
  8
Ech.1_5
  6
Continuous
 62
     7
370
    -3
100
AcDbLine
 10
43212.01678748
 20
10390.60356744
 30
0.0
 11
43217.11962664999
 21
10376.58363204
 31
0.0
  0
CIRCLE
  5
3EF
330
E3
100
AcDbEntity
  8
Ech.1_5
  6
Continuous
 62
     7
370
    -3
100
AcDbCircle
 10
43219.63844651
 20
10442.35051814
 30
0.0
 40
2.518023729999999
  0
CIRCLE
  5
3F0
330
E3
100
AcDbEntity
  8
Ech.1_5
  6
Continuous
 62
     7
370
    -3
100
AcDbCircle
 10
43229.89905081
 20
10414.15973952
 30
0.0
 40
2.518023729999999
  0
CIRCLE
  5
3F1
330
E3
100
AcDbEntity
  8
Ech.1_5
  6
Continuous
 62
     7
370
    -3
100
AcDbCircle
 10
43214.50814435999
 20
10456.44590746
 30
0.0
 40
2.518023729999999
  0
ARC
  5
3F2
330
E3
100
AcDbEntity
  8
Ech.1_5
  6
Continuous
 62
     7
370
    -3
100
AcDbCircle
 10
43239.28079209
 20
10413.9193082
 30
0.0
 40
14.82598747
100
AcDbArc
 50
321.86485166
 51
358.20583894
  0
ARC
  5
3F3
330
E3
100
AcDbEntity
  8
Ech.1_5
  6
Continuous
 62
     7
370
    -3
100
AcDbCircle
 10
43254.43163587
 20
10406.28097197
 30
0.0
 40
3.804859969999999
100
AcDbArc
 50
203.49677663
 51
324.25391082
  0
ARC
  5
3F4
330
E3
100
AcDbEntity
  8
Ech.1_5
  6
Continuous
 62
     7
370
    -3
100
AcDbCircle
 10
43245.25716346999
 20
10401.75495569
 30
0.0
 40
12.47697948
100
AcDbArc
 50
305.38782898
 51
10.63775604
  0
LINE
  5
3F5
330
E3
100
AcDbEntity
  8
Ech.1_5
  6
Continuous
 62
     7
370
    -3
100
AcDbLine
 10
43254.09951113
 20
10413.45512025
 30
0.0
 11
43250.34074064999
 21
10412.08703967
 31
0.0
  0
ARC
  5
3F6
330
E3
100
AcDbEntity
  8
Ech.1_5
  6
Continuous
 62
     7
370
    -3
100
AcDbCircle
 10
43248.63063992999
 20
10416.78550278
 30
0.0
 40
5.0
100
AcDbArc
 50
200.00001002
 51
290.00001002
  0
LINE
  5
3F7
330
E3
100
AcDbEntity
  8
Ech.1_5
  6
Continuous
 62
     7
370
    -3
100
AcDbLine
 10
43253.66261035
 20
10403.63305181
 30
0.0
 11
43252.97857007
 21
10405.51243705
 31
0.0
  0
LINE
  5
3F8
330
E3
100
AcDbEntity
  8
Ech.1_5
  6
Continuous
 62
     7
370
    -3
100
AcDbLine
 10
43253.66261035
 20
10403.63305181
 30
0.0
 11
43257.54392984999
 21
10405.04573657
 31
0.0
  0
LINE
  5
3F9
330
E3
100
AcDbEntity
  8
Ech.1_5
  6
Continuous
 62
     7
370
    -3
100
AcDbLine
 10
43257.54392984999
 20
10405.04573657
 30
0.0
 11
43261.27868845
 21
10394.78457165
 31
0.0
  0
LINE
  5
3FA
330
E3
100
AcDbEntity
  8
Ech.1_5
  6
Continuous
 62
     7
370
    -3
100
AcDbLine
 10
43252.97857007
 20
10405.51243705
 30
0.0
 11
43258.7392748
 21
10407.6091621
 31
0.0
  0
LINE
  5
3FB
330
E3
100
AcDbEntity
  8
Ech.1_5
  6
Continuous
 62
     7
370
    -3
100
AcDbLine
 10
43258.7392748
 20
10407.6091621
 30
0.0
 11
43263.84211397999
 21
10393.58922669
 31
0.0
  0
CIRCLE
  5
3FC
330
E3
100
AcDbEntity
  8
Ech.1_5
  6
Continuous
 62
     7
370
    -3
100
AcDbCircle
 10
43204.24754006
 20
10484.63668608
 30
0.0
 40
2.518023729999999
  0
LINE
  5
3FD
330
E3
100
AcDbEntity
  8
Ech.1_5
  6
Continuous
 62
     7
370
    -3
100
AcDbLine
 10
43182.16230021
 20
10505.84402445
 30
0.0
 11
43218.56047606
 21
10405.84085819
 31
0.0
  0
CIRCLE
  5
3FE
330
E3
100
AcDbEntity
  8
Ech.1_5
  6
Continuous
 62
     7
370
    -3
100
AcDbCircle
 10
43199.11723791
 20
10498.73207539
 30
0.0
 40
2.518023729999999
  0
LINE
  5
3FF
330
E3
100
AcDbEntity
  8
Ech.1_5
  6
Continuous
 62
     7
370
    -3
100
AcDbLine
 10
43182.16230021
 20
10505.84402445
 30
0.0
 11
43207.53400097
 21
10515.07856832
 31
0.0
  0
LINE
  5
400
330
E3
100
AcDbEntity
  8
Ech.1_5
  6
Continuous
 62
     7
370
    -3
100
AcDbLine
 10
43261.27868845
 20
10394.78457165
 30
0.0
 11
43218.31497161
 21
10379.14705756
 31
0.0
  0
LINE
  5
401
330
E3
100
AcDbEntity
  8
Ech.1_5
  6
Continuous
 62
     7
370
    -3
100
AcDbLine
 10
43217.11962664999
 20
10376.58363204
 30
0.0
 11
43263.84211397999
 21
10393.58922669
 31
0.0
  0
ARC
  5
402
330
E3
100
AcDbEntity
  8
Ech.1_5
  6
Continuous
 62
     7
370
    -3
100
AcDbCircle
 10
43216.17037451
 20
10392.35501171
 30
0.0
 40
3.804859969999999
100
AcDbArc
 50
255.74610922
 51
16.50323339
  0
LINE
  5
403
330
E3
100
AcDbEntity
  8
Ech.1_5
  6
Continuous
 62
     7
370
    -3
100
AcDbLine
 10
43190.42680346
 20
10517.07577384
 30
0.0
 11
43190.42680346
 21
10517.07577384
 31
0.0
  0
LWPOLYLINE
  5
404
330
E3
100
AcDbEntity
  8
Ech.1_5
  6
Continuous
 62
     7
370
    -3
100
AcDbPolyline
 90
        8
 70
     1
 43
0.0
 10
43538.43097869
 20
11170.45491298
 10
43661.77364214999
 20
10851.48640048
 10
43655.13357423
 20
10857.5893195
 10
43768.94941097
 20
10552.81510689
 10
43765.51095733999
 20
10562.34790034
 10
43655.13357423
 20
10857.5893195
 10
43661.77364214999
 20
10851.48640048
 10
43538.43097869
 20
11170.45491298
  0
LWPOLYLINE
  5
405
330
E3
100
AcDbEntity
  8
Ech.1_5
  6
Continuous
 62
     7
370
    -3
100
AcDbPolyline
 90
        4
 70
     0
 43
0.0
 10
43433.33546093999
 20
10561.69800383
 10
43475.55366894
 20
10527.6147942
 10
43466.72887312
 20
10529.47466008
 10
43519.69671833999
 20
10486.71315367
  0
LWPOLYLINE
  5
406
330
E3
100
AcDbEntity
  8
Ech.1_5
  6
Continuous
 62
     7
370
    -3
100
AcDbPolyline
 90
        4
 70
     0
 43
0.0
 10
43435.63180977
 20
10562.53380645
 10
43484.6467244
 20
10522.96354305
 10
43475.82192857999
 20
10524.82340894
 10
43521.99315
 20
10487.54888941
  0
LWPOLYLINE
  5
407
330
E3
100
AcDbEntity
  8
Ech.1_5
  6
Continuous
 62
     7
370
    -3
100
AcDbPolyline
 90
       40
 70
     0
 43
0.0
 10
43737.50600685999
 20
10639.07725755
 42
1.14028181
 10
43713.90813591
 20
10626.79297442
 10
43741.63629537
 20
10587.16494227
 42
-1.303226189999999
 10
43717.28035279
 20
10578.30010415
 10
43713.04894721
 20
10626.48025531
 42
1.303226189999999
 10
43688.69300462999
 20
10617.61541718
 10
43716.42116409
 20
10577.98738504
 42
-1.303226189999999
 10
43692.06522152
 20
10569.12254691
 10
43687.83381592999
 20
10617.30269807
 42
1.303226189999999
 10
43663.47787336
 20
10608.43785995
 10
43691.20603282
 20
10568.8098278
 42
-1.303226189999999
 10
43666.85009025
 20
10559.94498967
 10
43662.61868466
 20
10608.12514083
 42
1.303226189999999
 10
43638.26274209
 20
10599.26030271
 10
43665.99090155
 20
10559.63227056
 42
-1.303226189999999
 10
43641.63495898
 20
10550.76743244
 10
43637.40355339
 20
10598.9475836
 42
1.303226189999999
 10
43613.04761080999
 20
10590.08274547
 10
43640.77577026999
 20
10550.45471333
 42
-1.303226189999999
 10
43616.4198277
 20
10541.5898752
 10
43612.18842210999
 20
10589.77002636
 42
1.303226189999999
 10
43587.83247954
 20
10580.90518824
 10
43615.560639
 20
10541.27715609
 42
-1.303226189999999
 10
43591.20469643
 20
10532.41231796
 10
43586.97329083999
 20
10580.59246912
 42
1.303226189999999
 10
43562.61734827
 20
10571.727631
 10
43590.34550773
 20
10532.09959885
 42
-1.303226189999999
 10
43565.98956516
 20
10523.23476073
 10
43561.75815957
 20
10571.41491189
 42
1.303226189999999
 10
43537.40221698999
 20
10562.55007376
 10
43565.13037644999
 20
10522.92204162
 42
-1.303226189999999
 10
43540.77443388
 20
10514.05720349
 10
43536.54302828999
 20
10562.23735465
 42
1.303226189999999
 10
43512.18708571999
 20
10553.37251653
 10
43539.91524517999
 20
10513.74448438
 42
-1.303226189999999
 10
43515.55930261
 20
10504.87964626
 10
43511.32789701999
 20
10553.05979741
 42
1.303226189999999
 10
43486.97195445
 20
10544.19495929
 10
43514.70011391
 20
10504.56692714
 42
-0.22783945
 10
43516.58455346
 20
10493.09669813
  0
LWPOLYLINE
  5
409
330
E3
100
AcDbEntity
  8
Ech.1_5
  6
Continuous
 62
     7
370
    -3
100
AcDbPolyline
 90
        5
 70
     0
 43
0.0
 10
42701.50333816999
 20
10234.04972178
 10
44056.50333817
 20
10234.04972178
 10
44056.50333817
 20
11219.04972178
 10
42701.50333816999
 20
11219.04972178
 10
42701.50333816999
 20
10234.04972178
  0
LWPOLYLINE
  5
40A
330
E3
100
AcDbEntity
  8
Ech.1_5
  6
Continuous
 62
     7
370
    -3
100
AcDbPolyline
 90
        8
 70
     1
 43
0.0
 10
42825.00391842999
 20
10878.69880915
 10
42948.34658189
 20
10559.73029665
 10
42941.70651396999
 20
10565.83321566
 10
43047.44014227
 20
10291.90367633
 10
43047.44014227
 20
10291.90367633
 10
42941.70651396999
 20
10565.83321566
 10
42948.34658189
 20
10559.73029665
 10
42825.00391842999
 20
10878.69880915
  0
LWPOLYLINE
  5
40B
330
E3
100
AcDbEntity
  8
Ech.1_5
  6
Continuous
 62
     7
370
    -3
100
AcDbPolyline
 90
        7
 70
     0
 43
0.0
 10
43348.51106369
 20
10790.78326967
 10
43296.70184231
 20
10790.78326967
 10
43268.51106369
 20
10780.52266537
 10
43268.51106369
 20
10565.26056987
 10
43320.32028506
 20
10565.26056987
 10
43348.51106369
 20
10575.52117417
 10
43348.51106369
 20
10790.78326967
  0
LINE
  5
40C
330
E3
100
AcDbEntity
  8
Ech.1_5
  6
Continuous
 62
     7
370
    -3
100
AcDbLine
 10
43268.51106369
 20
10565.26056987
 30
0.0
 11
43348.51106369
 21
10790.78326967
 31
0.0
  0
LINE
  5
40D
330
E3
100
AcDbEntity
  8
Ech.1_5
  6
Continuous
 62
     7
370
    -3
100
AcDbLine
 10
43268.51106369
 20
10780.52266537
 30
0.0
 11
43348.51106369
 21
10575.52117417
 31
0.0
  0
LINE
  5
40E
330
E3
100
AcDbEntity
  8
Ech.1_5
  6
CADWORK_22
 62
     1
370
    35
100
AcDbLine
 10
42988.88557206
 20
10443.03029544
 30
0.0
 11
43712.59010075
 21
10708.03505687
 31
0.0
  0
LWPOLYLINE
  5
40F
330
E3
100
AcDbEntity
  8
Ech.1_5
  6
Continuous
 62
     7
370
    -3
100
AcDbPolyline
 90
       41
 70
     0
 43
0.0
 10
43304.00269935999
 20
10482.55983603
 10
43311.47869099
 20
10483.20710111
 10
43318.90859065
 20
10485.14490575
 10
43326.24659052999
 20
10488.36130273
 10
43333.44744943
 20
10492.83646191
 10
43340.46677165
 20
10498.54279243
 10
43347.26128074
 20
10505.44511287
 10
43353.78908628999
 20
10513.50086813
 10
43360.00994221
 20
10522.6603918
 10
43365.88549485
 20
10532.86721237
 10
43371.37951947999
 20
10544.0584014
 10
43376.45814361
 20
10556.16496149
 10
43381.09005583
 20
10569.11225166
 10
43385.24669887
 20
10582.82044757
 10
43388.90244563
 20
10597.20503363
 10
43392.03475721999
 20
10612.17732409
 10
43394.6243219
 20
10627.64500979
 10
43396.65517414999
 20
10643.51272731
 10
43398.11479308
 20
10659.6826469
 10
43398.99417965
 20
10676.05507562
 10
43399.28791215999
 20
10692.529072
 10
43398.99417965
 20
10709.00306839
 10
43398.11479308
 20
10725.3754971
 10
43396.65517414999
 20
10741.54541669
 10
43394.6243219
 20
10757.41313421
 10
43392.03475721999
 20
10772.88081991
 10
43388.90244563
 20
10787.85311037
 10
43385.24669887
 20
10802.23769643
 10
43381.09005583
 20
10815.94589234
 10
43376.45814361
 20
10828.89318251
 10
43371.37951947999
 20
10840.9997426
 10
43365.88549485
 20
10852.19093163
 10
43360.00994221
 20
10862.3977522
 10
43353.78908628999
 20
10871.55727587
 10
43347.26128074
 20
10879.61303113
 10
43340.46677165
 20
10886.51535157
 10
43333.44744943
 20
10892.22168209
 10
43326.24659052999
 20
10896.69684127
 10
43318.90859065
 20
10899.91323825
 10
43311.47869099
 20
10901.85104289
 10
43304.00269935999
 20
10902.49830797
  0
LWPOLYLINE
  5
410
330
E3
100
AcDbEntity
  8
Ech.1_5
  6
Continuous
 62
     7
370
    -3
100
AcDbPolyline
 90
       41
 70
     0
 43
0.0
 10
43304.00269935999
 20
10902.49830797
 10
43296.52670772
 20
10901.85104289
 10
43289.09680806999
 20
10899.91323825
 10
43281.75880817999
 20
10896.69684127
 10
43274.55794929
 20
10892.22168209
 10
43267.53862707
 20
10886.51535157
 10
43260.74411798
 20
10879.61303113
 10
43254.21631243
 20
10871.55727587
 10
43247.99545650999
 20
10862.3977522
 10
43242.11990386
 20
10852.19093163
 10
43236.62587922999
 20
10840.9997426
 10
43231.54725511
 20
10828.89318251
 10
43226.91534288
 20
10815.94589234
 10
43222.75869984999
 20
10802.23769643
 10
43219.10295309
 20
10787.85311037
 10
43215.97064149
 20
10772.88081991
 10
43213.38107681
 20
10757.41313421
 10
43211.35022456
 20
10741.54541669
 10
43209.89060564
 20
10725.3754971
 10
43209.01121906
 20
10709.00306839
 10
43208.71748654999
 20
10692.529072
 10
43209.01121906
 20
10676.05507562
 10
43209.89060564
 20
10659.6826469
 10
43211.35022456
 20
10643.51272731
 10
43213.38107681
 20
10627.64500979
 10
43215.97064149
 20
10612.17732409
 10
43219.10295309
 20
10597.20503363
 10
43222.75869984999
 20
10582.82044757
 10
43226.91534288
 20
10569.11225166
 10
43231.54725511
 20
10556.16496149
 10
43236.62587922999
 20
10544.0584014
 10
43242.11990386
 20
10532.86721237
 10
43247.99545650999
 20
10522.6603918
 10
43254.21631243
 20
10513.50086813
 10
43260.74411798
 20
10505.44511287
 10
43267.53862707
 20
10498.54279243
 10
43274.55794929
 20
10492.83646191
 10
43281.75880817999
 20
10488.36130273
 10
43289.09680806999
 20
10485.14490575
 10
43296.52670772
 20
10483.20710111
 10
43304.00269935999
 20
10482.55983603
  0
LINE
  5
411
330
E3
100
AcDbEntity
  8
Ech.1_5
  6
Continuous
 62
     7
370
    -3
100
AcDbLine
 10
43958.15752993
 20
11001.85308369
 30
0.0
 11
43868.57720327999
 21
10969.05094113
 31
0.0
  0
LINE
  5
412
330
E3
100
AcDbEntity
  8
Ech.1_5
  6
CADWORK_22
 62
   150
370
    35
100
AcDbLine
 10
43869.15925296
 20
10970.06205906
 30
2500.0
 11
43957.6462794
 21
11002.2687028
 31
2500.0
  0
LINE
  5
413
330
E3
100
AcDbEntity
  8
Ech.1_5
  6
Continuous
 62
     7
370
    -3
100
AcDbLine
 10
43836.98942466
 20
10871.62271066
 30
0.0
 11
44002.39828226
 21
10931.82661131
 31
0.0
  0
LINE
  5
414
330
E3
100
AcDbEntity
  8
Ech.1_5
  6
Continuous
 62
     7
370
    -3
100
AcDbLine
 10
43959.00259219
 20
11001.16609363
 30
0.0
 11
43867.99680791
 21
10968.042697
 31
0.0
  0
LWPOLYLINE
  5
415
330
E3
100
AcDbEntity
  8
Ech.1_5
  6
Continuous
 62
     7
370
    -3
100
AcDbPolyline
 90
        8
 70
     0
 43
0.0
 10
44022.1912556
 20
10812.60221321
 42
-0.3891866400000722
 10
44002.24552018999
 20
10830.85951814
 10
43995.9377015
 20
10902.68237969
 42
1.303226189999999
 10
43959.62993888
 20
10889.46743483
 10
44000.96471492
 20
10830.39334315
 42
-1.303226189999999
 10
43964.65695229999
 20
10817.17839829
 10
43958.34913362
 20
10889.00125983
 42
0.6581703370470363
 10
43923.46688338645
 20
10900.53515226422
 42
0.6581703370470363
  0
LWPOLYLINE
  5
416
330
E3
100
AcDbEntity
  8
Ech.1_5
  6
Continuous
 62
     7
370
    -3
100
AcDbPolyline
 90
        3
 70
     0
 43
0.0
 10
44002.58258171
 20
10931.31145076
 42
0.42224965
 10
43997.21850676
 20
10903.14855468
 10
44016.47737074
 20
10875.6245179
  0
LWPOLYLINE
  5
417
330
E3
100
AcDbEntity
  8
Ech.1_5
  6
Continuous
 62
     7
370
    -3
100
AcDbPolyline
 90
        3
 70
     0
 43
0.0
 10
43831.80002603999
 20
10802.55199763
 10
43850.6104434
 20
10775.66886372
 42
-0.58145808
 10
43835.72497487
 20
10744.25277582
  0
LWPOLYLINE
  5
418
330
E3
100
AcDbEntity
  8
Ech.1_5
  6
Continuous
 62
     7
370
    -3
100
AcDbPolyline
 90
        4
 70
     0
 43
0.0
 10
44010.70121115
 20
10703.1881811
 42
-0.3369170500000191
 10
43997.1418857
 20
10718.12164449
 10
43991.88580206
 20
10777.97102054
 42
0.619531381297036
 10
43964.10568578152
 20
10788.88096032918
 42
0.619531381297036
  0
LWPOLYLINE
  5
419
330
E3
100
AcDbEntity
  8
Ech.1_5
  6
Continuous
 62
     7
370
    -3
100
AcDbPolyline
 90
        3
 70
     0
 43
0.0
 10
44022.18153028
 20
10793.84689833
 42
1.13192306
 10
43992.95308693999
 20
10778.35947711
 10
44018.16530968
 20
10742.32691285
  0
ARC
  5
41A
330
E3
100
AcDbEntity
  8
Ech.1_5
  6
Continuous
 62
     7
370
    -3
100
AcDbCircle
 10
44037.92752175999
 20
10799.31906153
 30
0.0
 40
16.66620748
100
AcDbArc
 50
159.43190093
 51
199.13052521
  0
LWPOLYLINE
  5
41B
330
E3
100
AcDbEntity
  8
Ech.1_5
  6
Continuous
 62
     7
370
    -3
100
AcDbPolyline
 90
        3
 70
     0
 43
0.0
 10
43840.71901987
 20
10715.10234186
 10
43870.78557651999
 20
10672.13210692
 42
-0.47907961
 10
43863.54011783
 20
10647.18720176
  0
LINE
  5
41C
330
E3
100
AcDbEntity
  8
Ech.1_5
  6
Continuous
 62
     7
370
    -3
100
AcDbLine
 10
43986.39053613
 20
10967.60740585
 30
0.0
 11
43846.92193314999
 21
10916.82550792
 31
0.0
  0
LINE
  5
41D
330
E3
100
AcDbEntity
  8
Ech.1_5
  6
Continuous
 62
     7
370
    -3
100
AcDbLine
 10
43948.67877711
 20
10765.00042289
 30
0.0
 11
44015.14083324999
 21
10723.38678913
 31
0.0
  0
INSERT
  5
41E
330
E3
100
AcDbEntity
  8
Ech.1_5
  6
Continuous
 62
     7
370
    -3
100
AcDbBlockReference
  2
CDWK_EXTR_4
 10
43948.67877711
 20
10765.00042289
 30
0.0
 41
5.0
 42
5.0
 43
5.0
 50
327.94823975
  0
LWPOLYLINE
  5
41F
330
E3
100
AcDbEntity
  8
Ech.1_5
  6
Continuous
 62
     7
370
    -3
100
AcDbPolyline
 90
       41
 70
     0
 43
0.0
 10
43927.06838442
 20
10593.52804246
 10
43934.54437606
 20
10594.17530754
 10
43941.97427571
 20
10596.11311217
 10
43949.3122756
 20
10599.32950916
 10
43956.51313449
 20
10603.80466833
 10
43963.53245671
 20
10609.51099886
 10
43970.32696580001
 20
10616.4133193
 10
43976.85477135
 20
10624.46907456
 10
43983.07562727
 20
10633.62859823
 10
43988.95117991999
 20
10643.8354188
 10
43994.44520454999
 20
10655.02660783
 10
43999.52382867
 20
10667.13316792
 10
44004.1557409
 20
10680.08045809
 10
44008.31238393
 20
10693.788654
 10
44011.96813069
 20
10708.17324006
 10
44015.10044229
 20
10723.14553051
 10
44017.69000697
 20
10738.61321622
 10
44019.72085921999
 20
10754.48093374
 10
44021.18047814
 20
10770.65085332
 10
44022.05986472
 20
10787.02328204
 10
44022.35359722999
 20
10803.49727843
 10
44022.05986472
 20
10819.97127481
 10
44021.18047814
 20
10836.34370353
 10
44019.72085921999
 20
10852.51362312
 10
44017.69000697
 20
10868.38134064
 10
44015.10044229
 20
10883.84902634
 10
44011.96813069
 20
10898.8213168
 10
44008.31238393
 20
10913.20590286
 10
44004.1557409
 20
10926.91409877
 10
43999.52382867
 20
10939.86138894
 10
43994.44520454999
 20
10951.96794902
 10
43988.95117991999
 20
10963.15913805
 10
43983.07562727
 20
10973.36595863
 10
43976.85477135
 20
10982.5254823
 10
43970.32696580001
 20
10990.58123756
 10
43963.53245671
 20
10997.483558
 10
43956.51313449
 20
11003.18988852
 10
43949.3122756
 20
11007.6650477
 10
43941.97427571
 20
11010.88144468
 10
43934.54437606
 20
11012.81924932
 10
43927.06838442
 20
11013.4665144
  0
LWPOLYLINE
  5
420
330
E3
100
AcDbEntity
  8
Ech.1_5
  6
Continuous
 62
     7
370
    -3
100
AcDbPolyline
 90
       41
 70
     0
 43
0.0
 10
43927.06838442
 20
11013.4665144
 10
43919.59239279
 20
11012.81924932
 10
43912.16249313
 20
11010.88144468
 10
43904.82449325
 20
11007.6650477
 10
43897.62363435
 20
11003.18988852
 10
43890.60431213
 20
10997.483558
 10
43883.80980304
 20
10990.58123756
 10
43877.28199748999
 20
10982.5254823
 10
43871.06114156999
 20
10973.36595863
 10
43865.18558893
 20
10963.15913805
 10
43859.6915643
 20
10951.96794902
 10
43854.61294017
 20
10939.86138894
 10
43849.98102795
 20
10926.91409877
 10
43845.82438491
 20
10913.20590286
 10
43842.16863815
 20
10898.8213168
 10
43839.03632656
 20
10883.84902634
 10
43836.44676188
 20
10868.38134064
 10
43834.41590962999
 20
10852.51362312
 10
43832.95629069999
 20
10836.34370353
 10
43832.07690413
 20
10819.97127481
 10
43831.78317162
 20
10803.49727843
 10
43832.07690413
 20
10787.02328204
 10
43832.95629069999
 20
10770.65085332
 10
43834.41590962999
 20
10754.48093374
 10
43836.44676188
 20
10738.61321622
 10
43839.03632656
 20
10723.14553051
 10
43842.16863815
 20
10708.17324006
 10
43845.82438491
 20
10693.788654
 10
43849.98102795
 20
10680.08045809
 10
43854.61294017
 20
10667.13316792
 10
43859.6915643
 20
10655.02660783
 10
43865.18558893
 20
10643.8354188
 10
43871.06114156999
 20
10633.62859823
 10
43877.28199748999
 20
10624.46907456
 10
43883.80980304
 20
10616.4133193
 10
43890.60431213
 20
10609.51099886
 10
43897.62363435
 20
10603.80466833
 10
43904.82449325
 20
10599.32950916
 10
43912.16249313
 20
10596.11311217
 10
43919.59239279
 20
10594.17530754
 10
43927.06838442
 20
10593.52804246
  0
LWPOLYLINE
  5
421
330
E3
100
AcDbEntity
  8
Ech.1_5
  6
Continuous
 62
     7
370
    -3
100
AcDbPolyline
 90
        7
 70
     0
 43
0.0
 10
43922.64342426
 20
10902.79758762
 10
43873.95868125
 20
10885.0777903
 10
43847.46801459999
 20
10875.43597616
 10
43922.71244613
 20
10668.70359958
 10
43971.39718914999
 20
10686.42339691
 10
43997.88785579
 20
10696.06521105
 10
43922.64342426
 20
10902.79758762
  0
LINE
  5
422
330
E3
100
AcDbEntity
  8
Ech.1_5
  6
Continuous
 62
     7
370
    -3
100
AcDbLine
 10
43922.71244613
 20
10668.70359958
 30
0.0
 11
43922.64342426
 21
10902.79758762
 31
0.0
  0
LINE
  5
423
330
E3
100
AcDbEntity
  8
Ech.1_5
  6
Continuous
 62
     7
370
    -3
100
AcDbLine
 10
43847.46801459999
 20
10875.43597616
 30
0.0
 11
43997.88785579
 21
10696.06521105
 31
0.0
  0
LINE
  5
424
330
E3
100
AcDbEntity
  8
Ech.1_5
  6
CADWORK_22
 62
     1
370
    35
100
AcDbLine
 10
43863.98218903999
 20
10646.28671389
 30
0.0
 11
44009.81118039
 21
10699.68609931
 31
0.0
  0
LWPOLYLINE
  5
425
330
E3
100
AcDbEntity
  8
Ech.1_5
  6
Continuous
 62
     7
370
    -3
100
AcDbPolyline
 90
        5
 70
     0
 43
0.0
 10
43608.44955704
 20
10989.38438023
 10
42884.14458944
 20
10725.75893149
 10
42913.00359108999
 20
10651.12852728
 10
43637.30855869
 20
10914.75397602
 10
43608.44955704
 20
10989.38438023
  0
LWPOLYLINE
  5
426
330
E3
100
AcDbEntity
  8
Ech.1_5
  6
Continuous
 62
     7
370
    -3
100
AcDbPolyline
 90
       24
 70
     0
 43
0.0
 10
43426.79133079
 20
10981.04072628
 10
43432.90024555
 20
10958.26554299
 10
43456.63290984999
 20
10964.63127983
 10
43444.02865119
 20
11016.82708679
 10
43434.58423272
 20
11014.54644587
 10
43437.16193225
 20
11003.87187066
 10
43420.20941191999
 20
10999.77817112
 10
43417.63171239
 20
11010.45274632
 10
43408.18729393
 20
11008.1721054
 10
43410.76499346
 20
10997.4975302
 10
43387.69864467
 20
10991.92746158
 10
43374.56814483
 20
11046.30249888
 10
43048.13276081
 20
10967.47478731
 42
0.41421356
 10
43031.68493791
 20
10940.55439522
 10
43035.9124413
 20
10923.04777647
 10
43035.96039090001
 20
10923.05935536
 10
43048.66943547
 20
10870.42961688
 10
43068.92403921
 20
10875.32070449
 10
43066.39078654
 20
10885.81121971
 10
43082.17544361
 20
10889.98203779
 10
43084.67086073
 20
10879.6482043
 10
43095.13005856
 20
10882.45364157
 10
43092.94682604
 20
10891.49467968
 10
43426.79133079
 20
10981.04072628
  0
LWPOLYLINE
  5
427
330
E3
100
AcDbEntity
  8
Ech.1_5
  6
Continuous
 62
     7
370
    -3
100
AcDbPolyline
 90
        7
 70
     0
 43
0.0
 10
43423.07125511
 20
10979.48747036
 10
43432.29230442
 20
10954.15284559
 10
43394.70597614999
 20
10940.46825778
 10
43388.97946940999
 20
10956.20170574
 10
43385.48355028
 20
10965.80666463
 10
43388.97946940999
 20
10967.07907513
 10
43423.07125511
 20
10979.48747036
  0
LWPOLYLINE
  5
428
330
E3
100
AcDbEntity
  8
Ech.1_5
  6
Continuous
 62
     7
370
    -3
100
AcDbPolyline
 90
        5
 70
     0
 43
0.0
 10
43084.47067630999
 20
10856.24605949
 10
43046.88297146999
 20
10842.56525376
 10
43056.11751534
 20
10817.193553
 10
43093.70384361
 20
10830.8781408
 10
43084.47067630999
 20
10856.24605949
  0
LWPOLYLINE
  5
429
330
E3
100
AcDbEntity
  8
Ech.1_5
  6
Continuous
 62
     7
370
     5
100
AcDbPolyline
 90
        5
 70
     0
 43
0.0
 10
42847.34428895999
 20
10293.36132179
 10
42897.34428895999
 20
10293.36132179
 10
42897.34428895999
 20
10300.77645932
 10
42847.34428895999
 20
10300.77645932
 10
42847.34428895999
 20
10293.36132179
  0
LWPOLYLINE
  5
42A
330
E3
100
AcDbEntity
  8
Ech.1_5
  6
Continuous
 62
     7
370
    -3
100
AcDbPolyline
 90
       18
 70
     0
 43
0.0
 10
43094.29249161
 20
10835.02239947
 10
43118.02515591
 20
10841.38813631
 10
43105.42089724999
 20
10893.58394326
 10
43095.97647879
 20
10891.30330234
 10
43098.55417832
 20
10880.62872714
 10
43081.60165798
 20
10876.53502759
 10
43079.02395845
 20
10887.2096028
 10
43069.57953999
 20
10884.92896188
 10
43072.15723951999
 20
10874.25438667
 10
43049.09089074
 20
10868.68431805
 10
43048.66943547
 20
10870.42961688
 10
43048.62148586999
 20
10870.41803799
 10
43039.57915315999
 20
10907.86346541
 10
43035.9124413
 20
10923.04777647
 10
42827.33150369
 20
10872.67959093
 10
42857.05880866999
 20
10795.80372344
 10
43088.18357685
 20
10857.79758275
 10
43094.29249161
 20
10835.02239947
  0
LWPOLYLINE
  5
42B
330
E3
100
AcDbEntity
  8
Ech.1_5
  6
Continuous
 62
     7
370
    -3
100
AcDbPolyline
 90
        5
 70
     0
 43
0.0
 10
43598.70962658
 20
11014.57218664
 10
42874.4046674
 20
10750.94671614
 10
42884.14458944
 20
10725.75893149
 10
43607.90845076
 20
10990.78370031
 10
43598.70962658
 20
11014.57218664
  0
LWPOLYLINE
  5
42C
330
E3
100
AcDbEntity
  8
Ech.1_5
  6
Continuous
 62
     7
370
    -3
100
AcDbPolyline
 90
        5
 70
     0
 43
0.0
 10
43711.2301814
 20
10707.54008437
 10
42988.34742736
 20
10444.43103854
 10
43009.86857243
 20
10388.41339918
 10
43732.24193949999
 20
10651.33707334
 10
43711.2301814
 20
10707.54008437
  0
LWPOLYLINE
  5
42D
330
E3
100
AcDbEntity
  8
Ech.1_5
  6
Continuous
 62
     7
370
    -3
100
AcDbPolyline
 90
        5
 70
     0
 43
0.0
 10
43760.25762465999
 20
10576.39970418
 10
43038.98097602999
 20
10313.87597458
 10
43043.64388864
 20
10301.73882498
 10
43764.70388756
 20
10564.18370049
 10
43760.25762465999
 20
10576.39970418
  0
LWPOLYLINE
  5
42E
330
E3
100
AcDbEntity
  8
Ech.1_5
  6
Continuous
 62
     7
370
    -3
100
AcDbPolyline
 90
       14
 70
     0
 43
0.0
 10
43370.29269185
 20
11063.79753874
 10
43374.52019524
 20
11046.29092
 10
43374.56814483
 20
11046.30249888
 10
43387.27718941
 20
10993.6727604
 10
43407.53179315
 20
10998.56384801
 10
43404.99854048
 20
11009.05436324
 10
43420.78319755
 20
11013.22518131
 10
43423.27861467
 20
11002.89134782
 10
43433.73781249
 20
11005.69678509
 10
43431.55457998
 20
11014.73782321
 10
43582.9433459
 20
11055.34434898
 10
43553.67641926999
 20
11131.02966166
 10
43386.74051475
 20
11090.71793083
 42
0.41421356
 10
43370.29269185
 20
11063.79753874
  0
LWPOLYLINE
  5
42F
330
E3
100
AcDbEntity
  8
Ech.1_5
  6
Continuous
 62
     7
370
    -3
100
AcDbPolyline
 90
        2
 70
     0
 43
0.0
 10
42952.47860322
 20
10537.79441899
 10
43268.51106369
 20
10652.81981068238
  0
LWPOLYLINE
  5
430
330
E3
100
AcDbEntity
  8
Ech.1_5
  6
Continuous
 62
     7
370
    -3
100
AcDbPolyline
 90
        4
 70
     0
 43
0.0
 10
42988.34743781
 20
10444.43101135
 10
43711.2301814
 20
10707.54008437
 10
43676.72248105
 20
10801.39530228
 10
43348.51106369
 20
10681.93717198667
  0
LWPOLYLINE
  5
431
330
E3
100
AcDbEntity
  8
Ech.1_5
  6
Continuous
 62
     7
370
    -3
100
AcDbPolyline
 90
        7
 70
     0
 43
0.0
 10
43484.6467244
 20
10522.96354305
 10
43475.82192857999
 20
10524.82340894
 10
43520.17527705999
 20
10489.01647762
 10
43760.25761693999
 20
10576.39972537
 10
43732.24193949999
 20
10651.33707334
 10
43451.98526044
 20
10549.33149129
 10
43484.6467244
 20
10522.96354305
  0
LWPOLYLINE
  5
433
330
E3
100
AcDbEntity
  8
Ech.1_5
  6
Continuous
 62
     7
370
    -3
100
AcDbPolyline
 90
       19
 70
     0
 43
0.0
 10
43994.44520454999
 20
10951.96794902
 10
43988.95117991999
 20
10963.15913805
 10
43983.07562727
 20
10973.36595863
 10
43976.85477135
 20
10982.5254823
 10
43970.32696580001
 20
10990.58123756
 10
43963.53245671
 20
10997.483558
 10
43959.00259219
 20
11001.16609363
 10
43867.99680791
 20
10968.042697
 10
43865.18558893
 20
10963.15913805
 10
43859.6915643
 20
10951.96794902
 10
43854.61294017
 20
10939.86138894
 10
43849.98102795
 20
10926.91409877
 10
43845.82438491
 20
10913.20590286
 10
43842.16863815
 20
10898.8213168
 10
43839.03632656
 20
10883.84902634
 10
43836.98942466
 20
10871.62271066
 10
44002.39828226
 20
10931.82661131
 10
43999.52382867
 20
10939.86138894
 10
43994.44520454999
 20
10951.96794902
  0
LWPOLYLINE
  5
434
330
E3
100
AcDbEntity
  8
Ech.1_5
  6
Continuous
 62
     7
370
    -3
100
AcDbPolyline
 90
       16
 70
     0
 43
0.0
 10
43949.3122756
 20
11007.6650477
 10
43941.97427571
 20
11010.88144468
 10
43934.54437606
 20
11012.81924932
 10
43927.06838442
 20
11013.4665144
 10
43919.59239279
 20
11012.81924932
 10
43912.16249313
 20
11010.88144468
 10
43904.82449325
 20
11007.6650477
 10
43897.62363435
 20
11003.18988852
 10
43890.60431213
 20
10997.483558
 10
43883.80980304
 20
10990.58123756
 10
43877.28199748999
 20
10982.5254823
 10
43871.06114156999
 20
10973.36595863
 10
43868.57720327999
 20
10969.05094113
 10
43958.15752993
 20
11001.85308369
 10
43956.51313449
 20
11003.18988852
 10
43949.3122756
 20
11007.6650477
  0
LWPOLYLINE
  5
435
330
E3
100
AcDbEntity
  8
Ech.1_5
  6
Continuous
 62
     7
370
    -3
100
AcDbPolyline
 90
       18
 70
     0
 43
0.0
 10
43988.95117991999
 20
10643.8354188
 10
43994.44520454999
 20
10655.02660783
 10
43999.52382867
 20
10667.13316792
 10
44004.1557409
 20
10680.08045809
 10
44008.31238393
 20
10693.788654
 10
44010.01249783999
 20
10700.47824066
 10
43863.54878062999
 20
10647.16955586
 10
43865.18558893
 20
10643.8354188
 10
43871.06114156999
 20
10633.62859823
 10
43877.28199748999
 20
10624.46907456
 10
43883.80980304
 20
10616.4133193
 10
43890.60431213
 20
10609.51099886
 10
43897.62363435
 20
10603.80466833
 10
43904.82449325
 20
10599.32950916
 10
43906.05530664
 20
10598.79001821
 10
43976.93593745
 20
10624.58858268
 10
43983.07562727
 20
10633.62859823
 10
43988.95117991999
 20
10643.8354188
  0
LWPOLYLINE
  5
436
330
E3
100
AcDbEntity
  8
Ech.1_5
  6
Continuous
 62
     7
370
    -3
100
AcDbPolyline
 90
        8
 70
     0
 43
0.0
 10
44015.10044229
 20
10723.14553051
 10
44017.69000697
 20
10738.61321622
 10
44019.72085921999
 20
10754.48093374
 10
44021.18047814
 20
10770.65085332
 10
44022.05986472
 20
10787.02328204
 10
44022.35359722999
 20
10803.49727843
 10
44022.21383924
 20
10811.33560915
 10
43963.68620293019
 20
10790.0334799911
  0
LWPOLYLINE
  5
437
330
E3
100
AcDbEntity
  8
Ech.1_5
  6
Continuous
 62
     7
370
    -3
100
AcDbPolyline
 90
       19
 70
     0
 43
0.0
 10
44021.18047814
 20
10836.34370353
 10
44019.72085921999
 20
10852.51362312
 10
44017.69000697
 20
10868.38134064
 10
44015.10044229
 20
10883.84902634
 10
44011.96813069
 20
10898.8213168
 10
44008.31238393
 20
10913.20590286
 10
44004.1557409
 20
10926.91409877
 10
44002.39828226
 20
10931.82661131
 10
43836.98942466
 20
10871.62271066
 10
43836.44676188
 20
10868.38134064
 10
43834.41590962999
 20
10852.51362312
 10
43832.95629069999
 20
10836.34370353
 10
43832.07690413
 20
10819.97127481
 10
43831.78317162
 20
10803.49727843
 10
43832.07690413
 20
10787.02328204
 10
43832.95629069999
 20
10770.65085332
 10
43834.41590962999
 20
10754.48093374
 10
43835.82194607
 20
10743.49510793
 10
43888.51071552066
 20
10762.67208213959
  0
LWPOLYLINE
  5
438
330
E3
100
AcDbEntity
  8
Ech.1_5
  6
Continuous
 62
     7
370
    -3
100
AcDbPolyline
 90
       11
 70
     1
 43
0.0
 10
43296.70184231
 20
10790.78326967
 10
43268.51106369
 20
10780.52266537
 10
43268.51106369
 20
10727.78722975
 10
43268.51109963
 20
10691.1054769
 10
43268.51106369
 20
10682.11952763
 10
43268.51106369
 20
10682.10553365
 10
43268.51106369
 20
10673.73920044
 10
43268.51106369
 20
10565.26056987
 10
43320.32028506
 20
10565.26056987
 10
43348.51106369
 20
10575.52117417
 10
43348.51106369
 20
10790.78326967
  0
LWPOLYLINE
  5
439
330
E3
100
AcDbEntity
  8
Ech.1_5
  6
Continuous
 62
     7
370
    -3
100
AcDbPolyline
 90
       11
 70
     1
 43
0.0
 10
43873.95868125
 20
10885.0777903
 10
43847.46801459999
 20
10875.43597616
 10
43869.0139292
 20
10816.23906231
 10
43881.55986134
 20
10781.76950213
 10
43884.63320322999
 20
10773.32545962
 10
43884.63798944999
 20
10773.31230958
 10
43887.49944393
 20
10765.450528
 10
43922.71244613
 20
10668.70359958
 10
43971.39718914999
 20
10686.42339691
 10
43997.88785579
 20
10696.06521105
 10
43922.64342426
 20
10902.79758762
  0
TEXT
  5
43A
330
E3
100
AcDbEntity
  8
Ech.1_5
 62
     7
100
AcDbText
 10
42858.63858158999
 20
10310.36246241
 30
0.0
 40
8.000000119999999
  1
Echelle en mm
  7
ARIAL
100
AcDbText
  0
TEXT
  5
43B
330
E3
100
AcDbEntity
  8
Ech.1_5
 62
     7
100
AcDbText
 10
42844.65799683999
 20
10282.15262688
 30
0.0
 40
8.000000119999999
  1
0
  7
ARIAL
100
AcDbText
  0
TEXT
  5
43C
330
E3
100
AcDbEntity
  8
Ech.1_5
 62
     7
100
AcDbText
 10
42931.25505473
 20
10282.15262688
 30
0.0
 40
8.000000119999999
  1
100
  7
ARIAL
100
AcDbText
  0
TEXT
  5
43D
330
E3
100
AcDbEntity
  8
Ech.1_5
 62
     7
100
AcDbText
 10
42892.51462316
 20
10282.15262688
 30
0.0
 40
8.000000119999999
  1
50
  7
ARIAL
100
AcDbText
  0
INSERT
  5
43E
330
E3
100
AcDbEntity
  8
Ech.1_5
 62
     0
370
    -3
100
AcDbBlockReference
  2
*D51
 10
0.0
 20
0.0
 30
0.0
  0
INSERT
  5
43F
330
E3
100
AcDbEntity
  8
Ech.1_5
 62
     0
370
    -3
100
AcDbBlockReference
  2
*D52
 10
0.0
 20
0.0
 30
0.0
  0
LWPOLYLINE
  5
4A2
330
E3
100
AcDbEntity
  8
Ech.1_5
  6
Continuous
 62
     7
370
    -3
100
AcDbPolyline
 90
       38
 70
     0
 43
0.0
 10
43268.51106369
 20
10671.52459313535
 42
-0.0960978613648367
 10
43266.41413147999
 20
10678.84795214
 10
43260.10631278999
 20
10750.67081369
 42
1.303226189999999
 10
43223.79855017
 20
10737.45586883
 10
43265.13332621
 20
10678.38177715
 42
-1.303226189999999
 10
43228.82556358999
 20
10665.16683229
 10
43222.51774491
 20
10736.98969383
 42
1.303226189999999
 10
43186.20998229
 20
10723.77474897
 10
43227.54475833
 20
10664.70065729
 42
-1.303226189999999
 10
43191.23699571
 20
10651.48571243
 10
43184.92917702999
 20
10723.30857398
 42
1.303226189999999
 10
43148.62141440999
 20
10710.09362911
 10
43189.95619045
 20
10651.01953744
 42
-1.303226189999999
 10
43153.64842782999
 20
10637.80459257
 10
43147.34060914999
 20
10709.62745412
 42
1.303226189999999
 10
43111.03284652999
 20
10696.41250925
 10
43152.36762257
 20
10637.33841758
 42
-1.303226189999999
 10
43116.05985995
 20
10624.12347271
 10
43109.75204127
 20
10695.94633426
 42
1.303226189999999
 10
43073.44427864999
 20
10682.7313894
 10
43114.77905469
 20
10623.65729772
 42
-1.303226189999999
 10
43078.47129206999
 20
10610.44235286
 10
43072.16347338
 20
10682.2652144
 42
1.303226189999999
 10
43035.85571075999
 20
10669.05026954
 10
43077.19048681
 20
10609.97617786
 42
-1.303226189999999
 10
43040.88272419
 20
10596.761233
 10
43034.57490549999
 20
10668.58409455
 42
1.303226189999999
 10
42998.26714288
 20
10655.36914968
 10
43039.60191893
 20
10596.29505801
 42
-1.303226189999999
 10
43003.29415631
 20
10583.08011314
 10
42996.98633762
 20
10654.90297469
 42
1.303226189999999
 10
42960.67857499999
 20
10641.68802982
 10
43002.01335105
 20
10582.61393815
 42
-1.303226189999999
 10
42965.70558843
 20
10569.39899328
 10
42959.39776973999
 20
10641.22185483
 42
1.303226189999999
 10
42923.09000712
 20
10628.00690997
 10
42964.42478316
 20
10568.93281829
 42
-0.50136344
 10
42954.38429614
 20
10538.49299859
  0
LWPOLYLINE
  5
4A5
330
E3
100
AcDbEntity
  8
Ech.1_5
  6
Continuous
 62
     7
370
    -3
100
AcDbPolyline
 90
        3
 70
     0
 43
0.0
 10
43270.93143736429
 20
10781.40360934337
 42
0.4931699089540743
 10
43261.38711805
 20
10751.13698868
 10
43268.51106369
 20
10740.95571620182
  0
LWPOLYLINE
  5
4A6
330
E3
100
AcDbEntity
  8
Ech.1_5
  6
Continuous
 62
     7
370
    -3
100
AcDbPolyline
 90
        2
 70
     0
 43
0.0
 10
43329.14172686542
 20
10790.78326967
 42
0.3995681398695137
 10
43301.5764652302
 20
10790.78326967
  0
LWPOLYLINE
  5
4A7
330
E3
100
AcDbEntity
  8
Ech.1_5
  6
Continuous
 62
     7
370
    -3
100
AcDbPolyline
 90
        3
 70
     0
 43
0.0
 10
43348.51106369
 20
10761.42530156219
 10
43377.89902985999
 20
10719.42513672
 42
-0.8812905293247624
 10
43348.51106369
 20
10692.75794420505
  0
LWPOLYLINE
  5
4A8
330
E3
100
AcDbEntity
  8
Ech.1_5
  6
Continuous
 62
     7
370
    -3
100
AcDbPolyline
 90
        2
 70
     0
 43
0.0
 10
43310.64562184299
 20
10565.26056987
 42
-0.5398289155160029
 10
43282.77882791805
 20
10565.26056987
 42
-0.5398289155160029
  0
LWPOLYLINE
  5
4A9
330
E3
100
AcDbEntity
  8
Ech.1_5
  6
Continuous
 62
     7
370
    -3
100
AcDbPolyline
 90
        3
 70
     0
 43
0.0
 10
43348.51106369
 20
10641.77658827244
 10
43373.00891574999
 20
10606.7649815
 42
-0.8816083283011511
 10
43348.51106369
 20
10584.55126717877
  0
LWPOLYLINE
  5
4AA
330
E3
100
AcDbEntity
  8
Ech.1_5
  6
Continuous
 62
     7
370
    -3
100
AcDbPolyline
 90
        3
 70
     0
 43
0.0
 10
43268.51106369
 20
10644.48283783307
 42
0.8616464006439134
 10
43244.59837757999
 20
10621.79018968
 10
43268.51106369
 20
10587.61488480406
  0
LWPOLYLINE
  5
4AB
330
E3
100
AcDbEntity
  8
Ech.1_5
  6
Continuous
 62
     7
370
    -3
100
AcDbPolyline
 90
       38
 70
     0
 43
0.0
 10
43281.9028192383
 20
10565.26056987
 42
-1.024548921796229
 10
43248.78717634
 20
10561.55235707
 10
43243.53109269999
 20
10621.40173311
 42
1.303226189999999
 10
43213.27612151
 20
10610.38991943
 10
43247.71989145999
 20
10561.1639005
 42
-1.303226189999999
 10
43217.46492027
 20
10550.15208682
 10
43212.20883662999
 20
10610.00146286
 42
1.303226189999999
 10
43181.95386544
 20
10598.98964918
 10
43216.39763538
 20
10549.76363025
 42
-1.303226189999999
 10
43186.14266419999
 20
10538.75181657
 10
43180.88658055
 20
10598.60119261
 42
1.303226189999999
 10
43150.63160936
 20
10587.58937893
 10
43185.07537931
 20
10538.36336
 42
-1.303226189999999
 10
43154.82040812
 20
10527.35154632
 10
43149.56432448
 20
10587.20092236
 42
1.303226189999999
 10
43119.30935329
 20
10576.18910868
 10
43153.75312323999
 20
10526.96308975
 42
-1.303226189999999
 10
43123.49815205
 20
10515.95127607
 10
43118.2420684
 20
10575.80065211
 42
1.303226189999999
 10
43087.98709722
 20
10564.78883843
 10
43122.43086716
 20
10515.5628195
 42
-1.303226189999999
 10
43092.17589598
 20
10504.55100582
 10
43086.91981233
 20
10564.40038186
 42
1.303226189999999
 10
43056.66484113999
 20
10553.38856818
 10
43091.10861109
 20
10504.16254925
 42
-1.303226189999999
 10
43060.8536399
 20
10493.15073556
 10
43055.59755626
 20
10553.00011161
 42
1.303226189999999
 10
43025.34258507
 20
10541.98829793
 10
43059.78635501999
 20
10492.762279
 42
-1.303226189999999
 10
43029.53138382999
 20
10481.75046531
 10
43024.27530017999
 20
10541.59984136
 42
1.303226189999999
 10
42994.02032899999
 20
10530.58802768
 10
43028.46409894
 20
10481.36200875
 42
-1.303226189999999
 10
42998.20912776
 20
10470.35019506
 10
42992.95304411
 20
10530.19957111
 42
1.303226189999999
 10
42962.69807292
 20
10519.18775743
 10
42997.14184286999
 20
10469.9617385
 42
-0.48689464
 10
42989.50438639
 20
10444.85940055
  0
LWPOLYLINE
  5
4AC
330
E3
100
AcDbEntity
  8
Ech.1_5
  6
Continuous
 62
     7
370
    -3
100
AcDbPolyline
 90
        3
 70
     0
 43
0.0
 10
43268.51106369
 20
10652.81981068238
 10
42952.47860322
 20
10537.79441899
 10
42988.34743781
 20
10444.43101135
  0
LWPOLYLINE
  5
4AD
330
E3
100
AcDbEntity
  8
Ech.1_5
  6
Continuous
 62
     7
370
    -3
100
AcDbPolyline
 90
        9
 70
     0
 43
0.0
 10
43348.51106369
 20
10681.93717198667
 10
43676.72248105
 20
10801.39530228
 10
43655.13357423
 20
10857.5893195
 10
43661.77364214999
 20
10851.48640048
 10
43637.30855869
 20
10914.75397602
 10
42913.00359108999
 20
10651.12852728
 10
42948.34658189
 20
10559.73029665
 10
42941.70651396999
 20
10565.83321566
 10
42952.47860322
 20
10537.79441899
  0
LWPOLYLINE
  5
4AE
330
E3
100
AcDbEntity
  8
Ech.1_5
  6
Continuous
 62
     7
370
    -3
100
AcDbPolyline
 90
        2
 70
     0
 43
0.0
 10
43894.1403915156
 20
10892.42333211387
 42
0.0038452665166707
 10
43893.85131966669
 20
10892.31811856529
 42
0.0038452665166707
  0
LWPOLYLINE
  5
4AF
330
E3
100
AcDbEntity
  8
Ech.1_5
  6
Continuous
 62
     7
370
    -3
100
AcDbPolyline
 90
        4
 70
     0
 43
0.0
 10
43963.68620293019
 20
10790.0334799911
 10
44022.21383924
 20
10811.33560915
 10
44022.05986472
 20
10819.97127481
 10
44021.18047814
 20
10836.34370353
  0
LWPOLYLINE
  5
4B0
330
E3
100
AcDbEntity
  8
Ech.1_5
  6
Continuous
 62
     7
370
    -3
100
AcDbPolyline
 90
       13
 70
     0
 43
0.0
 10
43888.51071552066
 20
10762.67208213959
 10
43835.82194607
 20
10743.49510793
 10
43836.44676188
 20
10738.61321622
 10
43839.03632656
 20
10723.14553051
 10
43842.16863815
 20
10708.17324006
 10
43845.82438491
 20
10693.788654
 10
43849.98102795
 20
10680.08045809
 10
43854.61294017
 20
10667.13316792
 10
43859.6915643
 20
10655.02660783
 10
43863.54878903
 20
10647.16953874
 10
44010.01249393999
 20
10700.47822535
 10
44011.96813069
 20
10708.17324006
 10
44015.10044229
 20
10723.14553051
  0
LWPOLYLINE
  5
4B1
330
E3
100
AcDbEntity
  8
Ech.1_5
  6
Continuous
 62
     7
370
    -3
100
AcDbPolyline
 90
        3
 70
     0
 43
0.0
 10
43983.41738178901
 20
10735.82251161684
 10
43996.07460082
 20
10717.73318793
 42
-0.2982452444471467
 10
43996.64363633178
 20
10699.48367591635
 42
-0.2982452444471467
  0
LWPOLYLINE
  5
4B2
330
E3
100
AcDbEntity
  8
Ech.1_5
  6
Continuous
 62
     7
370
    -3
100
AcDbPolyline
 90
        3
 70
     0
 43
0.0
 10
43922.62217375453
 20
10668.9516208932
 42
-0.4391068089082487
 10
43903.17511748
 20
10683.92083374
 10
43898.72318961543
 20
10734.6135401662
  0
LWPOLYLINE
  5
4B3
330
E3
100
AcDbEntity
  8
Ech.1_5
  6
Continuous
 62
     7
370
    -3
100
AcDbPolyline
 90
        3
 70
     0
 43
0.0
 10
43856.55182287336
 20
10878.74221198306
 42
0.495538064668345
 10
43846.86423524
 20
10848.42407525
 10
43868.61227132446
 20
10817.34260825346
  0
LWPOLYLINE
  5
4B4
330
E3
100
AcDbEntity
  8
Ech.1_5
  6
Continuous
 62
     7
370
    -3
100
AcDbPolyline
 90
        4
 70
     0
 43
0.0
 10
43887.49531705646
 20
10765.46186649186
 42
-0.6784858424581906
 10
43851.89124866
 20
10776.13503871
 10
43845.58342997999
 20
10847.95790026
 42
0.24231256
 10
43835.81495941
 20
10863.44485988
  0
LWPOLYLINE
  5
4B5
330
E3
100
AcDbEntity
  8
Ech.1_5
  6
Continuous
 62
     7
370
    -3
100
AcDbPolyline
 90
        3
 70
     0
 43
0.0
 10
43943.78533319515
 20
10844.71067021606
 10
43963.37614703999
 20
10816.71222329
 42
-0.3315942761371959
 10
43962.6711135528
 20
10792.82241513423
  0
LWPOLYLINE
  5
4B6
330
E3
100
AcDbEntity
  8
Ech.1_5
  6
Continuous
 62
     7
370
    -3
100
AcDbPolyline
 90
        6
 70
     0
 43
0.0
 10
43890.97588448956
 20
10755.89908606209
 42
0.8422415665681798
 10
43867.66406265
 20
10732.7583961
 10
43902.10783259999
 20
10683.53237718
 42
-1.303226189999999
 10
43871.85286141
 20
10672.52056349
 10
43866.59677776
 20
10732.36993954
 42
0.70464871
 10
43836.22911539
 20
10740.31375992
  0
ENDSEC
  0
SECTION
  2
OBJECTS
  0
DICTIONARY
  5
1
330
0
100
AcDbDictionary
281
     1
  3
ACAD_COLOR
350
477
  3
ACAD_GROUP
350
2
  3
ACAD_LAYOUT
350
48F
  3
ACAD_MATERIAL
350
445
  3
ACAD_MLEADERSTYLE
350
48C
  3
ACAD_MLINESTYLE
350
3
  3
ACAD_PLOTSETTINGS
350
490
  3
ACAD_PLOTSTYLENAME
350
443
  3
ACAD_SCALELIST
350
47A
  3
ACAD_TABLESTYLE
350
478
  3
ACAD_VISUALSTYLE
350
45E
  3
ACDB_RECOMPOSE_DATA
350
500
  3
AcDbVariableDictionary
350
4F6
  3
DWGPROPS
350
501
  0
DICTIONARY
  5
4BA
330
BD
100
AcDbDictionary
280
     1
281
     1
  3
ADSK_XREC_LAYER_RECONCILED
360
4BB
  0
DICTIONARY
  5
4BC
330
BE
100
AcDbDictionary
280
     1
281
     1
  3
ADSK_XREC_LAYER_RECONCILED
360
4BD
  0
DICTIONARY
  5
4BE
330
BF
100
AcDbDictionary
280
     1
281
     1
  3
ADSK_XREC_LAYER_RECONCILED
360
4BF
  0
DICTIONARY
  5
4C0
330
C0
100
AcDbDictionary
280
     1
281
     1
  3
ADSK_XREC_LAYER_RECONCILED
360
4C1
  0
DICTIONARY
  5
4C2
330
C1
100
AcDbDictionary
280
     1
281
     1
  3
ADSK_XREC_LAYER_RECONCILED
360
4C3
  0
DICTIONARY
  5
4C4
330
C2
100
AcDbDictionary
280
     1
281
     1
  3
ADSK_XREC_LAYER_RECONCILED
360
4C5
  0
DICTIONARY
  5
4C6
330
C3
100
AcDbDictionary
280
     1
281
     1
  3
ADSK_XREC_LAYER_RECONCILED
360
4C7
  0
DICTIONARY
  5
4C8
330
C4
100
AcDbDictionary
280
     1
281
     1
  3
ADSK_XREC_LAYER_RECONCILED
360
4C9
  0
DICTIONARY
  5
4CA
330
C5
100
AcDbDictionary
280
     1
281
     1
  3
ADSK_XREC_LAYER_RECONCILED
360
4CB
  0
DICTIONARY
  5
4CC
330
C6
100
AcDbDictionary
280
     1
281
     1
  3
ADSK_XREC_LAYER_RECONCILED
360
4CD
  0
DICTIONARY
  5
4CE
330
C7
100
AcDbDictionary
280
     1
281
     1
  3
ADSK_XREC_LAYER_RECONCILED
360
4CF
  0
DICTIONARY
  5
4D0
330
C8
100
AcDbDictionary
280
     1
281
     1
  3
ADSK_XREC_LAYER_RECONCILED
360
4D1
  0
DICTIONARY
  5
4D2
330
C9
100
AcDbDictionary
280
     1
281
     1
  3
ADSK_XREC_LAYER_RECONCILED
360
4D3
  0
DICTIONARY
  5
4D4
330
CA
100
AcDbDictionary
280
     1
281
     1
  3
ADSK_XREC_LAYER_RECONCILED
360
4D5
  0
DICTIONARY
  5
4D6
330
CB
100
AcDbDictionary
280
     1
281
     1
  3
ADSK_XREC_LAYER_RECONCILED
360
4D7
  0
DICTIONARY
  5
4D8
330
CC
100
AcDbDictionary
280
     1
281
     1
  3
ADSK_XREC_LAYER_RECONCILED
360
4D9
  0
DICTIONARY
  5
4DA
330
CD
100
AcDbDictionary
280
     1
281
     1
  3
ADSK_XREC_LAYER_RECONCILED
360
4DB
  0
DICTIONARY
  5
4DC
330
CE
100
AcDbDictionary
280
     1
281
     1
  3
ADSK_XREC_LAYER_RECONCILED
360
4DD
  0
DICTIONARY
  5
4DE
330
CF
100
AcDbDictionary
280
     1
281
     1
  3
ADSK_XREC_LAYER_RECONCILED
360
4DF
  0
DICTIONARY
  5
4E0
330
D0
100
AcDbDictionary
280
     1
281
     1
  3
ADSK_XREC_LAYER_RECONCILED
360
4E1
  0
DICTIONARY
  5
4E2
330
D1
100
AcDbDictionary
280
     1
281
     1
  3
ADSK_XREC_LAYER_RECONCILED
360
4E3
  0
DICTIONARY
  5
4E4
330
D3
100
AcDbDictionary
280
     1
281
     1
  3
ADSK_XREC_LAYER_RECONCILED
360
4E5
  0
DICTIONARY
  5
4E6
330
D4
100
AcDbDictionary
280
     1
281
     1
  3
ADSK_XREC_LAYER_RECONCILED
360
4E7
  0
DICTIONARY
  5
4E8
330
D6
100
AcDbDictionary
280
     1
281
     1
  3
ADSK_XREC_LAYER_RECONCILED
360
4E9
  0
DICTIONARY
  5
4EA
330
D7
100
AcDbDictionary
280
     1
281
     1
  3
ADSK_XREC_LAYER_RECONCILED
360
4EB
  0
DICTIONARY
  5
4EC
330
D8
100
AcDbDictionary
280
     1
281
     1
  3
ADSK_XREC_LAYER_RECONCILED
360
4ED
  0
DICTIONARY
  5
4EE
330
D9
100
AcDbDictionary
280
     1
281
     1
  3
ADSK_XREC_LAYER_RECONCILED
360
4EF
  0
DICTIONARY
  5
4F0
330
DA
100
AcDbDictionary
280
     1
281
     1
  3
ADSK_XREC_LAYER_RECONCILED
360
4F1
  0
DICTIONARY
  5
4F2
330
DB
100
AcDbDictionary
280
     1
281
     1
  3
ADSK_XREC_LAYER_RECONCILED
360
4F3
  0
DICTIONARY
  5
4F4
330
DC
100
AcDbDictionary
280
     1
281
     1
  3
ADSK_XREC_LAYER_RECONCILED
360
4F5
  0
DICTIONARY
  5
4A3
330
E3
100
AcDbDictionary
280
     1
281
     1
  3
ACAD_SORTENTS
360
4A4
  0
DICTIONARY
  5
477
102
{ACAD_REACTORS
330
1
102
}
330
1
100
AcDbDictionary
281
     1
  0
DICTIONARY
  5
2
330
1
100
AcDbDictionary
281
     1
  0
DICTIONARY
  5
48F
102
{ACAD_REACTORS
330
1
102
}
330
1
100
AcDbDictionary
281
     1
  3
Model
350
491
  3
Présentation1
350
492
  0
DICTIONARY
  5
445
102
{ACAD_REACTORS
330
1
102
}
330
1
100
AcDbDictionary
281
     1
  3
ByBlock
350
44E
  3
ByLayer
350
446
  3
Global
350
456
  0
DICTIONARY
  5
48C
102
{ACAD_REACTORS
330
1
102
}
330
1
100
AcDbDictionary
281
     1
  3
Standard
350
48D
  0
DICTIONARY
  5
3
330
1
100
AcDbDictionary
281
     1
  3
STANDARD
350
4
  0
DICTIONARY
  5
490
102
{ACAD_REACTORS
330
1
102
}
330
1
100
AcDbDictionary
281
     1
  0
ACDBDICTIONARYWDFLT
  5
443
102
{ACAD_REACTORS
330
1
102
}
330
1
100
AcDbDictionary
281
     1
  3
Normal
350
444
100
AcDbDictionaryWithDefault
340
444
  0
DICTIONARY
  5
47A
102
{ACAD_REACTORS
330
1
102
}
330
1
100
AcDbDictionary
281
     1
  3
A0
350
47B
  3
A1
350
47C
  3
A2
350
47D
  3
A3
350
47E
  3
A4
350
47F
  3
A5
350
480
  3
A6
350
481
  3
A7
350
482
  3
A8
350
483
  3
A9
350
484
  3
B0
350
485
  3
B1
350
486
  3
B2
350
487
  3
B3
350
488
  3
B4
350
489
  3
B5
350
48A
  3
B6
350
48B
  0
DICTIONARY
  5
478
102
{ACAD_REACTORS
330
1
102
}
330
1
100
AcDbDictionary
281
     1
  3
Standard
350
479
  0
DICTIONARY
  5
45E
102
{ACAD_REACTORS
330
1
102
}
330
1
100
AcDbDictionary
281
     1
  3
2dWireframe
350
464
  3
Basic
350
463
  3
Brighten
350
46A
  3
ColorChange
350
46E
  3
Conceptual
350
467
  3
Dim
350
469
  3
EdgeColorOff
350
476
  3
Facepattern
350
46D
  3
Flat
350
45F
  3
FlatWithEdges
350
460
  3
Gouraud
350
461
  3
GouraudWithEdges
350
462
  3
Hidden
350
466
  3
JitterOff
350
474
  3
Linepattern
350
46C
  3
OverhangOff
350
475
  3
Realistic
350
468
  3
Shaded
350
473
  3
Shaded with edges
350
472
  3
Shades of Gray
350
46F
  3
Sketchy
350
470
  3
Thicken
350
46B
  3
Wireframe
350
465
  3
X-Ray
350
471
  0
XRECORD
  5
500
102
{ACAD_REACTORS
330
1
102
}
330
1
100
AcDbXrecord
280
     1
 90
        1
330
479
  0
DICTIONARY
  5
4F6
102
{ACAD_REACTORS
330
1
102
}
330
1
100
AcDbDictionary
281
     1
  3
CANNOSCALE
350
4F9
  3
CMLEADERSTYLE
350
4F8
  3
CTABLESTYLE
350
4F7
  3
DIMASSOC
350
4FC
  3
INDEXCTL
350
4FB
  3
SORTENTS
350
4FA
  3
XCLIPFRAME
350
4FD
  0
XRECORD
  5
501
102
{ACAD_REACTORS
330
1
102
}
330
1
100
AcDbXrecord
280
     1
  1
DWGPROPS COOKIE
  2

  3

  4

  6

  7

  8
cazeaux
  9

300
=
301
=
302
=
303
=
304
=
305
=
306
=
307
=
308
=
309
=
 40
0.0013424768518519
 41
2456467.0
 42
2456468.493725278
  1

 90
        0
  0
XRECORD
  5
4BB
102
{ACAD_REACTORS
330
4BA
102
}
330
4BA
100
AcDbXrecord
280
     1
290
     1
  0
XRECORD
  5
4BD
102
{ACAD_REACTORS
330
4BC
102
}
330
4BC
100
AcDbXrecord
280
     1
290
     1
  0
XRECORD
  5
4BF
102
{ACAD_REACTORS
330
4BE
102
}
330
4BE
100
AcDbXrecord
280
     1
290
     1
  0
XRECORD
  5
4C1
102
{ACAD_REACTORS
330
4C0
102
}
330
4C0
100
AcDbXrecord
280
     1
290
     1
  0
XRECORD
  5
4C3
102
{ACAD_REACTORS
330
4C2
102
}
330
4C2
100
AcDbXrecord
280
     1
290
     1
  0
XRECORD
  5
4C5
102
{ACAD_REACTORS
330
4C4
102
}
330
4C4
100
AcDbXrecord
280
     1
290
     1
  0
XRECORD
  5
4C7
102
{ACAD_REACTORS
330
4C6
102
}
330
4C6
100
AcDbXrecord
280
     1
290
     1
  0
XRECORD
  5
4C9
102
{ACAD_REACTORS
330
4C8
102
}
330
4C8
100
AcDbXrecord
280
     1
290
     1
  0
XRECORD
  5
4CB
102
{ACAD_REACTORS
330
4CA
102
}
330
4CA
100
AcDbXrecord
280
     1
290
     1
  0
XRECORD
  5
4CD
102
{ACAD_REACTORS
330
4CC
102
}
330
4CC
100
AcDbXrecord
280
     1
290
     1
  0
XRECORD
  5
4CF
102
{ACAD_REACTORS
330
4CE
102
}
330
4CE
100
AcDbXrecord
280
     1
290
     1
  0
XRECORD
  5
4D1
102
{ACAD_REACTORS
330
4D0
102
}
330
4D0
100
AcDbXrecord
280
     1
290
     1
  0
XRECORD
  5
4D3
102
{ACAD_REACTORS
330
4D2
102
}
330
4D2
100
AcDbXrecord
280
     1
290
     1
  0
XRECORD
  5
4D5
102
{ACAD_REACTORS
330
4D4
102
}
330
4D4
100
AcDbXrecord
280
     1
290
     1
  0
XRECORD
  5
4D7
102
{ACAD_REACTORS
330
4D6
102
}
330
4D6
100
AcDbXrecord
280
     1
290
     1
  0
XRECORD
  5
4D9
102
{ACAD_REACTORS
330
4D8
102
}
330
4D8
100
AcDbXrecord
280
     1
290
     1
  0
XRECORD
  5
4DB
102
{ACAD_REACTORS
330
4DA
102
}
330
4DA
100
AcDbXrecord
280
     1
290
     1
  0
XRECORD
  5
4DD
102
{ACAD_REACTORS
330
4DC
102
}
330
4DC
100
AcDbXrecord
280
     1
290
     1
  0
XRECORD
  5
4DF
102
{ACAD_REACTORS
330
4DE
102
}
330
4DE
100
AcDbXrecord
280
     1
290
     1
  0
XRECORD
  5
4E1
102
{ACAD_REACTORS
330
4E0
102
}
330
4E0
100
AcDbXrecord
280
     1
290
     1
  0
XRECORD
  5
4E3
102
{ACAD_REACTORS
330
4E2
102
}
330
4E2
100
AcDbXrecord
280
     1
290
     1
  0
XRECORD
  5
4E5
102
{ACAD_REACTORS
330
4E4
102
}
330
4E4
100
AcDbXrecord
280
     1
290
     1
  0
XRECORD
  5
4E7
102
{ACAD_REACTORS
330
4E6
102
}
330
4E6
100
AcDbXrecord
280
     1
290
     1
  0
XRECORD
  5
4E9
102
{ACAD_REACTORS
330
4E8
102
}
330
4E8
100
AcDbXrecord
280
     1
290
     1
  0
XRECORD
  5
4EB
102
{ACAD_REACTORS
330
4EA
102
}
330
4EA
100
AcDbXrecord
280
     1
290
     1
  0
XRECORD
  5
4ED
102
{ACAD_REACTORS
330
4EC
102
}
330
4EC
100
AcDbXrecord
280
     1
290
     1
  0
XRECORD
  5
4EF
102
{ACAD_REACTORS
330
4EE
102
}
330
4EE
100
AcDbXrecord
280
     1
290
     1
  0
XRECORD
  5
4F1
102
{ACAD_REACTORS
330
4F0
102
}
330
4F0
100
AcDbXrecord
280
     1
290
     1
  0
XRECORD
  5
4F3
102
{ACAD_REACTORS
330
4F2
102
}
330
4F2
100
AcDbXrecord
280
     1
290
     1
  0
XRECORD
  5
4F5
102
{ACAD_REACTORS
330
4F4
102
}
330
4F4
100
AcDbXrecord
280
     1
290
     1
  0
SORTENTSTABLE
  5
4A4
102
{ACAD_REACTORS
330
4A3
102
}
330
4A3
100
AcDbSortentsTable
330
E3
331
4B4
  5
421
331
410
  5
418
331
3EE
  5
3F6
331
421
  5
430
331
3FF
  5
407
331
3E5
  5
3ED
331
3D4
  5
3D4
331
430
  5
4A2
331
4B2
  5
426
331
40E
  5
416
331
3EC
  5
3F4
331
41F
  5
42E
331
3FD
  5
405
331
3E3
  5
3EB
331
3D2
  5
3D2
331
4B0
  5
4AC
331
42E
  5
43D
331
40C
  5
414
331
3EA
  5
3F2
331
3D0
  5
3D0
331
43F
  5
4B6
331
41D
  5
42C
331
3FB
  5
403
331
3E1
  5
3E5
331
42C
  5
43B
331
40A
  5
412
331
3E8
  5
3F0
331
4AE
  5
41F
331
43D
  5
4B4
331
41B
  5
42A
331
3F9
  5
401
331
3DF
  5
3E3
331
3CE
  5
3CE
331
3BD
  5
3BD
331
42A
  5
439
331
4AC
  5
4A5
331
43B
  5
4B2
331
419
  5
428
331
3F7
  5
3FF
331
3DD
  5
3DD
331
3BB
  5
3BB
331
428
  5
437
331
4AA
  5
3E8
331
439
  5
4B0
331
417
  5
423
331
3F5
  5
3FD
331
406
  5
40E
331
3DB
  5
3DB
331
4A8
  5
3E7
331
437
  5
4AD
331
415
  5
41D
331
3F3
  5
3FB
331
426
  5
435
331
404
  5
40C
331
3D9
  5
3D9
331
4A6
  5
3E0
331
435
  5
4AA
331
413
  5
41B
331
3F1
  5
3F9
331
424
  5
433
331
402
  5
40A
331
3D7
  5
3D7
331
433
  5
4A8
331
4B5
  5
41E
331
411
  5
419
331
3EF
  5
3F7
331
422
  5
431
331
400
  5
408
331
3E6
  5
3EE
331
3D5
  5
3D5
331
4A2
  5
3E2
331
431
  5
4A6
331
4B3
  5
420
331
40F
  5
417
331
3ED
  5
3F5
331
420
  5
42F
331
3FE
  5
406
331
3E4
  5
3EC
331
3D3
  5
3D3
331
42F
  5
43E
331
40D
  5
415
331
3EB
  5
3F3
331
3D1
  5
3D1
331
4B1
  5
425
331
41E
  5
42D
331
3FC
  5
404
331
3E2
  5
3EA
331
3C0
  5
3C0
331
42D
  5
43C
331
40B
  5
413
331
3E9
  5
3F1
331
4AF
  5
4AE
331
43E
  5
4B5
331
41C
  5
42B
331
3FA
  5
402
331
3E0
  5
3E4
331
3CF
  5
3CF
331
3BE
  5
3BE
331
42B
  5
43A
331
409
  5
411
331
4AD
  5
43F
331
43C
  5
4B3
331
41A
  5
429
331
3F8
  5
400
331
3DE
  5
3DE
331
3CD
  5
3CD
331
3BC
  5
3BC
331
429
  5
438
331
4AB
  5
3E9
331
43A
  5
4B1
331
418
  5
424
331
3F6
  5
3FE
331
407
  5
40F
331
3DC
  5
3DC
331
4A9
  5
3E6
331
438
  5
4AF
331
416
  5
422
331
3F4
  5
3FC
331
427
  5
436
331
405
  5
40D
331
3DA
  5
3DA
331
4A7
  5
3DF
331
436
  5
4AB
331
414
  5
41C
331
3F2
  5
3FA
331
425
  5
434
331
403
  5
40B
331
3D8
  5
3D8
331
4A5
  5
3E1
331
434
  5
4A9
331
4B6
  5
427
331
412
  5
41A
331
3F0
  5
3F8
331
423
  5
432
331
401
  5
409
331
3E7
  5
3EF
331
3D6
  5
3D6
  0
LAYOUT
  5
491
102
{ACAD_XDICTIONARY
360
537
102
}
102
{ACAD_REACTORS
330
48F
102
}
330
48F
100
AcDbPlotSettings
  1

  2
Aucun(e)
  4

  6

 40
0.0
 41
0.0
 42
0.0
 43
0.0
 44
0.0
 45
0.0
 46
0.0
 47
0.0
 48
0.0
 49
0.0
140
0.0
141
0.0
142
1.0
143
1.0
 70
  1712
 72
     0
 73
     0
 74
     0
  7
acad.ctb
 75
     0
147
1.0
148
0.0
149
0.0
100
AcDbLayout
  1
Model
 70
     1
 71
     0
 10
0.0
 20
0.0
 11
12.0
 21
9.0
 12
0.0
 22
0.0
 32
0.0
 14
0.0
 24
0.0
 34
0.0
 15
0.0
 25
0.0
 35
0.0
146
0.0
 13
0.0
 23
0.0
 33
0.0
 16
1.0
 26
0.0
 36
0.0
 17
0.0
 27
1.0
 37
0.0
 76
     0
330
E3
331
495
  0
LAYOUT
  5
492
102
{ACAD_XDICTIONARY
360
539
102
}
102
{ACAD_REACTORS
330
48F
102
}
330
48F
100
AcDbPlotSettings
  1

  2
Aucun(e)
  4

  6

 40
0.0
 41
0.0
 42
0.0
 43
0.0
 44
0.0
 45
0.0
 46
0.0
 47
0.0
 48
0.0
 49
0.0
140
0.0
141
0.0
142
1.0
143
1.0
 70
   688
 72
     0
 73
     0
 74
     5
  7
acad.ctb
 75
    16
147
1.0
148
0.0
149
0.0
100
AcDbLayout
  1
Présentation1
 70
     1
 71
     1
 10
0.0
 20
0.0
 11
12.0
 21
9.0
 12
0.0
 22
0.0
 32
0.0
 14
1.000000000000000E+20
 24
1.000000000000000E+20
 34
1.000000000000000E+20
 15
-1.000000000000000E+20
 25
-1.000000000000000E+20
 35
-1.000000000000000E+20
146
0.0
 13
0.0
 23
0.0
 33
0.0
 16
1.0
 26
0.0
 36
0.0
 17
0.0
 27
1.0
 37
0.0
 76
     0
330
E4
  0
MATERIAL
  5
44E
102
{ACAD_XDICTIONARY
360
44F
102
}
102
{ACAD_REACTORS
330
445
102
}
330
445
100
AcDbMaterial
  1
ByBlock
 72
     0
 43
0.0208333333333333
 43
0.0
 43
0.0
 43
0.0
 43
0.0
 43
0.0208333333333333
 43
0.0
 43
0.0
 43
0.0
 43
0.0
 43
1.0
 43
0.0
 43
0.0
 43
0.0
 43
0.0
 43
1.0
 77
     0
 47
0.0208333333333333
 47
0.0
 47
0.0
 47
0.0
 47
0.0
 47
0.0208333333333333
 47
0.0
 47
0.0
 47
0.0
 47
0.0
 47
1.0
 47
0.0
 47
0.0
 47
0.0
 47
0.0
 47
1.0
171
     0
 49
0.0208333333333333
 49
0.0
 49
0.0
 49
0.0
 49
0.0
 49
0.0208333333333333
 49
0.0
 49
0.0
 49
0.0
 49
0.0
 49
1.0
 49
0.0
 49
0.0
 49
0.0
 49
0.0
 49
1.0
175
     0
142
0.0208333333333333
142
0.0
142
0.0
142
0.0
142
0.0
142
0.0208333333333333
142
0.0
142
0.0
142
0.0
142
0.0
142
1.0
142
0.0
142
0.0
142
0.0
142
0.0
142
1.0
179
     0
144
0.0208333333333333
144
0.0
144
0.0
144
0.0
144
0.0
144
0.0208333333333333
144
0.0
144
0.0
144
0.0
144
0.0
144
1.0
144
0.0
144
0.0
144
0.0
144
0.0
144
1.0
147
0.0208333333333333
147
0.0
147
0.0
147
0.0
147
0.0
147
0.0208333333333333
147
0.0
147
0.0
147
0.0
147
0.0
147
1.0
147
0.0
147
0.0
147
0.0
147
0.0
147
1.0
  0
MATERIAL
  5
446
102
{ACAD_XDICTIONARY
360
447
102
}
102
{ACAD_REACTORS
330
445
102
}
330
445
100
AcDbMaterial
  1
ByLayer
 72
     0
 43
0.0208333333333333
 43
0.0
 43
0.0
 43
0.0
 43
0.0
 43
0.0208333333333333
 43
0.0
 43
0.0
 43
0.0
 43
0.0
 43
1.0
 43
0.0
 43
0.0
 43
0.0
 43
0.0
 43
1.0
 77
     0
 47
0.0208333333333333
 47
0.0
 47
0.0
 47
0.0
 47
0.0
 47
0.0208333333333333
 47
0.0
 47
0.0
 47
0.0
 47
0.0
 47
1.0
 47
0.0
 47
0.0
 47
0.0
 47
0.0
 47
1.0
171
     0
 49
0.0208333333333333
 49
0.0
 49
0.0
 49
0.0
 49
0.0
 49
0.0208333333333333
 49
0.0
 49
0.0
 49
0.0
 49
0.0
 49
1.0
 49
0.0
 49
0.0
 49
0.0
 49
0.0
 49
1.0
175
     0
142
0.0208333333333333
142
0.0
142
0.0
142
0.0
142
0.0
142
0.0208333333333333
142
0.0
142
0.0
142
0.0
142
0.0
142
1.0
142
0.0
142
0.0
142
0.0
142
0.0
142
1.0
179
     0
144
0.0208333333333333
144
0.0
144
0.0
144
0.0
144
0.0
144
0.0208333333333333
144
0.0
144
0.0
144
0.0
144
0.0
144
1.0
144
0.0
144
0.0
144
0.0
144
0.0
144
1.0
147
0.0208333333333333
147
0.0
147
0.0
147
0.0
147
0.0
147
0.0208333333333333
147
0.0
147
0.0
147
0.0
147
0.0
147
1.0
147
0.0
147
0.0
147
0.0
147
0.0
147
1.0
  0
MATERIAL
  5
456
102
{ACAD_XDICTIONARY
360
457
102
}
102
{ACAD_REACTORS
330
445
102
}
330
445
100
AcDbMaterial
  1
Global
 72
     0
 43
0.0208333333333333
 43
0.0
 43
0.0
 43
0.0
 43
0.0
 43
0.0208333333333333
 43
0.0
 43
0.0
 43
0.0
 43
0.0
 43
1.0
 43
0.0
 43
0.0
 43
0.0
 43
0.0
 43
1.0
 77
     0
 47
0.0208333333333333
 47
0.0
 47
0.0
 47
0.0
 47
0.0
 47
0.0208333333333333
 47
0.0
 47
0.0
 47
0.0
 47
0.0
 47
1.0
 47
0.0
 47
0.0
 47
0.0
 47
0.0
 47
1.0
171
     0
 49
0.0208333333333333
 49
0.0
 49
0.0
 49
0.0
 49
0.0
 49
0.0208333333333333
 49
0.0
 49
0.0
 49
0.0
 49
0.0
 49
1.0
 49
0.0
 49
0.0
 49
0.0
 49
0.0
 49
1.0
175
     0
142
0.0208333333333333
142
0.0
142
0.0
142
0.0
142
0.0
142
0.0208333333333333
142
0.0
142
0.0
142
0.0
142
0.0
142
1.0
142
0.0
142
0.0
142
0.0
142
0.0
142
1.0
179
     0
144
0.0208333333333333
144
0.0
144
0.0
144
0.0
144
0.0
144
0.0208333333333333
144
0.0
144
0.0
144
0.0
144
0.0
144
1.0
144
0.0
144
0.0
144
0.0
144
0.0
144
1.0
147
0.0208333333333333
147
0.0
147
0.0
147
0.0
147
0.0
147
0.0208333333333333
147
0.0
147
0.0
147
0.0
147
0.0
147
1.0
147
0.0
147
0.0
147
0.0
147
0.0
147
1.0
  0
MLEADERSTYLE
  5
48D
102
{ACAD_REACTORS
330
48C
102
}
330
48C
100
AcDbMLeaderStyle
170
     2
171
     1
172
     0
 90
        2
 40
0.0
 41
0.0
173
     1
 91
-1056964608
340
AE
 92
       -2
290
     1
 42
2.0
291
     1
 43
0.36
  3
Standard
 44
4.0
300

342
A9
174
     1
178
     6
175
     1
176
     0
 93
-1056964608
 45
4.0
292
     0
297
     0
 46
4.0
 94
-1056964608
 47
1.0
 49
1.0
140
1.0
293
     1
141
0.0
294
     1
177
     0
142
1.0
295
     0
296
     0
143
0.125
1001
ACAD_MLEADERVER
1070
     2
  0
MLINESTYLE
  5
4
330
3
100
AcDbMlineStyle
  2
STANDARD
 70
     0
  3

 62
     0
 51
90.0
 52
90.0
 71
     2
 49
0.5
 62
   256
  6
BYLAYER
 49
-0.5
 62
   256
  6
BYLAYER
  0
ACDBPLACEHOLDER
  5
444
102
{ACAD_REACTORS
330
443
102
}
330
443
  0
SCALE
  5
47B
102
{ACAD_REACTORS
330
47A
102
}
330
47A
100
AcDbScale
 70
     0
300
1:1
140
1.0
141
1.0
290
     1
  0
SCALE
  5
47C
102
{ACAD_REACTORS
330
47A
102
}
330
47A
100
AcDbScale
 70
     0
300
1:2
140
1.0
141
2.0
290
     0
  0
SCALE
  5
47D
102
{ACAD_REACTORS
330
47A
102
}
330
47A
100
AcDbScale
 70
     0
300
1:4
140
1.0
141
4.0
290
     0
  0
SCALE
  5
47E
102
{ACAD_REACTORS
330
47A
102
}
330
47A
100
AcDbScale
 70
     0
300
1:5
140
1.0
141
5.0
290
     0
  0
SCALE
  5
47F
102
{ACAD_REACTORS
330
47A
102
}
330
47A
100
AcDbScale
 70
     0
300
1:8
140
1.0
141
8.0
290
     0
  0
SCALE
  5
480
102
{ACAD_REACTORS
330
47A
102
}
330
47A
100
AcDbScale
 70
     0
300
1:10
140
1.0
141
10.0
290
     0
  0
SCALE
  5
481
102
{ACAD_REACTORS
330
47A
102
}
330
47A
100
AcDbScale
 70
     0
300
1:16
140
1.0
141
16.0
290
     0
  0
SCALE
  5
482
102
{ACAD_REACTORS
330
47A
102
}
330
47A
100
AcDbScale
 70
     0
300
1:20
140
1.0
141
20.0
290
     0
  0
SCALE
  5
483
102
{ACAD_REACTORS
330
47A
102
}
330
47A
100
AcDbScale
 70
     0
300
1:30
140
1.0
141
30.0
290
     0
  0
SCALE
  5
484
102
{ACAD_REACTORS
330
47A
102
}
330
47A
100
AcDbScale
 70
     0
300
1:40
140
1.0
141
40.0
290
     0
  0
SCALE
  5
485
102
{ACAD_REACTORS
330
47A
102
}
330
47A
100
AcDbScale
 70
     0
300
1:50
140
1.0
141
50.0
290
     0
  0
SCALE
  5
486
102
{ACAD_REACTORS
330
47A
102
}
330
47A
100
AcDbScale
 70
     0
300
1:100
140
1.0
141
100.0
290
     0
  0
SCALE
  5
487
102
{ACAD_REACTORS
330
47A
102
}
330
47A
100
AcDbScale
 70
     0
300
2:1
140
2.0
141
1.0
290
     0
  0
SCALE
  5
488
102
{ACAD_REACTORS
330
47A
102
}
330
47A
100
AcDbScale
 70
     0
300
4:1
140
4.0
141
1.0
290
     0
  0
SCALE
  5
489
102
{ACAD_REACTORS
330
47A
102
}
330
47A
100
AcDbScale
 70
     0
300
8:1
140
8.0
141
1.0
290
     0
  0
SCALE
  5
48A
102
{ACAD_REACTORS
330
47A
102
}
330
47A
100
AcDbScale
 70
     0
300
10:1
140
10.0
141
1.0
290
     0
  0
SCALE
  5
48B
102
{ACAD_REACTORS
330
47A
102
}
330
47A
100
AcDbScale
 70
     0
300
100:1
140
100.0
141
1.0
290
     0
  0
TABLESTYLE
  5
479
102
{ACAD_XDICTIONARY
360
4FE
102
}
102
{ACAD_REACTORS
330
478
102
}
330
478
100
AcDbTableStyle
  3
Standard
 70
     0
 71
     0
 40
1.5
 41
1.5
280
     0
281
     0
  7
STANDARD
140
4.5
170
     2
 62
     0
 63
     7
283
     0
274
    -2
284
     1
 64
     0
275
    -2
285
     1
 65
     0
276
    -2
286
     1
 66
     0
277
    -2
287
     1
 67
     0
278
    -2
288
     1
 68
     0
279
    -2
289
     1
 69
     0
  7
STANDARD
140
6.0
170
     5
 62
     0
 63
     7
283
     0
274
    -2
284
     1
 64
     0
275
    -2
285
     1
 65
     0
276
    -2
286
     1
 66
     0
277
    -2
287
     1
 67
     0
278
    -2
288
     1
 68
     0
279
    -2
289
     1
 69
     0
  7
STANDARD
140
4.5
170
     5
 62
     0
 63
     7
283
     0
274
    -2
284
     1
 64
     0
275
    -2
285
     1
 65
     0
276
    -2
286
     1
 66
     0
277
    -2
287
     1
 67
     0
278
    -2
288
     1
 68
     0
279
    -2
289
     1
 69
     0
  0
VISUALSTYLE
  5
464
102
{ACAD_XDICTIONARY
360
50F
102
}
102
{ACAD_REACTORS
330
45E
102
}
330
45E
100
AcDbVisualStyle
  2
2dWireframe
 70
     4
 71
     0
 72
     2
 73
     0
 90
        0
 40
-0.6
 41
-30.0
 62
     5
 63
     7
 74
     1
 91
        4
 64
     7
 65
   257
 75
     1
175
     1
 42
1.0
 92
        0
 66
   257
 43
1.0
 76
     1
 77
     6
 78
     2
 67
     7
 79
     5
170
     0
171
     0
290
     0
174
     0
 93
        1
 44
0.0
173
     0
291
     0
 45
0.0
1001
ACAD
1000
AcDbSavedByObjectVersion
1070
     0
  0
VISUALSTYLE
  5
463
102
{ACAD_XDICTIONARY
360
50D
102
}
102
{ACAD_REACTORS
330
45E
102
}
330
45E
100
AcDbVisualStyle
  2
Basic
 70
     7
 71
     1
 72
     0
 73
     1
 90
        0
 40
-0.6
 41
-30.0
 62
     5
 63
     7
 74
     0
 91
        4
 64
     7
 65
   257
 75
     1
175
     1
 42
1.0
 92
        8
 66
     7
 43
1.0
 76
     1
 77
     6
 78
     2
 67
     7
 79
     5
170
     0
171
     0
290
     0
174
     0
 93
        1
 44
0.0
173
     0
291
     1
 45
0.0
1001
ACAD
1000
AcDbSavedByObjectVersion
1070
     0
  0
VISUALSTYLE
  5
46A
102
{ACAD_XDICTIONARY
360
51B
102
}
102
{ACAD_REACTORS
330
45E
102
}
330
45E
100
AcDbVisualStyle
  2
Brighten
 70
    12
 71
     2
 72
     2
 73
     0
 90
        0
 40
-0.6
 41
-30.0
 62
     5
 63
     7
 74
     1
 91
        4
 64
     7
 65
   257
 75
     1
175
     1
 42
1.0
 92
        8
 66
     7
 43
1.0
 76
     1
 77
     6
 78
     2
 67
     7
 79
     5
170
     0
171
     0
290
     0
174
     0
 93
        1
 44
50.0
173
     0
291
     1
 45
0.0
1001
ACAD
1000
AcDbSavedByObjectVersion
1070
     0
  0
VISUALSTYLE
  5
46E
102
{ACAD_XDICTIONARY
360
523
102
}
102
{ACAD_REACTORS
330
45E
102
}
330
45E
100
AcDbVisualStyle
  2
ColorChange
 70
    16
 71
     2
 72
     2
 73
     3
 90
        0
 40
-0.6
 41
-30.0
 62
     5
 63
     8
 74
     1
 91
        4
 64
     7
 65
   257
 75
     1
175
     1
 42
1.0
 92
        8
 66
     8
 43
1.0
 76
     1
 77
     6
 78
     2
 67
     7
 79
     5
170
     0
171
     0
290
     0
174
     0
 93
        1
 44
0.0
173
     0
291
     1
 45
0.0
1001
ACAD
1000
AcDbSavedByObjectVersion
1070
     0
  0
VISUALSTYLE
  5
467
102
{ACAD_XDICTIONARY
360
515
102
}
102
{ACAD_REACTORS
330
45E
102
}
330
45E
100
AcDbVisualStyle
  2
Conceptual
 70
     9
 71
     3
 72
     2
 73
     0
 90
        0
 40
-0.6
 41
-30.0
 62
     5
 63
     7
 74
     2
 91
        2
 64
     7
 65
   257
 75
     1
175
     1
 42
179.0
 92
        8
 66
     7
 43
1.0
 76
     1
 77
     6
 78
     2
 67
     7
 79
     3
170
     0
171
     0
290
     0
174
     0
 93
        1
 44
0.0
173
     0
291
     0
 45
0.0
1001
ACAD
1000
AcDbSavedByObjectVersion
1070
     0
  0
VISUALSTYLE
  5
469
102
{ACAD_XDICTIONARY
360
519
102
}
102
{ACAD_REACTORS
330
45E
102
}
330
45E
100
AcDbVisualStyle
  2
Dim
 70
    11
 71
     2
 72
     2
 73
     0
 90
        0
 40
-0.6
 41
-30.0
 62
     5
 63
     7
 74
     1
 91
        4
 64
     7
 65
   257
 75
     1
175
     1
 42
1.0
 92
        8
 66
     7
 43
1.0
 76
     1
 77
     6
 78
     2
 67
     7
 79
     5
170
     0
171
     0
290
     0
174
     0
 93
        1
 44
-50.0
173
     0
291
     1
 45
0.0
1001
ACAD
1000
AcDbSavedByObjectVersion
1070
     0
  0
VISUALSTYLE
  5
476
102
{ACAD_XDICTIONARY
360
533
102
}
102
{ACAD_REACTORS
330
45E
102
}
330
45E
100
AcDbVisualStyle
  2
EdgeColorOff
 70
    22
 71
     2
 72
     2
 73
     0
 90
        0
 40
-0.6
 41
-30.0
 62
     5
 63
     7
 74
     1
 91
        4
 64
     7
 65
   257
 75
     1
175
     1
 42
1.0
 92
        8
 66
     7
 43
1.0
 76
     1
 77
     6
 78
     2
 67
     7
 79
     5
170
     0
171
     0
290
     0
174
     0
 93
        1
 44
0.0
173
     0
291
     1
 45
0.0
1001
ACAD
1000
AcDbSavedByObjectVersion
1070
     0
  0
VISUALSTYLE
  5
46D
102
{ACAD_XDICTIONARY
360
521
102
}
102
{ACAD_REACTORS
330
45E
102
}
330
45E
100
AcDbVisualStyle
  2
Facepattern
 70
    15
 71
     2
 72
     2
 73
     0
 90
        0
 40
-0.6
 41
-30.0
 62
     5
 63
     7
 74
     1
 91
        4
 64
     7
 65
   257
 75
     1
175
     1
 42
1.0
 92
        8
 66
     7
 43
1.0
 76
     1
 77
     6
 78
     2
 67
     7
 79
     5
170
     0
171
     0
290
     0
174
     0
 93
        1
 44
0.0
173
     0
291
     1
 45
0.0
1001
ACAD
1000
AcDbSavedByObjectVersion
1070
     0
  0
VISUALSTYLE
  5
45F
102
{ACAD_XDICTIONARY
360
505
102
}
102
{ACAD_REACTORS
330
45E
102
}
330
45E
100
AcDbVisualStyle
  2
Flat
 70
     0
 71
     2
 72
     1
 73
     1
 90
        2
 40
-0.6
 41
30.0
 62
     5
 63
     7
 74
     0
 91
        0
 64
     7
 65
   257
 75
     1
175
     1
 42
1.0
 92
        8
 66
     7
 43
1.0
 76
     1
 77
     6
 78
     2
 67
     7
 79
     5
170
     0
171
     0
290
     0
174
     0
 93
       13
 44
0.0
173
     0
291
     1
 45
0.0
1001
ACAD
1000
AcDbSavedByObjectVersion
1070
     0
  0
VISUALSTYLE
  5
460
102
{ACAD_XDICTIONARY
360
507
102
}
102
{ACAD_REACTORS
330
45E
102
}
330
45E
100
AcDbVisualStyle
  2
FlatWithEdges
 70
     1
 71
     2
 72
     1
 73
     1
 90
        2
 40
-0.6
 41
30.0
 62
     5
 63
     7
 74
     1
 91
        0
 64
     7
 65
   257
 75
     1
175
     1
 42
1.0
 92
        0
 66
   257
 43
1.0
 76
     1
 77
     6
 78
     2
 67
     7
 79
     5
170
     0
171
     0
290
     0
174
     0
 93
       13
 44
0.0
173
     0
291
     1
 45
0.0
1001
ACAD
1000
AcDbSavedByObjectVersion
1070
     0
  0
VISUALSTYLE
  5
461
102
{ACAD_XDICTIONARY
360
509
102
}
102
{ACAD_REACTORS
330
45E
102
}
330
45E
100
AcDbVisualStyle
  2
Gouraud
 70
     2
 71
     2
 72
     2
 73
     1
 90
        2
 40
-0.6
 41
30.0
 62
     5
 63
     7
 74
     0
 91
        0
 64
     7
 65
   257
 75
     1
175
     1
 42
1.0
 92
        0
 66
     7
 43
1.0
 76
     1
 77
     6
 78
     2
 67
     7
 79
     5
170
     0
171
     0
290
     0
174
     0
 93
       13
 44
0.0
173
     0
291
     1
 45
0.0
1001
ACAD
1000
AcDbSavedByObjectVersion
1070
     0
  0
VISUALSTYLE
  5
462
102
{ACAD_XDICTIONARY
360
50B
102
}
102
{ACAD_REACTORS
330
45E
102
}
330
45E
100
AcDbVisualStyle
  2
GouraudWithEdges
 70
     3
 71
     2
 72
     2
 73
     1
 90
        2
 40
-0.6
 41
30.0
 62
     5
 63
     7
 74
     1
 91
        0
 64
     7
 65
   257
 75
     1
175
     1
 42
1.0
 92
        0
 66
   257
 43
1.0
 76
     1
 77
     6
 78
     2
 67
     7
 79
     5
170
     0
171
     0
290
     0
174
     0
 93
       13
 44
0.0
173
     0
291
     1
 45
0.0
1001
ACAD
1000
AcDbSavedByObjectVersion
1070
     0
  0
VISUALSTYLE
  5
466
102
{ACAD_XDICTIONARY
360
513
102
}
102
{ACAD_REACTORS
330
45E
102
}
330
45E
100
AcDbVisualStyle
  2
Hidden
 70
     6
 71
     1
 72
     2
 73
     2
 90
        0
 40
-0.6
 41
-30.0
 62
     5
 63
     7
 74
     2
 91
        2
 64
     7
 65
   257
 75
     2
175
     1
 42
40.0
 92
        0
 66
   257
 43
1.0
 76
     1
 77
     6
 78
     2
 67
     7
 79
     3
170
     0
171
     0
290
     0
174
     0
 93
        1
 44
0.0
173
     0
291
     0
 45
0.0
1001
ACAD
1000
AcDbSavedByObjectVersion
1070
     0
  0
VISUALSTYLE
  5
474
102
{ACAD_XDICTIONARY
360
52F
102
}
102
{ACAD_REACTORS
330
45E
102
}
330
45E
100
AcDbVisualStyle
  2
JitterOff
 70
    20
 71
     2
 72
     2
 73
     0
 90
        0
 40
-0.6
 41
-30.0
 62
     5
 63
     7
 74
     1
 91
        4
 64
     7
 65
   257
 75
     1
175
     1
 42
1.0
 92
       10
 66
     7
 43
1.0
 76
     1
 77
     6
 78
     2
 67
     7
 79
     5
170
     0
171
     0
290
     0
174
     0
 93
        1
 44
0.0
173
     0
291
     1
 45
0.0
1001
ACAD
1000
AcDbSavedByObjectVersion
1070
     0
  0
VISUALSTYLE
  5
46C
102
{ACAD_XDICTIONARY
360
51F
102
}
102
{ACAD_REACTORS
330
45E
102
}
330
45E
100
AcDbVisualStyle
  2
Linepattern
 70
    14
 71
     2
 72
     2
 73
     0
 90
        0
 40
-0.6
 41
-30.0
 62
     5
 63
     7
 74
     1
 91
        4
 64
     7
 65
   257
 75
     7
175
     7
 42
1.0
 92
        8
 66
     7
 43
1.0
 76
     1
 77
     6
 78
     2
 67
     7
 79
     5
170
     0
171
     0
290
     0
174
     0
 93
        1
 44
0.0
173
     0
291
     1
 45
0.0
1001
ACAD
1000
AcDbSavedByObjectVersion
1070
     0
  0
VISUALSTYLE
  5
475
102
{ACAD_XDICTIONARY
360
531
102
}
102
{ACAD_REACTORS
330
45E
102
}
330
45E
100
AcDbVisualStyle
  2
OverhangOff
 70
    21
 71
     2
 72
     2
 73
     0
 90
        0
 40
-0.6
 41
-30.0
 62
     5
 63
     7
 74
     1
 91
        4
 64
     7
 65
   257
 75
     1
175
     1
 42
1.0
 92
        9
 66
     7
 43
1.0
 76
     1
 77
     6
 78
     2
 67
     7
 79
     5
170
     0
171
     0
290
     0
174
     0
 93
        1
 44
0.0
173
     0
291
     1
 45
0.0
1001
ACAD
1000
AcDbSavedByObjectVersion
1070
     0
  0
VISUALSTYLE
  5
468
102
{ACAD_XDICTIONARY
360
517
102
}
102
{ACAD_REACTORS
330
45E
102
}
330
45E
100
AcDbVisualStyle
  2
Realistic
 70
     8
 71
     2
 72
     3
 73
     0
 90
        2
 40
-0.6
 41
30.0
 62
     5
 63
     7
 74
     0
 91
        0
 64
     7
 65
   257
 75
     1
175
     1
 42
1.0
 92
        8
 66
   257
 43
1.0
 76
     1
 77
     6
 78
     2
 67
     7
 79
     3
170
     0
171
     0
290
     0
174
     0
 93
       13
 44
0.0
173
     0
291
     0
 45
0.0
1001
ACAD
1000
AcDbSavedByObjectVersion
1070
     0
  0
VISUALSTYLE
  5
473
102
{ACAD_XDICTIONARY
360
52D
102
}
102
{ACAD_REACTORS
330
45E
102
}
330
45E
100
AcDbVisualStyle
  2
Shaded
 70
    27
 71
     2
 72
     2
 73
     1
 90
        2
 40
-0.6
 41
30.0
 62
     5
 63
     7
 74
     0
 91
        4
 64
     7
 65
   257
 75
     1
175
     1
 42
1.0
 92
        8
 66
   257
 43
1.0
 76
     1
 77
     6
 78
     2
 67
     8
 79
     3
170
     0
171
     0
290
     0
174
     0
 93
        5
 44
0.0
173
     0
291
     0
 45
0.0
1001
ACAD
1000
AcDbSavedByObjectVersion
1070
     0
  0
VISUALSTYLE
  5
472
102
{ACAD_XDICTIONARY
360
52B
102
}
102
{ACAD_REACTORS
330
45E
102
}
330
45E
100
AcDbVisualStyle
  2
Shaded with edges
 70
    26
 71
     2
 72
     2
 73
     1
 90
        2
 40
-0.6
 41
30.0
 62
     5
 63
     7
 74
     1
 91
       10
 64
     7
 65
   257
 75
     2
175
     1
 42
1.0
 92
        8
 66
   257
 43
1.0
 76
     1
 77
     6
 78
     2
 67
     7
 79
     3
170
     0
171
     0
290
     0
174
     0
 93
        5
 44
0.0
173
     0
291
     0
 45
0.0
1001
ACAD
1000
AcDbSavedByObjectVersion
1070
     0
  0
VISUALSTYLE
  5
46F
102
{ACAD_XDICTIONARY
360
525
102
}
102
{ACAD_REACTORS
330
45E
102
}
330
45E
100
AcDbVisualStyle
  2
Shades of Gray
 70
    23
 71
     2
 72
     2
 73
     3
 90
        0
 40
-0.6
 41
-30.0
 62
     5
 63
     7
 74
     2
 91
        2
 64
     7
 65
     7
 75
     1
175
     1
 42
40.0
 92
        8
 66
     7
 43
1.0
 76
     1
 77
     6
 78
     2
 67
     7
 79
     3
170
     0
171
     0
290
     0
174
     0
 93
        1
 44
0.0
173
     0
291
     0
 45
0.0
1001
ACAD
1000
AcDbSavedByObjectVersion
1070
     0
  0
VISUALSTYLE
  5
470
102
{ACAD_XDICTIONARY
360
527
102
}
102
{ACAD_REACTORS
330
45E
102
}
330
45E
100
AcDbVisualStyle
  2
Sketchy
 70
    24
 71
     1
 72
     2
 73
     2
 90
        0
 40
-0.6
 41
-30.0
 62
     5
 63
     7
 74
     2
 91
        2
 64
     7
 65
     7
 75
     1
175
     1
 42
40.0
 92
       11
 66
     7
 43
1.0
 76
     1
 77
     6
 78
     2
 67
     7
 79
     6
170
     0
171
     0
290
     0
174
     0
 93
        1
 44
0.0
173
     0
291
     0
 45
0.0
1001
ACAD
1000
AcDbSavedByObjectVersion
1070
     0
  0
VISUALSTYLE
  5
46B
102
{ACAD_XDICTIONARY
360
51D
102
}
102
{ACAD_REACTORS
330
45E
102
}
330
45E
100
AcDbVisualStyle
  2
Thicken
 70
    13
 71
     2
 72
     2
 73
     0
 90
        0
 40
-0.6
 41
-30.0
 62
     5
 63
     7
 74
     1
 91
        4
 64
     7
 65
   257
 75
     1
175
     1
 42
1.0
 92
       12
 66
     7
 43
1.0
 76
     1
 77
     6
 78
     2
 67
     7
 79
     5
170
     0
171
     0
290
     0
174
     0
 93
        1
 44
0.0
173
     0
291
     1
 45
0.0
1001
ACAD
1000
AcDbSavedByObjectVersion
1070
     0
  0
VISUALSTYLE
  5
465
102
{ACAD_XDICTIONARY
360
511
102
}
102
{ACAD_REACTORS
330
45E
102
}
330
45E
100
AcDbVisualStyle
  2
Wireframe
 70
     5
 71
     0
 72
     2
 73
     0
 90
        0
 40
-0.6
 41
-30.0
 62
     5
 63
     7
 74
     1
 91
        4
 64
     7
 65
   257
 75
     1
175
     1
 42
1.0
 92
        0
 66
   257
 43
1.0
 76
     1
 77
     6
 78
     2
 67
     7
 79
     3
170
     0
171
     0
290
     0
174
     0
 93
        1
 44
0.0
173
     0
291
     0
 45
0.0
1001
ACAD
1000
AcDbSavedByObjectVersion
1070
     0
  0
VISUALSTYLE
  5
471
102
{ACAD_XDICTIONARY
360
529
102
}
102
{ACAD_REACTORS
330
45E
102
}
330
45E
100
AcDbVisualStyle
  2
X-Ray
 70
    25
 71
     2
 72
     2
 73
     1
 90
        1
 40
0.5
 41
-30.0
 62
     5
 63
     7
 74
     1
 91
        0
 64
     7
 65
   257
 75
     1
175
     1
 42
1.0
 92
        8
 66
     7
 43
1.0
 76
     1
 77
     6
 78
     2
 67
     7
 79
     3
170
     0
171
     0
290
     0
174
     0
 93
       13
 44
0.0
173
     0
291
     0
 45
0.0
1001
ACAD
1000
AcDbSavedByObjectVersion
1070
     0
  0
DICTIONARYVAR
  5
4F9
102
{ACAD_REACTORS
330
4F6
102
}
330
4F6
100
DictionaryVariables
280
     0
  1
1:1
  0
DICTIONARYVAR
  5
4F8
102
{ACAD_REACTORS
330
4F6
102
}
330
4F6
100
DictionaryVariables
280
     0
  1
STANDARD
  0
DICTIONARYVAR
  5
4F7
102
{ACAD_REACTORS
330
4F6
102
}
330
4F6
100
DictionaryVariables
280
     0
  1
STANDARD
  0
DICTIONARYVAR
  5
4FC
102
{ACAD_REACTORS
330
4F6
102
}
330
4F6
100
DictionaryVariables
280
     0
  1
1
  0
DICTIONARYVAR
  5
4FB
102
{ACAD_REACTORS
330
4F6
102
}
330
4F6
100
DictionaryVariables
280
     0
  1
0
  0
DICTIONARYVAR
  5
4FA
102
{ACAD_REACTORS
330
4F6
102
}
330
4F6
100
DictionaryVariables
280
     0
  1
127
  0
DICTIONARYVAR
  5
4FD
102
{ACAD_REACTORS
330
4F6
102
}
330
4F6
100
DictionaryVariables
280
     0
  1
2
  0
DICTIONARY
  5
537
330
491
100
AcDbDictionary
280
     1
281
     1
  3
ACAD_XREC_ROUNDTRIP
360
538
  0
DICTIONARY
  5
539
330
492
100
AcDbDictionary
280
     1
281
     1
  3
ACAD_XREC_ROUNDTRIP
360
53A
  0
DICTIONARY
  5
44F
330
44E
100
AcDbDictionary
280
     1
281
     1
  3
ACAD_XREC_ROUNDTRIP
360
503
  3
BUMPTILE
360
451
  3
DIFFUSETILE
360
450
  3
OPACITYTILE
360
454
  3
REFLECTIONTILE
360
453
  3
REFRACTIONTILE
360
455
  3
SPECULARTILE
360
452
  0
DICTIONARY
  5
447
330
446
100
AcDbDictionary
280
     1
281
     1
  3
ACAD_XREC_ROUNDTRIP
360
502
  3
BUMPTILE
360
449
  3
DIFFUSETILE
360
448
  3
OPACITYTILE
360
44C
  3
REFLECTIONTILE
360
44B
  3
REFRACTIONTILE
360
44D
  3
SPECULARTILE
360
44A
  0
DICTIONARY
  5
457
330
456
100
AcDbDictionary
280
     1
281
     1
  3
ACAD_XREC_ROUNDTRIP
360
504
  3
BUMPTILE
360
459
  3
DIFFUSETILE
360
458
  3
OPACITYTILE
360
45C
  3
REFLECTIONTILE
360
45B
  3
REFRACTIONTILE
360
45D
  3
SPECULARTILE
360
45A
  0
DICTIONARY
  5
4FE
330
479
100
AcDbDictionary
280
     1
281
     1
  3
ACAD_ROUNDTRIP_2008_TABLESTYLE_CELLSTYLEMAP
360
4FF
  3
ACAD_XREC_ROUNDTRIP
360
535
  0
DICTIONARY
  5
50F
330
464
100
AcDbDictionary
280
     1
281
     1
  3
ACAD_XREC_ROUNDTRIP
360
510
  0
DICTIONARY
  5
50D
330
463
100
AcDbDictionary
280
     1
281
     1
  3
ACAD_XREC_ROUNDTRIP
360
50E
  0
DICTIONARY
  5
51B
330
46A
100
AcDbDictionary
280
     1
281
     1
  3
ACAD_XREC_ROUNDTRIP
360
51C
  0
DICTIONARY
  5
523
330
46E
100
AcDbDictionary
280
     1
281
     1
  3
ACAD_XREC_ROUNDTRIP
360
524
  0
DICTIONARY
  5
515
330
467
100
AcDbDictionary
280
     1
281
     1
  3
ACAD_XREC_ROUNDTRIP
360
516
  0
DICTIONARY
  5
519
330
469
100
AcDbDictionary
280
     1
281
     1
  3
ACAD_XREC_ROUNDTRIP
360
51A
  0
DICTIONARY
  5
533
330
476
100
AcDbDictionary
280
     1
281
     1
  3
ACAD_XREC_ROUNDTRIP
360
534
  0
DICTIONARY
  5
521
330
46D
100
AcDbDictionary
280
     1
281
     1
  3
ACAD_XREC_ROUNDTRIP
360
522
  0
DICTIONARY
  5
505
330
45F
100
AcDbDictionary
280
     1
281
     1
  3
ACAD_XREC_ROUNDTRIP
360
506
  0
DICTIONARY
  5
507
330
460
100
AcDbDictionary
280
     1
281
     1
  3
ACAD_XREC_ROUNDTRIP
360
508
  0
DICTIONARY
  5
509
330
461
100
AcDbDictionary
280
     1
281
     1
  3
ACAD_XREC_ROUNDTRIP
360
50A
  0
DICTIONARY
  5
50B
330
462
100
AcDbDictionary
280
     1
281
     1
  3
ACAD_XREC_ROUNDTRIP
360
50C
  0
DICTIONARY
  5
513
330
466
100
AcDbDictionary
280
     1
281
     1
  3
ACAD_XREC_ROUNDTRIP
360
514
  0
DICTIONARY
  5
52F
330
474
100
AcDbDictionary
280
     1
281
     1
  3
ACAD_XREC_ROUNDTRIP
360
530
  0
DICTIONARY
  5
51F
330
46C
100
AcDbDictionary
280
     1
281
     1
  3
ACAD_XREC_ROUNDTRIP
360
520
  0
DICTIONARY
  5
531
330
475
100
AcDbDictionary
280
     1
281
     1
  3
ACAD_XREC_ROUNDTRIP
360
532
  0
DICTIONARY
  5
517
330
468
100
AcDbDictionary
280
     1
281
     1
  3
ACAD_XREC_ROUNDTRIP
360
518
  0
DICTIONARY
  5
52D
330
473
100
AcDbDictionary
280
     1
281
     1
  3
ACAD_XREC_ROUNDTRIP
360
52E
  0
DICTIONARY
  5
52B
330
472
100
AcDbDictionary
280
     1
281
     1
  3
ACAD_XREC_ROUNDTRIP
360
52C
  0
DICTIONARY
  5
525
330
46F
100
AcDbDictionary
280
     1
281
     1
  3
ACAD_XREC_ROUNDTRIP
360
526
  0
DICTIONARY
  5
527
330
470
100
AcDbDictionary
280
     1
281
     1
  3
ACAD_XREC_ROUNDTRIP
360
528
  0
DICTIONARY
  5
51D
330
46B
100
AcDbDictionary
280
     1
281
     1
  3
ACAD_XREC_ROUNDTRIP
360
51E
  0
DICTIONARY
  5
511
330
465
100
AcDbDictionary
280
     1
281
     1
  3
ACAD_XREC_ROUNDTRIP
360
512
  0
DICTIONARY
  5
529
330
471
100
AcDbDictionary
280
     1
281
     1
  3
ACAD_XREC_ROUNDTRIP
360
52A
  0
XRECORD
  5
538
102
{ACAD_REACTORS
330
537
102
}
330
537
100
AcDbXrecord
280
     1
102
SHADEPLOT
 70
     0
102
SHADEPLOTRESLEVEL
 70
     2
102
SHADEPLOTCUSTOMDPI
 70
   300
  0
XRECORD
  5
53A
102
{ACAD_REACTORS
330
539
102
}
330
539
100
AcDbXrecord
280
     1
102
SHADEPLOT
 70
     0
102
SHADEPLOTRESLEVEL
 70
     2
102
SHADEPLOTCUSTOMDPI
 70
   300
  0
XRECORD
  5
503
102
{ACAD_REACTORS
330
44F
102
}
330
44F
100
AcDbXrecord
280
     1
102
MATERIAL
148
0.0
149
0.0
149
0.0
 93
        0
 94
      127
282
     0
 72
     0
 77
     0
171
     0
175
     0
179
     0
273
     0
  0
XRECORD
  5
451
102
{ACAD_REACTORS
330
44F
102
}
330
44F
100
AcDbXrecord
280
     1
270
     1
271
     1
  0
XRECORD
  5
450
102
{ACAD_REACTORS
330
44F
102
}
330
44F
100
AcDbXrecord
280
     1
270
     1
271
     1
  0
XRECORD
  5
454
102
{ACAD_REACTORS
330
44F
102
}
330
44F
100
AcDbXrecord
280
     1
270
     1
271
     1
  0
XRECORD
  5
453
102
{ACAD_REACTORS
330
44F
102
}
330
44F
100
AcDbXrecord
280
     1
270
     1
271
     1
  0
XRECORD
  5
455
102
{ACAD_REACTORS
330
44F
102
}
330
44F
100
AcDbXrecord
280
     1
270
     1
271
     1
  0
XRECORD
  5
452
102
{ACAD_REACTORS
330
44F
102
}
330
44F
100
AcDbXrecord
280
     1
270
     1
271
     1
  0
XRECORD
  5
502
102
{ACAD_REACTORS
330
447
102
}
330
447
100
AcDbXrecord
280
     1
102
MATERIAL
148
0.0
149
0.0
149
0.0
 93
        0
 94
      127
282
     0
 72
     0
 77
     0
171
     0
175
     0
179
     0
273
     0
  0
XRECORD
  5
449
102
{ACAD_REACTORS
330
447
102
}
330
447
100
AcDbXrecord
280
     1
270
     1
271
     1
  0
XRECORD
  5
448
102
{ACAD_REACTORS
330
447
102
}
330
447
100
AcDbXrecord
280
     1
270
     1
271
     1
  0
XRECORD
  5
44C
102
{ACAD_REACTORS
330
447
102
}
330
447
100
AcDbXrecord
280
     1
270
     1
271
     1
  0
XRECORD
  5
44B
102
{ACAD_REACTORS
330
447
102
}
330
447
100
AcDbXrecord
280
     1
270
     1
271
     1
  0
XRECORD
  5
44D
102
{ACAD_REACTORS
330
447
102
}
330
447
100
AcDbXrecord
280
     1
270
     1
271
     1
  0
XRECORD
  5
44A
102
{ACAD_REACTORS
330
447
102
}
330
447
100
AcDbXrecord
280
     1
270
     1
271
     1
  0
XRECORD
  5
504
102
{ACAD_REACTORS
330
457
102
}
330
457
100
AcDbXrecord
280
     1
102
MATERIAL
148
0.0
149
0.0
149
0.0
 93
        0
 94
      127
282
     0
 72
     0
 77
     0
171
     0
175
     0
179
     0
273
     0
  0
XRECORD
  5
459
102
{ACAD_REACTORS
330
457
102
}
330
457
100
AcDbXrecord
280
     1
270
     1
271
     1
  0
XRECORD
  5
458
102
{ACAD_REACTORS
330
457
102
}
330
457
100
AcDbXrecord
280
     1
270
     1
271
     1
  0
XRECORD
  5
45C
102
{ACAD_REACTORS
330
457
102
}
330
457
100
AcDbXrecord
280
     1
270
     1
271
     1
  0
XRECORD
  5
45B
102
{ACAD_REACTORS
330
457
102
}
330
457
100
AcDbXrecord
280
     1
270
     1
271
     1
  0
XRECORD
  5
45D
102
{ACAD_REACTORS
330
457
102
}
330
457
100
AcDbXrecord
280
     1
270
     1
271
     1
  0
XRECORD
  5
45A
102
{ACAD_REACTORS
330
457
102
}
330
457
100
AcDbXrecord
280
     1
270
     1
271
     1
  0
CELLSTYLEMAP
  5
4FF
102
{ACAD_REACTORS
330
4FE
102
}
330
4FE
100
AcDbCellStyleMap
 90
        3
300
CELLSTYLE
  1
TABLEFORMAT_BEGIN
 90
        5
170
     1
 91
        0
 92
    32768
 62
   257
 93
        1
300
CONTENTFORMAT
  1
CONTENTFORMAT_BEGIN
 90
        0
 91
        0
 92
      512
 93
        0
300

 40
0.0
140
1.0
 94
        5
 62
     0
340
A9
144
6.0
309
CONTENTFORMAT_END
171
     1
301
MARGIN
  1
CELLMARGIN_BEGIN
 40
1.5
 40
1.5
 40
1.5
 40
1.5
 40
4.5
 40
4.5
309
CELLMARGIN_END
 94
        6
 95
        1
302
GRIDFORMAT
  1
GRIDFORMAT_BEGIN
 90
        0
 91
        1
 62
     0
 92
       -2
340
0
 93
        0
 40
1.125
309
GRIDFORMAT_END
 95
        2
302
GRIDFORMAT
  1
GRIDFORMAT_BEGIN
 90
        0
 91
        1
 62
     0
 92
       -2
340
0
 93
        0
 40
1.125
309
GRIDFORMAT_END
 95
        4
302
GRIDFORMAT
  1
GRIDFORMAT_BEGIN
 90
        0
 91
        1
 62
     0
 92
       -2
340
0
 93
        0
 40
1.125
309
GRIDFORMAT_END
 95
        8
302
GRIDFORMAT
  1
GRIDFORMAT_BEGIN
 90
        0
 91
        1
 62
     0
 92
       -2
340
0
 93
        0
 40
1.125
309
GRIDFORMAT_END
 95
       16
302
GRIDFORMAT
  1
GRIDFORMAT_BEGIN
 90
        0
 91
        1
 62
     0
 92
       -2
340
0
 93
        0
 40
1.125
309
GRIDFORMAT_END
 95
       32
302
GRIDFORMAT
  1
GRIDFORMAT_BEGIN
 90
        0
 91
        1
 62
     0
 92
       -2
340
0
 93
        0
 40
1.125
309
GRIDFORMAT_END
309
TABLEFORMAT_END
  1
CELLSTYLE_BEGIN
 90
        1
 91
        1
300
_TITLE
309
CELLSTYLE_END
300
CELLSTYLE
  1
TABLEFORMAT_BEGIN
 90
        5
170
     1
 91
        0
 92
        0
 62
   257
 93
        1
300
CONTENTFORMAT
  1
CONTENTFORMAT_BEGIN
 90
        0
 91
        0
 92
      512
 93
        0
300

 40
0.0
140
1.0
 94
        5
 62
     0
340
A9
144
4.5
309
CONTENTFORMAT_END
171
     1
301
MARGIN
  1
CELLMARGIN_BEGIN
 40
1.5
 40
1.5
 40
1.5
 40
1.5
 40
4.5
 40
4.5
309
CELLMARGIN_END
 94
        6
 95
        1
302
GRIDFORMAT
  1
GRIDFORMAT_BEGIN
 90
        0
 91
        1
 62
     0
 92
       -2
340
0
 93
        0
 40
1.125
309
GRIDFORMAT_END
 95
        2
302
GRIDFORMAT
  1
GRIDFORMAT_BEGIN
 90
        0
 91
        1
 62
     0
 92
       -2
340
0
 93
        0
 40
1.125
309
GRIDFORMAT_END
 95
        4
302
GRIDFORMAT
  1
GRIDFORMAT_BEGIN
 90
        0
 91
        1
 62
     0
 92
       -2
340
0
 93
        0
 40
1.125
309
GRIDFORMAT_END
 95
        8
302
GRIDFORMAT
  1
GRIDFORMAT_BEGIN
 90
        0
 91
        1
 62
     0
 92
       -2
340
0
 93
        0
 40
1.125
309
GRIDFORMAT_END
 95
       16
302
GRIDFORMAT
  1
GRIDFORMAT_BEGIN
 90
        0
 91
        1
 62
     0
 92
       -2
340
0
 93
        0
 40
1.125
309
GRIDFORMAT_END
 95
       32
302
GRIDFORMAT
  1
GRIDFORMAT_BEGIN
 90
        0
 91
        1
 62
     0
 92
       -2
340
0
 93
        0
 40
1.125
309
GRIDFORMAT_END
309
TABLEFORMAT_END
  1
CELLSTYLE_BEGIN
 90
        2
 91
        1
300
_HEADER
309
CELLSTYLE_END
300
CELLSTYLE
  1
TABLEFORMAT_BEGIN
 90
        5
170
     1
 91
        0
 92
        0
 62
   257
 93
        1
300
CONTENTFORMAT
  1
CONTENTFORMAT_BEGIN
 90
        0
 91
        0
 92
      512
 93
        0
300

 40
0.0
140
1.0
 94
        2
 62
     0
340
A9
144
4.5
309
CONTENTFORMAT_END
171
     1
301
MARGIN
  1
CELLMARGIN_BEGIN
 40
1.5
 40
1.5
 40
1.5
 40
1.5
 40
4.5
 40
4.5
309
CELLMARGIN_END
 94
        6
 95
        1
302
GRIDFORMAT
  1
GRIDFORMAT_BEGIN
 90
        0
 91
        1
 62
     0
 92
       -2
340
0
 93
        0
 40
1.125
309
GRIDFORMAT_END
 95
        2
302
GRIDFORMAT
  1
GRIDFORMAT_BEGIN
 90
        0
 91
        1
 62
     0
 92
       -2
340
0
 93
        0
 40
1.125
309
GRIDFORMAT_END
 95
        4
302
GRIDFORMAT
  1
GRIDFORMAT_BEGIN
 90
        0
 91
        1
 62
     0
 92
       -2
340
0
 93
        0
 40
1.125
309
GRIDFORMAT_END
 95
        8
302
GRIDFORMAT
  1
GRIDFORMAT_BEGIN
 90
        0
 91
        1
 62
     0
 92
       -2
340
0
 93
        0
 40
1.125
309
GRIDFORMAT_END
 95
       16
302
GRIDFORMAT
  1
GRIDFORMAT_BEGIN
 90
        0
 91
        1
 62
     0
 92
       -2
340
0
 93
        0
 40
1.125
309
GRIDFORMAT_END
 95
       32
302
GRIDFORMAT
  1
GRIDFORMAT_BEGIN
 90
        0
 91
        1
 62
     0
 92
       -2
340
0
 93
        0
 40
1.125
309
GRIDFORMAT_END
309
TABLEFORMAT_END
  1
CELLSTYLE_BEGIN
 90
        3
 91
        2
300
_DATA
309
CELLSTYLE_END
  0
XRECORD
  5
535
102
{ACAD_REACTORS
330
4FE
102
}
330
4FE
100
AcDbXrecord
280
     1
102
ACAD_ROUNDTRIP_PRE2007_TABLESTYLE
 90
      512
 91
        0
  1

 92
      512
 93
        0
  2

 94
      512
 95
        0
  3

  0
XRECORD
  5
510
102
{ACAD_REACTORS
330
50F
102
}
330
50F
100
AcDbXrecord
280
     1
102
RTVSPropertyOp0
 70
     1
102
RTVSPropertyOp1
 70
     1
102
RTVSPropertyOp2
 70
     1
102
RTVSPropertyOp3
 70
     1
102
RTVSPropertyOp4
 70
     1
102
RTVSPropertyOp5
 70
     1
102
RTVSPropertyOp6
 70
     1
102
RTVSPropertyOp7
 70
     1
102
RTVSPropertyOp8
 70
     1
102
RTVSPropertyOp9
 70
     1
102
RTVSPropertyOp10
 70
     1
102
RTVSPropertyOp11
 70
     1
102
RTVSPropertyOp12
 70
     1
102
RTVSPropertyOp13
 70
     1
102
RTVSPropertyOp14
 70
     1
102
RTVSPropertyOp15
 70
     1
102
RTVSPropertyOp16
 70
     1
102
RTVSPropertyOp17
 70
     1
102
RTVSPropertyOp18
 70
     1
102
RTVSPropertyOp19
 70
     1
102
RTVSPropertyOp20
 70
     1
102
RTVSPropertyOp21
 70
     1
102
RTVSPropertyOp22
 70
     1
102
RTVSPropertyOp23
 70
     1
102
RTVSPropertyOp24
 70
     1
102
RTVSPropertyOp25
 70
     1
102
RTVSPropertyOp26
 70
     1
102
RTVSPropertyOp27
 70
     1
102
RTVSPropertyOp28
 70
     1
102
RTVSPropertyOp29
 70
     1
102
RTVSPropertyOp30
 70
     1
102
RTVSPropertyOp31
 70
     1
102
RTVSPropertyOp32
 70
     1
  0
XRECORD
  5
50E
102
{ACAD_REACTORS
330
50D
102
}
330
50D
100
AcDbXrecord
280
     1
102
RTVSPropertyOp0
 70
     1
102
RTVSPropertyOp1
 70
     1
102
RTVSPropertyOp2
 70
     1
102
RTVSPropertyOp3
 70
     1
102
RTVSPropertyOp4
 70
     1
102
RTVSPropertyOp5
 70
     1
102
RTVSPropertyOp6
 70
     1
102
RTVSPropertyOp7
 70
     1
102
RTVSPropertyOp8
 70
     1
102
RTVSPropertyOp9
 70
     1
102
RTVSPropertyOp10
 70
     1
102
RTVSPropertyOp11
 70
     1
102
RTVSPropertyOp12
 70
     1
102
RTVSPropertyOp13
 70
     1
102
RTVSPropertyOp14
 70
     1
102
RTVSPropertyOp15
 70
     1
102
RTVSPropertyOp16
 70
     1
102
RTVSPropertyOp17
 70
     1
102
RTVSPropertyOp18
 70
     1
102
RTVSPropertyOp19
 70
     1
102
RTVSPropertyOp20
 70
     1
102
RTVSPropertyOp21
 70
     1
102
RTVSPropertyOp22
 70
     1
102
RTVSPropertyOp23
 70
     1
102
RTVSPropertyOp24
 70
     1
102
RTVSPropertyOp25
 70
     1
102
RTVSPropertyOp26
 70
     1
102
RTVSPropertyOp27
 70
     1
102
RTVSPropertyOp28
 70
     1
102
RTVSPropertyOp29
 70
     1
102
RTVSPropertyOp30
 70
     1
102
RTVSPropertyOp31
 70
     1
102
RTVSPropertyOp32
 70
     1
  0
XRECORD
  5
51C
102
{ACAD_REACTORS
330
51B
102
}
330
51B
100
AcDbXrecord
280
     1
102
RTVSPropertyOp0
 70
     1
102
RTVSPropertyOp1
 70
     1
102
RTVSPropertyOp2
 70
     1
102
RTVSPropertyOp3
 70
     1
102
RTVSPropertyOp4
 70
     1
102
RTVSPropertyOp5
 70
     1
102
RTVSPropertyOp6
 70
     1
102
RTVSPropertyOp7
 70
     1
102
RTVSPropertyOp8
 70
     1
102
RTVSPropertyOp9
 70
     1
102
RTVSPropertyOp10
 70
     1
102
RTVSPropertyOp11
 70
     1
102
RTVSPropertyOp12
 70
     1
102
RTVSPropertyOp13
 70
     1
102
RTVSPropertyOp14
 70
     1
102
RTVSPropertyOp15
 70
     1
102
RTVSPropertyOp16
 70
     1
102
RTVSPropertyOp17
 70
     1
102
RTVSPropertyOp18
 70
     1
102
RTVSPropertyOp19
 70
     1
102
RTVSPropertyOp20
 70
     1
102
RTVSPropertyOp21
 70
     1
102
RTVSPropertyOp22
 70
     1
102
RTVSPropertyOp23
 70
     1
102
RTVSPropertyOp24
 70
     1
102
RTVSPropertyOp25
 70
     1
102
RTVSPropertyOp26
 70
     1
102
RTVSPropertyOp27
 70
     1
102
RTVSPropertyOp28
 70
     1
102
RTVSPropertyOp29
 70
     1
102
RTVSPropertyOp30
 70
     1
102
RTVSPropertyOp31
 70
     1
102
RTVSPropertyOp32
 70
     1
  0
XRECORD
  5
524
102
{ACAD_REACTORS
330
523
102
}
330
523
100
AcDbXrecord
280
     1
102
RTVSPropertyOp0
 70
     1
102
RTVSPropertyOp1
 70
     1
102
RTVSPropertyOp2
 70
     1
102
RTVSPropertyOp3
 70
     1
102
RTVSPropertyOp4
 70
     1
102
RTVSPropertyOp5
 70
     1
102
RTVSPropertyOp6
 70
     1
102
RTVSPropertyOp7
 70
     1
102
RTVSPropertyOp8
 70
     1
102
RTVSPropertyOp9
 70
     1
102
RTVSPropertyOp10
 70
     1
102
RTVSPropertyOp11
 70
     1
102
RTVSPropertyOp12
 70
     1
102
RTVSPropertyOp13
 70
     1
102
RTVSPropertyOp14
 70
     1
102
RTVSPropertyOp15
 70
     1
102
RTVSPropertyOp16
 70
     1
102
RTVSPropertyOp17
 70
     1
102
RTVSPropertyOp18
 70
     1
102
RTVSPropertyOp19
 70
     1
102
RTVSPropertyOp20
 70
     1
102
RTVSPropertyOp21
 70
     1
102
RTVSPropertyOp22
 70
     1
102
RTVSPropertyOp23
 70
     1
102
RTVSPropertyOp24
 70
     1
102
RTVSPropertyOp25
 70
     1
102
RTVSPropertyOp26
 70
     1
102
RTVSPropertyOp27
 70
     1
102
RTVSPropertyOp28
 70
     1
102
RTVSPropertyOp29
 70
     1
102
RTVSPropertyOp30
 70
     1
102
RTVSPropertyOp31
 70
     1
102
RTVSPropertyOp32
 70
     1
  0
XRECORD
  5
516
102
{ACAD_REACTORS
330
515
102
}
330
515
100
AcDbXrecord
280
     1
102
RTVSPropertyOp0
 70
     1
102
RTVSPropertyOp1
 70
     1
102
RTVSPropertyOp2
 70
     1
102
RTVSPropertyOp3
 70
     1
102
RTVSPropertyOp4
 70
     1
102
RTVSPropertyOp5
 70
     1
102
RTVSPropertyOp6
 70
     1
102
RTVSPropertyOp7
 70
     1
102
RTVSPropertyOp8
 70
     1
102
RTVSPropertyOp9
 70
     1
102
RTVSPropertyOp10
 70
     1
102
RTVSPropertyOp11
 70
     1
102
RTVSPropertyOp12
 70
     1
102
RTVSPropertyOp13
 70
     1
102
RTVSPropertyOp14
 70
     1
102
RTVSPropertyOp15
 70
     1
102
RTVSPropertyOp16
 70
     1
102
RTVSPropertyOp17
 70
     1
102
RTVSPropertyOp18
 70
     1
102
RTVSPropertyOp19
 70
     1
102
RTVSPropertyOp20
 70
     1
102
RTVSPropertyOp21
 70
     1
102
RTVSPropertyOp22
 70
     1
102
RTVSPropertyOp23
 70
     1
102
RTVSPropertyOp24
 70
     1
102
RTVSPropertyOp25
 70
     1
102
RTVSPropertyOp26
 70
     1
102
RTVSPropertyOp27
 70
     1
102
RTVSPropertyOp28
 70
     1
102
RTVSPropertyOp29
 70
     1
102
RTVSPropertyOp30
 70
     1
102
RTVSPropertyOp31
 70
     1
102
RTVSPropertyOp32
 70
     1
  0
XRECORD
  5
51A
102
{ACAD_REACTORS
330
519
102
}
330
519
100
AcDbXrecord
280
     1
102
RTVSPropertyOp0
 70
     1
102
RTVSPropertyOp1
 70
     1
102
RTVSPropertyOp2
 70
     1
102
RTVSPropertyOp3
 70
     1
102
RTVSPropertyOp4
 70
     1
102
RTVSPropertyOp5
 70
     1
102
RTVSPropertyOp6
 70
     1
102
RTVSPropertyOp7
 70
     1
102
RTVSPropertyOp8
 70
     1
102
RTVSPropertyOp9
 70
     1
102
RTVSPropertyOp10
 70
     1
102
RTVSPropertyOp11
 70
     1
102
RTVSPropertyOp12
 70
     1
102
RTVSPropertyOp13
 70
     1
102
RTVSPropertyOp14
 70
     1
102
RTVSPropertyOp15
 70
     1
102
RTVSPropertyOp16
 70
     1
102
RTVSPropertyOp17
 70
     1
102
RTVSPropertyOp18
 70
     1
102
RTVSPropertyOp19
 70
     1
102
RTVSPropertyOp20
 70
     1
102
RTVSPropertyOp21
 70
     1
102
RTVSPropertyOp22
 70
     1
102
RTVSPropertyOp23
 70
     1
102
RTVSPropertyOp24
 70
     1
102
RTVSPropertyOp25
 70
     1
102
RTVSPropertyOp26
 70
     1
102
RTVSPropertyOp27
 70
     1
102
RTVSPropertyOp28
 70
     1
102
RTVSPropertyOp29
 70
     1
102
RTVSPropertyOp30
 70
     1
102
RTVSPropertyOp31
 70
     1
102
RTVSPropertyOp32
 70
     1
  0
XRECORD
  5
534
102
{ACAD_REACTORS
330
533
102
}
330
533
100
AcDbXrecord
280
     1
102
RTVSPropertyOp0
 70
     0
102
RTVSPropertyOp1
 70
     0
102
RTVSPropertyOp2
 70
     0
102
RTVSPropertyOp3
 70
     0
102
RTVSPropertyOp4
 70
     0
102
RTVSPropertyOp5
 70
     0
102
RTVSPropertyOp6
 70
     0
102
RTVSPropertyOp7
 70
     0
102
RTVSPropertyOp8
 70
     0
102
RTVSPropertyOp9
 70
     0
102
RTVSPropertyOp10
 70
     0
102
RTVSPropertyOp11
 70
     0
102
RTVSPropertyOp12
 70
     0
102
RTVSPropertyOp13
 70
     0
102
RTVSPropertyOp14
 70
     2
102
RTVSPropertyOp15
 70
     0
102
RTVSPropertyOp16
 70
     0
102
RTVSPropertyOp17
 70
     0
102
RTVSPropertyOp18
 70
     0
102
RTVSPropertyOp19
 70
     0
102
RTVSPropertyOp20
 70
     0
102
RTVSPropertyOp21
 70
     0
102
RTVSPropertyOp22
 70
     0
102
RTVSPropertyOp23
 70
     0
102
RTVSPropertyOp24
 70
     0
102
RTVSPropertyOp25
 70
     0
102
RTVSPropertyOp26
 70
     0
102
RTVSPropertyOp27
 70
     0
102
RTVSPropertyOp28
 70
     0
102
RTVSPropertyOp29
 70
     0
102
RTVSPropertyOp30
 70
     0
102
RTVSPropertyOp31
 70
     0
102
RTVSPropertyOp32
 70
     0
  0
XRECORD
  5
522
102
{ACAD_REACTORS
330
521
102
}
330
521
100
AcDbXrecord
280
     1
102
RTVSPropertyOp0
 70
     1
102
RTVSPropertyOp1
 70
     1
102
RTVSPropertyOp2
 70
     1
102
RTVSPropertyOp3
 70
     1
102
RTVSPropertyOp4
 70
     1
102
RTVSPropertyOp5
 70
     1
102
RTVSPropertyOp6
 70
     1
102
RTVSPropertyOp7
 70
     1
102
RTVSPropertyOp8
 70
     1
102
RTVSPropertyOp9
 70
     1
102
RTVSPropertyOp10
 70
     1
102
RTVSPropertyOp11
 70
     1
102
RTVSPropertyOp12
 70
     1
102
RTVSPropertyOp13
 70
     1
102
RTVSPropertyOp14
 70
     1
102
RTVSPropertyOp15
 70
     1
102
RTVSPropertyOp16
 70
     1
102
RTVSPropertyOp17
 70
     1
102
RTVSPropertyOp18
 70
     1
102
RTVSPropertyOp19
 70
     1
102
RTVSPropertyOp20
 70
     1
102
RTVSPropertyOp21
 70
     1
102
RTVSPropertyOp22
 70
     1
102
RTVSPropertyOp23
 70
     1
102
RTVSPropertyOp24
 70
     1
102
RTVSPropertyOp25
 70
     1
102
RTVSPropertyOp26
 70
     1
102
RTVSPropertyOp27
 70
     1
102
RTVSPropertyOp28
 70
     1
102
RTVSPropertyOp29
 70
     1
102
RTVSPropertyOp30
 70
     1
102
RTVSPropertyOp31
 70
     1
102
RTVSPropertyOp32
 70
     1
  0
XRECORD
  5
506
102
{ACAD_REACTORS
330
505
102
}
330
505
100
AcDbXrecord
280
     1
102
RTVSPropertyOp0
 70
     1
102
RTVSPropertyOp1
 70
     1
102
RTVSPropertyOp2
 70
     1
102
RTVSPropertyOp3
 70
     1
102
RTVSPropertyOp4
 70
     1
102
RTVSPropertyOp5
 70
     1
102
RTVSPropertyOp6
 70
     1
102
RTVSPropertyOp7
 70
     1
102
RTVSPropertyOp8
 70
     1
102
RTVSPropertyOp9
 70
     1
102
RTVSPropertyOp10
 70
     1
102
RTVSPropertyOp11
 70
     1
102
RTVSPropertyOp12
 70
     1
102
RTVSPropertyOp13
 70
     1
102
RTVSPropertyOp14
 70
     1
102
RTVSPropertyOp15
 70
     1
102
RTVSPropertyOp16
 70
     1
102
RTVSPropertyOp17
 70
     1
102
RTVSPropertyOp18
 70
     1
102
RTVSPropertyOp19
 70
     1
102
RTVSPropertyOp20
 70
     1
102
RTVSPropertyOp21
 70
     1
102
RTVSPropertyOp22
 70
     1
102
RTVSPropertyOp23
 70
     1
102
RTVSPropertyOp24
 70
     1
102
RTVSPropertyOp25
 70
     1
102
RTVSPropertyOp26
 70
     1
102
RTVSPropertyOp27
 70
     1
102
RTVSPropertyOp28
 70
     1
102
RTVSPropertyOp29
 70
     1
102
RTVSPropertyOp30
 70
     1
102
RTVSPropertyOp31
 70
     1
102
RTVSPropertyOp32
 70
     1
  0
XRECORD
  5
508
102
{ACAD_REACTORS
330
507
102
}
330
507
100
AcDbXrecord
280
     1
102
RTVSPropertyOp0
 70
     1
102
RTVSPropertyOp1
 70
     1
102
RTVSPropertyOp2
 70
     1
102
RTVSPropertyOp3
 70
     1
102
RTVSPropertyOp4
 70
     1
102
RTVSPropertyOp5
 70
     1
102
RTVSPropertyOp6
 70
     1
102
RTVSPropertyOp7
 70
     1
102
RTVSPropertyOp8
 70
     1
102
RTVSPropertyOp9
 70
     1
102
RTVSPropertyOp10
 70
     1
102
RTVSPropertyOp11
 70
     1
102
RTVSPropertyOp12
 70
     1
102
RTVSPropertyOp13
 70
     1
102
RTVSPropertyOp14
 70
     1
102
RTVSPropertyOp15
 70
     1
102
RTVSPropertyOp16
 70
     1
102
RTVSPropertyOp17
 70
     1
102
RTVSPropertyOp18
 70
     1
102
RTVSPropertyOp19
 70
     1
102
RTVSPropertyOp20
 70
     1
102
RTVSPropertyOp21
 70
     1
102
RTVSPropertyOp22
 70
     1
102
RTVSPropertyOp23
 70
     1
102
RTVSPropertyOp24
 70
     1
102
RTVSPropertyOp25
 70
     1
102
RTVSPropertyOp26
 70
     1
102
RTVSPropertyOp27
 70
     1
102
RTVSPropertyOp28
 70
     1
102
RTVSPropertyOp29
 70
     1
102
RTVSPropertyOp30
 70
     1
102
RTVSPropertyOp31
 70
     1
102
RTVSPropertyOp32
 70
     1
  0
XRECORD
  5
50A
102
{ACAD_REACTORS
330
509
102
}
330
509
100
AcDbXrecord
280
     1
102
RTVSPropertyOp0
 70
     1
102
RTVSPropertyOp1
 70
     1
102
RTVSPropertyOp2
 70
     1
102
RTVSPropertyOp3
 70
     1
102
RTVSPropertyOp4
 70
     1
102
RTVSPropertyOp5
 70
     1
102
RTVSPropertyOp6
 70
     1
102
RTVSPropertyOp7
 70
     1
102
RTVSPropertyOp8
 70
     1
102
RTVSPropertyOp9
 70
     1
102
RTVSPropertyOp10
 70
     1
102
RTVSPropertyOp11
 70
     1
102
RTVSPropertyOp12
 70
     1
102
RTVSPropertyOp13
 70
     1
102
RTVSPropertyOp14
 70
     1
102
RTVSPropertyOp15
 70
     1
102
RTVSPropertyOp16
 70
     1
102
RTVSPropertyOp17
 70
     1
102
RTVSPropertyOp18
 70
     1
102
RTVSPropertyOp19
 70
     1
102
RTVSPropertyOp20
 70
     1
102
RTVSPropertyOp21
 70
     1
102
RTVSPropertyOp22
 70
     1
102
RTVSPropertyOp23
 70
     1
102
RTVSPropertyOp24
 70
     1
102
RTVSPropertyOp25
 70
     1
102
RTVSPropertyOp26
 70
     1
102
RTVSPropertyOp27
 70
     1
102
RTVSPropertyOp28
 70
     1
102
RTVSPropertyOp29
 70
     1
102
RTVSPropertyOp30
 70
     1
102
RTVSPropertyOp31
 70
     1
102
RTVSPropertyOp32
 70
     1
  0
XRECORD
  5
50C
102
{ACAD_REACTORS
330
50B
102
}
330
50B
100
AcDbXrecord
280
     1
102
RTVSPropertyOp0
 70
     1
102
RTVSPropertyOp1
 70
     1
102
RTVSPropertyOp2
 70
     1
102
RTVSPropertyOp3
 70
     1
102
RTVSPropertyOp4
 70
     1
102
RTVSPropertyOp5
 70
     1
102
RTVSPropertyOp6
 70
     1
102
RTVSPropertyOp7
 70
     1
102
RTVSPropertyOp8
 70
     1
102
RTVSPropertyOp9
 70
     1
102
RTVSPropertyOp10
 70
     1
102
RTVSPropertyOp11
 70
     1
102
RTVSPropertyOp12
 70
     1
102
RTVSPropertyOp13
 70
     1
102
RTVSPropertyOp14
 70
     1
102
RTVSPropertyOp15
 70
     1
102
RTVSPropertyOp16
 70
     1
102
RTVSPropertyOp17
 70
     1
102
RTVSPropertyOp18
 70
     1
102
RTVSPropertyOp19
 70
     1
102
RTVSPropertyOp20
 70
     1
102
RTVSPropertyOp21
 70
     1
102
RTVSPropertyOp22
 70
     1
102
RTVSPropertyOp23
 70
     1
102
RTVSPropertyOp24
 70
     1
102
RTVSPropertyOp25
 70
     1
102
RTVSPropertyOp26
 70
     1
102
RTVSPropertyOp27
 70
     1
102
RTVSPropertyOp28
 70
     1
102
RTVSPropertyOp29
 70
     1
102
RTVSPropertyOp30
 70
     1
102
RTVSPropertyOp31
 70
     1
102
RTVSPropertyOp32
 70
     1
  0
XRECORD
  5
514
102
{ACAD_REACTORS
330
513
102
}
330
513
100
AcDbXrecord
280
     1
102
RTVSPropertyOp0
 70
     1
102
RTVSPropertyOp1
 70
     1
102
RTVSPropertyOp2
 70
     1
102
RTVSPropertyOp3
 70
     1
102
RTVSPropertyOp4
 70
     1
102
RTVSPropertyOp5
 70
     1
102
RTVSPropertyOp6
 70
     1
102
RTVSPropertyOp7
 70
     1
102
RTVSPropertyOp8
 70
     1
102
RTVSPropertyOp9
 70
     1
102
RTVSPropertyOp10
 70
     1
102
RTVSPropertyOp11
 70
     1
102
RTVSPropertyOp12
 70
     1
102
RTVSPropertyOp13
 70
     1
102
RTVSPropertyOp14
 70
     1
102
RTVSPropertyOp15
 70
     1
102
RTVSPropertyOp16
 70
     1
102
RTVSPropertyOp17
 70
     1
102
RTVSPropertyOp18
 70
     1
102
RTVSPropertyOp19
 70
     1
102
RTVSPropertyOp20
 70
     1
102
RTVSPropertyOp21
 70
     1
102
RTVSPropertyOp22
 70
     1
102
RTVSPropertyOp23
 70
     1
102
RTVSPropertyOp24
 70
     1
102
RTVSPropertyOp25
 70
     1
102
RTVSPropertyOp26
 70
     1
102
RTVSPropertyOp27
 70
     1
102
RTVSPropertyOp28
 70
     1
102
RTVSPropertyOp29
 70
     1
102
RTVSPropertyOp30
 70
     1
102
RTVSPropertyOp31
 70
     1
102
RTVSPropertyOp32
 70
     1
  0
XRECORD
  5
530
102
{ACAD_REACTORS
330
52F
102
}
330
52F
100
AcDbXrecord
280
     1
102
RTVSPropertyOp0
 70
     0
102
RTVSPropertyOp1
 70
     0
102
RTVSPropertyOp2
 70
     0
102
RTVSPropertyOp3
 70
     0
102
RTVSPropertyOp4
 70
     0
102
RTVSPropertyOp5
 70
     0
102
RTVSPropertyOp6
 70
     0
102
RTVSPropertyOp7
 70
     0
102
RTVSPropertyOp8
 70
     0
102
RTVSPropertyOp9
 70
     0
102
RTVSPropertyOp10
 70
     0
102
RTVSPropertyOp11
 70
     0
102
RTVSPropertyOp12
 70
     0
102
RTVSPropertyOp13
 70
     0
102
RTVSPropertyOp14
 70
     2
102
RTVSPropertyOp15
 70
     0
102
RTVSPropertyOp16
 70
     0
102
RTVSPropertyOp17
 70
     0
102
RTVSPropertyOp18
 70
     0
102
RTVSPropertyOp19
 70
     0
102
RTVSPropertyOp20
 70
     0
102
RTVSPropertyOp21
 70
     0
102
RTVSPropertyOp22
 70
     0
102
RTVSPropertyOp23
 70
     0
102
RTVSPropertyOp24
 70
     0
102
RTVSPropertyOp25
 70
     0
102
RTVSPropertyOp26
 70
     0
102
RTVSPropertyOp27
 70
     0
102
RTVSPropertyOp28
 70
     0
102
RTVSPropertyOp29
 70
     0
102
RTVSPropertyOp30
 70
     0
102
RTVSPropertyOp31
 70
     0
102
RTVSPropertyOp32
 70
     0
  0
XRECORD
  5
520
102
{ACAD_REACTORS
330
51F
102
}
330
51F
100
AcDbXrecord
280
     1
102
RTVSPropertyOp0
 70
     1
102
RTVSPropertyOp1
 70
     1
102
RTVSPropertyOp2
 70
     1
102
RTVSPropertyOp3
 70
     1
102
RTVSPropertyOp4
 70
     1
102
RTVSPropertyOp5
 70
     1
102
RTVSPropertyOp6
 70
     1
102
RTVSPropertyOp7
 70
     1
102
RTVSPropertyOp8
 70
     1
102
RTVSPropertyOp9
 70
     1
102
RTVSPropertyOp10
 70
     1
102
RTVSPropertyOp11
 70
     1
102
RTVSPropertyOp12
 70
     1
102
RTVSPropertyOp13
 70
     1
102
RTVSPropertyOp14
 70
     1
102
RTVSPropertyOp15
 70
     1
102
RTVSPropertyOp16
 70
     1
102
RTVSPropertyOp17
 70
     1
102
RTVSPropertyOp18
 70
     1
102
RTVSPropertyOp19
 70
     1
102
RTVSPropertyOp20
 70
     1
102
RTVSPropertyOp21
 70
     1
102
RTVSPropertyOp22
 70
     1
102
RTVSPropertyOp23
 70
     1
102
RTVSPropertyOp24
 70
     1
102
RTVSPropertyOp25
 70
     1
102
RTVSPropertyOp26
 70
     1
102
RTVSPropertyOp27
 70
     1
102
RTVSPropertyOp28
 70
     1
102
RTVSPropertyOp29
 70
     1
102
RTVSPropertyOp30
 70
     1
102
RTVSPropertyOp31
 70
     1
102
RTVSPropertyOp32
 70
     1
  0
XRECORD
  5
532
102
{ACAD_REACTORS
330
531
102
}
330
531
100
AcDbXrecord
280
     1
102
RTVSPropertyOp0
 70
     0
102
RTVSPropertyOp1
 70
     0
102
RTVSPropertyOp2
 70
     0
102
RTVSPropertyOp3
 70
     0
102
RTVSPropertyOp4
 70
     0
102
RTVSPropertyOp5
 70
     0
102
RTVSPropertyOp6
 70
     0
102
RTVSPropertyOp7
 70
     0
102
RTVSPropertyOp8
 70
     0
102
RTVSPropertyOp9
 70
     0
102
RTVSPropertyOp10
 70
     0
102
RTVSPropertyOp11
 70
     0
102
RTVSPropertyOp12
 70
     0
102
RTVSPropertyOp13
 70
     0
102
RTVSPropertyOp14
 70
     2
102
RTVSPropertyOp15
 70
     0
102
RTVSPropertyOp16
 70
     0
102
RTVSPropertyOp17
 70
     0
102
RTVSPropertyOp18
 70
     0
102
RTVSPropertyOp19
 70
     0
102
RTVSPropertyOp20
 70
     0
102
RTVSPropertyOp21
 70
     0
102
RTVSPropertyOp22
 70
     0
102
RTVSPropertyOp23
 70
     0
102
RTVSPropertyOp24
 70
     0
102
RTVSPropertyOp25
 70
     0
102
RTVSPropertyOp26
 70
     0
102
RTVSPropertyOp27
 70
     0
102
RTVSPropertyOp28
 70
     0
102
RTVSPropertyOp29
 70
     0
102
RTVSPropertyOp30
 70
     0
102
RTVSPropertyOp31
 70
     0
102
RTVSPropertyOp32
 70
     0
  0
XRECORD
  5
518
102
{ACAD_REACTORS
330
517
102
}
330
517
100
AcDbXrecord
280
     1
102
RTVSPropertyOp0
 70
     1
102
RTVSPropertyOp1
 70
     1
102
RTVSPropertyOp2
 70
     1
102
RTVSPropertyOp3
 70
     1
102
RTVSPropertyOp4
 70
     1
102
RTVSPropertyOp5
 70
     1
102
RTVSPropertyOp6
 70
     1
102
RTVSPropertyOp7
 70
     1
102
RTVSPropertyOp8
 70
     1
102
RTVSPropertyOp9
 70
     1
102
RTVSPropertyOp10
 70
     1
102
RTVSPropertyOp11
 70
     1
102
RTVSPropertyOp12
 70
     1
102
RTVSPropertyOp13
 70
     1
102
RTVSPropertyOp14
 70
     1
102
RTVSPropertyOp15
 70
     1
102
RTVSPropertyOp16
 70
     1
102
RTVSPropertyOp17
 70
     1
102
RTVSPropertyOp18
 70
     1
102
RTVSPropertyOp19
 70
     1
102
RTVSPropertyOp20
 70
     1
102
RTVSPropertyOp21
 70
     1
102
RTVSPropertyOp22
 70
     1
102
RTVSPropertyOp23
 70
     1
102
RTVSPropertyOp24
 70
     1
102
RTVSPropertyOp25
 70
     1
102
RTVSPropertyOp26
 70
     1
102
RTVSPropertyOp27
 70
     1
102
RTVSPropertyOp28
 70
     1
102
RTVSPropertyOp29
 70
     1
102
RTVSPropertyOp30
 70
     1
102
RTVSPropertyOp31
 70
     1
102
RTVSPropertyOp32
 70
     1
  0
XRECORD
  5
52E
102
{ACAD_REACTORS
330
52D
102
}
330
52D
100
AcDbXrecord
280
     1
102
RTVSPropertyOp0
 70
     1
102
RTVSPropertyOp1
 70
     1
102
RTVSPropertyOp2
 70
     1
102
RTVSPropertyOp3
 70
     1
102
RTVSPropertyOp4
 70
     1
102
RTVSPropertyOp5
 70
     1
102
RTVSPropertyOp6
 70
     1
102
RTVSPropertyOp7
 70
     1
102
RTVSPropertyOp8
 70
     1
102
RTVSPropertyOp9
 70
     1
102
RTVSPropertyOp10
 70
     1
102
RTVSPropertyOp11
 70
     1
102
RTVSPropertyOp12
 70
     1
102
RTVSPropertyOp13
 70
     1
102
RTVSPropertyOp14
 70
     1
102
RTVSPropertyOp15
 70
     1
102
RTVSPropertyOp16
 70
     1
102
RTVSPropertyOp17
 70
     1
102
RTVSPropertyOp18
 70
     1
102
RTVSPropertyOp19
 70
     1
102
RTVSPropertyOp20
 70
     1
102
RTVSPropertyOp21
 70
     1
102
RTVSPropertyOp22
 70
     1
102
RTVSPropertyOp23
 70
     1
102
RTVSPropertyOp24
 70
     1
102
RTVSPropertyOp25
 70
     1
102
RTVSPropertyOp26
 70
     1
102
RTVSPropertyOp27
 70
     1
102
RTVSPropertyOp28
 70
     1
102
RTVSPropertyOp29
 70
     1
102
RTVSPropertyOp30
 70
     1
102
RTVSPropertyOp31
 70
     1
102
RTVSPropertyOp32
 70
     1
  0
XRECORD
  5
52C
102
{ACAD_REACTORS
330
52B
102
}
330
52B
100
AcDbXrecord
280
     1
102
RTVSPropertyOp0
 70
     1
102
RTVSPropertyOp1
 70
     1
102
RTVSPropertyOp2
 70
     1
102
RTVSPropertyOp3
 70
     1
102
RTVSPropertyOp4
 70
     1
102
RTVSPropertyOp5
 70
     1
102
RTVSPropertyOp6
 70
     1
102
RTVSPropertyOp7
 70
     1
102
RTVSPropertyOp8
 70
     1
102
RTVSPropertyOp9
 70
     1
102
RTVSPropertyOp10
 70
     1
102
RTVSPropertyOp11
 70
     1
102
RTVSPropertyOp12
 70
     1
102
RTVSPropertyOp13
 70
     1
102
RTVSPropertyOp14
 70
     1
102
RTVSPropertyOp15
 70
     1
102
RTVSPropertyOp16
 70
     1
102
RTVSPropertyOp17
 70
     1
102
RTVSPropertyOp18
 70
     1
102
RTVSPropertyOp19
 70
     1
102
RTVSPropertyOp20
 70
     1
102
RTVSPropertyOp21
 70
     1
102
RTVSPropertyOp22
 70
     1
102
RTVSPropertyOp23
 70
     1
102
RTVSPropertyOp24
 70
     1
102
RTVSPropertyOp25
 70
     1
102
RTVSPropertyOp26
 70
     1
102
RTVSPropertyOp27
 70
     1
102
RTVSPropertyOp28
 70
     1
102
RTVSPropertyOp29
 70
     1
102
RTVSPropertyOp30
 70
     1
102
RTVSPropertyOp31
 70
     1
102
RTVSPropertyOp32
 70
     1
  0
XRECORD
  5
526
102
{ACAD_REACTORS
330
525
102
}
330
525
100
AcDbXrecord
280
     1
102
RTVSPropertyOp0
 70
     1
102
RTVSPropertyOp1
 70
     1
102
RTVSPropertyOp2
 70
     1
102
RTVSPropertyOp3
 70
     1
102
RTVSPropertyOp4
 70
     1
102
RTVSPropertyOp5
 70
     1
102
RTVSPropertyOp6
 70
     1
102
RTVSPropertyOp7
 70
     1
102
RTVSPropertyOp8
 70
     1
102
RTVSPropertyOp9
 70
     1
102
RTVSPropertyOp10
 70
     1
102
RTVSPropertyOp11
 70
     1
102
RTVSPropertyOp12
 70
     1
102
RTVSPropertyOp13
 70
     1
102
RTVSPropertyOp14
 70
     1
102
RTVSPropertyOp15
 70
     1
102
RTVSPropertyOp16
 70
     1
102
RTVSPropertyOp17
 70
     1
102
RTVSPropertyOp18
 70
     1
102
RTVSPropertyOp19
 70
     1
102
RTVSPropertyOp20
 70
     1
102
RTVSPropertyOp21
 70
     1
102
RTVSPropertyOp22
 70
     1
102
RTVSPropertyOp23
 70
     1
102
RTVSPropertyOp24
 70
     1
102
RTVSPropertyOp25
 70
     1
102
RTVSPropertyOp26
 70
     1
102
RTVSPropertyOp27
 70
     1
102
RTVSPropertyOp28
 70
     1
102
RTVSPropertyOp29
 70
     1
102
RTVSPropertyOp30
 70
     1
102
RTVSPropertyOp31
 70
     1
102
RTVSPropertyOp32
 70
     1
  0
XRECORD
  5
528
102
{ACAD_REACTORS
330
527
102
}
330
527
100
AcDbXrecord
280
     1
102
RTVSPropertyOp0
 70
     1
102
RTVSPropertyOp1
 70
     1
102
RTVSPropertyOp2
 70
     1
102
RTVSPropertyOp3
 70
     1
102
RTVSPropertyOp4
 70
     1
102
RTVSPropertyOp5
 70
     1
102
RTVSPropertyOp6
 70
     1
102
RTVSPropertyOp7
 70
     1
102
RTVSPropertyOp8
 70
     1
102
RTVSPropertyOp9
 70
     1
102
RTVSPropertyOp10
 70
     1
102
RTVSPropertyOp11
 70
     1
102
RTVSPropertyOp12
 70
     1
102
RTVSPropertyOp13
 70
     1
102
RTVSPropertyOp14
 70
     1
102
RTVSPropertyOp15
 70
     1
102
RTVSPropertyOp16
 70
     1
102
RTVSPropertyOp17
 70
     1
102
RTVSPropertyOp18
 70
     1
102
RTVSPropertyOp19
 70
     1
102
RTVSPropertyOp20
 70
     1
102
RTVSPropertyOp21
 70
     1
102
RTVSPropertyOp22
 70
     1
102
RTVSPropertyOp23
 70
     1
102
RTVSPropertyOp24
 70
     1
102
RTVSPropertyOp25
 70
     1
102
RTVSPropertyOp26
 70
     1
102
RTVSPropertyOp27
 70
     1
102
RTVSPropertyOp28
 70
     1
102
RTVSPropertyOp29
 70
     1
102
RTVSPropertyOp30
 70
     1
102
RTVSPropertyOp31
 70
     1
102
RTVSPropertyOp32
 70
     1
  0
XRECORD
  5
51E
102
{ACAD_REACTORS
330
51D
102
}
330
51D
100
AcDbXrecord
280
     1
102
RTVSPropertyOp0
 70
     1
102
RTVSPropertyOp1
 70
     1
102
RTVSPropertyOp2
 70
     1
102
RTVSPropertyOp3
 70
     1
102
RTVSPropertyOp4
 70
     1
102
RTVSPropertyOp5
 70
     1
102
RTVSPropertyOp6
 70
     1
102
RTVSPropertyOp7
 70
     1
102
RTVSPropertyOp8
 70
     1
102
RTVSPropertyOp9
 70
     1
102
RTVSPropertyOp10
 70
     1
102
RTVSPropertyOp11
 70
     1
102
RTVSPropertyOp12
 70
     1
102
RTVSPropertyOp13
 70
     1
102
RTVSPropertyOp14
 70
     1
102
RTVSPropertyOp15
 70
     1
102
RTVSPropertyOp16
 70
     1
102
RTVSPropertyOp17
 70
     1
102
RTVSPropertyOp18
 70
     1
102
RTVSPropertyOp19
 70
     1
102
RTVSPropertyOp20
 70
     1
102
RTVSPropertyOp21
 70
     1
102
RTVSPropertyOp22
 70
     1
102
RTVSPropertyOp23
 70
     1
102
RTVSPropertyOp24
 70
     1
102
RTVSPropertyOp25
 70
     1
102
RTVSPropertyOp26
 70
     1
102
RTVSPropertyOp27
 70
     1
102
RTVSPropertyOp28
 70
     1
102
RTVSPropertyOp29
 70
     1
102
RTVSPropertyOp30
 70
     1
102
RTVSPropertyOp31
 70
     1
102
RTVSPropertyOp32
 70
     1
  0
XRECORD
  5
512
102
{ACAD_REACTORS
330
511
102
}
330
511
100
AcDbXrecord
280
     1
102
RTVSPropertyOp0
 70
     1
102
RTVSPropertyOp1
 70
     1
102
RTVSPropertyOp2
 70
     1
102
RTVSPropertyOp3
 70
     1
102
RTVSPropertyOp4
 70
     1
102
RTVSPropertyOp5
 70
     1
102
RTVSPropertyOp6
 70
     1
102
RTVSPropertyOp7
 70
     1
102
RTVSPropertyOp8
 70
     1
102
RTVSPropertyOp9
 70
     1
102
RTVSPropertyOp10
 70
     1
102
RTVSPropertyOp11
 70
     1
102
RTVSPropertyOp12
 70
     1
102
RTVSPropertyOp13
 70
     1
102
RTVSPropertyOp14
 70
     1
102
RTVSPropertyOp15
 70
     1
102
RTVSPropertyOp16
 70
     1
102
RTVSPropertyOp17
 70
     1
102
RTVSPropertyOp18
 70
     1
102
RTVSPropertyOp19
 70
     1
102
RTVSPropertyOp20
 70
     1
102
RTVSPropertyOp21
 70
     1
102
RTVSPropertyOp22
 70
     1
102
RTVSPropertyOp23
 70
     1
102
RTVSPropertyOp24
 70
     1
102
RTVSPropertyOp25
 70
     1
102
RTVSPropertyOp26
 70
     1
102
RTVSPropertyOp27
 70
     1
102
RTVSPropertyOp28
 70
     1
102
RTVSPropertyOp29
 70
     1
102
RTVSPropertyOp30
 70
     1
102
RTVSPropertyOp31
 70
     1
102
RTVSPropertyOp32
 70
     1
  0
XRECORD
  5
52A
102
{ACAD_REACTORS
330
529
102
}
330
529
100
AcDbXrecord
280
     1
102
RTVSPropertyOp0
 70
     1
102
RTVSPropertyOp1
 70
     1
102
RTVSPropertyOp2
 70
     1
102
RTVSPropertyOp3
 70
     1
102
RTVSPropertyOp4
 70
     1
102
RTVSPropertyOp5
 70
     1
102
RTVSPropertyOp6
 70
     1
102
RTVSPropertyOp7
 70
     1
102
RTVSPropertyOp8
 70
     1
102
RTVSPropertyOp9
 70
     1
102
RTVSPropertyOp10
 70
     1
102
RTVSPropertyOp11
 70
     1
102
RTVSPropertyOp12
 70
     1
102
RTVSPropertyOp13
 70
     1
102
RTVSPropertyOp14
 70
     1
102
RTVSPropertyOp15
 70
     1
102
RTVSPropertyOp16
 70
     1
102
RTVSPropertyOp17
 70
     1
102
RTVSPropertyOp18
 70
     1
102
RTVSPropertyOp19
 70
     1
102
RTVSPropertyOp20
 70
     1
102
RTVSPropertyOp21
 70
     1
102
RTVSPropertyOp22
 70
     1
102
RTVSPropertyOp23
 70
     1
102
RTVSPropertyOp24
 70
     1
102
RTVSPropertyOp25
 70
     1
102
RTVSPropertyOp26
 70
     1
102
RTVSPropertyOp27
 70
     1
102
RTVSPropertyOp28
 70
     1
102
RTVSPropertyOp29
 70
     1
102
RTVSPropertyOp30
 70
     1
102
RTVSPropertyOp31
 70
     1
102
RTVSPropertyOp32
 70
     1
  0
ENDSEC
  0
EOF
