  0
SECTION
  2
HEADER
  9
$ACADVER
  1
AC1014
  9
$DWGCODEPAGE
  3
ANSI_1252
  9
$INSBASE
 10
0.0
 20
0.0
 30
0.0
  9
$EXTMIN
 10
16.95292807
 20
-36691.80317579
  9
$EXTMAX
 10
32868.69414016
 20
784.39574146
  9
$LIMMIN
 10
16.95292807
 20
-36691.80317579
  9
$LIMMAX
 10
32868.69414016
 20
784.39574146
  9
$ORTHOMODE
 70
     0
  9
$REGENMODE
 70
     1
  9
$FILLMODE
 70
     1
  9
$QTEXTMODE
 70
     0
  9
$MIRRTEXT
 70
     1
  9
$DRAGMODE
 70
     2
  9
$LTSCALE
 40
5.0
  9
$OSMODE
 70
     0
  9
$ATTMODE
 70
     1
  9
$TEXTSIZE
 40
3.5
  9
$TRACEWID
 40
1.0
  9
$TEXTSTYLE
  7
STANDARD
  9
$CLAYER
  8
0
  9
$CELTYPE
  6
BYLAYER
  9
$CECOLOR
 62
   256
  9
$DIMSCALE
 40
1.0
  9
$DIMASZ
 40
2.0
  9
$DIMEXO
 40
5.0
  9
$DIMDLI
 40
10.0
  9
$DIMRND
 40
0.0
  9
$DIMDLE
 40
2.0
  9
$DIMEXE
 40
2.0
  9
$DIMTP
 40
0.0
  9
$DIMTM
 40
0.0
  9
$DIMTXT
 40
2.5
  9
$DIMCEN
 40
1.5
  9
$DIMTSZ
 40
0.0
  9
$DIMTOL
 70
     0
  9
$DIMLIM
 70
     0
  9
$DIMTIH
 70
     1
  9
$DIMTOH
 70
     0
  9
$DIMSE1
 70
     0
  9
$DIMSE2
 70
     0
  9
$DIMTAD
 70
     1
  9
$DIMZIN
 70
     8
  9
$DIMBLK
  1

  9
$DIMASO
 70
     1
  9
$DIMSHO
 70
     1
  9
$DIMPOST
  1

  9
$DIMAPOST
  1

  9
$DIMALT
 70
     0
  9
$DIMALTD
 70
     2
  9
$DIMALTF
 40
25.4
  9
$DIMLFAC
 40
1.0
  9
$DIMTOFL
 70
     0
  9
$DIMTVP
 40
0.0
  9
$DIMTIX
 70
     0
  9
$DIMSOXD
 70
     0
  9
$DIMSAH
 70
     0
  9
$DIMBLK1
  1

  9
$DIMBLK2
  1

  9
$DIMSTYLE
  2
*UNNAMED
  9
$DIMCLRD
 70
   190
  9
$DIMCLRE
 70
   190
  9
$DIMCLRT
 70
   190
  9
$DIMTFAC
 40
1.0
  9
$DIMGAP
 40
0.09
  9
$DIMUNIT
 70
     2
  9
$LUNITS
 70
     2
  9
$LUPREC
 70
     6
  9
$AXISMODE
 70
     0
  9
$AXISUNIT
 10
0.0
 20
0.0
  9
$SKETCHINC
 40
0.1
  9
$FILLETRAD
 40
0.0
  9
$AUNITS
 70
     0
  9
$AUPREC
 70
     0
  9
$MENU
  1
ACAD
  9
$ELEVATION
 40
0.0
  9
$PELEVATION
 40
0.0
  9
$THICKNESS
 40
0.0
  9
$LIMCHECK
 70
     0
  9
$BLIPMODE
 70
     1
  9
$CHAMFERA
 40
0.0
  9
$CHAMFERB
 40
0.0
  9
$SKPOLY
 70
     1
  9
$TDCREATE
 40
2457811.0000000000
  9
$TDUPDATE
 40
2457811.0000000000
  9
$TDINDWG
 40
0.0
  9
$TDUSRTIMER
 40
0.0
  9
$USRTIMER
 70
     1
  9
$ANGBASE
 50
0.0
  9
$ANGDIR
 70
     0
  9
$PDMODE
 70
     0
  9
$PDSIZE
 40
0.0
  9
$PLINEWID
 40
0.0
  9
$COORDS
 70
     2
  9
$SPLFRAME
 70
     0
  9
$SPLINETYPE
 70
     6
  9
$SPLINESEGS
 70
     8
  9
$ATTDIA
 70
     1
  9
$ATTREQ
 70
     1
  9
$HANDLING
 70
     1
  9
$HANDSEED
  5
     2BF
  9
$SURFTAB1
 70
     6
  9
$SURFTAB2
 70
     6
  9
$SURFTYPE
 70
     6
  9
$SURFU
 70
     6
  9
$SURFV
 70
     6
  9
$UCSNAME
  2

  9
$UCSORG
 10
0.0
 20
0.0
 30
0.0
  9
$UCSXDIR
 10
1.0
 20
0.0
 30
0.0
  9
$UCSYDIR
 10
0.0
 20
1.0
 30
0.0
  9
$PUCSNAME
  2

  9
$PUCSORG
 10
0.0
 20
0.0
 30
0.0
  9
$PUCSXDIR
 10
1.0
 20
0.0
 30
0.0
  9
$PUCSYDIR
 10
0.0
 20
1.0
 30
0.0
  9
$USERI1
 70
     0
  9
$USERI2
 70
     0
  9
$USERI3
 70
     0
  9
$USERI4
 70
     0
  9
$USERI5
 70
     0
  9
$USERR1
 40
0.0
  9
$USERR2
 40
0.0
  9
$USERR3
 40
0.0
  9
$USERR4
 40
0.0
  9
$USERR5
 40
0.0
  9
$WORLDVIEW
 70
     1
  9
$SHADEDGE
 70
     3
  9
$SHADEDIF
 70
    70
  9
$TILEMODE
 70
     1
  9
$MAXACTVP
 70
    16
  9
$PINSBASE
 10
0.0
 20
0.0
 30
0.0
  9
$PLIMCHECK
 70
     0
  9
$PEXTMIN
 10
1.0000000000000E+20
 20
1.0000000000000E+20
 30
1.0000000000000E+20
  9
$PEXTMAX
 10
-1.0000000000000E+20
 20
-1.0000000000000E+20
 30
-1.0000000000000E+20
  9
$PLIMMIN
 10
0.0
 20
0.0
  9
$UNITMODE
 70
     0
  9
$VISRETAIN
 70
     0
  9
$MEASUREMENT
 70
     1
  0
ENDSEC
  0
SECTION
  2
TABLES
  0
TABLE
  2
VPORT
  5
E9
100
AcDbSymbolTable
 70
     1
  0
ENDTAB
  0
TABLE
  2
STYLE
  5
EA
100
AcDbSymbolTable
 70
     2
  0
STYLE
  5
EB
100
AcDbSymbolTableRecord
100
AcDbTextStyleTableRecord
  2
STANDARD
 70
     0
 40
0.0
 41
1.0
 50
0.0
 71
     0
 42
3.5
  3
MONOTXT
  4

  0
STYLE
  5
EC
100
AcDbSymbolTableRecord
100
AcDbTextStyleTableRecord
  2
SYMAP
 70
     0
 40
0.0
 41
1.0
 50
0.0
 71
     0
 42
3.5
  3
SYMAP
  4

  0
STYLE
  5
ED
100
AcDbSymbolTableRecord
100
AcDbTextStyleTableRecord
  2
CADWORK1
 70
     0
 40
0.0
 41
1.0
 50
0.0
 71
     0
 42
3.5
  3
MONOTXT
  4

  0
STYLE
  5
EE
100
AcDbSymbolTableRecord
100
AcDbTextStyleTableRecord
  2
MONOTXT
 70
     0
 40
0.0
 41
1.0
 50
0.0
 71
     0
 42
3.5
  3
MONOTXT
  4

  0
ENDTAB
  0
TABLE
  2
LTYPE
  5
EF
100
AcDbSymbolTable
 70
    13
  0
LTYPE
  5
F0
100
AcDbSymbolTableRecord
100
AcDbLinetypeTableRecord
  2
BYBLOCK
 70
    64
  3

 72
    65
 73
     0
 40
0.0
  0
LTYPE
  5
F1
100
AcDbSymbolTableRecord
100
AcDbLinetypeTableRecord
  2
BYLAYER
 70
    64
  3

 72
    65
 73
     0
 40
0.0
  0
LTYPE
  5
F2
100
AcDbSymbolTableRecord
100
AcDbLinetypeTableRecord
  2
CONTINUOUS
 70
    64
  3
Solid line
 72
    65
 73
     0
 40
0.0
  0
LTYPE
  5
F3
100
AcDbSymbolTableRecord
100
AcDbLinetypeTableRecord
  2
DOT2
 70
    64
  3
...............................................
 72
    65
 73
     2
 40
1.25
 49
0.0
 74
     0
 49
-1.25
 74
     0
  0
LTYPE
  5
F4
100
AcDbSymbolTableRecord
100
AcDbLinetypeTableRecord
  2
DASHDOT
 70
    64
  3
 __ . __ . __ . __ . __ . __ . __ . __ . __ . __
 72
    65
 73
     4
 40
10.0
 49
5.0
 74
     0
 49
-2.5
 74
     0
 49
0.0
 74
     0
 49
-2.5
 74
     0
  0
LTYPE
  5
F5
100
AcDbSymbolTableRecord
100
AcDbLinetypeTableRecord
  2
DASHEDX2
 70
    64
  3
____  ____  ____  ____  ____  ____  ____  ____
 72
    65
 73
     2
 40
3.75
 49
2.5
 74
     0
 49
-1.25
 74
     0
  0
LTYPE
  5
F6
100
AcDbSymbolTableRecord
100
AcDbLinetypeTableRecord
  2
CADWORK_22
 70
    64
  3
22 =======================================
 72
    65
 73
     0
 40
0.0
  0
LTYPE
  5
F7
100
AcDbSymbolTableRecord
100
AcDbLinetypeTableRecord
  2
DAL
 70
    64
  3
Solid line (for MAPS)
 72
    65
 73
     0
 40
0.0
  0
LTYPE
  5
F8
100
AcDbSymbolTableRecord
100
AcDbLinetypeTableRecord
  2
MUR
 70
    64
  3
Solid line (for MAPS)
 72
    65
 73
     0
 40
0.0
  0
LTYPE
  5
F9
100
AcDbSymbolTableRecord
100
AcDbLinetypeTableRecord
  2
SOM
 70
    64
  3
Solid line (for MAPS)
 72
    65
 73
     0
 40
0.0
  0
LTYPE
  5
FA
100
AcDbSymbolTableRecord
100
AcDbLinetypeTableRecord
  2
COL
 70
    64
  3
Solid line (for MAPS)
 72
    65
 73
     0
 40
0.0
  0
LTYPE
  5
FB
100
AcDbSymbolTableRecord
100
AcDbLinetypeTableRecord
  2
LGN
 70
    64
  3
Solid line (for MAPS)
 72
    65
 73
     0
 40
0.0
  0
LTYPE
  5
FC
100
AcDbSymbolTableRecord
100
AcDbLinetypeTableRecord
  2
PNT
 70
    64
  3
Solid line (for MAPS)
 72
    65
 73
     0
 40
0.0
  0
ENDTAB
  0
TABLE
  2
LAYER
  5
FD
100
AcDbSymbolTable
 70
    32
  0
LAYER
  5
FE
100
AcDbSymbolTableRecord
100
AcDbLayerTableRecord
  2
Standard
 70
     0
 62
     7
  6
CONTINUOUS
370
    -3
  0
LAYER
  5
FF
100
AcDbSymbolTableRecord
100
AcDbLayerTableRecord
  2
Ech.1_1
 70
     0
 62
     7
  6
CONTINUOUS
370
    -3
  0
LAYER
  5
100
100
AcDbSymbolTableRecord
100
AcDbLayerTableRecord
  2
Ech.1_2
 70
     0
 62
     7
  6
CONTINUOUS
370
    -3
  0
LAYER
  5
101
100
AcDbSymbolTableRecord
100
AcDbLayerTableRecord
  2
Ech.1_5
 70
     0
 62
     7
  6
CONTINUOUS
370
    -3
  0
LAYER
  5
102
100
AcDbSymbolTableRecord
100
AcDbLayerTableRecord
  2
Ech.1_10
 70
     0
 62
     7
  6
CONTINUOUS
370
    -3
  0
LAYER
  5
103
100
AcDbSymbolTableRecord
100
AcDbLayerTableRecord
  2
Ech.1_20
 70
     0
 62
     7
  6
CONTINUOUS
370
    -3
  0
LAYER
  5
104
100
AcDbSymbolTableRecord
100
AcDbLayerTableRecord
  2
Ech.1_25
 70
     0
 62
     7
  6
CONTINUOUS
370
    -3
  0
LAYER
  5
105
100
AcDbSymbolTableRecord
100
AcDbLayerTableRecord
  2
Ech.1_33
 70
     0
 62
     7
  6
CONTINUOUS
370
    -3
  0
LAYER
  5
106
100
AcDbSymbolTableRecord
100
AcDbLayerTableRecord
  2
Ech.1_50
 70
     0
 62
     7
  6
CONTINUOUS
370
    -3
  0
LAYER
  5
107
100
AcDbSymbolTableRecord
100
AcDbLayerTableRecord
  2
Ech.1_75
 70
     0
 62
     7
  6
CONTINUOUS
370
    -3
  0
LAYER
  5
108
100
AcDbSymbolTableRecord
100
AcDbLayerTableRecord
  2
Ech.1_100
 70
     0
 62
     7
  6
CONTINUOUS
370
    -3
  0
LAYER
  5
109
100
AcDbSymbolTableRecord
100
AcDbLayerTableRecord
  2
Ech.1_200
 70
     0
 62
     7
  6
CONTINUOUS
370
    -3
  0
LAYER
  5
10A
100
AcDbSymbolTableRecord
100
AcDbLayerTableRecord
  2
Ech.1_500
 70
     0
 62
     7
  6
CONTINUOUS
370
    -3
  0
LAYER
  5
10B
100
AcDbSymbolTableRecord
100
AcDbLayerTableRecord
  2
Ech.1_1000
 70
     0
 62
     7
  6
CONTINUOUS
370
    -3
  0
LAYER
  5
10C
100
AcDbSymbolTableRecord
100
AcDbLayerTableRecord
  2
Cadres traceur
 70
     0
 62
     7
  6
CONTINUOUS
370
    18
  0
LAYER
  5
10D
100
AcDbSymbolTableRecord
100
AcDbLayerTableRecord
  2
Cadres laser
 70
     0
 62
     7
  6
CONTINUOUS
370
    18
  0
LAYER
  5
10E
100
AcDbSymbolTableRecord
100
AcDbLayerTableRecord
  2
Légende d_aide
 70
     0
 62
     7
  6
CONTINUOUS
370
    18
  0
LAYER
  5
10F
100
AcDbSymbolTableRecord
100
AcDbLayerTableRecord
  2
hachures ok
 70
     0
 62
     7
  6
CONTINUOUS
370
    18
  0
LAYER
  5
110
100
AcDbSymbolTableRecord
100
AcDbLayerTableRecord
  2
ossature bois
 70
     0
 62
     7
  6
CONTINUOUS
370
    18
  0
LAYER
  5
111
100
AcDbSymbolTableRecord
100
AcDbLayerTableRecord
  2
VR
 70
     0
 62
     7
  6
CONTINUOUS
370
    25
  0
LAYER
  5
112
100
AcDbSymbolTableRecord
100
AcDbLayerTableRecord
  2
Calque1
 70
     0
 62
     7
  6
CONTINUOUS
370
     9
  0
LAYER
  5
113
100
AcDbSymbolTableRecord
100
AcDbLayerTableRecord
  2
0
 70
     0
 62
     7
  6
CONTINUOUS
370
    -3
  0
LAYER
  5
114
100
AcDbSymbolTableRecord
100
AcDbLayerTableRecord
  2
menuiserie
 70
     0
 62
     7
  6
CONTINUOUS
370
    -3
  0
LAYER
  5
115
100
AcDbSymbolTableRecord
100
AcDbLayerTableRecord
  2
cotation
 70
     0
 62
   250
  6
CONTINUOUS
370
     9
  0
LAYER
  5
116
100
AcDbSymbolTableRecord
100
AcDbLayerTableRecord
  2
Defpoints
 70
     0
 62
    10
  6
CONTINUOUS
370
    -3
  0
LAYER
  5
117
100
AcDbSymbolTableRecord
100
AcDbLayerTableRecord
  2
HACHURE
 70
     0
 62
   254
  6
CONTINUOUS
370
    25
  0
LAYER
  5
118
100
AcDbSymbolTableRecord
100
AcDbLayerTableRecord
  2
mat1
 70
     0
 62
     7
  6
CONTINUOUS
370
    30
  0
LAYER
  5
119
100
AcDbSymbolTableRecord
100
AcDbLayerTableRecord
  2
mat2
 70
     0
 62
     7
  6
CONTINUOUS
370
     5
  0
LAYER
  5
11A
100
AcDbSymbolTableRecord
100
AcDbLayerTableRecord
  2
hach
 70
     0
 62
     8
  6
CONTINUOUS
370
     5
  0
LAYER
  5
11B
100
AcDbSymbolTableRecord
100
AcDbLayerTableRecord
  2
menuiseries
 70
     0
 62
     7
  6
CONTINUOUS
370
     9
  0
LAYER
  5
11C
100
AcDbSymbolTableRecord
100
AcDbLayerTableRecord
  2
BétonMétal
 70
     0
 62
     7
  6
CONTINUOUS
370
    80
  0
LAYER
  5
11D
100
AcDbSymbolTableRecord
100
AcDbLayerTableRecord
  2
bois
 70
     0
 62
     7
  6
CONTINUOUS
370
    60
  0
ENDTAB
  0
TABLE
  2
VIEW
  5
11E
100
AcDbSymbolTable
 70
     0
  0
ENDTAB
  0
TABLE
  2
UCS
  5
11F
100
AcDbSymbolTable
 70
     0
  0
ENDTAB
  0
TABLE
  2
APPID
  5
120
100
AcDbSymbolTable
 70
     1
  0
APPID
  5
121
100
AcDbSymbolTableRecord
100
AcDbRegAppTableRecord
  2
ACAD
 70
     0
  0
ENDTAB
  0
TABLE
  2
DIMSTYLE
  5
122
100
AcDbSymbolTable
 70
     0
  0
ENDTAB
  0
TABLE
  2
BLOCK_RECORD
  5
123
100
AcDbSymbolTable
 70
     0
  0
BLOCK_RECORD
  5
124
100
AcDbSymbolTableRecord
100
AcDbBlockTableRecord
  2
*MODEL_SPACE
  0
BLOCK_RECORD
  5
125
100
AcDbSymbolTableRecord
100
AcDbBlockTableRecord
  2
*PAPER_SPACE
  0
BLOCK_RECORD
  5
126
100
AcDbSymbolTableRecord
100
AcDbBlockTableRecord
  2
CDWK_EXTR_0
  0
BLOCK_RECORD
  5
127
100
AcDbSymbolTableRecord
100
AcDbBlockTableRecord
  2
CDWK_EXTR_1D
  0
BLOCK_RECORD
  5
128
100
AcDbSymbolTableRecord
100
AcDbBlockTableRecord
  2
CDWK_EXTR_1G
  0
BLOCK_RECORD
  5
129
100
AcDbSymbolTableRecord
100
AcDbBlockTableRecord
  2
CDWK_EXTR_2
  0
BLOCK_RECORD
  5
12A
100
AcDbSymbolTableRecord
100
AcDbBlockTableRecord
  2
CDWK_EXTR_3
  0
BLOCK_RECORD
  5
12B
100
AcDbSymbolTableRecord
100
AcDbBlockTableRecord
  2
CDWK_EXTR_4
  0
BLOCK_RECORD
  5
12C
100
AcDbSymbolTableRecord
100
AcDbBlockTableRecord
  2
CDWK_PTTYP0
  0
BLOCK_RECORD
  5
12D
100
AcDbSymbolTableRecord
100
AcDbBlockTableRecord
  2
CDWK_PTTYP1
  0
BLOCK_RECORD
  5
12E
100
AcDbSymbolTableRecord
100
AcDbBlockTableRecord
  2
CDWK_PTTYP2
  0
BLOCK_RECORD
  5
12F
100
AcDbSymbolTableRecord
100
AcDbBlockTableRecord
  2
CDWK_PTTYP3
  0
BLOCK_RECORD
  5
130
100
AcDbSymbolTableRecord
100
AcDbBlockTableRecord
  2
CDWK_PTTYP4
  0
BLOCK_RECORD
  5
131
100
AcDbSymbolTableRecord
100
AcDbBlockTableRecord
  2
CDWK_PTTYP5
  0
BLOCK_RECORD
  5
132
100
AcDbSymbolTableRecord
100
AcDbBlockTableRecord
  2
CDWK_PTTYP6
  0
BLOCK_RECORD
  5
133
100
AcDbSymbolTableRecord
100
AcDbBlockTableRecord
  2
CDWK_PTTYP7
  0
BLOCK_RECORD
  5
134
100
AcDbSymbolTableRecord
100
AcDbBlockTableRecord
  2
CDWK_PTTYP8
  0
BLOCK_RECORD
  5
135
100
AcDbSymbolTableRecord
100
AcDbBlockTableRecord
  2
CDWK_PTTYP9
  0
BLOCK_RECORD
  5
136
100
AcDbSymbolTableRecord
100
AcDbBlockTableRecord
  2
CDWK_PTTYP10
  0
BLOCK_RECORD
  5
137
100
AcDbSymbolTableRecord
100
AcDbBlockTableRecord
  2
CDWK_PTTYP11
  0
BLOCK_RECORD
  5
138
100
AcDbSymbolTableRecord
100
AcDbBlockTableRecord
  2
CDWK_PTTYP12
  0
BLOCK_RECORD
  5
139
100
AcDbSymbolTableRecord
100
AcDbBlockTableRecord
  2
CDWK_PTTYP13
  0
BLOCK_RECORD
  5
13A
100
AcDbSymbolTableRecord
100
AcDbBlockTableRecord
  2
CDWK_PTTYP14
  0
BLOCK_RECORD
  5
13B
100
AcDbSymbolTableRecord
100
AcDbBlockTableRecord
  2
CDWK_PTTYP15
  0
BLOCK_RECORD
  5
13C
100
AcDbSymbolTableRecord
100
AcDbBlockTableRecord
  2
CDWK_PTTYP16
  0
BLOCK_RECORD
  5
13D
100
AcDbSymbolTableRecord
100
AcDbBlockTableRecord
  2
CDWK_PTTYP17
  0
BLOCK_RECORD
  5
13E
100
AcDbSymbolTableRecord
100
AcDbBlockTableRecord
  2
CDWK_PTTYP18
  0
BLOCK_RECORD
  5
13F
100
AcDbSymbolTableRecord
100
AcDbBlockTableRecord
  2
CDWK_PTTYP19
  0
BLOCK_RECORD
  5
140
100
AcDbSymbolTableRecord
100
AcDbBlockTableRecord
  2
CDWK_PTTYP20
  0
BLOCK_RECORD
  5
141
100
AcDbSymbolTableRecord
100
AcDbBlockTableRecord
  2
CDWK_PTTYP21
  0
BLOCK_RECORD
  5
142
100
AcDbSymbolTableRecord
100
AcDbBlockTableRecord
  2
CDWK_PTTYP22
  0
BLOCK_RECORD
  5
143
100
AcDbSymbolTableRecord
100
AcDbBlockTableRecord
  2
CDWK_PTTYP23
  0
BLOCK_RECORD
  5
144
100
AcDbSymbolTableRecord
100
AcDbBlockTableRecord
  2
CDWK_PTTYP24
  0
BLOCK_RECORD
  5
145
100
AcDbSymbolTableRecord
100
AcDbBlockTableRecord
  2
CDWK_PTTYP25
  0
BLOCK_RECORD
  5
146
100
AcDbSymbolTableRecord
100
AcDbBlockTableRecord
  2
CDWK_PTTYP26
  0
BLOCK_RECORD
  5
147
100
AcDbSymbolTableRecord
100
AcDbBlockTableRecord
  2
CDWK_PTTYP27
  0
BLOCK_RECORD
  5
148
100
AcDbSymbolTableRecord
100
AcDbBlockTableRecord
  2
CDWK_PTTYP28
  0
BLOCK_RECORD
  5
149
100
AcDbSymbolTableRecord
100
AcDbBlockTableRecord
  2
CDWK_PTTYP29
  0
BLOCK_RECORD
  5
14A
100
AcDbSymbolTableRecord
100
AcDbBlockTableRecord
  2
CDWK_PTTYP30
  0
BLOCK_RECORD
  5
14B
100
AcDbSymbolTableRecord
100
AcDbBlockTableRecord
  2
CDWK_PTTYP31
  0
BLOCK_RECORD
  5
14C
100
AcDbSymbolTableRecord
100
AcDbBlockTableRecord
  2
CDWK_PTTYP32
  0
BLOCK_RECORD
  5
14D
100
AcDbSymbolTableRecord
100
AcDbBlockTableRecord
  2
CDWK_PTTYP33
  0
BLOCK_RECORD
  5
14E
100
AcDbSymbolTableRecord
100
AcDbBlockTableRecord
  2
CDWK_PTTYP34
  0
BLOCK_RECORD
  5
14F
100
AcDbSymbolTableRecord
100
AcDbBlockTableRecord
  2
CDWK_PTTYP35
  0
BLOCK_RECORD
  5
150
100
AcDbSymbolTableRecord
100
AcDbBlockTableRecord
  2
CDWK_PTTYP36
  0
BLOCK_RECORD
  5
151
100
AcDbSymbolTableRecord
100
AcDbBlockTableRecord
  2
CDWK_PTTYP37
  0
BLOCK_RECORD
  5
152
100
AcDbSymbolTableRecord
100
AcDbBlockTableRecord
  2
CDWK_PTTYP38
  0
BLOCK_RECORD
  5
153
100
AcDbSymbolTableRecord
100
AcDbBlockTableRecord
  2
*X1
  0
BLOCK_RECORD
  5
154
100
AcDbSymbolTableRecord
100
AcDbBlockTableRecord
  2
*X2
  0
ENDTAB
  0
ENDSEC
  0
SECTION
  2
BLOCKS
  0
BLOCK
  5
155
100
AcDbEntity
  8
0
100
AcDbBlockBegin
  2
*MODEL_SPACE
 70
     0
 10
0.0
 20
0.0
 30
0.0
  3
*MODEL_SPACE
  1

  0
ENDBLK
  5
156
100
AcDbEntity
100
AcDbBlockEnd
  0
BLOCK
  5
157
100
AcDbEntity
  8
0
100
AcDbBlockBegin
  2
*PAPER_SPACE
 70
     0
 10
0.0
 20
0.0
 30
0.0
  3
*PAPER_SPACE
  1

  0
ENDBLK
  5
158
100
AcDbEntity
100
AcDbBlockEnd
  0
BLOCK
  5
159
100
AcDbEntity
  8
0
100
AcDbBlockBegin
  2
CDWK_EXTR_0
 70
     0
 10
0.0
 20
0.0
 30
0.0
  3
CDWK_EXTR_0
  1

  4
Cadwork line-extremity
  0
LINE
  5
15A
100
AcDbEntity
  8
0
 62
     0
370
    -2
100
AcDbLine
 10
0.0
 20
0.0
 30
0.0
 11
2.0
 21
0.5
 31
0.0
  0
LINE
  5
15B
100
AcDbEntity
  8
0
 62
     0
370
    -2
100
AcDbLine
 10
0.0
 20
0.0
 30
0.0
 11
2.0
 21
-0.5
 31
0.0
  0
LINE
  5
15C
100
AcDbEntity
  8
0
 62
     0
370
    -2
100
AcDbLine
 10
2.0
 20
0.5
 30
0.0
 11
2.0
 21
-0.5
 31
0.0
  0
ENDBLK
  5
15D
100
AcDbEntity
100
AcDbBlockEnd
  0
BLOCK
  5
15E
100
AcDbEntity
  8
0
100
AcDbBlockBegin
  2
CDWK_EXTR_1D
 70
     0
 10
0.0
 20
0.0
 30
0.0
  3
CDWK_EXTR_1D
  1

  4
Cadwork line-extremity
  0
LINE
  5
15F
100
AcDbEntity
  8
0
 62
     0
370
    -2
100
AcDbLine
 10
0.0
 20
0.0
 30
0.0
 11
0.0
 21
1.0
 31
0.0
  0
LINE
  5
160
100
AcDbEntity
  8
0
 62
     0
370
    -2
100
AcDbLine
 10
0.0
 20
1.0
 30
0.0
 11
0.5
 21
1.5
 31
0.0
  0
LINE
  5
161
100
AcDbEntity
  8
0
 62
     0
370
    -2
100
AcDbLine
 10
0.5
 20
1.5
 30
0.0
 11
1.5
 21
1.5
 31
0.0
  0
ENDBLK
  5
162
100
AcDbEntity
100
AcDbBlockEnd
  0
BLOCK
  5
163
100
AcDbEntity
  8
0
100
AcDbBlockBegin
  2
CDWK_EXTR_1G
 70
     0
 10
0.0
 20
0.0
 30
0.0
  3
CDWK_EXTR_1G
  1

  4
Cadwork line-extremity
  0
LINE
  5
164
100
AcDbEntity
  8
0
 62
     0
370
    -2
100
AcDbLine
 10
0.0
 20
0.0
 30
0.0
 11
0.0
 21
-1.0
 31
0.0
  0
LINE
  5
165
100
AcDbEntity
  8
0
 62
     0
370
    -2
100
AcDbLine
 10
0.0
 20
-1.0
 30
0.0
 11
0.5
 21
-1.5
 31
0.0
  0
LINE
  5
166
100
AcDbEntity
  8
0
 62
     0
370
    -2
100
AcDbLine
 10
0.5
 20
-1.5
 30
0.0
 11
1.5
 21
-1.5
 31
0.0
  0
ENDBLK
  5
167
100
AcDbEntity
100
AcDbBlockEnd
  0
BLOCK
  5
168
100
AcDbEntity
  8
0
100
AcDbBlockBegin
  2
CDWK_EXTR_2
 70
     0
 10
0.0
 20
0.0
 30
0.0
  3
CDWK_EXTR_2
  1

  4
Cadwork line-extremity
  0
SOLID
  5
169
100
AcDbEntity
  8
0
 62
     0
100
AcDbTrace
 10
0.0
 20
0.0
 11
2.0
 21
0.5
 12
2.0
 22
-0.5
 13
2.0
 23
-0.5
  0
ENDBLK
  5
16A
100
AcDbEntity
100
AcDbBlockEnd
  0
BLOCK
  5
16B
100
AcDbEntity
  8
0
100
AcDbBlockBegin
  2
CDWK_EXTR_3
 70
     0
 10
0.0
 20
0.0
 30
0.0
  3
CDWK_EXTR_3
  1

  4
Cadwork line-extremity
  0
SOLID
  5
16C
100
AcDbEntity
  8
0
 62
     0
100
AcDbTrace
 10
0.0
 20
0.0
 11
2.0
 21
0.5
 12
2.0
 22
-0.5
 13
2.0
 23
-0.5
  0
LINE
  5
16D
100
AcDbEntity
  8
0
 62
     0
370
    -2
100
AcDbLine
 10
0.0
 20
1.0
 30
0.0
 11
0.0
 21
-1.0
 31
0.0
  0
ENDBLK
  5
16E
100
AcDbEntity
100
AcDbBlockEnd
  0
BLOCK
  5
16F
100
AcDbEntity
  8
0
100
AcDbBlockBegin
  2
CDWK_EXTR_4
 70
     0
 10
0.0
 20
0.0
 30
0.0
  3
CDWK_EXTR_4
  1

  4
Cadwork line-extremity
  0
HATCH
  5
170
100
AcDbEntity
  8
0
 62
     0
370
    -2
100
AcDbHatch
 10
0.0
 20
0.0
 30
0.0
210
0.0
220
0.0
230
1.0
  2
SOLID
 70
     1
 71
     0
 91
        1
 92
        1
 93
        1
 72
     2
 10
0.0
 20
0.0
 40
0.5
 50
0.0
 51
360.0
 73
     1
 97
        0
 75
     0
 76
     1
 98
        1
 10
0.0
 20
0.0
  0
ENDBLK
  5
171
100
AcDbEntity
100
AcDbBlockEnd
  0
BLOCK
  5
172
100
AcDbEntity
  8
0
100
AcDbBlockBegin
  2
CDWK_PTTYP0
 70
     0
 10
0.0
 20
0.0
 30
0.0
  3
CDWK_PTTYP0
  1

  4
Cadwork point
  0
POINT
  5
173
100
AcDbEntity
  8
0
 62
     0
100
AcDbPoint
 10
0.0
 20
0.0
 30
0.0
  0
ENDBLK
  5
174
100
AcDbEntity
100
AcDbBlockEnd
  0
BLOCK
  5
175
100
AcDbEntity
  8
0
100
AcDbBlockBegin
  2
CDWK_PTTYP1
 70
     0
 10
0.0
 20
0.0
 30
0.0
  3
CDWK_PTTYP1
  1

  4
Cadwork node
  0
LINE
  5
176
100
AcDbEntity
  8
0
 62
     0
370
    -2
100
AcDbLine
 10
-0.5
 20
0.5
 30
0.0
 11
0.5
 21
0.5
 31
0.0
  0
LINE
  5
177
100
AcDbEntity
  8
0
 62
     0
370
    -2
100
AcDbLine
 10
0.5
 20
0.5
 30
0.0
 11
0.5
 21
-0.5
 31
0.0
  0
LINE
  5
178
100
AcDbEntity
  8
0
 62
     0
370
    -2
100
AcDbLine
 10
0.5
 20
-0.5
 30
0.0
 11
-0.5
 21
-0.5
 31
0.0
  0
LINE
  5
179
100
AcDbEntity
  8
0
 62
     0
370
    -2
100
AcDbLine
 10
-0.5
 20
-0.5
 30
0.0
 11
-0.5
 21
0.5
 31
0.0
  0
ENDBLK
  5
17A
100
AcDbEntity
100
AcDbBlockEnd
  0
BLOCK
  5
17B
100
AcDbEntity
  8
0
100
AcDbBlockBegin
  2
CDWK_PTTYP2
 70
     0
 10
0.0
 20
0.0
 30
0.0
  3
CDWK_PTTYP2
  1

  4
Cadwork node
  0
LINE
  5
17C
100
AcDbEntity
  8
0
 62
     0
370
    -2
100
AcDbLine
 10
0.0
 20
0.5
 30
0.0
 11
0.0
 21
-0.5
 31
0.0
  0
LINE
  5
17D
100
AcDbEntity
  8
0
 62
     0
370
    -2
100
AcDbLine
 10
-0.5
 20
0.0
 30
0.0
 11
0.5
 21
0.0
 31
0.0
  0
ENDBLK
  5
17E
100
AcDbEntity
100
AcDbBlockEnd
  0
BLOCK
  5
17F
100
AcDbEntity
  8
0
100
AcDbBlockBegin
  2
CDWK_PTTYP3
 70
     0
 10
0.0
 20
0.0
 30
0.0
  3
CDWK_PTTYP3
  1

  4
Cadwork node
  0
CIRCLE
  5
180
100
AcDbEntity
  8
0
 62
     0
370
    -2
100
AcDbCircle
 10
0.0
 20
0.0
 30
0.0
 40
0.5
  0
ENDBLK
  5
181
100
AcDbEntity
100
AcDbBlockEnd
  0
BLOCK
  5
182
100
AcDbEntity
  8
0
100
AcDbBlockBegin
  2
CDWK_PTTYP4
 70
     0
 10
0.0
 20
0.0
 30
0.0
  3
CDWK_PTTYP4
  1

  4
Cadwork node
  0
HATCH
  5
183
100
AcDbEntity
  8
0
 62
     0
370
    -2
100
AcDbHatch
 10
0.0
 20
0.0
 30
0.0
210
0.0
220
0.0
230
1.0
  2
SOLID
 70
     1
 71
     0
 91
        1
 92
        1
 93
        1
 72
     2
 10
0.0
 20
0.0
 40
0.5
 50
0.0
 51
360.0
 73
     1
 97
        0
 75
     0
 76
     1
 98
        1
 10
0.0
 20
0.0
  0
ENDBLK
  5
184
100
AcDbEntity
100
AcDbBlockEnd
  0
BLOCK
  5
185
100
AcDbEntity
  8
0
100
AcDbBlockBegin
  2
CDWK_PTTYP5
 70
     0
 10
0.0
 20
0.0
 30
0.0
  3
CDWK_PTTYP5
  1

  4
Cadwork node
  0
LINE
  5
186
100
AcDbEntity
  8
0
 62
     0
370
    -2
100
AcDbLine
 10
-0.5
 20
0.5
 30
0.0
 11
0.5
 21
0.5
 31
0.0
  0
LINE
  5
187
100
AcDbEntity
  8
0
 62
     0
370
    -2
100
AcDbLine
 10
0.5
 20
0.5
 30
0.0
 11
0.5
 21
-0.5
 31
0.0
  0
LINE
  5
188
100
AcDbEntity
  8
0
 62
     0
370
    -2
100
AcDbLine
 10
0.5
 20
-0.5
 30
0.0
 11
-0.5
 21
-0.5
 31
0.0
  0
LINE
  5
189
100
AcDbEntity
  8
0
 62
     0
370
    -2
100
AcDbLine
 10
-0.5
 20
-0.5
 30
0.0
 11
-0.5
 21
0.5
 31
0.0
  0
SOLID
  5
18A
100
AcDbEntity
  8
0
 62
     0
100
AcDbTrace
 10
-0.5
 20
-0.5
 11
-0.5
 21
0.0
 12
0.0
 22
-0.5
 13
0.0
 23
0.0
  0
SOLID
  5
18B
100
AcDbEntity
  8
0
 62
     0
100
AcDbTrace
 10
0.0
 20
0.0
 11
0.0
 21
0.5
 12
0.5
 22
0.0
 13
0.5
 23
0.5
  0
ENDBLK
  5
18C
100
AcDbEntity
100
AcDbBlockEnd
  0
BLOCK
  5
18D
100
AcDbEntity
  8
0
100
AcDbBlockBegin
  2
CDWK_PTTYP6
 70
     0
 10
0.0
 20
0.0
 30
0.0
  3
CDWK_PTTYP6
  1

  4
Cadwork node
  0
LINE
  5
18E
100
AcDbEntity
  8
0
 62
     0
370
    -2
100
AcDbLine
 10
-0.5
 20
0.5
 30
0.0
 11
0.5
 21
0.5
 31
0.0
  0
LINE
  5
18F
100
AcDbEntity
  8
0
 62
     0
370
    -2
100
AcDbLine
 10
0.5
 20
0.5
 30
0.0
 11
0.5
 21
-0.5
 31
0.0
  0
LINE
  5
190
100
AcDbEntity
  8
0
 62
     0
370
    -2
100
AcDbLine
 10
0.5
 20
-0.5
 30
0.0
 11
-0.5
 21
-0.5
 31
0.0
  0
LINE
  5
191
100
AcDbEntity
  8
0
 62
     0
370
    -2
100
AcDbLine
 10
-0.5
 20
-0.5
 30
0.0
 11
-0.5
 21
0.5
 31
0.0
  0
SOLID
  5
192
100
AcDbEntity
  8
0
 62
     0
100
AcDbTrace
 10
-0.5
 20
-0.5
 11
-0.5
 21
0.5
 12
0.5
 22
0.5
 13
0.5
 23
0.5
  0
ENDBLK
  5
193
100
AcDbEntity
100
AcDbBlockEnd
  0
BLOCK
  5
194
100
AcDbEntity
  8
0
100
AcDbBlockBegin
  2
CDWK_PTTYP7
 70
     0
 10
0.0
 20
0.0
 30
0.0
  3
CDWK_PTTYP7
  1

  4
Cadwork node
  0
LINE
  5
195
100
AcDbEntity
  8
0
 62
     0
370
    -2
100
AcDbLine
 10
-0.5
 20
0.5
 30
0.0
 11
0.5
 21
0.5
 31
0.0
  0
LINE
  5
196
100
AcDbEntity
  8
0
 62
     0
370
    -2
100
AcDbLine
 10
0.5
 20
0.5
 30
0.0
 11
0.5
 21
-0.5
 31
0.0
  0
LINE
  5
197
100
AcDbEntity
  8
0
 62
     0
370
    -2
100
AcDbLine
 10
0.5
 20
-0.5
 30
0.0
 11
-0.5
 21
-0.5
 31
0.0
  0
LINE
  5
198
100
AcDbEntity
  8
0
 62
     0
370
    -2
100
AcDbLine
 10
-0.5
 20
-0.5
 30
0.0
 11
-0.5
 21
0.5
 31
0.0
  0
LINE
  5
199
100
AcDbEntity
  8
0
 62
     0
370
    -2
100
AcDbLine
 10
0.0
 20
0.5
 30
0.0
 11
0.0
 21
-0.5
 31
0.0
  0
LINE
  5
19A
100
AcDbEntity
  8
0
 62
     0
370
    -2
100
AcDbLine
 10
-0.5
 20
0.0
 30
0.0
 11
0.5
 21
0.0
 31
0.0
  0
ENDBLK
  5
19B
100
AcDbEntity
100
AcDbBlockEnd
  0
BLOCK
  5
19C
100
AcDbEntity
  8
0
100
AcDbBlockBegin
  2
CDWK_PTTYP8
 70
     0
 10
0.0
 20
0.0
 30
0.0
  3
CDWK_PTTYP8
  1

  4
Cadwork node
  0
SOLID
  5
19D
100
AcDbEntity
  8
0
 62
     0
100
AcDbTrace
 10
-0.5
 20
0.5
 11
0.5
 21
0.5
 12
-0.5
 22
-0.5
 13
0.5
 23
-0.5
  0
ENDBLK
  5
19E
100
AcDbEntity
100
AcDbBlockEnd
  0
BLOCK
  5
19F
100
AcDbEntity
  8
0
100
AcDbBlockBegin
  2
CDWK_PTTYP9
 70
     0
 10
0.0
 20
0.0
 30
0.0
  3
CDWK_PTTYP9
  1

  4
Cadwork node
  0
CIRCLE
  5
1A0
100
AcDbEntity
  8
0
 62
     0
370
    -2
100
AcDbCircle
 10
0.0
 20
0.0
 30
0.0
 40
0.5
  0
CIRCLE
  5
1A1
100
AcDbEntity
  8
0
 62
     0
370
    -2
100
AcDbCircle
 10
0.0
 20
0.0
 30
0.0
 40
0.16666667
  0
ENDBLK
  5
1A2
100
AcDbEntity
100
AcDbBlockEnd
  0
BLOCK
  5
1A3
100
AcDbEntity
  8
0
100
AcDbBlockBegin
  2
CDWK_PTTYP10
 70
     0
 10
0.0
 20
0.0
 30
0.0
  3
CDWK_PTTYP10
  1

  4
Cadwork node
  0
CIRCLE
  5
1A4
100
AcDbEntity
  8
0
 62
     0
370
    -2
100
AcDbCircle
 10
0.0
 20
0.0
 30
0.0
 40
0.5
  0
ENDBLK
  5
1A5
100
AcDbEntity
100
AcDbBlockEnd
  0
BLOCK
  5
1A6
100
AcDbEntity
  8
0
100
AcDbBlockBegin
  2
CDWK_PTTYP11
 70
     0
 10
0.0
 20
0.0
 30
0.0
  3
CDWK_PTTYP11
  1

  4
Cadwork node
  0
CIRCLE
  5
1A7
100
AcDbEntity
  8
0
 62
     0
370
    -2
100
AcDbCircle
 10
0.0
 20
0.0
 30
0.0
 40
0.5
  0
CIRCLE
  5
1A8
100
AcDbEntity
  8
0
 62
     0
370
    -2
100
AcDbCircle
 10
0.0
 20
0.0
 30
0.0
 40
0.25
  0
ENDBLK
  5
1A9
100
AcDbEntity
100
AcDbBlockEnd
  0
BLOCK
  5
1AA
100
AcDbEntity
  8
0
100
AcDbBlockBegin
  2
CDWK_PTTYP12
 70
     0
 10
0.0
 20
0.0
 30
0.0
  3
CDWK_PTTYP12
  1

  4
Cadwork node
  0
CIRCLE
  5
1AB
100
AcDbEntity
  8
0
 62
     0
370
    -2
100
AcDbCircle
 10
0.0
 20
0.0
 30
0.0
 40
0.5
  0
CIRCLE
  5
1AC
100
AcDbEntity
  8
0
 62
     0
370
    -2
100
AcDbCircle
 10
0.25
 20
0.0
 30
0.0
 40
0.25
  0
ENDBLK
  5
1AD
100
AcDbEntity
100
AcDbBlockEnd
  0
BLOCK
  5
1AE
100
AcDbEntity
  8
0
100
AcDbBlockBegin
  2
CDWK_PTTYP13
 70
     0
 10
0.0
 20
0.0
 30
0.0
  3
CDWK_PTTYP13
  1

  4
Cadwork node
  0
CIRCLE
  5
1AF
100
AcDbEntity
  8
0
 62
     0
370
    -2
100
AcDbCircle
 10
0.0
 20
0.0
 30
0.0
 40
0.5
  0
CIRCLE
  5
1B0
100
AcDbEntity
  8
0
 62
     0
370
    -2
100
AcDbCircle
 10
0.25
 20
0.0
 30
0.0
 40
0.25
  0
CIRCLE
  5
1B1
100
AcDbEntity
  8
0
 62
     0
370
    -2
100
AcDbCircle
 10
-0.25
 20
0.0
 30
0.0
 40
0.25
  0
ENDBLK
  5
1B2
100
AcDbEntity
100
AcDbBlockEnd
  0
BLOCK
  5
1B3
100
AcDbEntity
  8
0
100
AcDbBlockBegin
  2
CDWK_PTTYP14
 70
     0
 10
0.0
 20
0.0
 30
0.0
  3
CDWK_PTTYP14
  1

  4
Cadwork node
  0
POINT
  5
1B4
100
AcDbEntity
  8
0
 62
     0
100
AcDbPoint
 10
0.0
 20
0.0
 30
0.0
  0
ENDBLK
  5
1B5
100
AcDbEntity
100
AcDbBlockEnd
  0
BLOCK
  5
1B6
100
AcDbEntity
  8
0
100
AcDbBlockBegin
  2
CDWK_PTTYP15
 70
     0
 10
0.0
 20
0.0
 30
0.0
  3
CDWK_PTTYP15
  1

  4
Cadwork node
  0
POINT
  5
1B7
100
AcDbEntity
  8
0
 62
     0
100
AcDbPoint
 10
0.0
 20
0.0
 30
0.0
  0
ENDBLK
  5
1B8
100
AcDbEntity
100
AcDbBlockEnd
  0
BLOCK
  5
1B9
100
AcDbEntity
  8
0
100
AcDbBlockBegin
  2
CDWK_PTTYP16
 70
     0
 10
0.0
 20
0.0
 30
0.0
  3
CDWK_PTTYP16
  1

  4
Cadwork node
  0
LINE
  5
1BA
100
AcDbEntity
  8
0
 62
     0
370
    -2
100
AcDbLine
 10
-0.5
 20
-0.28867513
 30
0.0
 11
0.5
 21
-0.28867513
 31
0.0
  0
LINE
  5
1BB
100
AcDbEntity
  8
0
 62
     0
370
    -2
100
AcDbLine
 10
0.5
 20
-0.28867513
 30
0.0
 11
0.0
 21
0.57735027
 31
0.0
  0
LINE
  5
1BC
100
AcDbEntity
  8
0
 62
     0
370
    -2
100
AcDbLine
 10
0.0
 20
0.57735027
 30
0.0
 11
-0.5
 21
-0.28867513
 31
0.0
  0
CIRCLE
  5
1BD
100
AcDbEntity
  8
0
 62
     0
370
    -2
100
AcDbCircle
 10
0.0
 20
0.0
 30
0.0
 40
0.28867513
  0
ENDBLK
  5
1BE
100
AcDbEntity
100
AcDbBlockEnd
  0
BLOCK
  5
1BF
100
AcDbEntity
  8
0
100
AcDbBlockBegin
  2
CDWK_PTTYP17
 70
     0
 10
0.0
 20
0.0
 30
0.0
  3
CDWK_PTTYP17
  1

  4
Cadwork node
  0
CIRCLE
  5
1C0
100
AcDbEntity
  8
0
 62
     0
370
    -2
100
AcDbCircle
 10
0.0
 20
0.0
 30
0.0
 40
0.5
  0
HATCH
  5
1C1
100
AcDbEntity
  8
0
 62
     0
370
    -2
100
AcDbHatch
 10
0.0
 20
0.0
 30
0.0
210
0.0
220
0.0
230
1.0
  2
SOLID
 70
     1
 71
     0
 91
        1
 92
        1
 93
        1
 72
     2
 10
0.0
 20
0.0
 40
0.25
 50
0.0
 51
360.0
 73
     1
 97
        0
 75
     0
 76
     1
 98
        1
 10
0.0
 20
0.0
  0
ENDBLK
  5
1C2
100
AcDbEntity
100
AcDbBlockEnd
  0
BLOCK
  5
1C3
100
AcDbEntity
  8
0
100
AcDbBlockBegin
  2
CDWK_PTTYP18
 70
     0
 10
0.0
 20
0.0
 30
0.0
  3
CDWK_PTTYP18
  1

  4
Cadwork node
  0
CIRCLE
  5
1C4
100
AcDbEntity
  8
0
 62
     0
370
    -2
100
AcDbCircle
 10
0.0
 20
0.0
 30
0.0
 40
0.5
  0
CIRCLE
  5
1C5
100
AcDbEntity
  8
0
 62
     0
370
    -2
100
AcDbCircle
 10
0.0
 20
0.0
 30
0.0
 40
0.2
  0
ENDBLK
  5
1C6
100
AcDbEntity
100
AcDbBlockEnd
  0
BLOCK
  5
1C7
100
AcDbEntity
  8
0
100
AcDbBlockBegin
  2
CDWK_PTTYP19
 70
     0
 10
0.0
 20
0.0
 30
0.0
  3
CDWK_PTTYP19
  1

  4
Cadwork node
  0
CIRCLE
  5
1C8
100
AcDbEntity
  8
0
 62
     0
370
    -2
100
AcDbCircle
 10
0.0
 20
0.0
 30
0.0
 40
0.4
  0
CIRCLE
  5
1C9
100
AcDbEntity
  8
0
 62
     0
370
    -2
100
AcDbCircle
 10
0.0
 20
0.0
 30
0.0
 40
0.25
  0
LINE
  5
1CA
100
AcDbEntity
  8
0
 62
     0
370
    -2
100
AcDbLine
 10
-0.25
 20
0.0
 30
0.0
 11
0.25
 21
0.0
 31
0.0
  0
ENDBLK
  5
1CB
100
AcDbEntity
100
AcDbBlockEnd
  0
BLOCK
  5
1CC
100
AcDbEntity
  8
0
100
AcDbBlockBegin
  2
CDWK_PTTYP20
 70
     0
 10
0.0
 20
0.0
 30
0.0
  3
CDWK_PTTYP20
  1

  4
Cadwork node
  0
CIRCLE
  5
1CD
100
AcDbEntity
  8
0
 62
     0
370
    -2
100
AcDbCircle
 10
0.0
 20
0.0
 30
0.0
 40
0.5
  0
CIRCLE
  5
1CE
100
AcDbEntity
  8
0
 62
     0
370
    -2
100
AcDbCircle
 10
0.0
 20
0.0
 30
0.0
 40
0.3
  0
ENDBLK
  5
1CF
100
AcDbEntity
100
AcDbBlockEnd
  0
BLOCK
  5
1D0
100
AcDbEntity
  8
0
100
AcDbBlockBegin
  2
CDWK_PTTYP21
 70
     0
 10
0.0
 20
0.0
 30
0.0
  3
CDWK_PTTYP21
  1

  4
Cadwork node
  0
CIRCLE
  5
1D1
100
AcDbEntity
  8
0
 62
     0
370
    -2
100
AcDbCircle
 10
0.0
 20
0.0
 30
0.0
 40
0.5
  0
LINE
  5
1D2
100
AcDbEntity
  8
0
 62
     0
370
    -2
100
AcDbLine
 10
-0.5
 20
0.0
 30
0.0
 11
0.5
 21
0.0
 31
0.0
  0
ENDBLK
  5
1D3
100
AcDbEntity
100
AcDbBlockEnd
  0
BLOCK
  5
1D4
100
AcDbEntity
  8
0
100
AcDbBlockBegin
  2
CDWK_PTTYP22
 70
     0
 10
0.0
 20
0.0
 30
0.0
  3
CDWK_PTTYP22
  1

  4
Cadwork node
  0
POINT
  5
1D5
100
AcDbEntity
  8
0
 62
     0
100
AcDbPoint
 10
0.0
 20
0.0
 30
0.0
  0
ENDBLK
  5
1D6
100
AcDbEntity
100
AcDbBlockEnd
  0
BLOCK
  5
1D7
100
AcDbEntity
  8
0
100
AcDbBlockBegin
  2
CDWK_PTTYP23
 70
     0
 10
0.0
 20
0.0
 30
0.0
  3
CDWK_PTTYP23
  1

  4
Cadwork node
  0
POINT
  5
1D8
100
AcDbEntity
  8
0
 62
     0
100
AcDbPoint
 10
0.0
 20
0.0
 30
0.0
  0
ENDBLK
  5
1D9
100
AcDbEntity
100
AcDbBlockEnd
  0
BLOCK
  5
1DA
100
AcDbEntity
  8
0
100
AcDbBlockBegin
  2
CDWK_PTTYP24
 70
     0
 10
0.0
 20
0.0
 30
0.0
  3
CDWK_PTTYP24
  1

  4
Cadwork node
  0
POINT
  5
1DB
100
AcDbEntity
  8
0
 62
     0
100
AcDbPoint
 10
0.0
 20
0.0
 30
0.0
  0
ENDBLK
  5
1DC
100
AcDbEntity
100
AcDbBlockEnd
  0
BLOCK
  5
1DD
100
AcDbEntity
  8
0
100
AcDbBlockBegin
  2
CDWK_PTTYP25
 70
     0
 10
0.0
 20
0.0
 30
0.0
  3
CDWK_PTTYP25
  1

  4
Cadwork node
  0
LINE
  5
1DE
100
AcDbEntity
  8
0
 62
     0
370
    -2
100
AcDbLine
 10
-0.43290044
 20
-0.25
 30
0.0
 11
0.43290044
 21
-0.25
 31
0.0
  0
LINE
  5
1DF
100
AcDbEntity
  8
0
 62
     0
370
    -2
100
AcDbLine
 10
-0.43290044
 20
-0.25
 30
0.0
 11
0.0
 21
0.5
 31
0.0
  0
LINE
  5
1E0
100
AcDbEntity
  8
0
 62
     0
370
    -2
100
AcDbLine
 10
0.43290044
 20
-0.25
 30
0.0
 11
0.0
 21
0.5
 31
0.0
  0
CIRCLE
  5
1E1
100
AcDbEntity
  8
0
 62
     0
370
    -2
100
AcDbCircle
 10
0.0
 20
0.0
 30
0.0
 40
0.5
  0
ENDBLK
  5
1E2
100
AcDbEntity
100
AcDbBlockEnd
  0
BLOCK
  5
1E3
100
AcDbEntity
  8
0
100
AcDbBlockBegin
  2
CDWK_PTTYP26
 70
     0
 10
0.0
 20
0.0
 30
0.0
  3
CDWK_PTTYP26
  1

  4
Cadwork node
  0
LINE
  5
1E4
100
AcDbEntity
  8
0
 62
     0
370
    -2
100
AcDbLine
 10
-0.5
 20
-0.28850001
 30
0.0
 11
0.5
 21
-0.28850001
 31
0.0
  0
LINE
  5
1E5
100
AcDbEntity
  8
0
 62
     0
370
    -2
100
AcDbLine
 10
-0.5
 20
-0.28850001
 30
0.0
 11
0.0
 21
0.57736721
 31
0.0
  0
LINE
  5
1E6
100
AcDbEntity
  8
0
 62
     0
370
    -2
100
AcDbLine
 10
0.5
 20
-0.28850001
 30
0.0
 11
0.0
 21
0.57736721
 31
0.0
  0
CIRCLE
  5
1E7
100
AcDbEntity
  8
0
 62
     0
370
    -2
100
AcDbCircle
 10
0.0
 20
0.0
 30
0.0
 40
0.1312336
  0
ENDBLK
  5
1E8
100
AcDbEntity
100
AcDbBlockEnd
  0
BLOCK
  5
1E9
100
AcDbEntity
  8
0
100
AcDbBlockBegin
  2
CDWK_PTTYP27
 70
     0
 10
0.0
 20
0.0
 30
0.0
  3
CDWK_PTTYP27
  1

  4
Cadwork node
  0
LINE
  5
1EA
100
AcDbEntity
  8
0
 62
     0
370
    -2
100
AcDbLine
 10
-0.43290044
 20
-0.25
 30
0.0
 11
0.43290044
 21
-0.25
 31
0.0
  0
LINE
  5
1EB
100
AcDbEntity
  8
0
 62
     0
370
    -2
100
AcDbLine
 10
-0.43290044
 20
-0.25
 30
0.0
 11
0.0
 21
0.5
 31
0.0
  0
LINE
  5
1EC
100
AcDbEntity
  8
0
 62
     0
370
    -2
100
AcDbLine
 10
0.43290044
 20
-0.25
 30
0.0
 11
0.0
 21
0.5
 31
0.0
  0
CIRCLE
  5
1ED
100
AcDbEntity
  8
0
 62
     0
370
    -2
100
AcDbCircle
 10
0.0
 20
0.0
 30
0.0
 40
0.5
  0
CIRCLE
  5
1EE
100
AcDbEntity
  8
0
 62
     0
370
    -2
100
AcDbCircle
 10
0.0
 20
0.0
 30
0.0
 40
0.1312336
  0
ENDBLK
  5
1EF
100
AcDbEntity
100
AcDbBlockEnd
  0
BLOCK
  5
1F0
100
AcDbEntity
  8
0
100
AcDbBlockBegin
  2
CDWK_PTTYP28
 70
     0
 10
0.0
 20
0.0
 30
0.0
  3
CDWK_PTTYP28
  1

  4
Cadwork node
  0
POINT
  5
1F1
100
AcDbEntity
  8
0
 62
     0
100
AcDbPoint
 10
0.0
 20
0.0
 30
0.0
  0
ENDBLK
  5
1F2
100
AcDbEntity
100
AcDbBlockEnd
  0
BLOCK
  5
1F3
100
AcDbEntity
  8
0
100
AcDbBlockBegin
  2
CDWK_PTTYP29
 70
     0
 10
0.0
 20
0.0
 30
0.0
  3
CDWK_PTTYP29
  1

  4
Cadwork node
  0
CIRCLE
  5
1F4
100
AcDbEntity
  8
0
 62
     0
370
    -2
100
AcDbCircle
 10
0.0
 20
0.0
 30
0.0
 40
0.5
  0
CIRCLE
  5
1F5
100
AcDbEntity
  8
0
 62
     0
370
    -2
100
AcDbCircle
 10
0.0
 20
0.0
 30
0.0
 40
0.375
  0
CIRCLE
  5
1F6
100
AcDbEntity
  8
0
 62
     0
370
    -2
100
AcDbCircle
 10
0.0
 20
0.0
 30
0.0
 40
0.21875
  0
ENDBLK
  5
1F7
100
AcDbEntity
100
AcDbBlockEnd
  0
BLOCK
  5
1F8
100
AcDbEntity
  8
0
100
AcDbBlockBegin
  2
CDWK_PTTYP30
 70
     0
 10
0.0
 20
0.0
 30
0.0
  3
CDWK_PTTYP30
  1

  4
Cadwork node
  0
LINE
  5
1F9
100
AcDbEntity
  8
0
 62
     0
370
    -2
100
AcDbLine
 10
0.17680339
 20
0.17680339
 30
0.0
 11
0.5
 21
0.5
 31
0.0
  0
LINE
  5
1FA
100
AcDbEntity
  8
0
 62
     0
370
    -2
100
AcDbLine
 10
-0.17680339
 20
0.17680339
 30
0.0
 11
-0.5
 21
0.5
 31
0.0
  0
LINE
  5
1FB
100
AcDbEntity
  8
0
 62
     0
370
    -2
100
AcDbLine
 10
0.17680339
 20
-0.17680339
 30
0.0
 11
0.5
 21
-0.5
 31
0.0
  0
LINE
  5
1FC
100
AcDbEntity
  8
0
 62
     0
370
    -2
100
AcDbLine
 10
-0.17680339
 20
-0.17680339
 30
0.0
 11
-0.5
 21
-0.5
 31
0.0
  0
ENDBLK
  5
1FD
100
AcDbEntity
100
AcDbBlockEnd
  0
BLOCK
  5
1FE
100
AcDbEntity
  8
0
100
AcDbBlockBegin
  2
CDWK_PTTYP31
 70
     0
 10
0.0
 20
0.0
 30
0.0
  3
CDWK_PTTYP31
  1

  4
Cadwork node
  0
CIRCLE
  5
1FF
100
AcDbEntity
  8
0
 62
     0
370
    -2
100
AcDbCircle
 10
0.0
 20
0.0
 30
0.0
 40
0.075
  0
LINE
  5
200
100
AcDbEntity
  8
0
 62
     0
370
    -2
100
AcDbLine
 10
0.075
 20
0.0
 30
0.0
 11
0.5
 21
0.0
 31
0.0
  0
LINE
  5
201
100
AcDbEntity
  8
0
 62
     0
370
    -2
100
AcDbLine
 10
-0.075
 20
0.0
 30
0.0
 11
-0.5
 21
0.0
 31
0.0
  0
LINE
  5
202
100
AcDbEntity
  8
0
 62
     0
370
    -2
100
AcDbLine
 10
0.0
 20
0.075
 30
0.0
 11
0.0
 21
0.5
 31
0.0
  0
LINE
  5
203
100
AcDbEntity
  8
0
 62
     0
370
    -2
100
AcDbLine
 10
0.0
 20
-0.075
 30
0.0
 11
0.0
 21
-0.5
 31
0.0
  0
ENDBLK
  5
204
100
AcDbEntity
100
AcDbBlockEnd
  0
BLOCK
  5
205
100
AcDbEntity
  8
0
100
AcDbBlockBegin
  2
CDWK_PTTYP32
 70
     0
 10
0.0
 20
0.0
 30
0.0
  3
CDWK_PTTYP32
  1

  4
Cadwork node
  0
CIRCLE
  5
206
100
AcDbEntity
  8
0
 62
     0
370
    -2
100
AcDbCircle
 10
0.0
 20
0.0
 30
0.0
 40
0.5
  0
CIRCLE
  5
207
100
AcDbEntity
  8
0
 62
     0
370
    -2
100
AcDbCircle
 10
0.0
 20
0.0
 30
0.0
 40
0.16666667
  0
LINE
  5
208
100
AcDbEntity
  8
0
 62
     0
370
    -2
100
AcDbLine
 10
0.11786893
 20
0.11786893
 30
0.0
 11
0.35360678
 21
0.35360678
 31
0.0
  0
LINE
  5
209
100
AcDbEntity
  8
0
 62
     0
370
    -2
100
AcDbLine
 10
-0.11786893
 20
0.11786893
 30
0.0
 11
-0.35360678
 21
0.35360678
 31
0.0
  0
LINE
  5
20A
100
AcDbEntity
  8
0
 62
     0
370
    -2
100
AcDbLine
 10
0.11786893
 20
-0.11786893
 30
0.0
 11
0.35360678
 21
-0.35360678
 31
0.0
  0
LINE
  5
20B
100
AcDbEntity
  8
0
 62
     0
370
    -2
100
AcDbLine
 10
-0.11786893
 20
-0.11786893
 30
0.0
 11
-0.35360678
 21
-0.35360678
 31
0.0
  0
ENDBLK
  5
20C
100
AcDbEntity
100
AcDbBlockEnd
  0
BLOCK
  5
20D
100
AcDbEntity
  8
0
100
AcDbBlockBegin
  2
CDWK_PTTYP33
 70
     0
 10
0.0
 20
0.0
 30
0.0
  3
CDWK_PTTYP33
  1

  4
Cadwork node
  0
CIRCLE
  5
20E
100
AcDbEntity
  8
0
 62
     0
370
    -2
100
AcDbCircle
 10
0.0
 20
0.0
 30
0.0
 40
0.5
  0
LINE
  5
20F
100
AcDbEntity
  8
0
 62
     0
370
    -2
100
AcDbLine
 10
0.0
 20
0.5
 30
0.0
 11
0.0
 21
-0.5
 31
0.0
  0
LINE
  5
210
100
AcDbEntity
  8
0
 62
     0
370
    -2
100
AcDbLine
 10
-0.5
 20
0.0
 30
0.0
 11
0.5
 21
0.0
 31
0.0
  0
ENDBLK
  5
211
100
AcDbEntity
100
AcDbBlockEnd
  0
BLOCK
  5
212
100
AcDbEntity
  8
0
100
AcDbBlockBegin
  2
CDWK_PTTYP34
 70
     0
 10
0.0
 20
0.0
 30
0.0
  3
CDWK_PTTYP34
  1

  4
Cadwork node
  0
CIRCLE
  5
213
100
AcDbEntity
  8
0
 62
     0
370
    -2
100
AcDbCircle
 10
0.0
 20
0.0
 30
0.0
 40
0.5
  0
LINE
  5
214
100
AcDbEntity
  8
0
 62
     0
370
    -2
100
AcDbLine
 10
-0.30360678
 20
-0.40360678
 30
0.0
 11
0.40360678
 21
0.30360678
 31
0.0
  0
LINE
  5
215
100
AcDbEntity
  8
0
 62
     0
370
    -2
100
AcDbLine
 10
-0.40360678
 20
-0.30360678
 30
0.0
 11
0.30360678
 21
0.40360678
 31
0.0
  0
ENDBLK
  5
216
100
AcDbEntity
100
AcDbBlockEnd
  0
BLOCK
  5
217
100
AcDbEntity
  8
0
100
AcDbBlockBegin
  2
CDWK_PTTYP35
 70
     0
 10
0.0
 20
0.0
 30
0.0
  3
CDWK_PTTYP35
  1

  4
Cadwork node
  0
CIRCLE
  5
218
100
AcDbEntity
  8
0
 62
     0
370
    -2
100
AcDbCircle
 10
0.0
 20
0.0
 30
0.0
 40
0.21431634
  0
LINE
  5
219
100
AcDbEntity
  8
0
 62
     0
370
    -2
100
AcDbLine
 10
0.0
 20
0.21431634
 30
0.0
 11
0.0
 21
0.5
 31
0.0
  0
LINE
  5
21A
100
AcDbEntity
  8
0
 62
     0
370
    -2
100
AcDbLine
 10
0.0
 20
-0.21431634
 30
0.0
 11
0.0
 21
-0.5
 31
0.0
  0
ENDBLK
  5
21B
100
AcDbEntity
100
AcDbBlockEnd
  0
BLOCK
  5
21C
100
AcDbEntity
  8
0
100
AcDbBlockBegin
  2
CDWK_PTTYP36
 70
     0
 10
0.0
 20
0.0
 30
0.0
  3
CDWK_PTTYP36
  1

  4
Cadwork node
  0
LINE
  5
21D
100
AcDbEntity
  8
0
 62
     0
370
    -2
100
AcDbLine
 10
-0.5
 20
-0.16666667
 30
0.0
 11
0.5
 21
-0.16666667
 31
0.0
  0
LINE
  5
21E
100
AcDbEntity
  8
0
 62
     0
370
    -2
100
AcDbLine
 10
0.5
 20
-0.16666667
 30
0.0
 11
0.5
 21
0.16666667
 31
0.0
  0
LINE
  5
21F
100
AcDbEntity
  8
0
 62
     0
370
    -2
100
AcDbLine
 10
0.5
 20
0.16666667
 30
0.0
 11
-0.5
 21
0.16666667
 31
0.0
  0
LINE
  5
220
100
AcDbEntity
  8
0
 62
     0
370
    -2
100
AcDbLine
 10
-0.5
 20
0.16666667
 30
0.0
 11
-0.5
 21
-0.16666667
 31
0.0
  0
SOLID
  5
221
100
AcDbEntity
  8
0
 62
     0
100
AcDbTrace
 10
-0.5
 20
-0.16666667
 11
0.5
 21
0.16666667
 12
0.5
 22
-0.16666667
 13
0.5
 23
-0.16666667
  0
ENDBLK
  5
222
100
AcDbEntity
100
AcDbBlockEnd
  0
BLOCK
  5
223
100
AcDbEntity
  8
0
100
AcDbBlockBegin
  2
CDWK_PTTYP37
 70
     0
 10
0.0
 20
0.0
 30
0.0
  3
CDWK_PTTYP37
  1

  4
Cadwork node
  0
CIRCLE
  5
224
100
AcDbEntity
  8
0
 62
     0
370
    -2
100
AcDbCircle
 10
0.0
 20
0.0
 30
0.0
 40
0.5
  0
SOLID
  5
225
100
AcDbEntity
  8
0
 62
     0
100
AcDbTrace
 10
0.0
 20
0.0
 11
0.35350001
 21
0.35350001
 12
0.5
 22
0.0
 13
0.46200001
 23
0.19149999
  0
SOLID
  5
226
100
AcDbEntity
  8
0
 62
     0
100
AcDbTrace
 10
0.0
 20
0.0
 11
0.35350001
 21
-0.35350001
 12
0.5
 22
0.0
 13
0.46200001
 23
-0.19149999
  0
SOLID
  5
227
100
AcDbEntity
  8
0
 62
     0
100
AcDbTrace
 10
0.0
 20
0.0
 11
0.0
 21
-0.5
 12
0.35350001
 22
-0.35350001
 13
0.19149999
 23
-0.46200001
  0
SOLID
  5
228
100
AcDbEntity
  8
0
 62
     0
100
AcDbTrace
 10
0.0
 20
0.0
 11
0.0
 21
-0.5
 12
-0.35350001
 22
-0.35350001
 13
-0.19149999
 23
-0.46200001
  0
ENDBLK
  5
229
100
AcDbEntity
100
AcDbBlockEnd
  0
BLOCK
  5
22A
100
AcDbEntity
  8
0
100
AcDbBlockBegin
  2
CDWK_PTTYP38
 70
     0
 10
0.0
 20
0.0
 30
0.0
  3
CDWK_PTTYP38
  1

  4
Cadwork node
  0
CIRCLE
  5
22B
100
AcDbEntity
  8
0
 62
     0
370
    -2
100
AcDbCircle
 10
0.0
 20
0.0
 30
0.0
 40
0.5
  0
SOLID
  5
22C
100
AcDbEntity
  8
0
 62
     0
100
AcDbTrace
 10
0.0
 20
0.0
 11
0.35350001
 21
0.35350001
 12
0.0
 22
0.5
 13
0.19149999
 23
0.46200001
  0
SOLID
  5
22D
100
AcDbEntity
  8
0
 62
     0
100
AcDbTrace
 10
0.0
 20
0.0
 11
0.5
 21
0.0
 12
0.35350001
 22
0.35350001
 13
0.46200001
 23
0.19149999
  0
SOLID
  5
22E
100
AcDbEntity
  8
0
 62
     0
100
AcDbTrace
 10
0.0
 20
0.0
 11
0.0
 21
-0.5
 12
-0.35350001
 22
-0.35350001
 13
-0.19149999
 23
-0.46200001
  0
SOLID
  5
22F
100
AcDbEntity
  8
0
 62
     0
100
AcDbTrace
 10
0.0
 20
0.0
 11
-0.5
 21
0.0
 12
-0.35350001
 22
-0.35350001
 13
-0.46200001
 23
-0.19149999
  0
ENDBLK
  5
230
100
AcDbEntity
100
AcDbBlockEnd
  0
BLOCK
  5
231
100
AcDbEntity
  8
Ech.1_5
100
AcDbBlockBegin
  2
*X1
 70
     1
 10
0.0
 20
0.0
 30
0.0
  3
*X1
  1

  4
Cadwork hatch
  0
LINE
  5
232
100
AcDbEntity
  8
Ech.1_5
 62
   190
  6
CONTINUOUS
370
    -2
100
AcDbLine
 10
31899.30700709
 20
-36044.98915827
 30
0.0
 11
31944.30754542
 21
-35824.98902198
 31
0.0
  0
LINE
  5
233
100
AcDbEntity
  8
Ech.1_5
 62
   190
  6
CONTINUOUS
370
    -2
100
AcDbLine
 10
31944.30754542
 20
-36044.98915827
 30
0.0
 11
31899.30700709
 21
-35824.98902198
 31
0.0
  0
ENDBLK
  5
234
100
AcDbEntity
100
AcDbBlockEnd
  0
BLOCK
  5
235
100
AcDbEntity
  8
Ech.1_5
100
AcDbBlockBegin
  2
*X2
 70
     1
 10
0.0
 20
0.0
 30
0.0
  3
*X2
  1

  4
Cadwork hatch
  0
LINE
  5
236
100
AcDbEntity
  8
Ech.1_5
 62
   190
  6
CONTINUOUS
370
    -2
100
AcDbLine
 10
32289.91060711
 20
-36044.98915827
 30
0.0
 11
32334.91114544
 21
-35824.98902198
 31
0.0
  0
LINE
  5
237
100
AcDbEntity
  8
Ech.1_5
 62
   190
  6
CONTINUOUS
370
    -2
100
AcDbLine
 10
32334.91114544
 20
-36044.98915827
 30
0.0
 11
32289.91060711
 21
-35824.98902198
 31
0.0
  0
ENDBLK
  5
238
100
AcDbEntity
100
AcDbBlockEnd
  0
ENDSEC
  0
SECTION
  2
ENTITIES
  0
INSERT
  5
239
100
AcDbEntity
  8
Ech.1_5
 62
     0
370
    -3
100
AcDbBlockReference
  2
*X1
 10
0.0
 20
0.0
 30
0.0
  0
INSERT
  5
23A
100
AcDbEntity
  8
Ech.1_5
 62
     0
370
    -3
100
AcDbBlockReference
  2
*X2
 10
0.0
 20
0.0
 30
0.0
  0
LWPOLYLINE
  5
23B
100
AcDbEntity
  8
Ech.1_5
 62
   190
  6
CONTINUOUS
370
    -3
100
AcDbPolyline
 90
        4
 70
     1
 43
0.0
 10
31944.31032925
 20
-35824.98918598
 10
31944.31032925
 20
-36044.98918598
 10
32289.91024627
 20
-36044.98918598
 10
32289.91024627
 20
-35824.98918598
  0
LWPOLYLINE
  5
23C
100
AcDbEntity
  8
Ech.1_5
 62
   190
  6
CONTINUOUS
370
    -3
100
AcDbPolyline
 90
       18
 70
     0
 43
0.0
 10
31944.31032925
 20
-36008.32251932
 42
1.14028181
 10
32016.39427049
 20
-35998.83246629
 10
31982.22638801
 20
-35871.14590567
 42
-1.30322619
 10
32053.06093715
 20
-35871.14590567
 10
32018.89305468
 20
-35998.83246629
 42
1.30322619
 10
32089.72760382
 20
-35998.83246629
 10
32055.55972134
 20
-35871.14590567
 42
-1.30322619
 10
32126.39427049
 20
-35871.14590567
 10
32092.22638801
 20
-35998.83246629
 42
1.30322619
 10
32163.06093715
 20
-35998.83246629
 10
32128.89305468
 20
-35871.14590567
 42
-1.30322619
 10
32199.72760382
 20
-35871.14590567
 10
32165.55972134
 20
-35998.83246629
 42
1.30322619
 10
32236.39427049
 20
-35998.83246629
 10
32202.22638801
 20
-35871.14590567
 42
-1.30322619
 10
32273.06093715
 20
-35871.14590567
 10
32238.89305468
 20
-35998.83246629
 42
0.63817085
 10
32289.91024627
 20
-36041.50515082
  0
LWPOLYLINE
  5
23D
100
AcDbEntity
  8
Ech.1_5
 62
   190
  6
CONTINUOUS
370
    -3
100
AcDbPolyline
 90
        4
 70
     1
 43
0.0
 10
31909.31032925
 20
-36392.33338613
 10
31959.31032925
 20
-36392.33338613
 10
31959.31032925
 20
-36183.40942063
 10
31909.31032925
 20
-36183.40942063
  0
LWPOLYLINE
  5
23E
100
AcDbEntity
  8
Ech.1_5
 62
   190
  6
CONTINUOUS
370
    -3
100
AcDbPolyline
 90
        4
 70
     1
 43
0.0
 10
31972.31028129
 20
-36183.40942063
 10
31959.31028129
 20
-36183.40942063
 10
31959.31029967
 20
-36392.33338613
 10
31972.31029967
 20
-36392.33338613
  0
LWPOLYLINE
  5
23F
102
{ACAD_REACTORS
330
240
102
}
100
AcDbEntity
  8
Ech.1_5
 62
     7
  6
CONTINUOUS
370
    -3
100
AcDbPolyline
 90
        4
 70
     1
 43
0.0
 10
31959.31028129
 20
-36183.40957741
 10
31959.31029967
 20
-36392.33338613
 10
31972.31029967
 20
-36392.33338613
 10
31972.31028129
 20
-36183.40942063
  0
HATCH
  5
240
100
AcDbEntity
  8
Ech.1_5
 62
   190
  6
CONTINUOUS
100
AcDbHatch
 10
0.0
 20
0.0
 30
0.0
210
0.0
220
0.0
230
1.0
  2
DOTS2
 70
     0
 71
     1
 91
        1
 92
        7
 72
     0
 73
     1
 93
        4
 10
31959.31028129
 20
-36183.40957741
 10
31959.31029967
 20
-36392.33338613
 10
31972.31029967
 20
-36392.33338613
 10
31972.31028129
 20
-36183.40942063
 97
        1
330
23F
 75
     0
 76
     2
 52
0.0
 41
4.72440952
 77
     0
 78
     1
 53
0.0
 43
0.0
 44
0.0
 45
3.75
 46
3.535
 79
     2
 49
0.0
 49
-3.535
 47
0.775229
 98
        1
 10
0.0
 20
0.0
  0
LWPOLYLINE
  5
241
102
{ACAD_REACTORS
330
242
102
}
100
AcDbEntity
  8
Ech.1_5
 62
     9
  6
CONTINUOUS
370
    -3
100
AcDbPolyline
 90
        8
 70
     1
 43
0.0
 38
2500.0
 39
-2500.0
 10
31899.31032925
 20
-35621.87487187
 10
31720.81444209
 20
-35621.87487187
 10
31720.8145602
 20
-36392.33338613
 10
31826.01793451
 20
-36392.33338613
 10
31842.50343767
 20
-36374.35603772
 10
31828.39349765
 20
-36410.31173773
 10
31844.87985173
 20
-36392.33338613
 10
31899.31032925
 20
-36392.33338613
  0
HATCH
  5
242
100
AcDbEntity
  8
Ech.1_5
 62
     9
  6
CONTINUOUS
100
AcDbHatch
 10
0.0
 20
0.0
 30
0.0
210
0.0
220
0.0
230
1.0
  2
ANSI31
 70
     0
 71
     1
 91
        1
 92
        7
 72
     0
 73
     1
 93
        8
 10
31899.31032925
 20
-35621.87487187
 10
31720.81444209
 20
-35621.87487187
 10
31720.8145602
 20
-36392.33338613
 10
31826.01793451
 20
-36392.33338613
 10
31842.50343767
 20
-36374.35603772
 10
31828.39349765
 20
-36410.31173773
 10
31844.87985173
 20
-36392.33338613
 10
31899.31032925
 20
-36392.33338613
 97
        1
330
241
 75
     0
 76
     2
 52
0.0
 41
4.72443907
 77
     0
 78
     1
 53
45.0
 43
0.0
 44
0.0
 45
10.60660172
 46
-10.60660172
 79
     0
 47
0.775229
 98
        1
 10
0.0
 20
0.0
  0
LWPOLYLINE
  5
243
100
AcDbEntity
  8
Ech.1_5
 62
   190
  6
CONTINUOUS
370
    -3
100
AcDbPolyline
 90
        5
 70
     1
 43
0.0
 10
32868.69414016
 20
-35182.24411215
 10
32868.69414016
 20
-35097.10989035
 10
31220.81444209
 20
-35696.8890501
 10
31220.81444209
 20
-35696.8890501
 10
31220.81444209
 20
-35782.0232719
  0
LWPOLYLINE
  5
244
100
AcDbEntity
  8
Ech.1_5
 62
   190
  6
CONTINUOUS
370
    -3
100
AcDbPolyline
 90
       23
 70
     1
 43
0.0
 10
31536.24347723
 20
-35524.37794267
 10
31542.352392
 20
-35547.15312595
 10
31566.08505629
 20
-35540.78738911
 10
31553.48079763
 20
-35488.59158216
 10
31544.03637917
 20
-35490.87222308
 10
31546.6140787
 20
-35501.54679828
 10
31529.66155836
 20
-35505.64049783
 10
31527.08385884
 20
-35494.96592262
 10
31517.63944037
 20
-35497.24656354
 10
31520.2171399
 20
-35507.92113875
 10
31497.10284152
 20
-35513.50278625
 10
31487.63905354
 20
-35474.31206001
 10
31483.97234168
 20
-35459.12774895
 10
31157.58490726
 20
-35537.94388164
 42
0.41421356
 10
31141.13708435
 20
-35564.86427372
 10
31149.0312996
 20
-35597.55520353
 10
31158.07363232
 20
-35635.00063095
 10
31178.37618566
 20
-35630.09796446
 10
31175.84293298
 20
-35619.60744923
 10
31191.62759006
 20
-35615.43663115
 10
31194.12300718
 20
-35625.77046465
 10
31204.582205
 20
-35622.96502738
 10
31202.39897249
 20
-35613.92398926
  0
LWPOLYLINE
  5
245
100
AcDbEntity
  8
Ech.1_5
 62
   190
  6
CONTINUOUS
370
    -3
100
AcDbPolyline
 90
       25
 70
     1
 43
0.0
 10
31874.85123117
 20
-35401.13479914
 10
31880.96014593
 20
-35423.90998242
 10
31904.69281022
 20
-35417.54424558
 10
31892.08855157
 20
-35365.34843863
 10
31882.6441331
 20
-35367.62907955
 10
31885.22183263
 20
-35378.30365476
 10
31868.2693123
 20
-35382.3973543
 10
31865.69161277
 20
-35371.7227791
 10
31856.24719431
 20
-35374.00342002
 10
31858.82489384
 20
-35384.67799522
 10
31835.75854505
 20
-35390.24806384
 10
31835.32170127
 20
-35388.43903927
 10
31835.26657654
 20
-35388.4523508
 10
31826.22424383
 20
-35351.00692339
 10
31822.57292048
 20
-35335.88633807
 10
31496.19266119
 20
-35414.70073811
 42
0.41421356
 10
31479.74483829
 20
-35441.6211302
 10
31483.97234168
 20
-35459.12774895
 10
31496.68138625
 20
-35511.75748742
 10
31516.98393959
 20
-35506.85482093
 10
31514.45068692
 20
-35496.3643057
 10
31530.23534399
 20
-35492.19348763
 10
31532.73076111
 20
-35502.52732112
 10
31543.18995894
 20
-35499.72188385
 10
31541.00672642
 20
-35490.68084574
  0
LINE
  5
246
100
AcDbEntity
  8
Ech.1_5
 62
   190
  6
CONTINUOUS
370
    -3
100
AcDbLine
 10
31826.22424383
 20
-35351.00692339
 30
0.0
 11
31885.04373393
 21
-35336.80317579
 31
0.0
  0
LWPOLYLINE
  5
247
100
AcDbEntity
  8
Ech.1_5
 62
   190
  6
CONTINUOUS
370
    -3
100
AcDbPolyline
 90
        9
 70
     1
 43
0.0
 10
31855.56912988
 20
-35383.54968431
 10
31853.03587721
 20
-35373.05916908
 10
31868.82053428
 20
-35368.88835101
 10
31871.3159514
 20
-35379.2221845
 10
31881.77514923
 20
-35376.41674723
 10
31879.59191671
 20
-35367.37570912
 10
31993.57207144
 20
-35336.80317579
 10
31822.85265793
 20
-35336.80317579
 10
31835.32170127
 20
-35388.43903927
  0
ARC
  5
248
100
AcDbEntity
  8
Ech.1_5
 62
   190
  6
CONTINUOUS
370
    -3
100
AcDbCircle
 10
32414.82565701
 20
-35492.87747117
 30
0.0
 40
16.66620748
100
AcDbArc
 50
150.87152699
 51
209.12847301
  0
LWPOLYLINE
  5
249
100
AcDbEntity
  8
Ech.1_5
 62
   190
  6
CONTINUOUS
370
    -3
100
AcDbPolyline
 90
        4
 70
     1
 43
0.0
 10
31235.8700139
 20
-35691.4092701
 10
32210.14225082
 20
-35336.80317579
 10
32131.19944682
 20
-35336.80317579
 10
31226.63547003
 20
-35666.03756934
  0
LWPOLYLINE
  5
24A
100
AcDbEntity
  8
Ech.1_5
 62
     7
100
AcDbPolyline
 90
       57
 70
     0
 43
0.0
 10
31132.5069344
 20
-35786.87013719
 10
31133.90202156
 20
-35786.66741097
 10
31135.29821613
 20
-35786.46277088
 10
31136.69662551
 20
-35786.25430305
 10
31138.0983571
 20
-35786.04009362
 10
31139.5045183
 20
-35785.81822871
 10
31140.91621654
 20
-35785.58679446
 10
31142.3345592
 20
-35785.343877
 10
31143.7606537
 20
-35785.08756245
 10
31145.19560743
 20
-35784.81593695
 10
31146.64052781
 20
-35784.52708664
 10
31148.09652224
 20
-35784.21909763
 10
31149.56469812
 20
-35783.89005607
 10
31151.04616285
 20
-35783.53804808
 10
31152.54202385
 20
-35783.1611598
 10
31154.05336909
 20
-35782.75752201
 10
31155.57943281
 20
-35782.32952605
 10
31157.1160896
 20
-35781.8872849
 10
31158.65885968
 20
-35781.44172612
 10
31160.20326322
 20
-35781.00377723
 10
31161.74482042
 20
-35780.58436581
 10
31163.27905148
 20
-35780.19441939
 10
31164.80147659
 20
-35779.84486552
 10
31166.30761594
 20
-35779.54663176
 10
31167.79298972
 20
-35779.31064565
 10
31169.25311812
 20
-35779.14783473
 10
31170.68352135
 20
-35779.06912657
 10
31172.07971958
 20
-35779.0854487
 10
31173.43723302
 20
-35779.20772868
 10
31174.75158186
 20
-35779.44689406
 10
31176.01828629
 20
-35779.81387238
 10
31177.23286737
 20
-35780.31958746
 10
31178.39204152
 20
-35780.96983922
 10
31179.49608995
 20
-35781.75514718
 10
31180.54595543
 20
-35782.66319505
 10
31181.54258073
 20
-35783.68166653
 10
31182.48690862
 20
-35784.79824533
 10
31183.37988186
 20
-35786.00061514
 10
31184.22244324
 20
-35787.27645968
 10
31185.01553551
 20
-35788.61346265
 10
31185.76010147
 20
-35789.99930774
 10
31186.45708386
 20
-35791.42167867
 10
31187.10742547
 20
-35792.86825914
 10
31187.71206907
 20
-35794.32673285
 10
31188.27195742
 20
-35795.78478351
 10
31188.78806955
 20
-35797.23036162
 10
31189.2623986
 20
-35798.65888264
 10
31189.69806352
 20
-35800.0740492
 10
31190.09824196
 20
-35801.47999574
 10
31190.46611154
 20
-35802.88085671
 10
31190.80484989
 20
-35804.28076657
 10
31191.11763463
 20
-35805.68385977
 10
31191.40764341
 20
-35807.09427075
 10
31191.67807251
 20
-35808.51605815
 10
31191.93293641
 20
-35809.94995571
 10
31192.17736958
 20
-35811.39214583
 10
31192.41658739
 20
-35812.83848223
  0
ARC
  5
24B
100
AcDbEntity
  8
Ech.1_5
 62
     7
100
AcDbCircle
 10
31123.80609957
 20
-35719.64094343
 30
0.0
 40
67.78988877
100
AcDbArc
 50
176.81519387
 51
17.9333216
  0
LINE
  5
24C
100
AcDbEntity
  8
Ech.1_5
 62
     7
100
AcDbLine
 10
31265.31428933
 20
-35680.69243028
 30
0.0
 11
32065.41690837
 21
-35389.47889259
 31
0.0
  0
LINE
  5
24D
100
AcDbEntity
  8
Ech.1_5
 62
     7
100
AcDbLine
 10
31187.00794122
 20
-35698.76775972
 30
0.0
 11
31198.81444209
 21
-35698.76775972
 31
0.0
  0
LINE
  5
24E
100
AcDbEntity
  8
Ech.1_5
 62
     7
100
AcDbLine
 10
31220.81444209
 20
-35827.76157397
 30
0.0
 11
31220.81444209
 21
-35827.76157397
 31
0.0
  0
ARC
  5
24F
100
AcDbEntity
  8
Ech.1_5
 62
     7
100
AcDbCircle
 10
31195.79491305
 20
-35812.22410478
 30
0.0
 40
3.43373615
100
AcDbArc
 50
190.3070861
 51
331.56661712
  0
LINE
  5
250
100
AcDbEntity
  8
Ech.1_5
 62
     7
100
AcDbLine
 10
31899.31032925
 20
-35752.56994244
 30
0.0
 11
31899.31032925
 21
-35778.62965122
 31
0.0
  0
LWPOLYLINE
  5
251
102
{ACAD_REACTORS
330
252
102
}
100
AcDbEntity
  8
Ech.1_5
 62
     7
  6
CONTINUOUS
100
AcDbPolyline
 90
        3
 70
     1
 43
0.0
 10
31296.45926728
 20
-35643.852449
 10
31318.2347428
 20
-35639.02822778
 10
31299.20093229
 20
-35650.65399667
  0
HATCH
  5
252
100
AcDbEntity
  8
Ech.1_5
 62
     7
  6
CONTINUOUS
100
AcDbHatch
 10
0.0
 20
0.0
 30
0.0
210
0.0
220
0.0
230
1.0
  2
SOLID
 70
     1
 71
     1
 91
        1
 92
        7
 72
     0
 73
     1
 93
        3
 10
31296.45926728
 20
-35643.852449
 10
31318.2347428
 20
-35639.02822778
 10
31299.20093229
 20
-35650.65399667
 97
        1
330
251
 75
     0
 76
     2
 47
0.775229
 98
        1
 10
0.0
 20
0.0
  0
ARC
  5
253
100
AcDbEntity
  8
Ech.1_5
 62
     7
100
AcDbCircle
 10
31666.20782865
 20
-36470.28196549
 30
0.0
 40
901.70863496
100
AcDbArc
 50
114.11271308
 51
118.22750414
  0
ARC
  5
254
100
AcDbEntity
  8
Ech.1_5
 62
     7
100
AcDbCircle
 10
31191.61133395
 20
-35582.18757152
 30
0.0
 40
105.25912681
100
AcDbArc
 50
263.48671375
 51
297.1989192
  0
LWPOLYLINE
  5
255
100
AcDbEntity
  8
Ech.1_5
 62
     7
  6
CONTINUOUS
370
    -3
100
AcDbPolyline
 90
        9
 70
     1
 43
0.0
 10
31211.67846719
 20
-35847.36220491
 10
31220.81444209
 20
-35847.36220491
 10
31220.81444209
 20
-35824.83331265
 10
31220.81444209
 20
-35824.83331265
 10
31220.81444209
 20
-35810.75202682
 10
31220.81444209
 20
-35810.75202682
 10
31220.81444209
 20
-35696.8890501
 10
31198.81444209
 20
-35696.8890501
 10
31198.81444209
 20
-35834.49817981
 42
0.47612089
  0
LWPOLYLINE
  5
256
100
AcDbEntity
  8
Ech.1_5
100
AcDbPolyline
 90
       10
 70
     0
 43
0.0
 10
31286.57062243
 20
-35672.95575774
 10
31285.88658215
 20
-35671.0763725
 10
31234.79770939
 20
-35689.67120148
 10
31177.53400035
 20
-35697.20023394
 10
31177.53400035
 20
-35725.80805354
 10
31182.25072639
 20
-35720.54695674
 10
31179.53400035
 20
-35720.54695674
 10
31179.53400035
 20
-35698.95448686
 10
31235.27576227
 20
-35691.62556001
 10
31286.57062243
 20
-35672.95575774
  0
LWPOLYLINE
  5
257
102
{ACAD_REACTORS
330
258
102
}
100
AcDbEntity
  8
Ech.1_5
 62
   190
  6
CONTINUOUS
370
    -3
100
AcDbPolyline
 90
        9
 70
     1
 43
0.0
 10
31286.57062243
 20
-35672.95575774
 10
31285.88658215
 20
-35671.0763725
 10
31234.79770939
 20
-35689.67120148
 10
31177.53400035
 20
-35697.20023394
 10
31177.53400035
 20
-35725.80805354
 10
31182.25072639
 20
-35720.54695674
 10
31179.53400035
 20
-35720.54695674
 10
31179.53400035
 20
-35698.95448686
 10
31235.27576227
 20
-35691.62556001
  0
HATCH
  5
258
100
AcDbEntity
  8
Ech.1_5
 62
   177
  6
CONTINUOUS
100
AcDbHatch
 10
0.0
 20
0.0
 30
0.0
210
0.0
220
0.0
230
1.0
  2
SOLID
 70
     1
 71
     1
 91
        1
 92
        7
 72
     0
 73
     1
 93
        9
 10
31286.57062243
 20
-35672.95575774
 10
31285.88658215
 20
-35671.0763725
 10
31234.79770939
 20
-35689.67120148
 10
31177.53400035
 20
-35697.20023394
 10
31177.53400035
 20
-35725.80805354
 10
31182.25072639
 20
-35720.54695674
 10
31179.53400035
 20
-35720.54695674
 10
31179.53400035
 20
-35698.95448686
 10
31235.27576227
 20
-35691.62556001
 97
        1
330
257
 75
     0
 76
     2
 47
0.775229
 98
        1
 10
0.0
 20
0.0
  0
LWPOLYLINE
  5
259
100
AcDbEntity
  8
Ech.1_5
 62
   190
  6
CONTINUOUS
370
    -3
100
AcDbPolyline
 90
        4
 70
     1
 43
0.0
 10
31574.77983699
 20
-35653.1904042
 10
31612.36754182
 20
-35639.50959846
 10
31621.60208569
 20
-35664.88129922
 10
31584.01438086
 20
-35678.56210496
  0
LWPOLYLINE
  5
25A
100
AcDbEntity
  8
Ech.1_5
 62
   190
  6
CONTINUOUS
370
    -3
100
AcDbPolyline
 90
        4
 70
     0
 43
0.0
 10
31612.36754182
 20
-35639.50959846
 10
31584.01438086
 20
-35678.56210496
 10
31621.60208569
 20
-35664.88129922
 10
31574.77983699
 20
-35653.1904042
  0
ARC
  5
25B
100
AcDbEntity
  8
Ech.1_5
 62
     7
100
AcDbCircle
 10
31122.99992433
 20
-35711.78158036
 30
0.0
 40
65.31757614
100
AcDbArc
 50
182.93511954
 51
11.68289665
  0
ARC
  5
25C
100
AcDbEntity
  8
Ech.1_5
 62
     7
100
AcDbCircle
 10
31122.99992433
 20
-35711.78158036
 30
0.0
 40
62.81757614
100
AcDbArc
 50
180.12287567
 51
11.68289665
  0
CIRCLE
  5
25D
100
AcDbEntity
  8
Ech.1_5
 62
     7
100
AcDbCircle
 10
31054.52285815
 20
-35710.17215013
 30
0.0
 40
5.9222896
  0
LINE
  5
25E
100
AcDbEntity
  8
Ech.1_5
 62
     7
100
AcDbLine
 10
31184.51612766
 20
-35699.06133662
 30
0.0
 11
31186.96433591
 21
-35698.55509917
 31
0.0
  0
LINE
  5
25F
100
AcDbEntity
  8
Ech.1_5
 62
   190
  6
CONTINUOUS
370
    -3
100
AcDbLine
 10
31149.0312996
 20
-35597.55520353
 30
0.0
 11
31497.10284152
 21
-35513.50278625
 31
0.0
  0
LWPOLYLINE
  5
260
100
AcDbEntity
  8
Ech.1_5
 62
   190
  6
CONTINUOUS
370
    -3
100
AcDbPolyline
 90
       23
 70
     0
 43
0.0
 10
31544.03637917
 20
-35490.87222308
 10
31553.48079763
 20
-35488.59158216
 10
31566.08505629
 20
-35540.78738911
 10
31542.352392
 20
-35547.15312595
 10
31536.24347723
 20
-35524.37794267
 10
31202.39897249
 20
-35613.92398926
 10
31204.582205
 20
-35622.96502738
 10
31194.12300718
 20
-35625.77046465
 10
31191.62759006
 20
-35615.43663115
 10
31175.84293298
 20
-35619.60744923
 10
31178.37618566
 20
-35630.09796446
 10
31158.07363232
 20
-35635.00063095
 10
31149.0312996
 20
-35597.55520353
 10
31141.13708435
 20
-35564.86427372
 42
-0.41421356
 10
31157.58490726
 20
-35537.94388164
 10
31483.97234168
 20
-35459.12774895
 10
31497.10284152
 20
-35513.50278625
 10
31520.2171399
 20
-35507.92113875
 10
31517.63944037
 20
-35497.24656354
 10
31527.08385884
 20
-35494.96592262
 10
31529.66155836
 20
-35505.64049783
 10
31546.6140787
 20
-35501.54679828
 10
31544.03637917
 20
-35490.87222308
  0
LINE
  5
261
100
AcDbEntity
  8
Ech.1_5
 62
   190
  6
CONTINUOUS
370
    -3
100
AcDbLine
 10
31487.63905354
 20
-35474.31206001
 30
0.0
 11
31835.71059545
 21
-35390.25964273
 31
0.0
  0
LWPOLYLINE
  5
262
100
AcDbEntity
  8
Ech.1_5
 62
   190
  6
CONTINUOUS
370
    -3
100
AcDbPolyline
 90
       23
 70
     0
 43
0.0
 10
31882.6441331
 20
-35367.62907955
 10
31892.08855157
 20
-35365.34843863
 10
31904.69281022
 20
-35417.54424558
 10
31880.96014593
 20
-35423.90998242
 10
31874.85123117
 20
-35401.13479914
 10
31541.00672642
 20
-35490.68084574
 10
31543.18995894
 20
-35499.72188385
 10
31532.73076111
 20
-35502.52732112
 10
31530.23534399
 20
-35492.19348763
 10
31514.45068692
 20
-35496.3643057
 10
31516.98393959
 20
-35506.85482093
 10
31496.68138625
 20
-35511.75748742
 10
31487.63905354
 20
-35474.31206001
 10
31479.74483829
 20
-35441.6211302
 42
-0.41421356
 10
31496.19266119
 20
-35414.70073811
 10
31822.62804521
 20
-35335.87302654
 10
31835.75854505
 20
-35390.24806384
 10
31858.82489384
 20
-35384.67799522
 10
31856.24719431
 20
-35374.00342002
 10
31865.69161277
 20
-35371.7227791
 10
31868.2693123
 20
-35382.3973543
 10
31885.22183263
 20
-35378.30365476
 10
31882.6441331
 20
-35367.62907955
  0
LWPOLYLINE
  5
263
100
AcDbEntity
  8
Ech.1_5
 62
   190
  6
CONTINUOUS
370
    -3
100
AcDbPolyline
 90
       10
 70
     0
 43
0.0
 10
31993.57207144
 20
-35336.80317579
 10
31879.59191671
 20
-35367.37570912
 10
31881.77514923
 20
-35376.41674723
 10
31871.3159514
 20
-35379.2221845
 10
31868.82053428
 20
-35368.88835101
 10
31853.03587721
 20
-35373.05916908
 10
31855.56912988
 20
-35383.54968431
 10
31835.26657654
 20
-35388.4523508
 10
31826.22424383
 20
-35351.00692339
 10
31822.79431872
 20
-35336.80317579
  0
LWPOLYLINE
  5
264
100
AcDbEntity
  8
Ech.1_5
 62
     7
  6
CONTINUOUS
370
    -3
100
AcDbPolyline
 90
        5
 70
     0
 43
0.0
 10
31833.55062579
 20
-35416.36712814
 10
31871.13833062
 20
-35402.68632241
 10
31880.37287449
 20
-35428.05802317
 10
31842.78516966
 20
-35441.7388289
 10
31833.55062579
 20
-35416.36712814
  0
LINE
  5
265
100
AcDbEntity
  8
Ech.1_5
 62
     7
100
AcDbLine
 10
31273.12128002
 20
-35720.26411817
 30
0.0
 11
31272.98410219
 21
-35720.28767127
 31
0.0
  0
LWPOLYLINE
  5
266
100
AcDbEntity
  8
Ech.1_5
 62
   190
  6
CONTINUOUS
370
    -3
100
AcDbPolyline
 90
        4
 70
     1
 43
0.0
 10
31871.10025057
 20
-35402.73877234
 10
31833.56302835
 20
-35416.4012039
 10
31842.77500673
 20
-35441.71090648
 10
31880.31085424
 20
-35428.04469793
  0
LWPOLYLINE
  5
267
100
AcDbEntity
  8
Ech.1_5
 62
   190
  6
CONTINUOUS
370
    -3
100
AcDbPolyline
 90
        4
 70
     1
 43
0.0
 10
31532.49249664
 20
-35525.98191586
 10
31494.90479181
 20
-35539.66272159
 10
31504.12917275
 20
-35565.00649994
 10
31541.71550102
 20
-35551.32191213
  0
LWPOLYLINE
  5
268
100
AcDbEntity
  8
Ech.1_5
 62
   190
  6
CONTINUOUS
370
    -3
100
AcDbPolyline
 90
        4
 70
     1
 43
0.0
 10
31263.48549991
 20
-35599.40792779
 10
31227.40896324
 20
-35609.08462214
 10
31227.42608764
 20
-35665.74971797
 10
31280.15705545
 20
-35646.55120638
  0
LWPOLYLINE
  5
269
100
AcDbEntity
  8
Ech.1_5
 62
   190
  6
CONTINUOUS
370
    -3
100
AcDbPolyline
 90
        4
 70
     0
 43
0.0
 10
31263.48549991
 20
-35599.40792779
 10
31227.42608766
 20
-35665.74980806
 10
31280.1545461
 20
-35646.55821869
 10
31227.40896324
 20
-35609.08462214
  0
LWPOLYLINE
  5
26A
100
AcDbEntity
  8
Ech.1_5
 62
   190
  6
CONTINUOUS
370
    -3
100
AcDbPolyline
 90
        4
 70
     0
 43
0.0
 10
31532.49249664
 20
-35525.98191586
 10
31504.13933568
 20
-35565.03442235
 10
31541.72704051
 20
-35551.35361662
 10
31494.90479181
 20
-35539.66272159
  0
LWPOLYLINE
  5
26B
100
AcDbEntity
  8
Ech.1_5
 62
   190
  6
CONTINUOUS
370
    -3
100
AcDbPolyline
 90
        4
 70
     0
 43
0.0
 10
31871.10025057
 20
-35402.73877234
 10
31842.74708961
 20
-35441.79127883
 10
31880.33479444
 20
-35428.1104731
 10
31833.51254574
 20
-35416.41957807
  0
LWPOLYLINE
  5
26C
100
AcDbEntity
  8
Ech.1_5
 62
   190
  6
CONTINUOUS
370
    -3
100
AcDbPolyline
 90
        4
 70
     1
 43
0.0
 10
31239.29767809
 20
-35814.66026533
 10
31711.8145018
 20
-35642.52021387
 10
31711.81447835
 20
-35631.87730014
 10
31235.81444209
 20
-35805.28627957
  0
LWPOLYLINE
  5
26D
102
{ACAD_REACTORS
330
26E
102
}
100
AcDbEntity
  8
Ech.1_5
 62
     7
  6
CONTINUOUS
370
    -3
100
AcDbPolyline
 90
        4
 70
     1
 43
0.0
 10
31239.29767809
 20
-35814.66026533
 10
31711.8145018
 20
-35642.52021387
 10
31711.81447835
 20
-35631.87730014
 10
31235.81444209
 20
-35805.28627957
  0
HATCH
  5
26E
100
AcDbEntity
  8
Ech.1_5
 62
   190
  6
CONTINUOUS
100
AcDbHatch
 10
0.0
 20
0.0
 30
0.0
210
0.0
220
0.0
230
1.0
  2
ANSI37
 70
     0
 71
     1
 91
        1
 92
        7
 72
     0
 73
     1
 93
        4
 10
31239.29767809
 20
-35814.66026533
 10
31711.8145018
 20
-35642.52021387
 10
31711.81447835
 20
-35631.87730014
 10
31235.81444209
 20
-35805.28627957
 97
        1
330
26D
 75
     0
 76
     2
 52
0.0
 41
1.88976388
 77
     0
 78
     2
 53
45.0
 43
0.0
 44
0.0
 45
4.24264086
 46
-4.24264086
 79
     0
 53
-45.0
 43
0.0
 44
0.0
 45
4.24264086
 46
4.24264086
 79
     0
 47
0.775229
 98
        1
 10
0.0
 20
0.0
  0
LWPOLYLINE
  5
26F
100
AcDbEntity
  8
Ech.1_5
 62
   190
  6
CONTINUOUS
370
    -3
100
AcDbPolyline
 90
        6
 70
     0
 43
0.0
 10
31620.30989881
 20
-36392.33338613
 10
31826.01793451
 20
-36392.33338613
 10
31842.50343767
 20
-36374.35603772
 10
31828.39349765
 20
-36410.31173773
 10
31844.87985173
 20
-36392.33338613
 10
32400.26721759
 20
-36392.33338613
  0
LWPOLYLINE
  5
270
100
AcDbEntity
  8
Ech.1_5
 62
     5
  6
CONTINUOUS
370
    -3
100
AcDbPolyline
 90
        5
 70
     0
 43
0.0
 10
31494.90479181
 20
-35539.66272159
 10
31532.49249664
 20
-35525.98191586
 10
31541.72704051
 20
-35551.35361662
 10
31504.13933568
 20
-35565.03442235
 10
31494.90479181
 20
-35539.66272159
  0
LWPOLYLINE
  5
271
100
AcDbEntity
  8
Ech.1_5
 62
     5
  6
CONTINUOUS
370
    -3
100
AcDbPolyline
 90
        5
 70
     0
 43
0.0
 10
31227.40896324
 20
-35609.08462214
 10
31263.48549991
 20
-35599.40792779
 10
31280.15896632
 20
-35646.55660986
 10
31227.42608766
 20
-35665.74980806
 10
31227.40896324
 20
-35609.08462214
  0
LWPOLYLINE
  5
272
100
AcDbEntity
  8
Ech.1_5
 62
     5
  6
CONTINUOUS
370
    -3
100
AcDbPolyline
 90
        5
 70
     0
 43
0.0
 10
31833.51254574
 20
-35416.41957807
 10
31871.10025057
 20
-35402.73877234
 10
31880.33479444
 20
-35428.1104731
 10
31842.74708961
 20
-35441.79127883
 10
31833.51254574
 20
-35416.41957807
  0
LWPOLYLINE
  5
273
100
AcDbEntity
  8
Ech.1_5
 62
   254
  6
CONTINUOUS
370
    -3
100
AcDbPolyline
 90
        5
 70
     0
 43
0.0
 10
31574.77983699
 20
-35653.1904042
 10
31612.36754182
 20
-35639.50959846
 10
31621.60208569
 20
-35664.88129922
 10
31584.01438086
 20
-35678.56210496
 10
31574.77983699
 20
-35653.1904042
  0
LWPOLYLINE
  5
274
100
AcDbEntity
  8
Ech.1_5
 62
   190
  6
CONTINUOUS
370
    -3
100
AcDbPolyline
 90
        4
 70
     0
 43
0.0
 10
32212.66124175
 20
-35335.88633807
 10
31235.8700139
 20
-35691.4092701
 10
31226.63547003
 20
-35666.03756934
 10
32133.71843751
 20
-35335.88633807
  0
LINE
  5
275
100
AcDbEntity
  8
Ech.1_5
 62
   190
  6
CONTINUOUS
370
    -3
100
AcDbLine
 10
32400.26721759
 20
-35335.88633807
 30
0.0
 11
32400.26721759
 21
-35736.37537525
 31
0.0
  0
LWPOLYLINE
  5
276
100
AcDbEntity
  8
Ech.1_5
 62
     9
  6
CADWORK_22
370
    35
100
AcDbPolyline
 90
        4
 70
     0
 43
0.0
 38
2500.0
 10
31234.07800691
 20
-35687.83469554
 10
31285.12346665
 20
-35668.97972991
 10
31292.0517745
 20
-35669.36451488
 10
32208.27553515
 20
-35335.88633807
  0
LWPOLYLINE
  5
277
100
AcDbEntity
  8
Ech.1_5
 62
   190
  6
CONTINUOUS
370
    -3
100
AcDbPolyline
 90
        5
 70
     0
 43
0.0
 10
32212.66124175
 20
-35335.88633807
 10
31720.81444209
 20
-35514.90393297
 10
31220.81444209
 20
-35696.8890501
 10
31220.81444209
 20
-35782.0232719
 10
32400.26721759
 20
-35352.7375689
  0
LINE
  5
278
100
AcDbEntity
  8
Ech.1_5
 62
   190
  6
CONTINUOUS
370
    -3
100
AcDbLine
 10
32400.26721759
 20
-35335.88633807
 30
0.0
 11
32400.26721759
 21
-35352.7375689
 31
0.0
  0
ARC
  5
279
100
AcDbEntity
  8
Ech.1_5
 62
   190
  6
CONTINUOUS
370
    -3
100
AcDbCircle
 10
32027.09862768
 20
-35509.72973253
 30
0.0
 40
20.00045761
100
AcDbArc
 50
124.66518872
 51
125.79100959
  0
ARC
  5
27A
100
AcDbEntity
  8
Ech.1_5
 62
   190
  6
CONTINUOUS
370
    -3
100
AcDbCircle
 10
32132.92511924
 20
-35595.479306
 30
0.0
 40
16.66620749
100
AcDbArc
 50
128.40061582
 51
138.4089803
  0
LWPOLYLINE
  5
27B
100
AcDbEntity
  8
Ech.1_5
 62
     7
  6
CONTINUOUS
370
    -3
100
AcDbPolyline
 90
        4
 70
     1
 43
0.0
 10
31234.90983141
 20
-35776.89296975
 10
31272.49753624
 20
-35763.21216402
 10
31281.73208011
 20
-35788.58386478
 10
31244.14437528
 20
-35802.26467051
  0
LWPOLYLINE
  5
27C
100
AcDbEntity
  8
Ech.1_5
 62
   190
  6
CONTINUOUS
370
    -3
100
AcDbPolyline
 90
        4
 70
     0
 43
0.0
 10
31272.49753624
 20
-35763.21216402
 10
31244.14437528
 20
-35802.26467051
 10
31281.73208011
 20
-35788.58386478
 10
31234.90983141
 20
-35776.89296975
  0
LWPOLYLINE
  5
27D
100
AcDbEntity
  8
Ech.1_5
 62
     5
  6
CONTINUOUS
370
    -3
100
AcDbPolyline
 90
        5
 70
     0
 43
0.0
 10
31234.90983141
 20
-35776.89296975
 10
31272.49753624
 20
-35763.21216402
 10
31281.73208011
 20
-35788.58386478
 10
31244.14437528
 20
-35802.26467051
 10
31234.90983141
 20
-35776.89296975
  0
LWPOLYLINE
  5
27E
100
AcDbEntity
  8
Ech.1_5
 62
     7
  6
CONTINUOUS
370
    -3
100
AcDbPolyline
 90
      228
 70
     0
 43
0.0
 10
31228.99317867
 20
-35849.55482847
 10
31228.36780282
 20
-35843.96724087
 10
31227.76150803
 20
-35838.39127331
 10
31227.19337537
 20
-35832.83854585
 10
31226.6824859
 20
-35827.32067855
 10
31226.24792068
 20
-35821.84929144
 10
31225.90876078
 20
-35816.43600458
 10
31225.68408726
 20
-35811.09243802
 10
31225.59298118
 20
-35805.83021181
 10
31225.65452361
 20
-35800.660946
 10
31225.88779562
 20
-35795.59626064
 10
31226.31187825
 20
-35790.64777578
 10
31226.94585259
 20
-35785.82711147
 10
31227.80879968
 20
-35781.14588775
 10
31228.91980061
 20
-35776.61572469
 10
31230.29793642
 20
-35772.24824232
 10
31231.96228818
 20
-35768.0550607
 10
31233.93193696
 20
-35764.04779988
 10
31236.22566038
 20
-35760.23789878
 10
31238.84718913
 20
-35756.62781401
 10
31241.77858608
 20
-35753.20706761
 10
31245.00023107
 20
-35749.96417688
 10
31248.49250395
 20
-35746.88765917
 10
31252.23578456
 20
-35743.9660318
 10
31256.21045273
 20
-35741.18781208
 10
31260.3968883
 20
-35738.54151736
 10
31264.77547111
 20
-35736.01566495
 10
31269.326581
 20
-35733.59877218
 10
31274.03059782
 20
-35731.27935637
 10
31278.86790139
 20
-35729.04593486
 10
31283.81887156
 20
-35726.88702497
 10
31288.86388818
 20
-35724.79114402
 10
31293.98333107
 20
-35722.74680934
 10
31299.15758008
 20
-35720.74253825
 10
31304.36701505
 20
-35718.76684809
 10
31309.59201582
 20
-35716.80825618
 10
31314.8144685
 20
-35714.85615819
 10
31320.02846117
 20
-35712.90706514
 10
31325.23399934
 20
-35710.96093868
 10
31330.43112751
 20
-35709.01776317
 10
31335.61989019
 20
-35707.07752302
 10
31340.80033188
 20
-35705.1402026
 10
31345.9724971
 20
-35703.20578629
 10
31351.13643035
 20
-35701.27425848
 10
31356.29217614
 20
-35699.34560355
 10
31361.43977896
 20
-35697.41980589
 10
31366.57928333
 20
-35695.49684987
 10
31371.71073376
 20
-35693.57671989
 10
31376.83417475
 20
-35691.65940032
 10
31381.9496508
 20
-35689.74487555
 10
31387.05720642
 20
-35687.83312996
 10
31392.15688612
 20
-35685.92414794
 10
31397.2487344
 20
-35684.01791386
 10
31402.33279578
 20
-35682.11441212
 10
31407.40911475
 20
-35680.21362709
 10
31412.47773582
 20
-35678.31554316
 10
31417.53870351
 20
-35676.42014471
 10
31422.5920623
 20
-35674.52741612
 10
31427.63785672
 20
-35672.63734179
 10
31432.67613127
 20
-35670.74990608
 10
31437.70693044
 20
-35668.86509339
 10
31442.73029876
 20
-35666.9828881
 10
31447.74628072
 20
-35665.10327459
 10
31452.75492084
 20
-35663.22623725
 10
31457.75626361
 20
-35661.35176046
 10
31462.75035355
 20
-35659.47982859
 10
31467.73723515
 20
-35657.61042604
 10
31472.71695293
 20
-35655.74353719
 10
31477.6895514
 20
-35653.87914642
 10
31482.65507505
 20
-35652.01723812
 10
31487.6135684
 20
-35650.15779667
 10
31492.56507594
 20
-35648.30080644
 10
31497.5096422
 20
-35646.44625183
 10
31502.44731166
 20
-35644.59411722
 10
31507.37812885
 20
-35642.744387
 10
31512.30213826
 20
-35640.89704553
 10
31517.2193844
 20
-35639.05207722
 10
31522.12991178
 20
-35637.20946644
 10
31527.0337649
 20
-35635.36919757
 10
31531.93098827
 20
-35633.531255
 10
31536.8216264
 20
-35631.69562311
 10
31541.70572379
 20
-35629.86228629
 10
31546.58332495
 20
-35628.03122892
 10
31551.45447438
 20
-35626.20243538
 10
31556.31921659
 20
-35624.37589005
 10
31561.17759609
 20
-35622.55157733
 10
31566.02965738
 20
-35620.72948158
 10
31570.87544497
 20
-35618.9095872
 10
31575.71500337
 20
-35617.09187857
 10
31580.54837707
 20
-35615.27634007
 10
31585.3756106
 20
-35613.46295608
 10
31590.19674844
 20
-35611.651711
 10
31595.01183512
 20
-35609.84258919
 10
31599.82091513
 20
-35608.03557505
 10
31604.62403298
 20
-35606.23065296
 10
31609.42123318
 20
-35604.42780731
 10
31614.21256023
 20
-35602.62702246
 10
31618.99805865
 20
-35600.82828282
 10
31623.77777293
 20
-35599.03157276
 10
31628.55174758
 20
-35597.23687666
 10
31633.32002711
 20
-35595.44417891
 10
31638.08265603
 20
-35593.6534639
 10
31642.83967883
 20
-35591.864716
 10
31647.59114003
 20
-35590.07791959
 10
31652.33708414
 20
-35588.29305907
 10
31657.07755565
 20
-35586.51011882
 10
31661.81259908
 20
-35584.72908321
 10
31666.54225893
 20
-35582.94993664
 10
31671.26657971
 20
-35581.17266348
 10
31675.98560592
 20
-35579.39724812
 10
31680.69938208
 20
-35577.62367495
 10
31685.40795267
 20
-35575.85192833
 10
31690.11136222
 20
-35574.08199267
 10
31694.80965523
 20
-35572.31385234
 10
31699.5028762
 20
-35570.54749172
 10
31704.19106964
 20
-35568.78289521
 10
31708.87428006
 20
-35567.02004717
 10
31713.55255196
 20
-35565.258932
 10
31718.22592985
 20
-35563.49953408
 10
31722.89445824
 20
-35561.74183779
 10
31727.55818162
 20
-35559.98582752
 10
31732.21714451
 20
-35558.23148765
 10
31736.87139142
 20
-35556.47880256
 10
31741.52096684
 20
-35554.72775663
 10
31746.1659153
 20
-35552.97833425
 10
31750.80628128
 20
-35551.23051981
 10
31755.4421093
 20
-35549.48429768
 10
31760.07344386
 20
-35547.73965225
 10
31764.70032948
 20
-35545.9965679
 10
31769.32281065
 20
-35544.25502902
 10
31773.94093188
 20
-35542.51501998
 10
31778.55473768
 20
-35540.77652518
 10
31783.16427256
 20
-35539.039529
 10
31787.76958101
 20
-35537.30401581
 10
31792.37070756
 20
-35535.56997001
 10
31796.96769669
 20
-35533.83737597
 10
31801.56059293
 20
-35532.10621808
 10
31806.14944077
 20
-35530.37648072
 10
31810.73428472
 20
-35528.64814828
 10
31815.31516929
 20
-35526.92120513
 10
31819.89213898
 20
-35525.19563567
 10
31824.46523831
 20
-35523.47142428
 10
31829.03451176
 20
-35521.74855533
 10
31833.60000387
 20
-35520.02701322
 10
31838.16175911
 20
-35518.30678232
 10
31842.71982202
 20
-35516.58784702
 10
31847.27423708
 20
-35514.87019171
 10
31851.82504881
 20
-35513.15380076
 10
31856.37230171
 20
-35511.43865855
 10
31860.9160403
 20
-35509.72474949
 10
31865.45630906
 20
-35508.01205793
 10
31869.99315252
 20
-35506.30056828
 10
31874.52661517
 20
-35504.59026491
 10
31879.05674153
 20
-35502.8811322
 10
31883.5835761
 20
-35501.17315454
 10
31888.10716338
 20
-35499.46631632
 10
31892.62754789
 20
-35497.76060191
 10
31897.14477412
 20
-35496.0559957
 10
31901.65888659
 20
-35494.35248207
 10
31906.1699298
 20
-35492.65004541
 10
31910.67794825
 20
-35490.9486701
 10
31915.18298645
 20
-35489.24834052
 10
31919.68508892
 20
-35487.54904106
 10
31924.18430015
 20
-35485.85075609
 10
31928.68066465
 20
-35484.15347001
 10
31933.17422692
 20
-35482.4571672
 10
31937.66503148
 20
-35480.76183203
 10
31942.15312283
 20
-35479.0674489
 10
31946.63854547
 20
-35477.37400218
 10
31951.12134392
 20
-35475.68147626
 10
31955.60156267
 20
-35473.98985552
 10
31960.07924624
 20
-35472.29912435
 10
31964.55443913
 20
-35470.60926713
 10
31969.02718584
 20
-35468.92026824
 10
31973.49753088
 20
-35467.23211207
 10
31977.96551877
 20
-35465.544783
 10
31982.43119399
 20
-35463.85826541
 10
31986.89460107
 20
-35462.17254368
 10
31991.3557845
 20
-35460.48760221
 10
31995.8147888
 20
-35458.80342536
 10
32000.27165847
 20
-35457.11999754
 10
32004.72643801
 20
-35455.43730311
 10
32009.17917193
 20
-35453.75532647
 10
32013.62990474
 20
-35452.07405199
 10
32018.07868094
 20
-35450.39346406
 10
32022.52554504
 20
-35448.71354706
 10
32026.97054155
 20
-35447.03428538
 10
32031.41371497
 20
-35445.3556634
 10
32035.85510981
 20
-35443.6776655
 10
32040.29477057
 20
-35442.00027607
 10
32044.73274176
 20
-35440.32347949
 10
32049.16906789
 20
-35438.64726014
 10
32053.60379346
 20
-35436.97160241
 10
32058.03696298
 20
-35435.29649067
 10
32062.46862096
 20
-35433.62190932
 10
32066.89881189
 20
-35431.94784273
 10
32071.32758029
 20
-35430.2742753
 10
32075.75497067
 20
-35428.6011914
 10
32080.18102752
 20
-35426.92857541
 10
32084.60579536
 20
-35425.25641172
 10
32089.02931869
 20
-35423.58468472
 10
32093.45164202
 20
-35421.91337878
 10
32097.87280985
 20
-35420.24247829
 10
32102.29286669
 20
-35418.57196763
 10
32106.71185705
 20
-35416.90183119
 10
32111.12982543
 20
-35415.23205335
 10
32115.54681634
 20
-35413.5626185
 10
32119.96287429
 20
-35411.89351101
 10
32124.37804377
 20
-35410.22471526
 10
32128.7923693
 20
-35408.55621566
 10
32133.20589538
 20
-35406.88799656
 10
32137.61866653
 20
-35405.22004237
 10
32142.03072723
 20
-35403.55233746
 10
32146.44212201
 20
-35401.88486622
 10
32150.85289537
 20
-35400.21761302
 10
32155.26309181
 20
-35398.55056226
 10
32159.67275584
 20
-35396.88369832
 10
32164.08193196
 20
-35395.21700557
 10
32168.49066469
 20
-35393.55046841
 10
32172.89899852
 20
-35391.88407122
 10
32177.30697797
 20
-35390.21779837
 10
32181.71464754
 20
-35388.55163426
 10
32186.12205173
 20
-35386.88556326
 10
32190.52923506
 20
-35385.21956976
 10
32194.93624203
 20
-35383.55363815
 10
32199.34311714
 20
-35381.8877528
 10
32203.7499049
 20
-35380.2218981
 10
32207.99197096
 20
-35378.61831042
  0
LWPOLYLINE
  5
27F
102
{ACAD_REACTORS
330
280
102
}
100
AcDbEntity
  8
Ech.1_5
 62
     7
  6
CONTINUOUS
370
    -3
100
AcDbPolyline
 90
        4
 70
     1
 43
0.0
 10
32209.82948533
 20
-35383.35716237
 10
32206.15445658
 20
-35373.87945848
 10
32226.46382537
 20
-35370.39785108
 10
32210.02290668
 20
-35383.35716237
  0
HATCH
  5
280
100
AcDbEntity
  8
Ech.1_5
 62
     7
  6
CONTINUOUS
100
AcDbHatch
 10
0.0
 20
0.0
 30
0.0
210
0.0
220
0.0
230
1.0
  2
SOLID
 70
     1
 71
     1
 91
        1
 92
        7
 72
     0
 73
     1
 93
        4
 10
32209.82948533
 20
-35383.35716237
 10
32206.15445658
 20
-35373.87945848
 10
32226.46382537
 20
-35370.39785108
 10
32210.02290668
 20
-35383.35716237
 97
        1
330
27F
 75
     0
 76
     2
 47
0.775229
 98
        1
 10
0.0
 20
0.0
  0
LWPOLYLINE
  5
281
100
AcDbEntity
  8
Ech.1_5
 62
   190
  6
CONTINUOUS
370
    -3
100
AcDbPolyline
 90
        6
 70
     1
 43
0.0
 10
31784.45503881
 20
-35576.87487187
 10
31720.81444209
 20
-35600.03815477
 10
31720.81444209
 20
-35621.87487187
 10
31840.81444209
 20
-35621.87487187
 10
31840.81444209
 20
-35596.87487187
 10
31840.81444209
 20
-35576.87487187
  0
LWPOLYLINE
  5
282
100
AcDbEntity
  8
Ech.1_5
 62
   190
  6
CONTINUOUS
370
    -3
100
AcDbPolyline
 90
        3
 70
     0
 43
0.0
 10
31752.15979516
 20
-35588.62937927
 10
31780.81444209
 20
-35599.37487187
 10
31720.81444209
 20
-35621.87487187
  0
LWPOLYLINE
  5
283
100
AcDbEntity
  8
Ech.1_5
 62
   190
  6
CONTINUOUS
370
    -3
100
AcDbPolyline
 90
        3
 70
     0
 43
0.0
 10
31840.81444209
 20
-35621.87487187
 10
31840.81444209
 20
-35576.87487187
 10
31780.81444209
 20
-35599.37487187
  0
LINE
  5
284
100
AcDbEntity
  8
Ech.1_5
 62
   190
  6
CONTINUOUS
370
    -3
100
AcDbLine
 10
31780.81444209
 20
-35599.37487187
 30
0.0
 11
31840.81444209
 21
-35621.87487187
 31
0.0
  0
LWPOLYLINE
  5
285
100
AcDbEntity
  8
Ech.1_5
 62
     5
  6
CONTINUOUS
370
    -3
100
AcDbPolyline
 90
        6
 70
     0
 43
0.0
 10
31784.45503881
 20
-35576.87487187
 10
31840.81444209
 20
-35576.87487187
 10
31840.81444209
 20
-35621.87487187
 10
31720.81444209
 20
-35621.87487187
 10
31720.81444209
 20
-35600.03815477
 10
31784.45503881
 20
-35576.87487187
  0
LWPOLYLINE
  5
286
100
AcDbEntity
  8
Ech.1_5
 62
   190
  6
CONTINUOUS
370
    -3
100
AcDbPolyline
 90
        5
 70
     0
 43
0.0
 10
31415.26721759
 20
-36691.80317579
 10
32400.26721759
 20
-36691.80317579
 10
32400.26721759
 20
-35336.80317579
 10
31415.26721759
 20
-35336.80317579
 10
31415.26721759
 20
-36691.80317579
  0
LWPOLYLINE
  5
287
100
AcDbEntity
  8
Ech.1_5
 62
   190
  6
CONTINUOUS
370
    -3
100
AcDbPolyline
 90
        4
 70
     1
 43
0.0
 10
31944.31032925
 20
-35824.98918598
 10
31899.31032925
 20
-35824.98918598
 10
31899.31032925
 20
-36044.98918598
 10
31944.31032925
 20
-36044.98918598
  0
LWPOLYLINE
  5
288
100
AcDbEntity
  8
Ech.1_5
 62
   190
  6
CONTINUOUS
370
    -3
100
AcDbPolyline
 90
        4
 70
     1
 43
0.0
 10
31899.31032925
 20
-36044.98918598
 10
31944.31032925
 20
-36044.98918598
 10
31944.31032925
 20
-35824.98918598
 10
31899.31032925
 20
-35824.98918598
  0
LWPOLYLINE
  5
289
100
AcDbEntity
  8
Ech.1_5
 62
     5
  6
CONTINUOUS
370
    -3
100
AcDbPolyline
 90
        5
 70
     0
 43
0.0
 10
31899.31032925
 20
-35824.98918598
 10
31944.31032925
 20
-35824.98918598
 10
31944.31032925
 20
-36044.98918598
 10
31899.31032925
 20
-36044.98918598
 10
31899.31032925
 20
-35824.98918598
  0
LWPOLYLINE
  5
28A
100
AcDbEntity
  8
Ech.1_5
 62
   190
  6
CONTINUOUS
370
    -3
100
AcDbPolyline
 90
        4
 70
     1
 43
0.0
 10
31899.31032925
 20
-35724.98918598
 10
31899.31032925
 20
-35824.98918598
 10
32400.26721759
 20
-35824.98918598
 10
32400.26721759
 20
-35724.98918598
  0
LWPOLYLINE
  5
28B
100
AcDbEntity
  8
Ech.1_5
 62
     5
  6
CONTINUOUS
370
    -3
100
AcDbPolyline
 90
        5
 70
     0
 43
0.0
 10
31574.77983699
 20
-35653.1904042
 10
31612.36754182
 20
-35639.50959846
 10
31621.60208569
 20
-35664.88129922
 10
31584.01438086
 20
-35678.56210496
 10
31574.77983699
 20
-35653.1904042
  0
LWPOLYLINE
  5
28C
100
AcDbEntity
  8
Ech.1_5
 62
   190
  6
CONTINUOUS
370
    -3
100
AcDbPolyline
 90
       11
 70
     1
 43
0.0
 10
32264.13121522
 20
-35402.28702157
 10
32237.64054858
 20
-35411.92883571
 10
32259.18646318
 20
-35471.12574957
 10
32271.73239532
 20
-35505.59530974
 10
32274.8057372
 20
-35514.03935226
 10
32274.81052343
 20
-35514.0525023
 10
32277.67197791
 20
-35521.91428387
 10
32312.88498011
 20
-35618.66121229
 10
32361.56972313
 20
-35600.94141497
 10
32388.06038977
 20
-35591.29960082
 10
32312.81595824
 20
-35384.56722425
  0
LWPOLYLINE
  5
28D
100
AcDbEntity
  8
Ech.1_5
 62
     5
  6
CONTINUOUS
370
    -3
100
AcDbPolyline
 90
        7
 70
     0
 43
0.0
 10
32312.81595824
 20
-35384.56722425
 10
32264.13121522
 20
-35402.28702157
 10
32237.64054858
 20
-35411.92883571
 10
32312.88498011
 20
-35618.66121229
 10
32361.56972313
 20
-35600.94141497
 10
32388.06038977
 20
-35591.29960082
 10
32312.81595824
 20
-35384.56722425
  0
LINE
  5
28E
100
AcDbEntity
  8
Ech.1_5
 62
   190
  6
CONTINUOUS
370
    -3
100
AcDbLine
 10
32312.88498011
 20
-35618.66121229
 30
0.0
 11
32312.81595824
 21
-35384.56722425
 31
0.0
  0
LINE
  5
28F
100
AcDbEntity
  8
Ech.1_5
 62
   190
  6
CONTINUOUS
370
    -3
100
AcDbLine
 10
32237.64054858
 20
-35411.92883571
 30
0.0
 11
32388.06038977
 21
-35591.29960082
 31
0.0
  0
LWPOLYLINE
  5
290
100
AcDbEntity
  8
Ech.1_5
 62
   190
  6
CONTINUOUS
370
    -3
100
AcDbPolyline
 90
        3
 70
     0
 43
0.0
 10
32297.48347358
 20
-35521.79687277
 10
32248.9207033
 20
-35623.15045607
 10
32228.9207033
 20
-35623.15045607
  0
INSERT
  5
291
100
AcDbEntity
  8
Ech.1_5
 62
   190
  6
CONTINUOUS
370
    -3
100
AcDbBlockReference
  2
CDWK_EXTR_4
 10
32297.48347358
 20
-35521.79687277
 30
0.0
 41
5.0
 42
5.0
 43
5.0
 50
244.39895648
  0
LWPOLYLINE
  5
292
100
AcDbEntity
  8
Ech.1_5
 62
     7
  6
CONTINUOUS
370
    -3
100
AcDbPolyline
 90
        8
 70
     1
 43
0.0
 10
32108.89979089
 20
-35412.14593928
 10
32088.18725452
 20
-35536.84987212
 10
32091.1658552
 20
-35535.76575013
 10
32113.65865823
 20
-35401.60412593
 10
32108.14681465
 20
-35408.74245215
 10
32158.90254194
 20
-35139.10195545
 10
32156.12801074
 20
-35139.10195545
 10
32103.38794726
 20
-35419.28426557
  0
LWPOLYLINE
  5
293
100
AcDbEntity
  8
Ech.1_5
 62
   190
  6
CONTINUOUS
370
    -3
100
AcDbPolyline
 90
       50
 70
     0
 43
0.0
 10
31950.97699592
 20
-36392.33338804
 42
1.14028181
 10
31948.82016192
 20
-36375.95067462
 10
31919.80049084
 20
-36383.71610912
 42
-1.30322619
 10
31919.80048714
 20
-36367.61734795
 10
31948.82016179
 20
-36375.38276912
 42
1.30322619
 10
31948.8201581
 20
-36359.28400795
 10
31919.80048701
 20
-36367.04944245
 42
-1.30322619
 10
31919.80048332
 20
-36350.95068128
 10
31948.82015797
 20
-36358.71610246
 42
1.30322619
 10
31948.82015427
 20
-36342.61734129
 10
31919.80048318
 20
-36350.38277578
 42
-1.30322619
 10
31919.80047949
 20
-36334.28401462
 10
31948.82015414
 20
-36342.04943579
 42
1.30322619
 10
31948.82015044
 20
-36325.95067462
 10
31919.80047936
 20
-36333.71610912
 42
-1.30322619
 10
31919.80047566
 20
-36317.61734795
 10
31948.82015031
 20
-36325.38276912
 42
1.30322619
 10
31948.82014662
 20
-36309.28400795
 10
31919.80047553
 20
-36317.04944245
 42
-1.30322619
 10
31919.80047184
 20
-36300.95068128
 10
31948.82014649
 20
-36308.71610246
 42
1.30322619
 10
31948.82014279
 20
-36292.61734129
 10
31919.80047171
 20
-36300.38277578
 42
-1.30322619
 10
31919.80046801
 20
-36284.28401462
 10
31948.82014266
 20
-36292.04943579
 42
1.30322619
 10
31948.82013897
 20
-36275.95067462
 10
31919.80046788
 20
-36283.71610912
 42
-1.30322619
 10
31919.80046418
 20
-36267.61734795
 10
31948.82013884
 20
-36275.38276912
 42
1.30322619
 10
31948.82013514
 20
-36259.28400795
 10
31919.80046405
 20
-36267.04944245
 42
-1.30322619
 10
31919.80046036
 20
-36250.95068128
 10
31948.82013501
 20
-36258.71610246
 42
1.30322619
 10
31948.82013131
 20
-36242.61734129
 10
31919.80046023
 20
-36250.38277578
 42
-1.30322619
 10
31919.80045653
 20
-36234.28401462
 10
31948.82013118
 20
-36242.04943579
 42
1.30322619
 10
31948.82012749
 20
-36225.95067462
 10
31919.8004564
 20
-36233.71610912
 42
-1.30322619
 10
31919.80045271
 20
-36217.61734795
 10
31948.82012736
 20
-36225.38276912
 42
1.30322619
 10
31948.82012366
 20
-36209.28400795
 10
31919.80045258
 20
-36217.04944245
 42
-1.30322619
 10
31919.80044888
 20
-36200.95068128
 10
31948.82012353
 20
-36208.71610246
 42
1.30322619
 10
31948.82011984
 20
-36192.61734129
 10
31919.80044875
 20
-36200.38277578
 42
-1.30322619
 10
31919.80044505
 20
-36184.28401462
 10
31948.82011971
 20
-36192.04943579
 42
0.51538904
 10
31959.28932415
 20
-36183.40942063
  0
LWPOLYLINE
  5
294
100
AcDbEntity
  8
Ech.1_5
 62
   190
  6
CONTINUOUS
370
    -3
100
AcDbPolyline
 90
       60
 70
     0
 43
0.0
 10
31899.31032925
 20
-35808.32251932
 42
1.14028181
 10
31932.07575709
 20
-35804.00885885
 10
31916.54490141
 20
-35745.96951311
 42
-1.30322619
 10
31948.74242375
 20
-35745.96951311
 10
31933.21156808
 20
-35804.00885885
 42
1.30322619
 10
31965.40909042
 20
-35804.00885885
 10
31949.87823475
 20
-35745.96951311
 42
-1.30322619
 10
31982.07575709
 20
-35745.96951311
 10
31966.54490141
 20
-35804.00885885
 42
1.30322619
 10
31998.74242375
 20
-35804.00885885
 10
31983.21156808
 20
-35745.96951311
 42
-1.30322619
 10
32015.40909042
 20
-35745.96951311
 10
31999.87823475
 20
-35804.00885885
 42
1.30322619
 10
32032.07575709
 20
-35804.00885885
 10
32016.54490141
 20
-35745.96951311
 42
-1.30322619
 10
32048.74242375
 20
-35745.96951311
 10
32033.21156808
 20
-35804.00885885
 42
1.30322619
 10
32065.40909042
 20
-35804.00885885
 10
32049.87823475
 20
-35745.96951311
 42
-1.30322619
 10
32082.07575709
 20
-35745.96951311
 10
32066.54490141
 20
-35804.00885885
 42
1.30322619
 10
32098.74242375
 20
-35804.00885885
 10
32083.21156808
 20
-35745.96951311
 42
-1.30322619
 10
32115.40909042
 20
-35745.96951311
 10
32099.87823475
 20
-35804.00885885
 42
1.30322619
 10
32132.07575709
 20
-35804.00885885
 10
32116.54490141
 20
-35745.96951311
 42
-1.30322619
 10
32148.74242375
 20
-35745.96951311
 10
32133.21156808
 20
-35804.00885885
 42
1.30322619
 10
32165.40909042
 20
-35804.00885885
 10
32149.87823475
 20
-35745.96951311
 42
-1.30322619
 10
32182.07575709
 20
-35745.96951311
 10
32166.54490141
 20
-35804.00885885
 42
1.30322619
 10
32198.74242375
 20
-35804.00885885
 10
32183.21156808
 20
-35745.96951311
 42
-1.30322619
 10
32215.40909042
 20
-35745.96951311
 10
32199.87823475
 20
-35804.00885885
 42
1.30322619
 10
32232.07575709
 20
-35804.00885885
 10
32216.54490141
 20
-35745.96951311
 42
-1.30322619
 10
32248.74242375
 20
-35745.96951311
 10
32233.21156808
 20
-35804.00885885
 42
1.30322619
 10
32265.40909042
 20
-35804.00885885
 10
32249.87823475
 20
-35745.96951311
 42
-1.30322619
 10
32282.07575709
 20
-35745.96951311
 10
32266.54490141
 20
-35804.00885885
 42
1.30322619
 10
32298.74242375
 20
-35804.00885885
 10
32283.21156808
 20
-35745.96951311
 42
-1.30322619
 10
32315.40909042
 20
-35745.96951311
 10
32299.87823475
 20
-35804.00885885
 42
1.30322619
 10
32332.07575709
 20
-35804.00885885
 10
32316.54490141
 20
-35745.96951311
 42
-1.30322619
 10
32348.74242375
 20
-35745.96951311
 10
32333.21156808
 20
-35804.00885885
 42
1.30322619
 10
32365.40909042
 20
-35804.00885885
 10
32349.87823475
 20
-35745.96951311
 42
-1.30322619
 10
32382.07575709
 20
-35745.96951311
 10
32366.54490141
 20
-35804.00885885
 42
1.30322619
 10
32398.74242375
 20
-35804.00885885
 10
32383.21156808
 20
-35745.96951311
 42
-0.51112797
 10
32400.26721759
 20
-35725.01667772
  0
LWPOLYLINE
  5
295
100
AcDbEntity
  8
Ech.1_5
 62
   190
  6
CONTINUOUS
370
    -3
100
AcDbPolyline
 90
        4
 70
     1
 43
0.0
 10
31899.31059263
 20
-36170.40925812
 10
31899.31059263
 20
-36183.40925812
 10
32400.26721759
 20
-36183.40925812
 10
32400.26721759
 20
-36170.40925812
  0
LWPOLYLINE
  5
296
102
{ACAD_REACTORS
330
297
102
}
100
AcDbEntity
  8
Ech.1_5
 62
     7
  6
CONTINUOUS
370
    -3
100
AcDbPolyline
 90
        4
 70
     1
 43
0.0
 10
32400.26721759
 20
-36183.40933396
 10
32400.26721759
 20
-36170.40933396
 10
31899.31059263
 20
-36170.40942063
 10
31899.31059263
 20
-36183.40942063
  0
HATCH
  5
297
100
AcDbEntity
  8
Ech.1_5
 62
   190
  6
CONTINUOUS
100
AcDbHatch
 10
0.0
 20
0.0
 30
0.0
210
0.0
220
0.0
230
1.0
  2
DOTS2
 70
     0
 71
     1
 91
        1
 92
        7
 72
     0
 73
     1
 93
        4
 10
32400.26721759
 20
-36183.40933396
 10
32400.26721759
 20
-36170.40933396
 10
31899.31059263
 20
-36170.40942063
 10
31899.31059263
 20
-36183.40942063
 97
        1
330
296
 75
     0
 76
     2
 52
0.0
 41
4.72440952
 77
     0
 78
     1
 53
0.0
 43
0.0
 44
0.0
 45
3.75
 46
3.535
 79
     2
 49
0.0
 49
-3.535
 47
0.775229
 98
        1
 10
0.0
 20
0.0
  0
LWPOLYLINE
  5
298
100
AcDbEntity
  8
Ech.1_5
 62
     7
  6
CONTINUOUS
370
    -3
100
AcDbPolyline
 90
        4
 70
     1
 43
0.0
 10
31899.31032925
 20
-36044.98918598
 10
31899.31010988
 20
-36104.98918598
 10
32400.26755713
 20
-36104.98918598
 10
32400.2677765
 20
-36044.98918598
  0
CIRCLE
  5
299
100
AcDbEntity
  8
Ech.1_5
 62
     7
  6
CONTINUOUS
370
    -3
100
AcDbCircle
 10
32025.63141992
 20
-36124.47022124
 30
0.0
 40
2.51802373
  0
LINE
  5
29A
100
AcDbEntity
  8
Ech.1_5
 62
     7
  6
CONTINUOUS
370
    -3
100
AcDbLine
 10
32039.13152178
 20
-36056.17511026
 30
0.0
 11
32039.13139786
 21
-36143.4094074
 31
0.0
  0
CIRCLE
  5
29B
100
AcDbEntity
  8
Ech.1_5
 62
     7
  6
CONTINUOUS
370
    -3
100
AcDbCircle
 10
32025.63147231
 20
-36079.47022124
 30
0.0
 40
2.51802373
  0
ARC
  5
29C
100
AcDbEntity
  8
Ech.1_5
 62
     7
  6
CONTINUOUS
370
    -3
100
AcDbCircle
 10
32007.13139786
 20
-36143.40937014
 30
0.0
 40
5.0
100
AcDbArc
 50
269.99993329
 51
359.99993329
  0
LINE
  5
29D
100
AcDbEntity
  8
Ech.1_5
 62
     7
  6
CONTINUOUS
370
    -3
100
AcDbLine
 10
32006.90127916
 20
-36157.48966624
 30
0.0
 11
32006.90128149
 21
-36155.48966624
 31
0.0
  0
LINE
  5
29E
100
AcDbEntity
  8
Ech.1_5
 62
     7
  6
CONTINUOUS
370
    -3
100
AcDbLine
 10
32003.13139204
 20
-36148.40936548
 30
0.0
 11
32007.13139204
 21
-36148.40937014
 31
0.0
  0
ARC
  5
29F
100
AcDbEntity
  8
Ech.1_5
 62
     7
  6
CONTINUOUS
370
    -3
100
AcDbCircle
 10
32016.89767775
 20
-36142.9048871
 30
0.0
 40
14.82598747
100
AcDbArc
 50
201.79410437
 51
238.13509164
  0
ARC
  5
2A0
100
AcDbEntity
  8
Ech.1_5
 62
     7
  6
CONTINUOUS
370
    -3
100
AcDbCircle
 10
32015.44216356
 20
-36156.37967709
 30
0.0
 40
12.47697948
100
AcDbArc
 50
189.36217724
 51
254.61211432
  0
LINE
  5
2A1
100
AcDbEntity
  8
Ech.1_5
 62
     7
  6
CONTINUOUS
370
    -3
100
AcDbLine
 10
32006.90127916
 20
-36157.48966624
 30
0.0
 11
32002.77086522
 21
-36157.48966143
 31
0.0
  0
LINE
  5
2A2
100
AcDbEntity
  8
Ech.1_5
 62
     7
  6
CONTINUOUS
370
    -3
100
AcDbLine
 10
32002.77086522
 20
-36157.48966143
 30
0.0
 11
32002.77085251
 21
-36168.40936506
 31
0.0
  0
LINE
  5
2A3
100
AcDbEntity
  8
Ech.1_5
 62
     7
  6
CONTINUOUS
370
    -3
100
AcDbLine
 10
32006.90128149
 20
-36155.48966624
 30
0.0
 11
32000.77086755
 21
-36155.4896591
 31
0.0
  0
LINE
  5
2A4
100
AcDbEntity
  8
Ech.1_5
 62
     7
  6
CONTINUOUS
370
    -3
100
AcDbLine
 10
32000.77086755
 20
-36155.4896591
 30
0.0
 11
32000.77085018
 21
-36170.40936273
 31
0.0
  0
CIRCLE
  5
2A5
100
AcDbEntity
  8
Ech.1_5
 62
     7
  6
CONTINUOUS
370
    -3
100
AcDbCircle
 10
32025.63143738
 20
-36109.47022124
 30
0.0
 40
2.51802373
  0
CIRCLE
  5
2A6
100
AcDbEntity
  8
Ech.1_5
 62
     7
  6
CONTINUOUS
370
    -3
100
AcDbCircle
 10
32025.63140245
 20
-36139.47022124
 30
0.0
 40
2.51802373
  0
CIRCLE
  5
2A7
100
AcDbEntity
  8
Ech.1_5
 62
     7
  6
CONTINUOUS
370
    -3
100
AcDbCircle
 10
32025.63145485
 20
-36094.47022124
 30
0.0
 40
2.51802373
  0
ARC
  5
2A8
100
AcDbEntity
  8
Ech.1_5
 62
     7
  6
CONTINUOUS
370
    -3
100
AcDbCircle
 10
32034.36511915
 20
-36142.90490744
 30
0.0
 40
14.82598747
100
AcDbArc
 50
301.86477493
 51
338.20576221
  0
ARC
  5
2A9
100
AcDbEntity
  8
Ech.1_5
 62
     7
  6
CONTINUOUS
370
    -3
100
AcDbCircle
 10
32045.989776
 20
-36155.26450293
 30
0.0
 40
3.80485997
100
AcDbArc
 50
183.49669989
 51
304.25383409
  0
ARC
  5
2AA
100
AcDbEntity
  8
Ech.1_5
 62
     7
  6
CONTINUOUS
370
    -3
100
AcDbCircle
 10
32035.82060196
 20
-36156.37970082
 30
0.0
 40
12.47697948
100
AcDbArc
 50
285.38775225
 51
350.63768933
  0
LINE
  5
2AB
100
AcDbEntity
  8
Ech.1_5
 62
     7
  6
CONTINUOUS
370
    -3
100
AcDbLine
 10
32048.13139204
 20
-36148.40941788
 30
0.0
 11
32044.13139204
 21
-36148.40941322
 31
0.0
  0
ARC
  5
2AC
100
AcDbEntity
  8
Ech.1_5
 62
     7
  6
CONTINUOUS
370
    -3
100
AcDbCircle
 10
32044.13139786
 20
-36143.40941322
 30
0.0
 40
5.0
100
AcDbArc
 50
179.99993329
 51
269.99993329
  0
LINE
  5
2AD
100
AcDbEntity
  8
Ech.1_5
 62
     7
  6
CONTINUOUS
370
    -3
100
AcDbLine
 10
32044.36148378
 20
-36157.48970986
 30
0.0
 11
32044.36148611
 21
-36155.48970986
 31
0.0
  0
LINE
  5
2AE
100
AcDbEntity
  8
Ech.1_5
 62
     7
  6
CONTINUOUS
370
    -3
100
AcDbLine
 10
32044.36148378
 20
-36157.48970986
 30
0.0
 11
32048.49189771
 21
-36157.48971467
 31
0.0
  0
LINE
  5
2AF
100
AcDbEntity
  8
Ech.1_5
 62
     7
  6
CONTINUOUS
370
    -3
100
AcDbLine
 10
32048.49189771
 20
-36157.48971467
 30
0.0
 11
32048.491885
 21
-36168.4094183
 31
0.0
  0
LINE
  5
2B0
100
AcDbEntity
  8
Ech.1_5
 62
     7
  6
CONTINUOUS
370
    -3
100
AcDbLine
 10
32044.36148611
 20
-36155.48970986
 30
0.0
 11
32050.49190004
 21
-36155.48971699
 31
0.0
  0
LINE
  5
2B1
100
AcDbEntity
  8
Ech.1_5
 62
     7
  6
CONTINUOUS
370
    -3
100
AcDbLine
 10
32050.49190004
 20
-36155.48971699
 30
0.0
 11
32050.49188267
 21
-36170.40942063
 31
0.0
  0
LINE
  5
2B2
100
AcDbEntity
  8
Ech.1_5
 62
     7
  6
CONTINUOUS
370
    -3
100
AcDbLine
 10
32012.13152178
 20
-36056.17507882
 30
0.0
 11
32012.13139786
 21
-36143.40937596
 31
0.0
  0
LINE
  5
2B3
100
AcDbEntity
  8
Ech.1_5
 62
     7
  6
CONTINUOUS
370
    -3
100
AcDbLine
 10
32012.13152178
 20
-36056.17507882
 30
0.0
 11
32039.13152178
 21
-36056.17511026
 31
0.0
  0
LINE
  5
2B4
100
AcDbEntity
  8
Ech.1_5
 62
     7
  6
CONTINUOUS
370
    -3
100
AcDbLine
 10
32048.491885
 20
-36168.4094183
 30
0.0
 11
32002.77085251
 21
-36168.40936506
 31
0.0
  0
LINE
  5
2B5
100
AcDbEntity
  8
Ech.1_5
 62
     7
  6
CONTINUOUS
370
    -3
100
AcDbLine
 10
32000.77085018
 20
-36170.40936273
 30
0.0
 11
32050.49188267
 21
-36170.40942063
 31
0.0
  0
ARC
  5
2B6
100
AcDbEntity
  8
Ech.1_5
 62
     7
  6
CONTINUOUS
370
    -3
100
AcDbCircle
 10
32005.27299212
 20
-36155.26445552
 30
0.0
 40
3.80485997
100
AcDbArc
 50
235.74603248
 51
356.50316668
  0
LWPOLYLINE
  5
2B7
100
AcDbEntity
  8
Ech.1_5
 62
   190
  6
CONTINUOUS
370
    -3
100
AcDbPolyline
 90
        4
 70
     1
 43
0.0
 10
32334.91024627
 20
-35824.98918598
 10
32289.91024627
 20
-35824.98918598
 10
32289.91024627
 20
-36044.98918598
 10
32334.91024627
 20
-36044.98918598
  0
LWPOLYLINE
  5
2B8
100
AcDbEntity
  8
Ech.1_5
 62
   190
  6
CONTINUOUS
370
    -3
100
AcDbPolyline
 90
        4
 70
     1
 43
0.0
 10
32289.91024627
 20
-36044.98918598
 10
32334.91024627
 20
-36044.98918598
 10
32334.91024627
 20
-35824.98918598
 10
32289.91024627
 20
-35824.98918598
  0
LWPOLYLINE
  5
2B9
100
AcDbEntity
  8
Ech.1_5
 62
     5
  6
CONTINUOUS
370
    -3
100
AcDbPolyline
 90
        5
 70
     0
 43
0.0
 10
32289.91024627
 20
-35824.98918598
 10
32334.91024627
 20
-35824.98918598
 10
32334.91024627
 20
-36044.98918598
 10
32289.91024627
 20
-36044.98918598
 10
32289.91024627
 20
-35824.98918598
  0
LWPOLYLINE
  5
2BA
100
AcDbEntity
  8
Ech.1_5
 62
   190
  6
CONTINUOUS
370
    -3
100
AcDbPolyline
 90
        4
 70
     1
 43
0.0
 10
32400.26721759
 20
-36044.98918598
 10
32400.26721759
 20
-35824.98918598
 10
32334.91024627
 20
-35824.98918598
 10
32334.91024627
 20
-36044.98918598
  0
CIRCLE
  5
2BB
100
AcDbEntity
  8
Ech.1_5
 62
     7
  6
CONTINUOUS
370
    -3
100
AcDbCircle
 10
32025.63147231
 20
-36065.64149627
 30
0.0
 40
2.51802373
  0
LWPOLYLINE
  5
2BC
100
AcDbEntity
  8
Ech.1_5
 62
   190
  6
CONTINUOUS
370
    -3
100
AcDbPolyline
 90
        4
 70
     0
 43
0.0
 10
32334.91024627
 20
-36044.20020527
 42
0.55949646
 10
32377.89297491
 20
-35998.83246629
 10
32343.72509243
 20
-35871.14590567
 42
-0.7013791
 10
32400.2677765
 20
-35831.68650968
  0
LWPOLYLINE
  5
2BD
100
AcDbEntity
  8
Ech.1_5
 62
   190
  6
CONTINUOUS
370
    -3
100
AcDbPolyline
 90
        3
 70
     0
 43
0.0
 10
32400.2677765
 20
-35924.55510063
 10
32380.3917591
 20
-35998.83246629
 42
0.36358478
 10
32400.2677765
 20
-36041.5326649
  0
LINE
  5
2BE
100
AcDbEntity
  8
Ech.1_5
 62
     1
  6
CADWORK_22
 48
-5.0
370
    35
100
AcDbLine
 10
31899.31032925
 20
-36044.98918598
 30
0.0
 11
32400.2677765
 21
-36044.98918598
 31
0.0
  0
ENDSEC
  0
SECTION
  2
OBJECTS
  0
DICTIONARY
  5
1
100
AcDbDictionary
  3
ACAD_GROUP
350
2
  3
ACAD_MLINESTYLE
350
3
  0
DICTIONARY
  5
2
102
{CDWK_REACTORS
330
1
102
}
100
AcDbDictionary
  0
DICTIONARY
  5
3
102
{CDWK_REACTORS
330
1
102
}
100
AcDbDictionary
  3
STANDARD
350
4
  0
MLINESTYLE
  5
4
102
{CDWK_REACTORS
330
3
102
}
100
AcDbMlineStyle
  2
STANDARD
 70
     0
  3

 62
     0
 51
90.0
 52
90.0
 71
     2
 49
0.5
 62
   256
  6
BYLAYER
 49
-0.5
 62
   256
  6
BYLAYER
  0
ENDSEC
  0
EOF
