  0
SECTION
  2
HEADER
  9
$ACADVER
  1
AC1014
  9
$DWGCODEPAGE
  3
ANSI_1252
  9
$INSBASE
 10
0.0
 20
0.0
 30
0.0
  9
$EXTMIN
 10
16.95292807
 20
-36601.53009893
  9
$EXTMAX
 10
30770.306612
 20
784.39574146
  9
$LIMMIN
 10
16.95292807
 20
-36601.53009893
  9
$LIMMAX
 10
30770.306612
 20
784.39574146
  9
$ORTHOMODE
 70
     0
  9
$REGENMODE
 70
     1
  9
$FILLMODE
 70
     1
  9
$QTEXTMODE
 70
     0
  9
$MIRRTEXT
 70
     1
  9
$DRAGMODE
 70
     2
  9
$LTSCALE
 40
5.0
  9
$OSMODE
 70
     0
  9
$ATTMODE
 70
     1
  9
$TEXTSIZE
 40
3.5
  9
$TRACEWID
 40
1.0
  9
$TEXTSTYLE
  7
STANDARD
  9
$CLAYER
  8
0
  9
$CELTYPE
  6
BYLAYER
  9
$CECOLOR
 62
   256
  9
$DIMSCALE
 40
1.0
  9
$DIMASZ
 40
2.0
  9
$DIMEXO
 40
5.0
  9
$DIMDLI
 40
10.0
  9
$DIMRND
 40
0.0
  9
$DIMDLE
 40
2.0
  9
$DIMEXE
 40
2.0
  9
$DIMTP
 40
0.0
  9
$DIMTM
 40
0.0
  9
$DIMTXT
 40
2.5
  9
$DIMCEN
 40
1.5
  9
$DIMTSZ
 40
0.0
  9
$DIMTOL
 70
     0
  9
$DIMLIM
 70
     0
  9
$DIMTIH
 70
     1
  9
$DIMTOH
 70
     0
  9
$DIMSE1
 70
     0
  9
$DIMSE2
 70
     0
  9
$DIMTAD
 70
     1
  9
$DIMZIN
 70
     8
  9
$DIMBLK
  1

  9
$DIMASO
 70
     1
  9
$DIMSHO
 70
     1
  9
$DIMPOST
  1

  9
$DIMAPOST
  1

  9
$DIMALT
 70
     0
  9
$DIMALTD
 70
     2
  9
$DIMALTF
 40
25.4
  9
$DIMLFAC
 40
1.0
  9
$DIMTOFL
 70
     0
  9
$DIMTVP
 40
0.0
  9
$DIMTIX
 70
     0
  9
$DIMSOXD
 70
     0
  9
$DIMSAH
 70
     0
  9
$DIMBLK1
  1

  9
$DIMBLK2
  1

  9
$DIMSTYLE
  2
*UNNAMED
  9
$DIMCLRD
 70
   190
  9
$DIMCLRE
 70
   190
  9
$DIMCLRT
 70
   190
  9
$DIMTFAC
 40
1.0
  9
$DIMGAP
 40
0.09
  9
$DIMUNIT
 70
     2
  9
$LUNITS
 70
     2
  9
$LUPREC
 70
     6
  9
$AXISMODE
 70
     0
  9
$AXISUNIT
 10
0.0
 20
0.0
  9
$SKETCHINC
 40
0.1
  9
$FILLETRAD
 40
0.0
  9
$AUNITS
 70
     0
  9
$AUPREC
 70
     0
  9
$MENU
  1
ACAD
  9
$ELEVATION
 40
0.0
  9
$PELEVATION
 40
0.0
  9
$THICKNESS
 40
0.0
  9
$LIMCHECK
 70
     0
  9
$BLIPMODE
 70
     1
  9
$CHAMFERA
 40
0.0
  9
$CHAMFERB
 40
0.0
  9
$SKPOLY
 70
     1
  9
$TDCREATE
 40
2457811.0000000000
  9
$TDUPDATE
 40
2457811.0000000000
  9
$TDINDWG
 40
0.0
  9
$TDUSRTIMER
 40
0.0
  9
$USRTIMER
 70
     1
  9
$ANGBASE
 50
0.0
  9
$ANGDIR
 70
     0
  9
$PDMODE
 70
     0
  9
$PDSIZE
 40
0.0
  9
$PLINEWID
 40
0.0
  9
$COORDS
 70
     2
  9
$SPLFRAME
 70
     0
  9
$SPLINETYPE
 70
     6
  9
$SPLINESEGS
 70
     8
  9
$ATTDIA
 70
     1
  9
$ATTREQ
 70
     1
  9
$HANDLING
 70
     1
  9
$HANDSEED
  5
     28A
  9
$SURFTAB1
 70
     6
  9
$SURFTAB2
 70
     6
  9
$SURFTYPE
 70
     6
  9
$SURFU
 70
     6
  9
$SURFV
 70
     6
  9
$UCSNAME
  2

  9
$UCSORG
 10
0.0
 20
0.0
 30
0.0
  9
$UCSXDIR
 10
1.0
 20
0.0
 30
0.0
  9
$UCSYDIR
 10
0.0
 20
1.0
 30
0.0
  9
$PUCSNAME
  2

  9
$PUCSORG
 10
0.0
 20
0.0
 30
0.0
  9
$PUCSXDIR
 10
1.0
 20
0.0
 30
0.0
  9
$PUCSYDIR
 10
0.0
 20
1.0
 30
0.0
  9
$USERI1
 70
     0
  9
$USERI2
 70
     0
  9
$USERI3
 70
     0
  9
$USERI4
 70
     0
  9
$USERI5
 70
     0
  9
$USERR1
 40
0.0
  9
$USERR2
 40
0.0
  9
$USERR3
 40
0.0
  9
$USERR4
 40
0.0
  9
$USERR5
 40
0.0
  9
$WORLDVIEW
 70
     1
  9
$SHADEDGE
 70
     3
  9
$SHADEDIF
 70
    70
  9
$TILEMODE
 70
     1
  9
$MAXACTVP
 70
    16
  9
$PINSBASE
 10
0.0
 20
0.0
 30
0.0
  9
$PLIMCHECK
 70
     0
  9
$PEXTMIN
 10
1.0000000000000E+20
 20
1.0000000000000E+20
 30
1.0000000000000E+20
  9
$PEXTMAX
 10
-1.0000000000000E+20
 20
-1.0000000000000E+20
 30
-1.0000000000000E+20
  9
$PLIMMIN
 10
0.0
 20
0.0
  9
$UNITMODE
 70
     0
  9
$VISRETAIN
 70
     0
  9
$MEASUREMENT
 70
     1
  0
ENDSEC
  0
SECTION
  2
TABLES
  0
TABLE
  2
VPORT
  5
E9
100
AcDbSymbolTable
 70
     1
  0
ENDTAB
  0
TABLE
  2
STYLE
  5
EA
100
AcDbSymbolTable
 70
     2
  0
STYLE
  5
EB
100
AcDbSymbolTableRecord
100
AcDbTextStyleTableRecord
  2
STANDARD
 70
     0
 40
0.0
 41
1.0
 50
0.0
 71
     0
 42
3.5
  3
MONOTXT
  4

  0
STYLE
  5
EC
100
AcDbSymbolTableRecord
100
AcDbTextStyleTableRecord
  2
SYMAP
 70
     0
 40
0.0
 41
1.0
 50
0.0
 71
     0
 42
3.5
  3
SYMAP
  4

  0
STYLE
  5
ED
100
AcDbSymbolTableRecord
100
AcDbTextStyleTableRecord
  2
CADWORK1
 70
     0
 40
0.0
 41
1.0
 50
0.0
 71
     0
 42
3.5
  3
MONOTXT
  4

  0
STYLE
  5
EE
100
AcDbSymbolTableRecord
100
AcDbTextStyleTableRecord
  2
MONOTXT
 70
     0
 40
0.0
 41
1.0
 50
0.0
 71
     0
 42
3.5
  3
MONOTXT
  4

  0
ENDTAB
  0
TABLE
  2
LTYPE
  5
EF
100
AcDbSymbolTable
 70
    13
  0
LTYPE
  5
F0
100
AcDbSymbolTableRecord
100
AcDbLinetypeTableRecord
  2
BYBLOCK
 70
    64
  3

 72
    65
 73
     0
 40
0.0
  0
LTYPE
  5
F1
100
AcDbSymbolTableRecord
100
AcDbLinetypeTableRecord
  2
BYLAYER
 70
    64
  3

 72
    65
 73
     0
 40
0.0
  0
LTYPE
  5
F2
100
AcDbSymbolTableRecord
100
AcDbLinetypeTableRecord
  2
CONTINUOUS
 70
    64
  3
Solid line
 72
    65
 73
     0
 40
0.0
  0
LTYPE
  5
F3
100
AcDbSymbolTableRecord
100
AcDbLinetypeTableRecord
  2
DOT2
 70
    64
  3
...............................................
 72
    65
 73
     2
 40
1.25
 49
0.0
 74
     0
 49
-1.25
 74
     0
  0
LTYPE
  5
F4
100
AcDbSymbolTableRecord
100
AcDbLinetypeTableRecord
  2
DASHDOT
 70
    64
  3
 __ . __ . __ . __ . __ . __ . __ . __ . __ . __
 72
    65
 73
     4
 40
10.0
 49
5.0
 74
     0
 49
-2.5
 74
     0
 49
0.0
 74
     0
 49
-2.5
 74
     0
  0
LTYPE
  5
F5
100
AcDbSymbolTableRecord
100
AcDbLinetypeTableRecord
  2
DASHEDX2
 70
    64
  3
____  ____  ____  ____  ____  ____  ____  ____
 72
    65
 73
     2
 40
3.75
 49
2.5
 74
     0
 49
-1.25
 74
     0
  0
LTYPE
  5
F6
100
AcDbSymbolTableRecord
100
AcDbLinetypeTableRecord
  2
CADWORK_22
 70
    64
  3
22 =======================================
 72
    65
 73
     0
 40
0.0
  0
LTYPE
  5
F7
100
AcDbSymbolTableRecord
100
AcDbLinetypeTableRecord
  2
DAL
 70
    64
  3
Solid line (for MAPS)
 72
    65
 73
     0
 40
0.0
  0
LTYPE
  5
F8
100
AcDbSymbolTableRecord
100
AcDbLinetypeTableRecord
  2
MUR
 70
    64
  3
Solid line (for MAPS)
 72
    65
 73
     0
 40
0.0
  0
LTYPE
  5
F9
100
AcDbSymbolTableRecord
100
AcDbLinetypeTableRecord
  2
SOM
 70
    64
  3
Solid line (for MAPS)
 72
    65
 73
     0
 40
0.0
  0
LTYPE
  5
FA
100
AcDbSymbolTableRecord
100
AcDbLinetypeTableRecord
  2
COL
 70
    64
  3
Solid line (for MAPS)
 72
    65
 73
     0
 40
0.0
  0
LTYPE
  5
FB
100
AcDbSymbolTableRecord
100
AcDbLinetypeTableRecord
  2
LGN
 70
    64
  3
Solid line (for MAPS)
 72
    65
 73
     0
 40
0.0
  0
LTYPE
  5
FC
100
AcDbSymbolTableRecord
100
AcDbLinetypeTableRecord
  2
PNT
 70
    64
  3
Solid line (for MAPS)
 72
    65
 73
     0
 40
0.0
  0
ENDTAB
  0
TABLE
  2
LAYER
  5
FD
100
AcDbSymbolTable
 70
    32
  0
LAYER
  5
FE
100
AcDbSymbolTableRecord
100
AcDbLayerTableRecord
  2
Standard
 70
     0
 62
     7
  6
CONTINUOUS
370
    -3
  0
LAYER
  5
FF
100
AcDbSymbolTableRecord
100
AcDbLayerTableRecord
  2
Ech.1_1
 70
     0
 62
     7
  6
CONTINUOUS
370
    -3
  0
LAYER
  5
100
100
AcDbSymbolTableRecord
100
AcDbLayerTableRecord
  2
Ech.1_2
 70
     0
 62
     7
  6
CONTINUOUS
370
    -3
  0
LAYER
  5
101
100
AcDbSymbolTableRecord
100
AcDbLayerTableRecord
  2
Ech.1_5
 70
     0
 62
     7
  6
CONTINUOUS
370
    -3
  0
LAYER
  5
102
100
AcDbSymbolTableRecord
100
AcDbLayerTableRecord
  2
Ech.1_10
 70
     0
 62
     7
  6
CONTINUOUS
370
    -3
  0
LAYER
  5
103
100
AcDbSymbolTableRecord
100
AcDbLayerTableRecord
  2
Ech.1_20
 70
     0
 62
     7
  6
CONTINUOUS
370
    -3
  0
LAYER
  5
104
100
AcDbSymbolTableRecord
100
AcDbLayerTableRecord
  2
Ech.1_25
 70
     0
 62
     7
  6
CONTINUOUS
370
    -3
  0
LAYER
  5
105
100
AcDbSymbolTableRecord
100
AcDbLayerTableRecord
  2
Ech.1_33
 70
     0
 62
     7
  6
CONTINUOUS
370
    -3
  0
LAYER
  5
106
100
AcDbSymbolTableRecord
100
AcDbLayerTableRecord
  2
Ech.1_50
 70
     0
 62
     7
  6
CONTINUOUS
370
    -3
  0
LAYER
  5
107
100
AcDbSymbolTableRecord
100
AcDbLayerTableRecord
  2
Ech.1_75
 70
     0
 62
     7
  6
CONTINUOUS
370
    -3
  0
LAYER
  5
108
100
AcDbSymbolTableRecord
100
AcDbLayerTableRecord
  2
Ech.1_100
 70
     0
 62
     7
  6
CONTINUOUS
370
    -3
  0
LAYER
  5
109
100
AcDbSymbolTableRecord
100
AcDbLayerTableRecord
  2
Ech.1_200
 70
     0
 62
     7
  6
CONTINUOUS
370
    -3
  0
LAYER
  5
10A
100
AcDbSymbolTableRecord
100
AcDbLayerTableRecord
  2
Ech.1_500
 70
     0
 62
     7
  6
CONTINUOUS
370
    -3
  0
LAYER
  5
10B
100
AcDbSymbolTableRecord
100
AcDbLayerTableRecord
  2
Ech.1_1000
 70
     0
 62
     7
  6
CONTINUOUS
370
    -3
  0
LAYER
  5
10C
100
AcDbSymbolTableRecord
100
AcDbLayerTableRecord
  2
Cadres traceur
 70
     0
 62
     7
  6
CONTINUOUS
370
    18
  0
LAYER
  5
10D
100
AcDbSymbolTableRecord
100
AcDbLayerTableRecord
  2
Cadres laser
 70
     0
 62
     7
  6
CONTINUOUS
370
    18
  0
LAYER
  5
10E
100
AcDbSymbolTableRecord
100
AcDbLayerTableRecord
  2
Légende d_aide
 70
     0
 62
     7
  6
CONTINUOUS
370
    18
  0
LAYER
  5
10F
100
AcDbSymbolTableRecord
100
AcDbLayerTableRecord
  2
hachures ok
 70
     0
 62
     7
  6
CONTINUOUS
370
    18
  0
LAYER
  5
110
100
AcDbSymbolTableRecord
100
AcDbLayerTableRecord
  2
ossature bois
 70
     0
 62
     7
  6
CONTINUOUS
370
    18
  0
LAYER
  5
111
100
AcDbSymbolTableRecord
100
AcDbLayerTableRecord
  2
VR
 70
     0
 62
     7
  6
CONTINUOUS
370
    25
  0
LAYER
  5
112
100
AcDbSymbolTableRecord
100
AcDbLayerTableRecord
  2
Calque1
 70
     0
 62
     7
  6
CONTINUOUS
370
     9
  0
LAYER
  5
113
100
AcDbSymbolTableRecord
100
AcDbLayerTableRecord
  2
0
 70
     0
 62
     7
  6
CONTINUOUS
370
    -3
  0
LAYER
  5
114
100
AcDbSymbolTableRecord
100
AcDbLayerTableRecord
  2
menuiserie
 70
     0
 62
     7
  6
CONTINUOUS
370
    -3
  0
LAYER
  5
115
100
AcDbSymbolTableRecord
100
AcDbLayerTableRecord
  2
cotation
 70
     0
 62
   250
  6
CONTINUOUS
370
     9
  0
LAYER
  5
116
100
AcDbSymbolTableRecord
100
AcDbLayerTableRecord
  2
Defpoints
 70
     0
 62
    10
  6
CONTINUOUS
370
    -3
  0
LAYER
  5
117
100
AcDbSymbolTableRecord
100
AcDbLayerTableRecord
  2
HACHURE
 70
     0
 62
   254
  6
CONTINUOUS
370
    25
  0
LAYER
  5
118
100
AcDbSymbolTableRecord
100
AcDbLayerTableRecord
  2
mat1
 70
     0
 62
     7
  6
CONTINUOUS
370
    30
  0
LAYER
  5
119
100
AcDbSymbolTableRecord
100
AcDbLayerTableRecord
  2
mat2
 70
     0
 62
     7
  6
CONTINUOUS
370
     5
  0
LAYER
  5
11A
100
AcDbSymbolTableRecord
100
AcDbLayerTableRecord
  2
hach
 70
     0
 62
     8
  6
CONTINUOUS
370
     5
  0
LAYER
  5
11B
100
AcDbSymbolTableRecord
100
AcDbLayerTableRecord
  2
menuiseries
 70
     0
 62
     7
  6
CONTINUOUS
370
     9
  0
LAYER
  5
11C
100
AcDbSymbolTableRecord
100
AcDbLayerTableRecord
  2
BétonMétal
 70
     0
 62
     7
  6
CONTINUOUS
370
    80
  0
LAYER
  5
11D
100
AcDbSymbolTableRecord
100
AcDbLayerTableRecord
  2
bois
 70
     0
 62
     7
  6
CONTINUOUS
370
    60
  0
ENDTAB
  0
TABLE
  2
VIEW
  5
11E
100
AcDbSymbolTable
 70
     0
  0
ENDTAB
  0
TABLE
  2
UCS
  5
11F
100
AcDbSymbolTable
 70
     0
  0
ENDTAB
  0
TABLE
  2
APPID
  5
120
100
AcDbSymbolTable
 70
     1
  0
APPID
  5
121
100
AcDbSymbolTableRecord
100
AcDbRegAppTableRecord
  2
ACAD
 70
     0
  0
ENDTAB
  0
TABLE
  2
DIMSTYLE
  5
122
100
AcDbSymbolTable
 70
     0
  0
ENDTAB
  0
TABLE
  2
BLOCK_RECORD
  5
123
100
AcDbSymbolTable
 70
     0
  0
BLOCK_RECORD
  5
124
100
AcDbSymbolTableRecord
100
AcDbBlockTableRecord
  2
*MODEL_SPACE
  0
BLOCK_RECORD
  5
125
100
AcDbSymbolTableRecord
100
AcDbBlockTableRecord
  2
*PAPER_SPACE
  0
BLOCK_RECORD
  5
126
100
AcDbSymbolTableRecord
100
AcDbBlockTableRecord
  2
CDWK_EXTR_0
  0
BLOCK_RECORD
  5
127
100
AcDbSymbolTableRecord
100
AcDbBlockTableRecord
  2
CDWK_EXTR_1D
  0
BLOCK_RECORD
  5
128
100
AcDbSymbolTableRecord
100
AcDbBlockTableRecord
  2
CDWK_EXTR_1G
  0
BLOCK_RECORD
  5
129
100
AcDbSymbolTableRecord
100
AcDbBlockTableRecord
  2
CDWK_EXTR_2
  0
BLOCK_RECORD
  5
12A
100
AcDbSymbolTableRecord
100
AcDbBlockTableRecord
  2
CDWK_EXTR_3
  0
BLOCK_RECORD
  5
12B
100
AcDbSymbolTableRecord
100
AcDbBlockTableRecord
  2
CDWK_EXTR_4
  0
BLOCK_RECORD
  5
12C
100
AcDbSymbolTableRecord
100
AcDbBlockTableRecord
  2
CDWK_PTTYP0
  0
BLOCK_RECORD
  5
12D
100
AcDbSymbolTableRecord
100
AcDbBlockTableRecord
  2
CDWK_PTTYP1
  0
BLOCK_RECORD
  5
12E
100
AcDbSymbolTableRecord
100
AcDbBlockTableRecord
  2
CDWK_PTTYP2
  0
BLOCK_RECORD
  5
12F
100
AcDbSymbolTableRecord
100
AcDbBlockTableRecord
  2
CDWK_PTTYP3
  0
BLOCK_RECORD
  5
130
100
AcDbSymbolTableRecord
100
AcDbBlockTableRecord
  2
CDWK_PTTYP4
  0
BLOCK_RECORD
  5
131
100
AcDbSymbolTableRecord
100
AcDbBlockTableRecord
  2
CDWK_PTTYP5
  0
BLOCK_RECORD
  5
132
100
AcDbSymbolTableRecord
100
AcDbBlockTableRecord
  2
CDWK_PTTYP6
  0
BLOCK_RECORD
  5
133
100
AcDbSymbolTableRecord
100
AcDbBlockTableRecord
  2
CDWK_PTTYP7
  0
BLOCK_RECORD
  5
134
100
AcDbSymbolTableRecord
100
AcDbBlockTableRecord
  2
CDWK_PTTYP8
  0
BLOCK_RECORD
  5
135
100
AcDbSymbolTableRecord
100
AcDbBlockTableRecord
  2
CDWK_PTTYP9
  0
BLOCK_RECORD
  5
136
100
AcDbSymbolTableRecord
100
AcDbBlockTableRecord
  2
CDWK_PTTYP10
  0
BLOCK_RECORD
  5
137
100
AcDbSymbolTableRecord
100
AcDbBlockTableRecord
  2
CDWK_PTTYP11
  0
BLOCK_RECORD
  5
138
100
AcDbSymbolTableRecord
100
AcDbBlockTableRecord
  2
CDWK_PTTYP12
  0
BLOCK_RECORD
  5
139
100
AcDbSymbolTableRecord
100
AcDbBlockTableRecord
  2
CDWK_PTTYP13
  0
BLOCK_RECORD
  5
13A
100
AcDbSymbolTableRecord
100
AcDbBlockTableRecord
  2
CDWK_PTTYP14
  0
BLOCK_RECORD
  5
13B
100
AcDbSymbolTableRecord
100
AcDbBlockTableRecord
  2
CDWK_PTTYP15
  0
BLOCK_RECORD
  5
13C
100
AcDbSymbolTableRecord
100
AcDbBlockTableRecord
  2
CDWK_PTTYP16
  0
BLOCK_RECORD
  5
13D
100
AcDbSymbolTableRecord
100
AcDbBlockTableRecord
  2
CDWK_PTTYP17
  0
BLOCK_RECORD
  5
13E
100
AcDbSymbolTableRecord
100
AcDbBlockTableRecord
  2
CDWK_PTTYP18
  0
BLOCK_RECORD
  5
13F
100
AcDbSymbolTableRecord
100
AcDbBlockTableRecord
  2
CDWK_PTTYP19
  0
BLOCK_RECORD
  5
140
100
AcDbSymbolTableRecord
100
AcDbBlockTableRecord
  2
CDWK_PTTYP20
  0
BLOCK_RECORD
  5
141
100
AcDbSymbolTableRecord
100
AcDbBlockTableRecord
  2
CDWK_PTTYP21
  0
BLOCK_RECORD
  5
142
100
AcDbSymbolTableRecord
100
AcDbBlockTableRecord
  2
CDWK_PTTYP22
  0
BLOCK_RECORD
  5
143
100
AcDbSymbolTableRecord
100
AcDbBlockTableRecord
  2
CDWK_PTTYP23
  0
BLOCK_RECORD
  5
144
100
AcDbSymbolTableRecord
100
AcDbBlockTableRecord
  2
CDWK_PTTYP24
  0
BLOCK_RECORD
  5
145
100
AcDbSymbolTableRecord
100
AcDbBlockTableRecord
  2
CDWK_PTTYP25
  0
BLOCK_RECORD
  5
146
100
AcDbSymbolTableRecord
100
AcDbBlockTableRecord
  2
CDWK_PTTYP26
  0
BLOCK_RECORD
  5
147
100
AcDbSymbolTableRecord
100
AcDbBlockTableRecord
  2
CDWK_PTTYP27
  0
BLOCK_RECORD
  5
148
100
AcDbSymbolTableRecord
100
AcDbBlockTableRecord
  2
CDWK_PTTYP28
  0
BLOCK_RECORD
  5
149
100
AcDbSymbolTableRecord
100
AcDbBlockTableRecord
  2
CDWK_PTTYP29
  0
BLOCK_RECORD
  5
14A
100
AcDbSymbolTableRecord
100
AcDbBlockTableRecord
  2
CDWK_PTTYP30
  0
BLOCK_RECORD
  5
14B
100
AcDbSymbolTableRecord
100
AcDbBlockTableRecord
  2
CDWK_PTTYP31
  0
BLOCK_RECORD
  5
14C
100
AcDbSymbolTableRecord
100
AcDbBlockTableRecord
  2
CDWK_PTTYP32
  0
BLOCK_RECORD
  5
14D
100
AcDbSymbolTableRecord
100
AcDbBlockTableRecord
  2
CDWK_PTTYP33
  0
BLOCK_RECORD
  5
14E
100
AcDbSymbolTableRecord
100
AcDbBlockTableRecord
  2
CDWK_PTTYP34
  0
BLOCK_RECORD
  5
14F
100
AcDbSymbolTableRecord
100
AcDbBlockTableRecord
  2
CDWK_PTTYP35
  0
BLOCK_RECORD
  5
150
100
AcDbSymbolTableRecord
100
AcDbBlockTableRecord
  2
CDWK_PTTYP36
  0
BLOCK_RECORD
  5
151
100
AcDbSymbolTableRecord
100
AcDbBlockTableRecord
  2
CDWK_PTTYP37
  0
BLOCK_RECORD
  5
152
100
AcDbSymbolTableRecord
100
AcDbBlockTableRecord
  2
CDWK_PTTYP38
  0
BLOCK_RECORD
  5
153
100
AcDbSymbolTableRecord
100
AcDbBlockTableRecord
  2
*X1
  0
BLOCK_RECORD
  5
154
100
AcDbSymbolTableRecord
100
AcDbBlockTableRecord
  2
*X2
  0
ENDTAB
  0
ENDSEC
  0
SECTION
  2
BLOCKS
  0
BLOCK
  5
155
100
AcDbEntity
  8
0
100
AcDbBlockBegin
  2
*MODEL_SPACE
 70
     0
 10
0.0
 20
0.0
 30
0.0
  3
*MODEL_SPACE
  1

  0
ENDBLK
  5
156
100
AcDbEntity
100
AcDbBlockEnd
  0
BLOCK
  5
157
100
AcDbEntity
  8
0
100
AcDbBlockBegin
  2
*PAPER_SPACE
 70
     0
 10
0.0
 20
0.0
 30
0.0
  3
*PAPER_SPACE
  1

  0
ENDBLK
  5
158
100
AcDbEntity
100
AcDbBlockEnd
  0
BLOCK
  5
159
100
AcDbEntity
  8
0
100
AcDbBlockBegin
  2
CDWK_EXTR_0
 70
     0
 10
0.0
 20
0.0
 30
0.0
  3
CDWK_EXTR_0
  1

  4
Cadwork line-extremity
  0
LINE
  5
15A
100
AcDbEntity
  8
0
 62
     0
370
    -2
100
AcDbLine
 10
0.0
 20
0.0
 30
0.0
 11
2.0
 21
0.5
 31
0.0
  0
LINE
  5
15B
100
AcDbEntity
  8
0
 62
     0
370
    -2
100
AcDbLine
 10
0.0
 20
0.0
 30
0.0
 11
2.0
 21
-0.5
 31
0.0
  0
LINE
  5
15C
100
AcDbEntity
  8
0
 62
     0
370
    -2
100
AcDbLine
 10
2.0
 20
0.5
 30
0.0
 11
2.0
 21
-0.5
 31
0.0
  0
ENDBLK
  5
15D
100
AcDbEntity
100
AcDbBlockEnd
  0
BLOCK
  5
15E
100
AcDbEntity
  8
0
100
AcDbBlockBegin
  2
CDWK_EXTR_1D
 70
     0
 10
0.0
 20
0.0
 30
0.0
  3
CDWK_EXTR_1D
  1

  4
Cadwork line-extremity
  0
LINE
  5
15F
100
AcDbEntity
  8
0
 62
     0
370
    -2
100
AcDbLine
 10
0.0
 20
0.0
 30
0.0
 11
0.0
 21
1.0
 31
0.0
  0
LINE
  5
160
100
AcDbEntity
  8
0
 62
     0
370
    -2
100
AcDbLine
 10
0.0
 20
1.0
 30
0.0
 11
0.5
 21
1.5
 31
0.0
  0
LINE
  5
161
100
AcDbEntity
  8
0
 62
     0
370
    -2
100
AcDbLine
 10
0.5
 20
1.5
 30
0.0
 11
1.5
 21
1.5
 31
0.0
  0
ENDBLK
  5
162
100
AcDbEntity
100
AcDbBlockEnd
  0
BLOCK
  5
163
100
AcDbEntity
  8
0
100
AcDbBlockBegin
  2
CDWK_EXTR_1G
 70
     0
 10
0.0
 20
0.0
 30
0.0
  3
CDWK_EXTR_1G
  1

  4
Cadwork line-extremity
  0
LINE
  5
164
100
AcDbEntity
  8
0
 62
     0
370
    -2
100
AcDbLine
 10
0.0
 20
0.0
 30
0.0
 11
0.0
 21
-1.0
 31
0.0
  0
LINE
  5
165
100
AcDbEntity
  8
0
 62
     0
370
    -2
100
AcDbLine
 10
0.0
 20
-1.0
 30
0.0
 11
0.5
 21
-1.5
 31
0.0
  0
LINE
  5
166
100
AcDbEntity
  8
0
 62
     0
370
    -2
100
AcDbLine
 10
0.5
 20
-1.5
 30
0.0
 11
1.5
 21
-1.5
 31
0.0
  0
ENDBLK
  5
167
100
AcDbEntity
100
AcDbBlockEnd
  0
BLOCK
  5
168
100
AcDbEntity
  8
0
100
AcDbBlockBegin
  2
CDWK_EXTR_2
 70
     0
 10
0.0
 20
0.0
 30
0.0
  3
CDWK_EXTR_2
  1

  4
Cadwork line-extremity
  0
SOLID
  5
169
100
AcDbEntity
  8
0
 62
     0
100
AcDbTrace
 10
0.0
 20
0.0
 11
2.0
 21
0.5
 12
2.0
 22
-0.5
 13
2.0
 23
-0.5
  0
ENDBLK
  5
16A
100
AcDbEntity
100
AcDbBlockEnd
  0
BLOCK
  5
16B
100
AcDbEntity
  8
0
100
AcDbBlockBegin
  2
CDWK_EXTR_3
 70
     0
 10
0.0
 20
0.0
 30
0.0
  3
CDWK_EXTR_3
  1

  4
Cadwork line-extremity
  0
SOLID
  5
16C
100
AcDbEntity
  8
0
 62
     0
100
AcDbTrace
 10
0.0
 20
0.0
 11
2.0
 21
0.5
 12
2.0
 22
-0.5
 13
2.0
 23
-0.5
  0
LINE
  5
16D
100
AcDbEntity
  8
0
 62
     0
370
    -2
100
AcDbLine
 10
0.0
 20
1.0
 30
0.0
 11
0.0
 21
-1.0
 31
0.0
  0
ENDBLK
  5
16E
100
AcDbEntity
100
AcDbBlockEnd
  0
BLOCK
  5
16F
100
AcDbEntity
  8
0
100
AcDbBlockBegin
  2
CDWK_EXTR_4
 70
     0
 10
0.0
 20
0.0
 30
0.0
  3
CDWK_EXTR_4
  1

  4
Cadwork line-extremity
  0
HATCH
  5
170
100
AcDbEntity
  8
0
 62
     0
370
    -2
100
AcDbHatch
 10
0.0
 20
0.0
 30
0.0
210
0.0
220
0.0
230
1.0
  2
SOLID
 70
     1
 71
     0
 91
        1
 92
        1
 93
        1
 72
     2
 10
0.0
 20
0.0
 40
0.5
 50
0.0
 51
360.0
 73
     1
 97
        0
 75
     0
 76
     1
 98
        1
 10
0.0
 20
0.0
  0
ENDBLK
  5
171
100
AcDbEntity
100
AcDbBlockEnd
  0
BLOCK
  5
172
100
AcDbEntity
  8
0
100
AcDbBlockBegin
  2
CDWK_PTTYP0
 70
     0
 10
0.0
 20
0.0
 30
0.0
  3
CDWK_PTTYP0
  1

  4
Cadwork point
  0
POINT
  5
173
100
AcDbEntity
  8
0
 62
     0
100
AcDbPoint
 10
0.0
 20
0.0
 30
0.0
  0
ENDBLK
  5
174
100
AcDbEntity
100
AcDbBlockEnd
  0
BLOCK
  5
175
100
AcDbEntity
  8
0
100
AcDbBlockBegin
  2
CDWK_PTTYP1
 70
     0
 10
0.0
 20
0.0
 30
0.0
  3
CDWK_PTTYP1
  1

  4
Cadwork node
  0
LINE
  5
176
100
AcDbEntity
  8
0
 62
     0
370
    -2
100
AcDbLine
 10
-0.5
 20
0.5
 30
0.0
 11
0.5
 21
0.5
 31
0.0
  0
LINE
  5
177
100
AcDbEntity
  8
0
 62
     0
370
    -2
100
AcDbLine
 10
0.5
 20
0.5
 30
0.0
 11
0.5
 21
-0.5
 31
0.0
  0
LINE
  5
178
100
AcDbEntity
  8
0
 62
     0
370
    -2
100
AcDbLine
 10
0.5
 20
-0.5
 30
0.0
 11
-0.5
 21
-0.5
 31
0.0
  0
LINE
  5
179
100
AcDbEntity
  8
0
 62
     0
370
    -2
100
AcDbLine
 10
-0.5
 20
-0.5
 30
0.0
 11
-0.5
 21
0.5
 31
0.0
  0
ENDBLK
  5
17A
100
AcDbEntity
100
AcDbBlockEnd
  0
BLOCK
  5
17B
100
AcDbEntity
  8
0
100
AcDbBlockBegin
  2
CDWK_PTTYP2
 70
     0
 10
0.0
 20
0.0
 30
0.0
  3
CDWK_PTTYP2
  1

  4
Cadwork node
  0
LINE
  5
17C
100
AcDbEntity
  8
0
 62
     0
370
    -2
100
AcDbLine
 10
0.0
 20
0.5
 30
0.0
 11
0.0
 21
-0.5
 31
0.0
  0
LINE
  5
17D
100
AcDbEntity
  8
0
 62
     0
370
    -2
100
AcDbLine
 10
-0.5
 20
0.0
 30
0.0
 11
0.5
 21
0.0
 31
0.0
  0
ENDBLK
  5
17E
100
AcDbEntity
100
AcDbBlockEnd
  0
BLOCK
  5
17F
100
AcDbEntity
  8
0
100
AcDbBlockBegin
  2
CDWK_PTTYP3
 70
     0
 10
0.0
 20
0.0
 30
0.0
  3
CDWK_PTTYP3
  1

  4
Cadwork node
  0
CIRCLE
  5
180
100
AcDbEntity
  8
0
 62
     0
370
    -2
100
AcDbCircle
 10
0.0
 20
0.0
 30
0.0
 40
0.5
  0
ENDBLK
  5
181
100
AcDbEntity
100
AcDbBlockEnd
  0
BLOCK
  5
182
100
AcDbEntity
  8
0
100
AcDbBlockBegin
  2
CDWK_PTTYP4
 70
     0
 10
0.0
 20
0.0
 30
0.0
  3
CDWK_PTTYP4
  1

  4
Cadwork node
  0
HATCH
  5
183
100
AcDbEntity
  8
0
 62
     0
370
    -2
100
AcDbHatch
 10
0.0
 20
0.0
 30
0.0
210
0.0
220
0.0
230
1.0
  2
SOLID
 70
     1
 71
     0
 91
        1
 92
        1
 93
        1
 72
     2
 10
0.0
 20
0.0
 40
0.5
 50
0.0
 51
360.0
 73
     1
 97
        0
 75
     0
 76
     1
 98
        1
 10
0.0
 20
0.0
  0
ENDBLK
  5
184
100
AcDbEntity
100
AcDbBlockEnd
  0
BLOCK
  5
185
100
AcDbEntity
  8
0
100
AcDbBlockBegin
  2
CDWK_PTTYP5
 70
     0
 10
0.0
 20
0.0
 30
0.0
  3
CDWK_PTTYP5
  1

  4
Cadwork node
  0
LINE
  5
186
100
AcDbEntity
  8
0
 62
     0
370
    -2
100
AcDbLine
 10
-0.5
 20
0.5
 30
0.0
 11
0.5
 21
0.5
 31
0.0
  0
LINE
  5
187
100
AcDbEntity
  8
0
 62
     0
370
    -2
100
AcDbLine
 10
0.5
 20
0.5
 30
0.0
 11
0.5
 21
-0.5
 31
0.0
  0
LINE
  5
188
100
AcDbEntity
  8
0
 62
     0
370
    -2
100
AcDbLine
 10
0.5
 20
-0.5
 30
0.0
 11
-0.5
 21
-0.5
 31
0.0
  0
LINE
  5
189
100
AcDbEntity
  8
0
 62
     0
370
    -2
100
AcDbLine
 10
-0.5
 20
-0.5
 30
0.0
 11
-0.5
 21
0.5
 31
0.0
  0
SOLID
  5
18A
100
AcDbEntity
  8
0
 62
     0
100
AcDbTrace
 10
-0.5
 20
-0.5
 11
-0.5
 21
0.0
 12
0.0
 22
-0.5
 13
0.0
 23
0.0
  0
SOLID
  5
18B
100
AcDbEntity
  8
0
 62
     0
100
AcDbTrace
 10
0.0
 20
0.0
 11
0.0
 21
0.5
 12
0.5
 22
0.0
 13
0.5
 23
0.5
  0
ENDBLK
  5
18C
100
AcDbEntity
100
AcDbBlockEnd
  0
BLOCK
  5
18D
100
AcDbEntity
  8
0
100
AcDbBlockBegin
  2
CDWK_PTTYP6
 70
     0
 10
0.0
 20
0.0
 30
0.0
  3
CDWK_PTTYP6
  1

  4
Cadwork node
  0
LINE
  5
18E
100
AcDbEntity
  8
0
 62
     0
370
    -2
100
AcDbLine
 10
-0.5
 20
0.5
 30
0.0
 11
0.5
 21
0.5
 31
0.0
  0
LINE
  5
18F
100
AcDbEntity
  8
0
 62
     0
370
    -2
100
AcDbLine
 10
0.5
 20
0.5
 30
0.0
 11
0.5
 21
-0.5
 31
0.0
  0
LINE
  5
190
100
AcDbEntity
  8
0
 62
     0
370
    -2
100
AcDbLine
 10
0.5
 20
-0.5
 30
0.0
 11
-0.5
 21
-0.5
 31
0.0
  0
LINE
  5
191
100
AcDbEntity
  8
0
 62
     0
370
    -2
100
AcDbLine
 10
-0.5
 20
-0.5
 30
0.0
 11
-0.5
 21
0.5
 31
0.0
  0
SOLID
  5
192
100
AcDbEntity
  8
0
 62
     0
100
AcDbTrace
 10
-0.5
 20
-0.5
 11
-0.5
 21
0.5
 12
0.5
 22
0.5
 13
0.5
 23
0.5
  0
ENDBLK
  5
193
100
AcDbEntity
100
AcDbBlockEnd
  0
BLOCK
  5
194
100
AcDbEntity
  8
0
100
AcDbBlockBegin
  2
CDWK_PTTYP7
 70
     0
 10
0.0
 20
0.0
 30
0.0
  3
CDWK_PTTYP7
  1

  4
Cadwork node
  0
LINE
  5
195
100
AcDbEntity
  8
0
 62
     0
370
    -2
100
AcDbLine
 10
-0.5
 20
0.5
 30
0.0
 11
0.5
 21
0.5
 31
0.0
  0
LINE
  5
196
100
AcDbEntity
  8
0
 62
     0
370
    -2
100
AcDbLine
 10
0.5
 20
0.5
 30
0.0
 11
0.5
 21
-0.5
 31
0.0
  0
LINE
  5
197
100
AcDbEntity
  8
0
 62
     0
370
    -2
100
AcDbLine
 10
0.5
 20
-0.5
 30
0.0
 11
-0.5
 21
-0.5
 31
0.0
  0
LINE
  5
198
100
AcDbEntity
  8
0
 62
     0
370
    -2
100
AcDbLine
 10
-0.5
 20
-0.5
 30
0.0
 11
-0.5
 21
0.5
 31
0.0
  0
LINE
  5
199
100
AcDbEntity
  8
0
 62
     0
370
    -2
100
AcDbLine
 10
0.0
 20
0.5
 30
0.0
 11
0.0
 21
-0.5
 31
0.0
  0
LINE
  5
19A
100
AcDbEntity
  8
0
 62
     0
370
    -2
100
AcDbLine
 10
-0.5
 20
0.0
 30
0.0
 11
0.5
 21
0.0
 31
0.0
  0
ENDBLK
  5
19B
100
AcDbEntity
100
AcDbBlockEnd
  0
BLOCK
  5
19C
100
AcDbEntity
  8
0
100
AcDbBlockBegin
  2
CDWK_PTTYP8
 70
     0
 10
0.0
 20
0.0
 30
0.0
  3
CDWK_PTTYP8
  1

  4
Cadwork node
  0
SOLID
  5
19D
100
AcDbEntity
  8
0
 62
     0
100
AcDbTrace
 10
-0.5
 20
0.5
 11
0.5
 21
0.5
 12
-0.5
 22
-0.5
 13
0.5
 23
-0.5
  0
ENDBLK
  5
19E
100
AcDbEntity
100
AcDbBlockEnd
  0
BLOCK
  5
19F
100
AcDbEntity
  8
0
100
AcDbBlockBegin
  2
CDWK_PTTYP9
 70
     0
 10
0.0
 20
0.0
 30
0.0
  3
CDWK_PTTYP9
  1

  4
Cadwork node
  0
CIRCLE
  5
1A0
100
AcDbEntity
  8
0
 62
     0
370
    -2
100
AcDbCircle
 10
0.0
 20
0.0
 30
0.0
 40
0.5
  0
CIRCLE
  5
1A1
100
AcDbEntity
  8
0
 62
     0
370
    -2
100
AcDbCircle
 10
0.0
 20
0.0
 30
0.0
 40
0.16666667
  0
ENDBLK
  5
1A2
100
AcDbEntity
100
AcDbBlockEnd
  0
BLOCK
  5
1A3
100
AcDbEntity
  8
0
100
AcDbBlockBegin
  2
CDWK_PTTYP10
 70
     0
 10
0.0
 20
0.0
 30
0.0
  3
CDWK_PTTYP10
  1

  4
Cadwork node
  0
CIRCLE
  5
1A4
100
AcDbEntity
  8
0
 62
     0
370
    -2
100
AcDbCircle
 10
0.0
 20
0.0
 30
0.0
 40
0.5
  0
ENDBLK
  5
1A5
100
AcDbEntity
100
AcDbBlockEnd
  0
BLOCK
  5
1A6
100
AcDbEntity
  8
0
100
AcDbBlockBegin
  2
CDWK_PTTYP11
 70
     0
 10
0.0
 20
0.0
 30
0.0
  3
CDWK_PTTYP11
  1

  4
Cadwork node
  0
CIRCLE
  5
1A7
100
AcDbEntity
  8
0
 62
     0
370
    -2
100
AcDbCircle
 10
0.0
 20
0.0
 30
0.0
 40
0.5
  0
CIRCLE
  5
1A8
100
AcDbEntity
  8
0
 62
     0
370
    -2
100
AcDbCircle
 10
0.0
 20
0.0
 30
0.0
 40
0.25
  0
ENDBLK
  5
1A9
100
AcDbEntity
100
AcDbBlockEnd
  0
BLOCK
  5
1AA
100
AcDbEntity
  8
0
100
AcDbBlockBegin
  2
CDWK_PTTYP12
 70
     0
 10
0.0
 20
0.0
 30
0.0
  3
CDWK_PTTYP12
  1

  4
Cadwork node
  0
CIRCLE
  5
1AB
100
AcDbEntity
  8
0
 62
     0
370
    -2
100
AcDbCircle
 10
0.0
 20
0.0
 30
0.0
 40
0.5
  0
CIRCLE
  5
1AC
100
AcDbEntity
  8
0
 62
     0
370
    -2
100
AcDbCircle
 10
0.25
 20
0.0
 30
0.0
 40
0.25
  0
ENDBLK
  5
1AD
100
AcDbEntity
100
AcDbBlockEnd
  0
BLOCK
  5
1AE
100
AcDbEntity
  8
0
100
AcDbBlockBegin
  2
CDWK_PTTYP13
 70
     0
 10
0.0
 20
0.0
 30
0.0
  3
CDWK_PTTYP13
  1

  4
Cadwork node
  0
CIRCLE
  5
1AF
100
AcDbEntity
  8
0
 62
     0
370
    -2
100
AcDbCircle
 10
0.0
 20
0.0
 30
0.0
 40
0.5
  0
CIRCLE
  5
1B0
100
AcDbEntity
  8
0
 62
     0
370
    -2
100
AcDbCircle
 10
0.25
 20
0.0
 30
0.0
 40
0.25
  0
CIRCLE
  5
1B1
100
AcDbEntity
  8
0
 62
     0
370
    -2
100
AcDbCircle
 10
-0.25
 20
0.0
 30
0.0
 40
0.25
  0
ENDBLK
  5
1B2
100
AcDbEntity
100
AcDbBlockEnd
  0
BLOCK
  5
1B3
100
AcDbEntity
  8
0
100
AcDbBlockBegin
  2
CDWK_PTTYP14
 70
     0
 10
0.0
 20
0.0
 30
0.0
  3
CDWK_PTTYP14
  1

  4
Cadwork node
  0
POINT
  5
1B4
100
AcDbEntity
  8
0
 62
     0
100
AcDbPoint
 10
0.0
 20
0.0
 30
0.0
  0
ENDBLK
  5
1B5
100
AcDbEntity
100
AcDbBlockEnd
  0
BLOCK
  5
1B6
100
AcDbEntity
  8
0
100
AcDbBlockBegin
  2
CDWK_PTTYP15
 70
     0
 10
0.0
 20
0.0
 30
0.0
  3
CDWK_PTTYP15
  1

  4
Cadwork node
  0
POINT
  5
1B7
100
AcDbEntity
  8
0
 62
     0
100
AcDbPoint
 10
0.0
 20
0.0
 30
0.0
  0
ENDBLK
  5
1B8
100
AcDbEntity
100
AcDbBlockEnd
  0
BLOCK
  5
1B9
100
AcDbEntity
  8
0
100
AcDbBlockBegin
  2
CDWK_PTTYP16
 70
     0
 10
0.0
 20
0.0
 30
0.0
  3
CDWK_PTTYP16
  1

  4
Cadwork node
  0
LINE
  5
1BA
100
AcDbEntity
  8
0
 62
     0
370
    -2
100
AcDbLine
 10
-0.5
 20
-0.28867513
 30
0.0
 11
0.5
 21
-0.28867513
 31
0.0
  0
LINE
  5
1BB
100
AcDbEntity
  8
0
 62
     0
370
    -2
100
AcDbLine
 10
0.5
 20
-0.28867513
 30
0.0
 11
0.0
 21
0.57735027
 31
0.0
  0
LINE
  5
1BC
100
AcDbEntity
  8
0
 62
     0
370
    -2
100
AcDbLine
 10
0.0
 20
0.57735027
 30
0.0
 11
-0.5
 21
-0.28867513
 31
0.0
  0
CIRCLE
  5
1BD
100
AcDbEntity
  8
0
 62
     0
370
    -2
100
AcDbCircle
 10
0.0
 20
0.0
 30
0.0
 40
0.28867513
  0
ENDBLK
  5
1BE
100
AcDbEntity
100
AcDbBlockEnd
  0
BLOCK
  5
1BF
100
AcDbEntity
  8
0
100
AcDbBlockBegin
  2
CDWK_PTTYP17
 70
     0
 10
0.0
 20
0.0
 30
0.0
  3
CDWK_PTTYP17
  1

  4
Cadwork node
  0
CIRCLE
  5
1C0
100
AcDbEntity
  8
0
 62
     0
370
    -2
100
AcDbCircle
 10
0.0
 20
0.0
 30
0.0
 40
0.5
  0
HATCH
  5
1C1
100
AcDbEntity
  8
0
 62
     0
370
    -2
100
AcDbHatch
 10
0.0
 20
0.0
 30
0.0
210
0.0
220
0.0
230
1.0
  2
SOLID
 70
     1
 71
     0
 91
        1
 92
        1
 93
        1
 72
     2
 10
0.0
 20
0.0
 40
0.25
 50
0.0
 51
360.0
 73
     1
 97
        0
 75
     0
 76
     1
 98
        1
 10
0.0
 20
0.0
  0
ENDBLK
  5
1C2
100
AcDbEntity
100
AcDbBlockEnd
  0
BLOCK
  5
1C3
100
AcDbEntity
  8
0
100
AcDbBlockBegin
  2
CDWK_PTTYP18
 70
     0
 10
0.0
 20
0.0
 30
0.0
  3
CDWK_PTTYP18
  1

  4
Cadwork node
  0
CIRCLE
  5
1C4
100
AcDbEntity
  8
0
 62
     0
370
    -2
100
AcDbCircle
 10
0.0
 20
0.0
 30
0.0
 40
0.5
  0
CIRCLE
  5
1C5
100
AcDbEntity
  8
0
 62
     0
370
    -2
100
AcDbCircle
 10
0.0
 20
0.0
 30
0.0
 40
0.2
  0
ENDBLK
  5
1C6
100
AcDbEntity
100
AcDbBlockEnd
  0
BLOCK
  5
1C7
100
AcDbEntity
  8
0
100
AcDbBlockBegin
  2
CDWK_PTTYP19
 70
     0
 10
0.0
 20
0.0
 30
0.0
  3
CDWK_PTTYP19
  1

  4
Cadwork node
  0
CIRCLE
  5
1C8
100
AcDbEntity
  8
0
 62
     0
370
    -2
100
AcDbCircle
 10
0.0
 20
0.0
 30
0.0
 40
0.4
  0
CIRCLE
  5
1C9
100
AcDbEntity
  8
0
 62
     0
370
    -2
100
AcDbCircle
 10
0.0
 20
0.0
 30
0.0
 40
0.25
  0
LINE
  5
1CA
100
AcDbEntity
  8
0
 62
     0
370
    -2
100
AcDbLine
 10
-0.25
 20
0.0
 30
0.0
 11
0.25
 21
0.0
 31
0.0
  0
ENDBLK
  5
1CB
100
AcDbEntity
100
AcDbBlockEnd
  0
BLOCK
  5
1CC
100
AcDbEntity
  8
0
100
AcDbBlockBegin
  2
CDWK_PTTYP20
 70
     0
 10
0.0
 20
0.0
 30
0.0
  3
CDWK_PTTYP20
  1

  4
Cadwork node
  0
CIRCLE
  5
1CD
100
AcDbEntity
  8
0
 62
     0
370
    -2
100
AcDbCircle
 10
0.0
 20
0.0
 30
0.0
 40
0.5
  0
CIRCLE
  5
1CE
100
AcDbEntity
  8
0
 62
     0
370
    -2
100
AcDbCircle
 10
0.0
 20
0.0
 30
0.0
 40
0.3
  0
ENDBLK
  5
1CF
100
AcDbEntity
100
AcDbBlockEnd
  0
BLOCK
  5
1D0
100
AcDbEntity
  8
0
100
AcDbBlockBegin
  2
CDWK_PTTYP21
 70
     0
 10
0.0
 20
0.0
 30
0.0
  3
CDWK_PTTYP21
  1

  4
Cadwork node
  0
CIRCLE
  5
1D1
100
AcDbEntity
  8
0
 62
     0
370
    -2
100
AcDbCircle
 10
0.0
 20
0.0
 30
0.0
 40
0.5
  0
LINE
  5
1D2
100
AcDbEntity
  8
0
 62
     0
370
    -2
100
AcDbLine
 10
-0.5
 20
0.0
 30
0.0
 11
0.5
 21
0.0
 31
0.0
  0
ENDBLK
  5
1D3
100
AcDbEntity
100
AcDbBlockEnd
  0
BLOCK
  5
1D4
100
AcDbEntity
  8
0
100
AcDbBlockBegin
  2
CDWK_PTTYP22
 70
     0
 10
0.0
 20
0.0
 30
0.0
  3
CDWK_PTTYP22
  1

  4
Cadwork node
  0
POINT
  5
1D5
100
AcDbEntity
  8
0
 62
     0
100
AcDbPoint
 10
0.0
 20
0.0
 30
0.0
  0
ENDBLK
  5
1D6
100
AcDbEntity
100
AcDbBlockEnd
  0
BLOCK
  5
1D7
100
AcDbEntity
  8
0
100
AcDbBlockBegin
  2
CDWK_PTTYP23
 70
     0
 10
0.0
 20
0.0
 30
0.0
  3
CDWK_PTTYP23
  1

  4
Cadwork node
  0
POINT
  5
1D8
100
AcDbEntity
  8
0
 62
     0
100
AcDbPoint
 10
0.0
 20
0.0
 30
0.0
  0
ENDBLK
  5
1D9
100
AcDbEntity
100
AcDbBlockEnd
  0
BLOCK
  5
1DA
100
AcDbEntity
  8
0
100
AcDbBlockBegin
  2
CDWK_PTTYP24
 70
     0
 10
0.0
 20
0.0
 30
0.0
  3
CDWK_PTTYP24
  1

  4
Cadwork node
  0
POINT
  5
1DB
100
AcDbEntity
  8
0
 62
     0
100
AcDbPoint
 10
0.0
 20
0.0
 30
0.0
  0
ENDBLK
  5
1DC
100
AcDbEntity
100
AcDbBlockEnd
  0
BLOCK
  5
1DD
100
AcDbEntity
  8
0
100
AcDbBlockBegin
  2
CDWK_PTTYP25
 70
     0
 10
0.0
 20
0.0
 30
0.0
  3
CDWK_PTTYP25
  1

  4
Cadwork node
  0
LINE
  5
1DE
100
AcDbEntity
  8
0
 62
     0
370
    -2
100
AcDbLine
 10
-0.43290044
 20
-0.25
 30
0.0
 11
0.43290044
 21
-0.25
 31
0.0
  0
LINE
  5
1DF
100
AcDbEntity
  8
0
 62
     0
370
    -2
100
AcDbLine
 10
-0.43290044
 20
-0.25
 30
0.0
 11
0.0
 21
0.5
 31
0.0
  0
LINE
  5
1E0
100
AcDbEntity
  8
0
 62
     0
370
    -2
100
AcDbLine
 10
0.43290044
 20
-0.25
 30
0.0
 11
0.0
 21
0.5
 31
0.0
  0
CIRCLE
  5
1E1
100
AcDbEntity
  8
0
 62
     0
370
    -2
100
AcDbCircle
 10
0.0
 20
0.0
 30
0.0
 40
0.5
  0
ENDBLK
  5
1E2
100
AcDbEntity
100
AcDbBlockEnd
  0
BLOCK
  5
1E3
100
AcDbEntity
  8
0
100
AcDbBlockBegin
  2
CDWK_PTTYP26
 70
     0
 10
0.0
 20
0.0
 30
0.0
  3
CDWK_PTTYP26
  1

  4
Cadwork node
  0
LINE
  5
1E4
100
AcDbEntity
  8
0
 62
     0
370
    -2
100
AcDbLine
 10
-0.5
 20
-0.28850001
 30
0.0
 11
0.5
 21
-0.28850001
 31
0.0
  0
LINE
  5
1E5
100
AcDbEntity
  8
0
 62
     0
370
    -2
100
AcDbLine
 10
-0.5
 20
-0.28850001
 30
0.0
 11
0.0
 21
0.57736721
 31
0.0
  0
LINE
  5
1E6
100
AcDbEntity
  8
0
 62
     0
370
    -2
100
AcDbLine
 10
0.5
 20
-0.28850001
 30
0.0
 11
0.0
 21
0.57736721
 31
0.0
  0
CIRCLE
  5
1E7
100
AcDbEntity
  8
0
 62
     0
370
    -2
100
AcDbCircle
 10
0.0
 20
0.0
 30
0.0
 40
0.1312336
  0
ENDBLK
  5
1E8
100
AcDbEntity
100
AcDbBlockEnd
  0
BLOCK
  5
1E9
100
AcDbEntity
  8
0
100
AcDbBlockBegin
  2
CDWK_PTTYP27
 70
     0
 10
0.0
 20
0.0
 30
0.0
  3
CDWK_PTTYP27
  1

  4
Cadwork node
  0
LINE
  5
1EA
100
AcDbEntity
  8
0
 62
     0
370
    -2
100
AcDbLine
 10
-0.43290044
 20
-0.25
 30
0.0
 11
0.43290044
 21
-0.25
 31
0.0
  0
LINE
  5
1EB
100
AcDbEntity
  8
0
 62
     0
370
    -2
100
AcDbLine
 10
-0.43290044
 20
-0.25
 30
0.0
 11
0.0
 21
0.5
 31
0.0
  0
LINE
  5
1EC
100
AcDbEntity
  8
0
 62
     0
370
    -2
100
AcDbLine
 10
0.43290044
 20
-0.25
 30
0.0
 11
0.0
 21
0.5
 31
0.0
  0
CIRCLE
  5
1ED
100
AcDbEntity
  8
0
 62
     0
370
    -2
100
AcDbCircle
 10
0.0
 20
0.0
 30
0.0
 40
0.5
  0
CIRCLE
  5
1EE
100
AcDbEntity
  8
0
 62
     0
370
    -2
100
AcDbCircle
 10
0.0
 20
0.0
 30
0.0
 40
0.1312336
  0
ENDBLK
  5
1EF
100
AcDbEntity
100
AcDbBlockEnd
  0
BLOCK
  5
1F0
100
AcDbEntity
  8
0
100
AcDbBlockBegin
  2
CDWK_PTTYP28
 70
     0
 10
0.0
 20
0.0
 30
0.0
  3
CDWK_PTTYP28
  1

  4
Cadwork node
  0
POINT
  5
1F1
100
AcDbEntity
  8
0
 62
     0
100
AcDbPoint
 10
0.0
 20
0.0
 30
0.0
  0
ENDBLK
  5
1F2
100
AcDbEntity
100
AcDbBlockEnd
  0
BLOCK
  5
1F3
100
AcDbEntity
  8
0
100
AcDbBlockBegin
  2
CDWK_PTTYP29
 70
     0
 10
0.0
 20
0.0
 30
0.0
  3
CDWK_PTTYP29
  1

  4
Cadwork node
  0
CIRCLE
  5
1F4
100
AcDbEntity
  8
0
 62
     0
370
    -2
100
AcDbCircle
 10
0.0
 20
0.0
 30
0.0
 40
0.5
  0
CIRCLE
  5
1F5
100
AcDbEntity
  8
0
 62
     0
370
    -2
100
AcDbCircle
 10
0.0
 20
0.0
 30
0.0
 40
0.375
  0
CIRCLE
  5
1F6
100
AcDbEntity
  8
0
 62
     0
370
    -2
100
AcDbCircle
 10
0.0
 20
0.0
 30
0.0
 40
0.21875
  0
ENDBLK
  5
1F7
100
AcDbEntity
100
AcDbBlockEnd
  0
BLOCK
  5
1F8
100
AcDbEntity
  8
0
100
AcDbBlockBegin
  2
CDWK_PTTYP30
 70
     0
 10
0.0
 20
0.0
 30
0.0
  3
CDWK_PTTYP30
  1

  4
Cadwork node
  0
LINE
  5
1F9
100
AcDbEntity
  8
0
 62
     0
370
    -2
100
AcDbLine
 10
0.17680339
 20
0.17680339
 30
0.0
 11
0.5
 21
0.5
 31
0.0
  0
LINE
  5
1FA
100
AcDbEntity
  8
0
 62
     0
370
    -2
100
AcDbLine
 10
-0.17680339
 20
0.17680339
 30
0.0
 11
-0.5
 21
0.5
 31
0.0
  0
LINE
  5
1FB
100
AcDbEntity
  8
0
 62
     0
370
    -2
100
AcDbLine
 10
0.17680339
 20
-0.17680339
 30
0.0
 11
0.5
 21
-0.5
 31
0.0
  0
LINE
  5
1FC
100
AcDbEntity
  8
0
 62
     0
370
    -2
100
AcDbLine
 10
-0.17680339
 20
-0.17680339
 30
0.0
 11
-0.5
 21
-0.5
 31
0.0
  0
ENDBLK
  5
1FD
100
AcDbEntity
100
AcDbBlockEnd
  0
BLOCK
  5
1FE
100
AcDbEntity
  8
0
100
AcDbBlockBegin
  2
CDWK_PTTYP31
 70
     0
 10
0.0
 20
0.0
 30
0.0
  3
CDWK_PTTYP31
  1

  4
Cadwork node
  0
CIRCLE
  5
1FF
100
AcDbEntity
  8
0
 62
     0
370
    -2
100
AcDbCircle
 10
0.0
 20
0.0
 30
0.0
 40
0.075
  0
LINE
  5
200
100
AcDbEntity
  8
0
 62
     0
370
    -2
100
AcDbLine
 10
0.075
 20
0.0
 30
0.0
 11
0.5
 21
0.0
 31
0.0
  0
LINE
  5
201
100
AcDbEntity
  8
0
 62
     0
370
    -2
100
AcDbLine
 10
-0.075
 20
0.0
 30
0.0
 11
-0.5
 21
0.0
 31
0.0
  0
LINE
  5
202
100
AcDbEntity
  8
0
 62
     0
370
    -2
100
AcDbLine
 10
0.0
 20
0.075
 30
0.0
 11
0.0
 21
0.5
 31
0.0
  0
LINE
  5
203
100
AcDbEntity
  8
0
 62
     0
370
    -2
100
AcDbLine
 10
0.0
 20
-0.075
 30
0.0
 11
0.0
 21
-0.5
 31
0.0
  0
ENDBLK
  5
204
100
AcDbEntity
100
AcDbBlockEnd
  0
BLOCK
  5
205
100
AcDbEntity
  8
0
100
AcDbBlockBegin
  2
CDWK_PTTYP32
 70
     0
 10
0.0
 20
0.0
 30
0.0
  3
CDWK_PTTYP32
  1

  4
Cadwork node
  0
CIRCLE
  5
206
100
AcDbEntity
  8
0
 62
     0
370
    -2
100
AcDbCircle
 10
0.0
 20
0.0
 30
0.0
 40
0.5
  0
CIRCLE
  5
207
100
AcDbEntity
  8
0
 62
     0
370
    -2
100
AcDbCircle
 10
0.0
 20
0.0
 30
0.0
 40
0.16666667
  0
LINE
  5
208
100
AcDbEntity
  8
0
 62
     0
370
    -2
100
AcDbLine
 10
0.11786893
 20
0.11786893
 30
0.0
 11
0.35360678
 21
0.35360678
 31
0.0
  0
LINE
  5
209
100
AcDbEntity
  8
0
 62
     0
370
    -2
100
AcDbLine
 10
-0.11786893
 20
0.11786893
 30
0.0
 11
-0.35360678
 21
0.35360678
 31
0.0
  0
LINE
  5
20A
100
AcDbEntity
  8
0
 62
     0
370
    -2
100
AcDbLine
 10
0.11786893
 20
-0.11786893
 30
0.0
 11
0.35360678
 21
-0.35360678
 31
0.0
  0
LINE
  5
20B
100
AcDbEntity
  8
0
 62
     0
370
    -2
100
AcDbLine
 10
-0.11786893
 20
-0.11786893
 30
0.0
 11
-0.35360678
 21
-0.35360678
 31
0.0
  0
ENDBLK
  5
20C
100
AcDbEntity
100
AcDbBlockEnd
  0
BLOCK
  5
20D
100
AcDbEntity
  8
0
100
AcDbBlockBegin
  2
CDWK_PTTYP33
 70
     0
 10
0.0
 20
0.0
 30
0.0
  3
CDWK_PTTYP33
  1

  4
Cadwork node
  0
CIRCLE
  5
20E
100
AcDbEntity
  8
0
 62
     0
370
    -2
100
AcDbCircle
 10
0.0
 20
0.0
 30
0.0
 40
0.5
  0
LINE
  5
20F
100
AcDbEntity
  8
0
 62
     0
370
    -2
100
AcDbLine
 10
0.0
 20
0.5
 30
0.0
 11
0.0
 21
-0.5
 31
0.0
  0
LINE
  5
210
100
AcDbEntity
  8
0
 62
     0
370
    -2
100
AcDbLine
 10
-0.5
 20
0.0
 30
0.0
 11
0.5
 21
0.0
 31
0.0
  0
ENDBLK
  5
211
100
AcDbEntity
100
AcDbBlockEnd
  0
BLOCK
  5
212
100
AcDbEntity
  8
0
100
AcDbBlockBegin
  2
CDWK_PTTYP34
 70
     0
 10
0.0
 20
0.0
 30
0.0
  3
CDWK_PTTYP34
  1

  4
Cadwork node
  0
CIRCLE
  5
213
100
AcDbEntity
  8
0
 62
     0
370
    -2
100
AcDbCircle
 10
0.0
 20
0.0
 30
0.0
 40
0.5
  0
LINE
  5
214
100
AcDbEntity
  8
0
 62
     0
370
    -2
100
AcDbLine
 10
-0.30360678
 20
-0.40360678
 30
0.0
 11
0.40360678
 21
0.30360678
 31
0.0
  0
LINE
  5
215
100
AcDbEntity
  8
0
 62
     0
370
    -2
100
AcDbLine
 10
-0.40360678
 20
-0.30360678
 30
0.0
 11
0.30360678
 21
0.40360678
 31
0.0
  0
ENDBLK
  5
216
100
AcDbEntity
100
AcDbBlockEnd
  0
BLOCK
  5
217
100
AcDbEntity
  8
0
100
AcDbBlockBegin
  2
CDWK_PTTYP35
 70
     0
 10
0.0
 20
0.0
 30
0.0
  3
CDWK_PTTYP35
  1

  4
Cadwork node
  0
CIRCLE
  5
218
100
AcDbEntity
  8
0
 62
     0
370
    -2
100
AcDbCircle
 10
0.0
 20
0.0
 30
0.0
 40
0.21431634
  0
LINE
  5
219
100
AcDbEntity
  8
0
 62
     0
370
    -2
100
AcDbLine
 10
0.0
 20
0.21431634
 30
0.0
 11
0.0
 21
0.5
 31
0.0
  0
LINE
  5
21A
100
AcDbEntity
  8
0
 62
     0
370
    -2
100
AcDbLine
 10
0.0
 20
-0.21431634
 30
0.0
 11
0.0
 21
-0.5
 31
0.0
  0
ENDBLK
  5
21B
100
AcDbEntity
100
AcDbBlockEnd
  0
BLOCK
  5
21C
100
AcDbEntity
  8
0
100
AcDbBlockBegin
  2
CDWK_PTTYP36
 70
     0
 10
0.0
 20
0.0
 30
0.0
  3
CDWK_PTTYP36
  1

  4
Cadwork node
  0
LINE
  5
21D
100
AcDbEntity
  8
0
 62
     0
370
    -2
100
AcDbLine
 10
-0.5
 20
-0.16666667
 30
0.0
 11
0.5
 21
-0.16666667
 31
0.0
  0
LINE
  5
21E
100
AcDbEntity
  8
0
 62
     0
370
    -2
100
AcDbLine
 10
0.5
 20
-0.16666667
 30
0.0
 11
0.5
 21
0.16666667
 31
0.0
  0
LINE
  5
21F
100
AcDbEntity
  8
0
 62
     0
370
    -2
100
AcDbLine
 10
0.5
 20
0.16666667
 30
0.0
 11
-0.5
 21
0.16666667
 31
0.0
  0
LINE
  5
220
100
AcDbEntity
  8
0
 62
     0
370
    -2
100
AcDbLine
 10
-0.5
 20
0.16666667
 30
0.0
 11
-0.5
 21
-0.16666667
 31
0.0
  0
SOLID
  5
221
100
AcDbEntity
  8
0
 62
     0
100
AcDbTrace
 10
-0.5
 20
-0.16666667
 11
0.5
 21
0.16666667
 12
0.5
 22
-0.16666667
 13
0.5
 23
-0.16666667
  0
ENDBLK
  5
222
100
AcDbEntity
100
AcDbBlockEnd
  0
BLOCK
  5
223
100
AcDbEntity
  8
0
100
AcDbBlockBegin
  2
CDWK_PTTYP37
 70
     0
 10
0.0
 20
0.0
 30
0.0
  3
CDWK_PTTYP37
  1

  4
Cadwork node
  0
CIRCLE
  5
224
100
AcDbEntity
  8
0
 62
     0
370
    -2
100
AcDbCircle
 10
0.0
 20
0.0
 30
0.0
 40
0.5
  0
SOLID
  5
225
100
AcDbEntity
  8
0
 62
     0
100
AcDbTrace
 10
0.0
 20
0.0
 11
0.35350001
 21
0.35350001
 12
0.5
 22
0.0
 13
0.46200001
 23
0.19149999
  0
SOLID
  5
226
100
AcDbEntity
  8
0
 62
     0
100
AcDbTrace
 10
0.0
 20
0.0
 11
0.35350001
 21
-0.35350001
 12
0.5
 22
0.0
 13
0.46200001
 23
-0.19149999
  0
SOLID
  5
227
100
AcDbEntity
  8
0
 62
     0
100
AcDbTrace
 10
0.0
 20
0.0
 11
0.0
 21
-0.5
 12
0.35350001
 22
-0.35350001
 13
0.19149999
 23
-0.46200001
  0
SOLID
  5
228
100
AcDbEntity
  8
0
 62
     0
100
AcDbTrace
 10
0.0
 20
0.0
 11
0.0
 21
-0.5
 12
-0.35350001
 22
-0.35350001
 13
-0.19149999
 23
-0.46200001
  0
ENDBLK
  5
229
100
AcDbEntity
100
AcDbBlockEnd
  0
BLOCK
  5
22A
100
AcDbEntity
  8
0
100
AcDbBlockBegin
  2
CDWK_PTTYP38
 70
     0
 10
0.0
 20
0.0
 30
0.0
  3
CDWK_PTTYP38
  1

  4
Cadwork node
  0
CIRCLE
  5
22B
100
AcDbEntity
  8
0
 62
     0
370
    -2
100
AcDbCircle
 10
0.0
 20
0.0
 30
0.0
 40
0.5
  0
SOLID
  5
22C
100
AcDbEntity
  8
0
 62
     0
100
AcDbTrace
 10
0.0
 20
0.0
 11
0.35350001
 21
0.35350001
 12
0.0
 22
0.5
 13
0.19149999
 23
0.46200001
  0
SOLID
  5
22D
100
AcDbEntity
  8
0
 62
     0
100
AcDbTrace
 10
0.0
 20
0.0
 11
0.5
 21
0.0
 12
0.35350001
 22
0.35350001
 13
0.46200001
 23
0.19149999
  0
SOLID
  5
22E
100
AcDbEntity
  8
0
 62
     0
100
AcDbTrace
 10
0.0
 20
0.0
 11
0.0
 21
-0.5
 12
-0.35350001
 22
-0.35350001
 13
-0.19149999
 23
-0.46200001
  0
SOLID
  5
22F
100
AcDbEntity
  8
0
 62
     0
100
AcDbTrace
 10
0.0
 20
0.0
 11
-0.5
 21
0.0
 12
-0.35350001
 22
-0.35350001
 13
-0.46200001
 23
-0.19149999
  0
ENDBLK
  5
230
100
AcDbEntity
100
AcDbBlockEnd
  0
BLOCK
  5
231
100
AcDbEntity
  8
Ech.1_5
100
AcDbBlockBegin
  2
*X1
 70
     1
 10
0.0
 20
0.0
 30
0.0
  3
*X1
  1

  4
Cadwork hatch
  0
LINE
  5
232
100
AcDbEntity
  8
Ech.1_5
 62
   190
  6
CONTINUOUS
370
    -2
100
AcDbLine
 10
30163.62557015
 20
-35898.74554486
 30
0.0
 11
30208.62472414
 21
-35678.74546353
 31
0.0
  0
LINE
  5
233
100
AcDbEntity
  8
Ech.1_5
 62
   190
  6
CONTINUOUS
370
    -2
100
AcDbLine
 10
30208.62472414
 20
-35898.74554486
 30
0.0
 11
30163.62557015
 21
-35678.74546353
 31
0.0
  0
ENDBLK
  5
234
100
AcDbEntity
100
AcDbBlockEnd
  0
BLOCK
  5
235
100
AcDbEntity
  8
Ech.1_5
100
AcDbBlockBegin
  2
*X2
 70
     1
 10
0.0
 20
0.0
 30
0.0
  3
*X2
  1

  4
Cadwork hatch
  0
LINE
  5
236
100
AcDbEntity
  8
Ech.1_5
 62
   190
  6
CONTINUOUS
370
    -2
100
AcDbLine
 10
30554.22999828
 20
-35898.74554486
 30
0.0
 11
30599.2238016
 21
-35678.74546353
 31
0.0
  0
LINE
  5
237
100
AcDbEntity
  8
Ech.1_5
 62
   190
  6
CONTINUOUS
370
    -2
100
AcDbLine
 10
30599.2238016
 20
-35898.74554486
 30
0.0
 11
30554.22999828
 21
-35678.74546353
 31
0.0
  0
ENDBLK
  5
238
100
AcDbEntity
100
AcDbBlockEnd
  0
ENDSEC
  0
SECTION
  2
ENTITIES
  0
INSERT
  5
239
100
AcDbEntity
  8
Ech.1_5
 62
     0
370
    -3
100
AcDbBlockReference
  2
*X1
 10
0.0
 20
0.0
 30
0.0
  0
INSERT
  5
23A
100
AcDbEntity
  8
Ech.1_5
 62
     0
370
    -3
100
AcDbBlockReference
  2
*X2
 10
0.0
 20
0.0
 30
0.0
  0
LWPOLYLINE
  5
23B
100
AcDbEntity
  8
Ech.1_5
 62
   190
  6
CONTINUOUS
370
    -3
100
AcDbPolyline
 90
       12
 70
     1
 43
0.0
 10
30089.665708
 20
-35678.74548853
 10
30687.80195391
 20
-35678.74548853
 10
30687.69577783
 20
-35768.05176763
 10
30669.60666124
 20
-35784.629155
 10
30705.67337149
 20
-35770.48891356
 10
30687.69577783
 20
-35786.96402911
 10
30687.80251282
 20
-35898.74548853
 10
30089.66626691
 20
-35898.74548853
 10
30089.55953192
 20
-35787.00578942
 10
30107.53712557
 20
-35770.53067386
 10
30071.47041532
 20
-35784.67091531
 10
30089.55953192
 20
-35768.09352794
  0
LWPOLYLINE
  5
23C
100
AcDbEntity
  8
Ech.1_5
 62
   190
  6
CONTINUOUS
370
    -3
100
AcDbPolyline
 90
       32
 70
     0
 43
0.0
 10
30687.80195391
 20
-35715.4121552
 42
1.14028181
 10
30615.71801268
 20
-35724.90220822
 10
30649.88589515
 20
-35852.58876884
 42
-1.30322619
 10
30579.05134601
 20
-35852.58876884
 10
30613.21922849
 20
-35724.90220822
 42
1.30322619
 10
30542.38467934
 20
-35724.90220822
 10
30576.55256182
 20
-35852.58876884
 42
-1.30322619
 10
30505.71801268
 20
-35852.58876884
 10
30539.88589515
 20
-35724.90220822
 42
1.30322619
 10
30469.05134601
 20
-35724.90220822
 10
30503.21922849
 20
-35852.58876884
 42
-1.30322619
 10
30432.38467934
 20
-35852.58876884
 10
30466.55256182
 20
-35724.90220822
 42
1.30322619
 10
30395.71801268
 20
-35724.90220822
 10
30429.88589515
 20
-35852.58876884
 42
-1.30322619
 10
30359.05134601
 20
-35852.58876884
 10
30393.21922849
 20
-35724.90220822
 42
1.30322619
 10
30322.38467934
 20
-35724.90220822
 10
30356.55256182
 20
-35852.58876884
 42
-1.30322619
 10
30285.71801268
 20
-35852.58876884
 10
30319.88589515
 20
-35724.90220822
 42
1.30322619
 10
30249.05134601
 20
-35724.90220822
 10
30283.21922849
 20
-35852.58876884
 42
-1.30322619
 10
30212.38467934
 20
-35852.58876884
 10
30246.55256182
 20
-35724.90220822
 42
1.30322619
 10
30175.71801268
 20
-35724.90220822
 10
30209.88589515
 20
-35852.58876884
 42
-1.30322619
 10
30139.05134601
 20
-35852.58876884
 10
30173.21922849
 20
-35724.90220822
 42
1.30322619
 10
30102.38467934
 20
-35724.90220822
 10
30136.55256182
 20
-35852.58876884
 42
-0.59628815
 10
30089.665708
 20
-35896.90543807
  0
LWPOLYLINE
  5
23D
100
AcDbEntity
  8
Ech.1_5
 62
   190
  6
CONTINUOUS
370
    -3
100
AcDbPolyline
 90
        5
 70
     0
 43
0.0
 10
29785.306612
 20
-36601.53009893
 10
30770.306612
 20
-36601.53009893
 10
30770.306612
 20
-35246.53009893
 10
29785.306612
 20
-35246.53009893
 10
29785.306612
 20
-36601.53009893
  0
LWPOLYLINE
  5
23E
100
AcDbEntity
  8
Ech.1_5
 62
   190
  6
CONTINUOUS
370
    -3
100
AcDbPolyline
 90
        6
 70
     0
 43
0.0
 10
30089.77256316
 20
-35491.3032519
 10
30089.66604754
 20
-35768.05176763
 10
30071.68344654
 20
-35784.53154104
 10
30107.6436412
 20
-35770.43305988
 10
30089.66003674
 20
-35786.91368389
 10
30089.58486448
 20
-36102.07396781
  0
LWPOLYLINE
  5
23F
100
AcDbEntity
  8
Ech.1_5
 62
   190
  6
CONTINUOUS
370
    -3
100
AcDbPolyline
 90
        6
 70
     0
 43
0.0
 10
30687.80229346
 20
-35491.3032519
 10
30687.69577783
 20
-35768.05176763
 10
30669.71317684
 20
-35784.53154104
 10
30705.67337149
 20
-35770.43305988
 10
30687.68976703
 20
-35786.91368389
 10
30687.61459478
 20
-36102.07396781
  0
LINE
  5
240
100
AcDbEntity
  8
Ech.1_5
 62
     7
100
AcDbLine
 10
30089.77256316
 20
-35606.32624498
 30
0.0
 11
30089.77256316
 21
-35632.38595376
 31
0.0
  0
LWPOLYLINE
  5
241
100
AcDbEntity
  8
Ech.1_5
 62
   190
  6
CONTINUOUS
370
    -3
100
AcDbPolyline
 90
        4
 70
     1
 43
0.0
 10
30208.62734069
 20
-35678.74548853
 10
30163.62734069
 20
-35678.74548853
 10
30163.62734069
 20
-35898.74548853
 10
30208.62734069
 20
-35898.74548853
  0
LWPOLYLINE
  5
242
100
AcDbEntity
  8
Ech.1_5
 62
   190
  6
CONTINUOUS
370
    -3
100
AcDbPolyline
 90
        4
 70
     1
 43
0.0
 10
30163.62734069
 20
-35898.74548853
 10
30208.62734069
 20
-35898.74548853
 10
30208.62734069
 20
-35678.74548853
 10
30163.62734069
 20
-35678.74548853
  0
LWPOLYLINE
  5
243
100
AcDbEntity
  8
Ech.1_5
 62
     5
  6
CONTINUOUS
370
    -3
100
AcDbPolyline
 90
        5
 70
     0
 43
0.0
 10
30163.62734069
 20
-35678.74548853
 10
30208.62734069
 20
-35678.74548853
 10
30208.62734069
 20
-35898.74548853
 10
30163.62734069
 20
-35898.74548853
 10
30163.62734069
 20
-35678.74548853
  0
LWPOLYLINE
  5
244
100
AcDbEntity
  8
Ech.1_5
 62
   190
  6
CONTINUOUS
370
    -3
100
AcDbPolyline
 90
        4
 70
     1
 43
0.0
 10
30089.77256316
 20
-35578.74548853
 10
30089.77256316
 20
-35678.74548853
 10
30687.80195391
 20
-35678.74548853
 10
30687.80195391
 20
-35578.74548853
  0
LWPOLYLINE
  5
245
100
AcDbEntity
  8
Ech.1_5
 62
   190
  6
CONTINUOUS
370
    -3
100
AcDbPolyline
 90
        4
 70
     1
 43
0.0
 10
30089.77282654
 20
-36024.16556067
 10
30089.77282654
 20
-36037.16556067
 10
30687.61459478
 20
-36037.16556067
 10
30687.61459478
 20
-36024.16556067
  0
LWPOLYLINE
  5
246
102
{ACAD_REACTORS
330
247
102
}
100
AcDbEntity
  8
Ech.1_5
 62
     7
  6
CONTINUOUS
370
    -3
100
AcDbPolyline
 90
        4
 70
     1
 43
0.0
 10
30687.61459478
 20
-36037.16563651
 10
30687.61459478
 20
-36024.16563651
 10
30089.77282654
 20
-36024.16572317
 10
30089.77282654
 20
-36037.16572317
  0
HATCH
  5
247
100
AcDbEntity
  8
Ech.1_5
 62
   190
  6
CONTINUOUS
100
AcDbHatch
 10
0.0
 20
0.0
 30
0.0
210
0.0
220
0.0
230
1.0
  2
DOTS2
 70
     0
 71
     1
 91
        1
 92
        7
 72
     0
 73
     1
 93
        4
 10
30687.61459478
 20
-36037.16563651
 10
30687.61459478
 20
-36024.16563651
 10
30089.77282654
 20
-36024.16572317
 10
30089.77282654
 20
-36037.16572317
 97
        1
330
246
 75
     0
 76
     2
 52
0.0
 41
4.72440952
 77
     0
 78
     1
 53
0.0
 43
0.0
 44
0.0
 45
3.75
 46
3.535
 79
     2
 49
0.0
 49
-3.535
 47
0.775229
 98
        1
 10
0.0
 20
0.0
  0
LWPOLYLINE
  5
248
100
AcDbEntity
  8
Ech.1_5
 62
     7
  6
CONTINUOUS
370
    -3
100
AcDbPolyline
 90
        4
 70
     1
 43
0.0
 10
30089.77256316
 20
-35898.74548853
 10
30089.77234379
 20
-35958.74548853
 10
30687.80229346
 20
-35958.74548853
 10
30687.80251282
 20
-35898.74548853
  0
CIRCLE
  5
249
100
AcDbEntity
  8
Ech.1_5
 62
     7
  6
CONTINUOUS
370
    -3
100
AcDbCircle
 10
30231.56033868
 20
-35978.22652379
 30
0.0
 40
2.51802373
  0
LINE
  5
24A
100
AcDbEntity
  8
Ech.1_5
 62
     7
  6
CONTINUOUS
370
    -3
100
AcDbLine
 10
30245.06044054
 20
-35909.9314128
 30
0.0
 11
30245.06031663
 21
-35997.16570994
 31
0.0
  0
CIRCLE
  5
24B
100
AcDbEntity
  8
Ech.1_5
 62
     7
  6
CONTINUOUS
370
    -3
100
AcDbCircle
 10
30231.56039107
 20
-35933.22652379
 30
0.0
 40
2.51802373
  0
ARC
  5
24C
100
AcDbEntity
  8
Ech.1_5
 62
     7
  6
CONTINUOUS
370
    -3
100
AcDbCircle
 10
30213.06031663
 20
-35997.16567268
 30
0.0
 40
5.0
100
AcDbArc
 50
269.99993329
 51
359.99993329
  0
LINE
  5
24D
100
AcDbEntity
  8
Ech.1_5
 62
     7
  6
CONTINUOUS
370
    -3
100
AcDbLine
 10
30212.83019792
 20
-36011.24596879
 30
0.0
 11
30212.83020025
 21
-36009.24596879
 31
0.0
  0
LINE
  5
24E
100
AcDbEntity
  8
Ech.1_5
 62
     7
  6
CONTINUOUS
370
    -3
100
AcDbLine
 10
30209.0603108
 20
-36002.16566803
 30
0.0
 11
30213.0603108
 21
-36002.16567268
 31
0.0
  0
ARC
  5
24F
100
AcDbEntity
  8
Ech.1_5
 62
     7
  6
CONTINUOUS
370
    -3
100
AcDbCircle
 10
30222.82659651
 20
-35996.66118965
 30
0.0
 40
14.82598747
100
AcDbArc
 50
201.79410437
 51
238.13509164
  0
ARC
  5
250
100
AcDbEntity
  8
Ech.1_5
 62
     7
  6
CONTINUOUS
370
    -3
100
AcDbCircle
 10
30221.37108232
 20
-36010.13597964
 30
0.0
 40
12.47697948
100
AcDbArc
 50
189.36217724
 51
254.61211432
  0
LINE
  5
251
100
AcDbEntity
  8
Ech.1_5
 62
     7
  6
CONTINUOUS
370
    -3
100
AcDbLine
 10
30212.83019792
 20
-36011.24596879
 30
0.0
 11
30208.69978399
 21
-36011.24596398
 31
0.0
  0
LINE
  5
252
100
AcDbEntity
  8
Ech.1_5
 62
     7
  6
CONTINUOUS
370
    -3
100
AcDbLine
 10
30208.69978399
 20
-36011.24596398
 30
0.0
 11
30208.69977127
 21
-36022.16566761
 31
0.0
  0
LINE
  5
253
100
AcDbEntity
  8
Ech.1_5
 62
     7
  6
CONTINUOUS
370
    -3
100
AcDbLine
 10
30212.83020025
 20
-36009.24596879
 30
0.0
 11
30206.69978631
 21
-36009.24596165
 31
0.0
  0
LINE
  5
254
100
AcDbEntity
  8
Ech.1_5
 62
     7
  6
CONTINUOUS
370
    -3
100
AcDbLine
 10
30206.69978631
 20
-36009.24596165
 30
0.0
 11
30206.69976894
 21
-36024.16566528
 31
0.0
  0
CIRCLE
  5
255
100
AcDbEntity
  8
Ech.1_5
 62
     7
  6
CONTINUOUS
370
    -3
100
AcDbCircle
 10
30231.56035614
 20
-35963.22652379
 30
0.0
 40
2.51802373
  0
CIRCLE
  5
256
100
AcDbEntity
  8
Ech.1_5
 62
     7
  6
CONTINUOUS
370
    -3
100
AcDbCircle
 10
30231.56032121
 20
-35993.22652379
 30
0.0
 40
2.51802373
  0
CIRCLE
  5
257
100
AcDbEntity
  8
Ech.1_5
 62
     7
  6
CONTINUOUS
370
    -3
100
AcDbCircle
 10
30231.56037361
 20
-35948.22652379
 30
0.0
 40
2.51802373
  0
ARC
  5
258
100
AcDbEntity
  8
Ech.1_5
 62
     7
  6
CONTINUOUS
370
    -3
100
AcDbCircle
 10
30240.29403792
 20
-35996.66120999
 30
0.0
 40
14.82598747
100
AcDbArc
 50
301.86477493
 51
338.20576221
  0
ARC
  5
259
100
AcDbEntity
  8
Ech.1_5
 62
     7
  6
CONTINUOUS
370
    -3
100
AcDbCircle
 10
30251.91869477
 20
-36009.02080548
 30
0.0
 40
3.80485997
100
AcDbArc
 50
183.49669989
 51
304.25383409
  0
ARC
  5
25A
100
AcDbEntity
  8
Ech.1_5
 62
     7
  6
CONTINUOUS
370
    -3
100
AcDbCircle
 10
30241.74952072
 20
-36010.13600337
 30
0.0
 40
12.47697948
100
AcDbArc
 50
285.38775225
 51
350.63768933
  0
LINE
  5
25B
100
AcDbEntity
  8
Ech.1_5
 62
     7
  6
CONTINUOUS
370
    -3
100
AcDbLine
 10
30254.0603108
 20
-36002.16572042
 30
0.0
 11
30250.0603108
 21
-36002.16571577
 31
0.0
  0
ARC
  5
25C
100
AcDbEntity
  8
Ech.1_5
 62
     7
  6
CONTINUOUS
370
    -3
100
AcDbCircle
 10
30250.06031663
 20
-35997.16571577
 30
0.0
 40
5.0
100
AcDbArc
 50
179.99993329
 51
269.99993328
  0
LINE
  5
25D
100
AcDbEntity
  8
Ech.1_5
 62
     7
  6
CONTINUOUS
370
    -3
100
AcDbLine
 10
30250.29040254
 20
-36011.2460124
 30
0.0
 11
30250.29040487
 21
-36009.2460124
 31
0.0
  0
LINE
  5
25E
100
AcDbEntity
  8
Ech.1_5
 62
     7
  6
CONTINUOUS
370
    -3
100
AcDbLine
 10
30250.29040254
 20
-36011.2460124
 30
0.0
 11
30254.42081648
 21
-36011.24601721
 31
0.0
  0
LINE
  5
25F
100
AcDbEntity
  8
Ech.1_5
 62
     7
  6
CONTINUOUS
370
    -3
100
AcDbLine
 10
30254.42081648
 20
-36011.24601721
 30
0.0
 11
30254.42080376
 21
-36022.16572084
 31
0.0
  0
LINE
  5
260
100
AcDbEntity
  8
Ech.1_5
 62
     7
  6
CONTINUOUS
370
    -3
100
AcDbLine
 10
30250.29040487
 20
-36009.2460124
 30
0.0
 11
30256.4208188
 21
-36009.24601954
 31
0.0
  0
LINE
  5
261
100
AcDbEntity
  8
Ech.1_5
 62
     7
  6
CONTINUOUS
370
    -3
100
AcDbLine
 10
30256.4208188
 20
-36009.24601954
 30
0.0
 11
30256.42080143
 21
-36024.16572317
 31
0.0
  0
LINE
  5
262
100
AcDbEntity
  8
Ech.1_5
 62
     7
  6
CONTINUOUS
370
    -3
100
AcDbLine
 10
30218.06044054
 20
-35909.93138137
 30
0.0
 11
30218.06031663
 21
-35997.16567851
 31
0.0
  0
LINE
  5
263
100
AcDbEntity
  8
Ech.1_5
 62
     7
  6
CONTINUOUS
370
    -3
100
AcDbLine
 10
30218.06044054
 20
-35909.93138137
 30
0.0
 11
30245.06044054
 21
-35909.9314128
 31
0.0
  0
LINE
  5
264
100
AcDbEntity
  8
Ech.1_5
 62
     7
  6
CONTINUOUS
370
    -3
100
AcDbLine
 10
30254.42080376
 20
-36022.16572084
 30
0.0
 11
30208.69977127
 21
-36022.16566761
 31
0.0
  0
LINE
  5
265
100
AcDbEntity
  8
Ech.1_5
 62
     7
  6
CONTINUOUS
370
    -3
100
AcDbLine
 10
30206.69976894
 20
-36024.16566528
 30
0.0
 11
30256.42080143
 21
-36024.16572317
 31
0.0
  0
ARC
  5
266
100
AcDbEntity
  8
Ech.1_5
 62
     7
  6
CONTINUOUS
370
    -3
100
AcDbCircle
 10
30211.20191088
 20
-36009.02075807
 30
0.0
 40
3.80485997
100
AcDbArc
 50
235.74603248
 51
356.50316668
  0
LWPOLYLINE
  5
267
100
AcDbEntity
  8
Ech.1_5
 62
   190
  6
CONTINUOUS
370
    -3
100
AcDbPolyline
 90
        4
 70
     1
 43
0.0
 10
30599.22725771
 20
-35678.74548853
 10
30554.22725771
 20
-35678.74548853
 10
30554.22725771
 20
-35898.74548853
 10
30599.22725771
 20
-35898.74548853
  0
LWPOLYLINE
  5
268
100
AcDbEntity
  8
Ech.1_5
 62
   190
  6
CONTINUOUS
370
    -3
100
AcDbPolyline
 90
        4
 70
     1
 43
0.0
 10
30554.22725771
 20
-35898.74548853
 10
30599.22725771
 20
-35898.74548853
 10
30599.22725771
 20
-35678.74548853
 10
30554.22725771
 20
-35678.74548853
  0
LWPOLYLINE
  5
269
100
AcDbEntity
  8
Ech.1_5
 62
     5
  6
CONTINUOUS
370
    -3
100
AcDbPolyline
 90
        5
 70
     0
 43
0.0
 10
30554.22725771
 20
-35678.74548853
 10
30599.22725771
 20
-35678.74548853
 10
30599.22725771
 20
-35898.74548853
 10
30554.22725771
 20
-35898.74548853
 10
30554.22725771
 20
-35678.74548853
  0
LINE
  5
26A
100
AcDbEntity
  8
Ech.1_5
 62
     1
  6
CADWORK_22
 48
-5.0
370
    35
100
AcDbLine
 10
30089.77256316
 20
-35898.74548853
 30
0.0
 11
30687.80251282
 21
-35898.74548853
 31
0.0
  0
CIRCLE
  5
26B
100
AcDbEntity
  8
Ech.1_5
 62
     7
  6
CONTINUOUS
370
    -3
100
AcDbCircle
 10
30615.77615957
 20
-35978.22652379
 30
0.0
 40
2.51802373
  0
LINE
  5
26C
100
AcDbEntity
  8
Ech.1_5
 62
     7
  6
CONTINUOUS
370
    -3
100
AcDbLine
 10
30629.27626144
 20
-35909.9314128
 30
0.0
 11
30629.27613752
 21
-35997.16570994
 31
0.0
  0
CIRCLE
  5
26D
100
AcDbEntity
  8
Ech.1_5
 62
     7
  6
CONTINUOUS
370
    -3
100
AcDbCircle
 10
30615.77621197
 20
-35933.22652379
 30
0.0
 40
2.51802373
  0
ARC
  5
26E
100
AcDbEntity
  8
Ech.1_5
 62
     7
  6
CONTINUOUS
370
    -3
100
AcDbCircle
 10
30597.27613752
 20
-35997.16567268
 30
0.0
 40
5.0
100
AcDbArc
 50
269.99993329
 51
359.99993329
  0
LINE
  5
26F
100
AcDbEntity
  8
Ech.1_5
 62
     7
  6
CONTINUOUS
370
    -3
100
AcDbLine
 10
30597.04601882
 20
-36011.24596879
 30
0.0
 11
30597.04602115
 21
-36009.24596879
 31
0.0
  0
LINE
  5
270
100
AcDbEntity
  8
Ech.1_5
 62
     7
  6
CONTINUOUS
370
    -3
100
AcDbLine
 10
30593.2761317
 20
-36002.16566803
 30
0.0
 11
30597.2761317
 21
-36002.16567268
 31
0.0
  0
ARC
  5
271
100
AcDbEntity
  8
Ech.1_5
 62
     7
  6
CONTINUOUS
370
    -3
100
AcDbCircle
 10
30607.04241741
 20
-35996.66118965
 30
0.0
 40
14.82598747
100
AcDbArc
 50
201.79410437
 51
238.13509164
  0
ARC
  5
272
100
AcDbEntity
  8
Ech.1_5
 62
     7
  6
CONTINUOUS
370
    -3
100
AcDbCircle
 10
30605.58690322
 20
-36010.13597964
 30
0.0
 40
12.47697948
100
AcDbArc
 50
189.36217724
 51
254.61211432
  0
LINE
  5
273
100
AcDbEntity
  8
Ech.1_5
 62
     7
  6
CONTINUOUS
370
    -3
100
AcDbLine
 10
30597.04601882
 20
-36011.24596879
 30
0.0
 11
30592.91560488
 21
-36011.24596398
 31
0.0
  0
LINE
  5
274
100
AcDbEntity
  8
Ech.1_5
 62
     7
  6
CONTINUOUS
370
    -3
100
AcDbLine
 10
30592.91560488
 20
-36011.24596398
 30
0.0
 11
30592.91559217
 21
-36022.16566761
 31
0.0
  0
LINE
  5
275
100
AcDbEntity
  8
Ech.1_5
 62
     7
  6
CONTINUOUS
370
    -3
100
AcDbLine
 10
30597.04602115
 20
-36009.24596879
 30
0.0
 11
30590.91560721
 21
-36009.24596165
 31
0.0
  0
LINE
  5
276
100
AcDbEntity
  8
Ech.1_5
 62
     7
  6
CONTINUOUS
370
    -3
100
AcDbLine
 10
30590.91560721
 20
-36009.24596165
 30
0.0
 11
30590.91558984
 21
-36024.16566528
 31
0.0
  0
CIRCLE
  5
277
100
AcDbEntity
  8
Ech.1_5
 62
     7
  6
CONTINUOUS
370
    -3
100
AcDbCircle
 10
30615.77617704
 20
-35963.22652379
 30
0.0
 40
2.51802373
  0
CIRCLE
  5
278
100
AcDbEntity
  8
Ech.1_5
 62
     7
  6
CONTINUOUS
370
    -3
100
AcDbCircle
 10
30615.77614211
 20
-35993.22652379
 30
0.0
 40
2.51802373
  0
CIRCLE
  5
279
100
AcDbEntity
  8
Ech.1_5
 62
     7
  6
CONTINUOUS
370
    -3
100
AcDbCircle
 10
30615.77619451
 20
-35948.22652379
 30
0.0
 40
2.51802373
  0
ARC
  5
27A
100
AcDbEntity
  8
Ech.1_5
 62
     7
  6
CONTINUOUS
370
    -3
100
AcDbCircle
 10
30624.50985881
 20
-35996.66120999
 30
0.0
 40
14.82598747
100
AcDbArc
 50
301.86477493
 51
338.20576221
  0
ARC
  5
27B
100
AcDbEntity
  8
Ech.1_5
 62
     7
  6
CONTINUOUS
370
    -3
100
AcDbCircle
 10
30636.13451566
 20
-36009.02080548
 30
0.0
 40
3.80485997
100
AcDbArc
 50
183.49669989
 51
304.25383409
  0
ARC
  5
27C
100
AcDbEntity
  8
Ech.1_5
 62
     7
  6
CONTINUOUS
370
    -3
100
AcDbCircle
 10
30625.96534162
 20
-36010.13600337
 30
0.0
 40
12.47697948
100
AcDbArc
 50
285.38775225
 51
350.63768933
  0
LINE
  5
27D
100
AcDbEntity
  8
Ech.1_5
 62
     7
  6
CONTINUOUS
370
    -3
100
AcDbLine
 10
30638.2761317
 20
-36002.16572042
 30
0.0
 11
30634.2761317
 21
-36002.16571577
 31
0.0
  0
ARC
  5
27E
100
AcDbEntity
  8
Ech.1_5
 62
     7
  6
CONTINUOUS
370
    -3
100
AcDbCircle
 10
30634.27613752
 20
-35997.16571577
 30
0.0
 40
5.0
100
AcDbArc
 50
179.99993329
 51
269.99993328
  0
LINE
  5
27F
100
AcDbEntity
  8
Ech.1_5
 62
     7
  6
CONTINUOUS
370
    -3
100
AcDbLine
 10
30634.50622344
 20
-36011.2460124
 30
0.0
 11
30634.50622576
 21
-36009.2460124
 31
0.0
  0
LINE
  5
280
100
AcDbEntity
  8
Ech.1_5
 62
     7
  6
CONTINUOUS
370
    -3
100
AcDbLine
 10
30634.50622344
 20
-36011.2460124
 30
0.0
 11
30638.63663737
 21
-36011.24601721
 31
0.0
  0
LINE
  5
281
100
AcDbEntity
  8
Ech.1_5
 62
     7
  6
CONTINUOUS
370
    -3
100
AcDbLine
 10
30638.63663737
 20
-36011.24601721
 30
0.0
 11
30638.63662466
 21
-36022.16572084
 31
0.0
  0
LINE
  5
282
100
AcDbEntity
  8
Ech.1_5
 62
     7
  6
CONTINUOUS
370
    -3
100
AcDbLine
 10
30634.50622576
 20
-36009.2460124
 30
0.0
 11
30640.6366397
 21
-36009.24601954
 31
0.0
  0
LINE
  5
283
100
AcDbEntity
  8
Ech.1_5
 62
     7
  6
CONTINUOUS
370
    -3
100
AcDbLine
 10
30640.6366397
 20
-36009.24601954
 30
0.0
 11
30640.63662233
 21
-36024.16572317
 31
0.0
  0
LINE
  5
284
100
AcDbEntity
  8
Ech.1_5
 62
     7
  6
CONTINUOUS
370
    -3
100
AcDbLine
 10
30602.27626144
 20
-35909.93138137
 30
0.0
 11
30602.27613752
 21
-35997.16567851
 31
0.0
  0
LINE
  5
285
100
AcDbEntity
  8
Ech.1_5
 62
     7
  6
CONTINUOUS
370
    -3
100
AcDbLine
 10
30602.27626144
 20
-35909.93138137
 30
0.0
 11
30629.27626144
 21
-35909.9314128
 31
0.0
  0
LINE
  5
286
100
AcDbEntity
  8
Ech.1_5
 62
     7
  6
CONTINUOUS
370
    -3
100
AcDbLine
 10
30638.63662466
 20
-36022.16572084
 30
0.0
 11
30592.91559217
 21
-36022.16566761
 31
0.0
  0
LINE
  5
287
100
AcDbEntity
  8
Ech.1_5
 62
     7
  6
CONTINUOUS
370
    -3
100
AcDbLine
 10
30590.91558984
 20
-36024.16566528
 30
0.0
 11
30640.63662233
 21
-36024.16572317
 31
0.0
  0
ARC
  5
288
100
AcDbEntity
  8
Ech.1_5
 62
     7
  6
CONTINUOUS
370
    -3
100
AcDbCircle
 10
30595.41773177
 20
-36009.02075807
 30
0.0
 40
3.80485997
100
AcDbArc
 50
235.74603248
 51
356.50316668
  0
LWPOLYLINE
  5
289
100
AcDbEntity
  8
Ech.1_5
 62
   190
  6
CONTINUOUS
370
    -3
100
AcDbPolyline
 90
       70
 70
     0
 43
0.0
 10
30089.77256316
 20
-35662.07882186
 42
1.14028181
 10
30122.537991
 20
-35657.7651614
 10
30107.00713533
 20
-35599.72581566
 42
-1.30322619
 10
30139.20465766
 20
-35599.72581566
 10
30123.67380199
 20
-35657.7651614
 42
1.30322619
 10
30155.87132433
 20
-35657.7651614
 10
30140.34046866
 20
-35599.72581566
 42
-1.30322619
 10
30172.537991
 20
-35599.72581566
 10
30157.00713533
 20
-35657.7651614
 42
1.30322619
 10
30189.20465766
 20
-35657.7651614
 10
30173.67380199
 20
-35599.72581566
 42
-1.30322619
 10
30205.87132433
 20
-35599.72581566
 10
30190.34046866
 20
-35657.7651614
 42
1.30322619
 10
30222.537991
 20
-35657.7651614
 10
30207.00713533
 20
-35599.72581566
 42
-1.30322619
 10
30239.20465766
 20
-35599.72581566
 10
30223.67380199
 20
-35657.7651614
 42
1.30322619
 10
30255.87132433
 20
-35657.7651614
 10
30240.34046866
 20
-35599.72581566
 42
-1.30322619
 10
30272.537991
 20
-35599.72581566
 10
30257.00713533
 20
-35657.7651614
 42
1.30322619
 10
30289.20465766
 20
-35657.7651614
 10
30273.67380199
 20
-35599.72581566
 42
-1.30322619
 10
30305.87132433
 20
-35599.72581566
 10
30290.34046866
 20
-35657.7651614
 42
1.30322619
 10
30322.537991
 20
-35657.7651614
 10
30307.00713533
 20
-35599.72581566
 42
-1.30322619
 10
30339.20465766
 20
-35599.72581566
 10
30323.67380199
 20
-35657.7651614
 42
1.30322619
 10
30355.87132433
 20
-35657.7651614
 10
30340.34046866
 20
-35599.72581566
 42
-1.30322619
 10
30372.537991
 20
-35599.72581566
 10
30357.00713533
 20
-35657.7651614
 42
1.30322619
 10
30389.20465766
 20
-35657.7651614
 10
30373.67380199
 20
-35599.72581566
 42
-1.30322619
 10
30405.87132433
 20
-35599.72581566
 10
30390.34046866
 20
-35657.7651614
 42
1.30322619
 10
30422.537991
 20
-35657.7651614
 10
30407.00713533
 20
-35599.72581566
 42
-1.30322619
 10
30439.20465766
 20
-35599.72581566
 10
30423.67380199
 20
-35657.7651614
 42
1.30322619
 10
30455.87132433
 20
-35657.7651614
 10
30440.34046866
 20
-35599.72581566
 42
-1.30322619
 10
30472.537991
 20
-35599.72581566
 10
30457.00713533
 20
-35657.7651614
 42
1.30322619
 10
30489.20465766
 20
-35657.7651614
 10
30473.67380199
 20
-35599.72581566
 42
-1.30322619
 10
30505.87132433
 20
-35599.72581566
 10
30490.34046866
 20
-35657.7651614
 42
1.30322619
 10
30522.537991
 20
-35657.7651614
 10
30507.00713533
 20
-35599.72581566
 42
-1.30322619
 10
30539.20465766
 20
-35599.72581566
 10
30523.67380199
 20
-35657.7651614
 42
1.30322619
 10
30555.87132433
 20
-35657.7651614
 10
30540.34046866
 20
-35599.72581566
 42
-1.30322619
 10
30572.537991
 20
-35599.72581566
 10
30557.00713533
 20
-35657.7651614
 42
1.30322619
 10
30589.20465766
 20
-35657.7651614
 10
30573.67380199
 20
-35599.72581566
 42
-1.30322619
 10
30605.87132433
 20
-35599.72581566
 10
30590.34046866
 20
-35657.7651614
 42
1.30322619
 10
30622.537991
 20
-35657.7651614
 10
30607.00713533
 20
-35599.72581566
 42
-1.30322619
 10
30639.20465766
 20
-35599.72581566
 10
30623.67380199
 20
-35657.7651614
 42
1.30322619
 10
30655.87132433
 20
-35657.7651614
 10
30640.34046866
 20
-35599.72581566
 42
-1.30322619
 10
30672.537991
 20
-35599.72581566
 10
30657.00713533
 20
-35657.7651614
 42
0.8914048
 10
30687.80195391
 20
-35669.94035315
  0
ENDSEC
  0
SECTION
  2
OBJECTS
  0
DICTIONARY
  5
1
100
AcDbDictionary
  3
ACAD_GROUP
350
2
  3
ACAD_MLINESTYLE
350
3
  0
DICTIONARY
  5
2
102
{CDWK_REACTORS
330
1
102
}
100
AcDbDictionary
  0
DICTIONARY
  5
3
102
{CDWK_REACTORS
330
1
102
}
100
AcDbDictionary
  3
STANDARD
350
4
  0
MLINESTYLE
  5
4
102
{CDWK_REACTORS
330
3
102
}
100
AcDbMlineStyle
  2
STANDARD
 70
     0
  3

 62
     0
 51
90.0
 52
90.0
 71
     2
 49
0.5
 62
   256
  6
BYLAYER
 49
-0.5
 62
   256
  6
BYLAYER
  0
ENDSEC
  0
EOF
