  0
SECTION
  2
HEADER
  9
$ACADVER
  1
AC1014
  9
$DWGCODEPAGE
  3
ANSI_1252
  9
$INSBASE
 10
0.0
 20
0.0
 30
0.0
  9
$EXTMIN
 10
16.95292807
 20
-31331.18685147
  9
$EXTMAX
 10
32868.69414016
 20
784.39574146
  9
$LIMMIN
 10
16.95292807
 20
-31331.18685147
  9
$LIMMAX
 10
32868.69414016
 20
784.39574146
  9
$ORTHOMODE
 70
     0
  9
$REGENMODE
 70
     1
  9
$FILLMODE
 70
     1
  9
$QTEXTMODE
 70
     0
  9
$MIRRTEXT
 70
     1
  9
$DRAGMODE
 70
     2
  9
$LTSCALE
 40
5.0
  9
$OSMODE
 70
     0
  9
$ATTMODE
 70
     1
  9
$TEXTSIZE
 40
3.5
  9
$TRACEWID
 40
1.0
  9
$TEXTSTYLE
  7
STANDARD
  9
$CLAYER
  8
0
  9
$CELTYPE
  6
BYLAYER
  9
$CECOLOR
 62
   256
  9
$DIMSCALE
 40
1.0
  9
$DIMASZ
 40
2.0
  9
$DIMEXO
 40
5.0
  9
$DIMDLI
 40
10.0
  9
$DIMRND
 40
0.0
  9
$DIMDLE
 40
2.0
  9
$DIMEXE
 40
2.0
  9
$DIMTP
 40
0.0
  9
$DIMTM
 40
0.0
  9
$DIMTXT
 40
2.5
  9
$DIMCEN
 40
1.5
  9
$DIMTSZ
 40
0.0
  9
$DIMTOL
 70
     0
  9
$DIMLIM
 70
     0
  9
$DIMTIH
 70
     1
  9
$DIMTOH
 70
     0
  9
$DIMSE1
 70
     0
  9
$DIMSE2
 70
     0
  9
$DIMTAD
 70
     1
  9
$DIMZIN
 70
     8
  9
$DIMBLK
  1

  9
$DIMASO
 70
     1
  9
$DIMSHO
 70
     1
  9
$DIMPOST
  1

  9
$DIMAPOST
  1

  9
$DIMALT
 70
     0
  9
$DIMALTD
 70
     2
  9
$DIMALTF
 40
25.4
  9
$DIMLFAC
 40
1.0
  9
$DIMTOFL
 70
     0
  9
$DIMTVP
 40
0.0
  9
$DIMTIX
 70
     0
  9
$DIMSOXD
 70
     0
  9
$DIMSAH
 70
     0
  9
$DIMBLK1
  1

  9
$DIMBLK2
  1

  9
$DIMSTYLE
  2
*UNNAMED
  9
$DIMCLRD
 70
   190
  9
$DIMCLRE
 70
   190
  9
$DIMCLRT
 70
   190
  9
$DIMTFAC
 40
1.0
  9
$DIMGAP
 40
0.09
  9
$DIMUNIT
 70
     2
  9
$LUNITS
 70
     2
  9
$LUPREC
 70
     6
  9
$AXISMODE
 70
     0
  9
$AXISUNIT
 10
0.0
 20
0.0
  9
$SKETCHINC
 40
0.1
  9
$FILLETRAD
 40
0.0
  9
$AUNITS
 70
     0
  9
$AUPREC
 70
     0
  9
$MENU
  1
ACAD
  9
$ELEVATION
 40
0.0
  9
$PELEVATION
 40
0.0
  9
$THICKNESS
 40
0.0
  9
$LIMCHECK
 70
     0
  9
$BLIPMODE
 70
     1
  9
$CHAMFERA
 40
0.0
  9
$CHAMFERB
 40
0.0
  9
$SKPOLY
 70
     1
  9
$TDCREATE
 40
2457811.0000000000
  9
$TDUPDATE
 40
2457811.0000000000
  9
$TDINDWG
 40
0.0
  9
$TDUSRTIMER
 40
0.0
  9
$USRTIMER
 70
     1
  9
$ANGBASE
 50
0.0
  9
$ANGDIR
 70
     0
  9
$PDMODE
 70
     0
  9
$PDSIZE
 40
0.0
  9
$PLINEWID
 40
0.0
  9
$COORDS
 70
     2
  9
$SPLFRAME
 70
     0
  9
$SPLINETYPE
 70
     6
  9
$SPLINESEGS
 70
     8
  9
$ATTDIA
 70
     1
  9
$ATTREQ
 70
     1
  9
$HANDLING
 70
     1
  9
$HANDSEED
  5
     293
  9
$SURFTAB1
 70
     6
  9
$SURFTAB2
 70
     6
  9
$SURFTYPE
 70
     6
  9
$SURFU
 70
     6
  9
$SURFV
 70
     6
  9
$UCSNAME
  2

  9
$UCSORG
 10
0.0
 20
0.0
 30
0.0
  9
$UCSXDIR
 10
1.0
 20
0.0
 30
0.0
  9
$UCSYDIR
 10
0.0
 20
1.0
 30
0.0
  9
$PUCSNAME
  2

  9
$PUCSORG
 10
0.0
 20
0.0
 30
0.0
  9
$PUCSXDIR
 10
1.0
 20
0.0
 30
0.0
  9
$PUCSYDIR
 10
0.0
 20
1.0
 30
0.0
  9
$USERI1
 70
     0
  9
$USERI2
 70
     0
  9
$USERI3
 70
     0
  9
$USERI4
 70
     0
  9
$USERI5
 70
     0
  9
$USERR1
 40
0.0
  9
$USERR2
 40
0.0
  9
$USERR3
 40
0.0
  9
$USERR4
 40
0.0
  9
$USERR5
 40
0.0
  9
$WORLDVIEW
 70
     1
  9
$SHADEDGE
 70
     3
  9
$SHADEDIF
 70
    70
  9
$TILEMODE
 70
     1
  9
$MAXACTVP
 70
    16
  9
$PINSBASE
 10
0.0
 20
0.0
 30
0.0
  9
$PLIMCHECK
 70
     0
  9
$PEXTMIN
 10
1.0000000000000E+20
 20
1.0000000000000E+20
 30
1.0000000000000E+20
  9
$PEXTMAX
 10
-1.0000000000000E+20
 20
-1.0000000000000E+20
 30
-1.0000000000000E+20
  9
$PLIMMIN
 10
0.0
 20
0.0
  9
$UNITMODE
 70
     0
  9
$VISRETAIN
 70
     0
  9
$MEASUREMENT
 70
     1
  0
ENDSEC
  0
SECTION
  2
TABLES
  0
TABLE
  2
VPORT
  5
E9
100
AcDbSymbolTable
 70
     1
  0
ENDTAB
  0
TABLE
  2
STYLE
  5
EA
100
AcDbSymbolTable
 70
     2
  0
STYLE
  5
EB
100
AcDbSymbolTableRecord
100
AcDbTextStyleTableRecord
  2
STANDARD
 70
     0
 40
0.0
 41
1.0
 50
0.0
 71
     0
 42
3.5
  3
MONOTXT
  4

  0
STYLE
  5
EC
100
AcDbSymbolTableRecord
100
AcDbTextStyleTableRecord
  2
SYMAP
 70
     0
 40
0.0
 41
1.0
 50
0.0
 71
     0
 42
3.5
  3
SYMAP
  4

  0
STYLE
  5
ED
100
AcDbSymbolTableRecord
100
AcDbTextStyleTableRecord
  2
CADWORK1
 70
     0
 40
0.0
 41
1.0
 50
0.0
 71
     0
 42
3.5
  3
MONOTXT
  4

  0
STYLE
  5
EE
100
AcDbSymbolTableRecord
100
AcDbTextStyleTableRecord
  2
MONOTXT
 70
     0
 40
0.0
 41
1.0
 50
0.0
 71
     0
 42
3.5
  3
MONOTXT
  4

  0
ENDTAB
  0
TABLE
  2
LTYPE
  5
EF
100
AcDbSymbolTable
 70
    13
  0
LTYPE
  5
F0
100
AcDbSymbolTableRecord
100
AcDbLinetypeTableRecord
  2
BYBLOCK
 70
    64
  3

 72
    65
 73
     0
 40
0.0
  0
LTYPE
  5
F1
100
AcDbSymbolTableRecord
100
AcDbLinetypeTableRecord
  2
BYLAYER
 70
    64
  3

 72
    65
 73
     0
 40
0.0
  0
LTYPE
  5
F2
100
AcDbSymbolTableRecord
100
AcDbLinetypeTableRecord
  2
CONTINUOUS
 70
    64
  3
Solid line
 72
    65
 73
     0
 40
0.0
  0
LTYPE
  5
F3
100
AcDbSymbolTableRecord
100
AcDbLinetypeTableRecord
  2
DOT2
 70
    64
  3
...............................................
 72
    65
 73
     2
 40
1.25
 49
0.0
 74
     0
 49
-1.25
 74
     0
  0
LTYPE
  5
F4
100
AcDbSymbolTableRecord
100
AcDbLinetypeTableRecord
  2
DASHDOT
 70
    64
  3
 __ . __ . __ . __ . __ . __ . __ . __ . __ . __
 72
    65
 73
     4
 40
10.0
 49
5.0
 74
     0
 49
-2.5
 74
     0
 49
0.0
 74
     0
 49
-2.5
 74
     0
  0
LTYPE
  5
F5
100
AcDbSymbolTableRecord
100
AcDbLinetypeTableRecord
  2
DASHEDX2
 70
    64
  3
____  ____  ____  ____  ____  ____  ____  ____
 72
    65
 73
     2
 40
3.75
 49
2.5
 74
     0
 49
-1.25
 74
     0
  0
LTYPE
  5
F6
100
AcDbSymbolTableRecord
100
AcDbLinetypeTableRecord
  2
CADWORK_22
 70
    64
  3
22 =======================================
 72
    65
 73
     0
 40
0.0
  0
LTYPE
  5
F7
100
AcDbSymbolTableRecord
100
AcDbLinetypeTableRecord
  2
DAL
 70
    64
  3
Solid line (for MAPS)
 72
    65
 73
     0
 40
0.0
  0
LTYPE
  5
F8
100
AcDbSymbolTableRecord
100
AcDbLinetypeTableRecord
  2
MUR
 70
    64
  3
Solid line (for MAPS)
 72
    65
 73
     0
 40
0.0
  0
LTYPE
  5
F9
100
AcDbSymbolTableRecord
100
AcDbLinetypeTableRecord
  2
SOM
 70
    64
  3
Solid line (for MAPS)
 72
    65
 73
     0
 40
0.0
  0
LTYPE
  5
FA
100
AcDbSymbolTableRecord
100
AcDbLinetypeTableRecord
  2
COL
 70
    64
  3
Solid line (for MAPS)
 72
    65
 73
     0
 40
0.0
  0
LTYPE
  5
FB
100
AcDbSymbolTableRecord
100
AcDbLinetypeTableRecord
  2
LGN
 70
    64
  3
Solid line (for MAPS)
 72
    65
 73
     0
 40
0.0
  0
LTYPE
  5
FC
100
AcDbSymbolTableRecord
100
AcDbLinetypeTableRecord
  2
PNT
 70
    64
  3
Solid line (for MAPS)
 72
    65
 73
     0
 40
0.0
  0
ENDTAB
  0
TABLE
  2
LAYER
  5
FD
100
AcDbSymbolTable
 70
    32
  0
LAYER
  5
FE
100
AcDbSymbolTableRecord
100
AcDbLayerTableRecord
  2
Standard
 70
     0
 62
     7
  6
CONTINUOUS
370
    -3
  0
LAYER
  5
FF
100
AcDbSymbolTableRecord
100
AcDbLayerTableRecord
  2
Ech.1_1
 70
     0
 62
     7
  6
CONTINUOUS
370
    -3
  0
LAYER
  5
100
100
AcDbSymbolTableRecord
100
AcDbLayerTableRecord
  2
Ech.1_2
 70
     0
 62
     7
  6
CONTINUOUS
370
    -3
  0
LAYER
  5
101
100
AcDbSymbolTableRecord
100
AcDbLayerTableRecord
  2
Ech.1_5
 70
     0
 62
     7
  6
CONTINUOUS
370
    -3
  0
LAYER
  5
102
100
AcDbSymbolTableRecord
100
AcDbLayerTableRecord
  2
Ech.1_10
 70
     0
 62
     7
  6
CONTINUOUS
370
    -3
  0
LAYER
  5
103
100
AcDbSymbolTableRecord
100
AcDbLayerTableRecord
  2
Ech.1_20
 70
     0
 62
     7
  6
CONTINUOUS
370
    -3
  0
LAYER
  5
104
100
AcDbSymbolTableRecord
100
AcDbLayerTableRecord
  2
Ech.1_25
 70
     0
 62
     7
  6
CONTINUOUS
370
    -3
  0
LAYER
  5
105
100
AcDbSymbolTableRecord
100
AcDbLayerTableRecord
  2
Ech.1_33
 70
     0
 62
     7
  6
CONTINUOUS
370
    -3
  0
LAYER
  5
106
100
AcDbSymbolTableRecord
100
AcDbLayerTableRecord
  2
Ech.1_50
 70
     0
 62
     7
  6
CONTINUOUS
370
    -3
  0
LAYER
  5
107
100
AcDbSymbolTableRecord
100
AcDbLayerTableRecord
  2
Ech.1_75
 70
     0
 62
     7
  6
CONTINUOUS
370
    -3
  0
LAYER
  5
108
100
AcDbSymbolTableRecord
100
AcDbLayerTableRecord
  2
Ech.1_100
 70
     0
 62
     7
  6
CONTINUOUS
370
    -3
  0
LAYER
  5
109
100
AcDbSymbolTableRecord
100
AcDbLayerTableRecord
  2
Ech.1_200
 70
     0
 62
     7
  6
CONTINUOUS
370
    -3
  0
LAYER
  5
10A
100
AcDbSymbolTableRecord
100
AcDbLayerTableRecord
  2
Ech.1_500
 70
     0
 62
     7
  6
CONTINUOUS
370
    -3
  0
LAYER
  5
10B
100
AcDbSymbolTableRecord
100
AcDbLayerTableRecord
  2
Ech.1_1000
 70
     0
 62
     7
  6
CONTINUOUS
370
    -3
  0
LAYER
  5
10C
100
AcDbSymbolTableRecord
100
AcDbLayerTableRecord
  2
Cadres traceur
 70
     0
 62
     7
  6
CONTINUOUS
370
    18
  0
LAYER
  5
10D
100
AcDbSymbolTableRecord
100
AcDbLayerTableRecord
  2
Cadres laser
 70
     0
 62
     7
  6
CONTINUOUS
370
    18
  0
LAYER
  5
10E
100
AcDbSymbolTableRecord
100
AcDbLayerTableRecord
  2
Légende d_aide
 70
     0
 62
     7
  6
CONTINUOUS
370
    18
  0
LAYER
  5
10F
100
AcDbSymbolTableRecord
100
AcDbLayerTableRecord
  2
hachures ok
 70
     0
 62
     7
  6
CONTINUOUS
370
    18
  0
LAYER
  5
110
100
AcDbSymbolTableRecord
100
AcDbLayerTableRecord
  2
ossature bois
 70
     0
 62
     7
  6
CONTINUOUS
370
    18
  0
LAYER
  5
111
100
AcDbSymbolTableRecord
100
AcDbLayerTableRecord
  2
VR
 70
     0
 62
     7
  6
CONTINUOUS
370
    25
  0
LAYER
  5
112
100
AcDbSymbolTableRecord
100
AcDbLayerTableRecord
  2
Calque1
 70
     0
 62
     7
  6
CONTINUOUS
370
     9
  0
LAYER
  5
113
100
AcDbSymbolTableRecord
100
AcDbLayerTableRecord
  2
0
 70
     0
 62
     7
  6
CONTINUOUS
370
    -3
  0
LAYER
  5
114
100
AcDbSymbolTableRecord
100
AcDbLayerTableRecord
  2
menuiserie
 70
     0
 62
     7
  6
CONTINUOUS
370
    -3
  0
LAYER
  5
115
100
AcDbSymbolTableRecord
100
AcDbLayerTableRecord
  2
cotation
 70
     0
 62
   250
  6
CONTINUOUS
370
     9
  0
LAYER
  5
116
100
AcDbSymbolTableRecord
100
AcDbLayerTableRecord
  2
Defpoints
 70
     0
 62
    10
  6
CONTINUOUS
370
    -3
  0
LAYER
  5
117
100
AcDbSymbolTableRecord
100
AcDbLayerTableRecord
  2
HACHURE
 70
     0
 62
   254
  6
CONTINUOUS
370
    25
  0
LAYER
  5
118
100
AcDbSymbolTableRecord
100
AcDbLayerTableRecord
  2
mat1
 70
     0
 62
     7
  6
CONTINUOUS
370
    30
  0
LAYER
  5
119
100
AcDbSymbolTableRecord
100
AcDbLayerTableRecord
  2
mat2
 70
     0
 62
     7
  6
CONTINUOUS
370
     5
  0
LAYER
  5
11A
100
AcDbSymbolTableRecord
100
AcDbLayerTableRecord
  2
hach
 70
     0
 62
     8
  6
CONTINUOUS
370
     5
  0
LAYER
  5
11B
100
AcDbSymbolTableRecord
100
AcDbLayerTableRecord
  2
menuiseries
 70
     0
 62
     7
  6
CONTINUOUS
370
     9
  0
LAYER
  5
11C
100
AcDbSymbolTableRecord
100
AcDbLayerTableRecord
  2
BétonMétal
 70
     0
 62
     7
  6
CONTINUOUS
370
    80
  0
LAYER
  5
11D
100
AcDbSymbolTableRecord
100
AcDbLayerTableRecord
  2
bois
 70
     0
 62
     7
  6
CONTINUOUS
370
    60
  0
ENDTAB
  0
TABLE
  2
VIEW
  5
11E
100
AcDbSymbolTable
 70
     0
  0
ENDTAB
  0
TABLE
  2
UCS
  5
11F
100
AcDbSymbolTable
 70
     0
  0
ENDTAB
  0
TABLE
  2
APPID
  5
120
100
AcDbSymbolTable
 70
     1
  0
APPID
  5
121
100
AcDbSymbolTableRecord
100
AcDbRegAppTableRecord
  2
ACAD
 70
     0
  0
ENDTAB
  0
TABLE
  2
DIMSTYLE
  5
122
100
AcDbSymbolTable
 70
     0
  0
ENDTAB
  0
TABLE
  2
BLOCK_RECORD
  5
123
100
AcDbSymbolTable
 70
     0
  0
BLOCK_RECORD
  5
124
100
AcDbSymbolTableRecord
100
AcDbBlockTableRecord
  2
*MODEL_SPACE
  0
BLOCK_RECORD
  5
125
100
AcDbSymbolTableRecord
100
AcDbBlockTableRecord
  2
*PAPER_SPACE
  0
BLOCK_RECORD
  5
126
100
AcDbSymbolTableRecord
100
AcDbBlockTableRecord
  2
CDWK_EXTR_0
  0
BLOCK_RECORD
  5
127
100
AcDbSymbolTableRecord
100
AcDbBlockTableRecord
  2
CDWK_EXTR_1D
  0
BLOCK_RECORD
  5
128
100
AcDbSymbolTableRecord
100
AcDbBlockTableRecord
  2
CDWK_EXTR_1G
  0
BLOCK_RECORD
  5
129
100
AcDbSymbolTableRecord
100
AcDbBlockTableRecord
  2
CDWK_EXTR_2
  0
BLOCK_RECORD
  5
12A
100
AcDbSymbolTableRecord
100
AcDbBlockTableRecord
  2
CDWK_EXTR_3
  0
BLOCK_RECORD
  5
12B
100
AcDbSymbolTableRecord
100
AcDbBlockTableRecord
  2
CDWK_EXTR_4
  0
BLOCK_RECORD
  5
12C
100
AcDbSymbolTableRecord
100
AcDbBlockTableRecord
  2
CDWK_PTTYP0
  0
BLOCK_RECORD
  5
12D
100
AcDbSymbolTableRecord
100
AcDbBlockTableRecord
  2
CDWK_PTTYP1
  0
BLOCK_RECORD
  5
12E
100
AcDbSymbolTableRecord
100
AcDbBlockTableRecord
  2
CDWK_PTTYP2
  0
BLOCK_RECORD
  5
12F
100
AcDbSymbolTableRecord
100
AcDbBlockTableRecord
  2
CDWK_PTTYP3
  0
BLOCK_RECORD
  5
130
100
AcDbSymbolTableRecord
100
AcDbBlockTableRecord
  2
CDWK_PTTYP4
  0
BLOCK_RECORD
  5
131
100
AcDbSymbolTableRecord
100
AcDbBlockTableRecord
  2
CDWK_PTTYP5
  0
BLOCK_RECORD
  5
132
100
AcDbSymbolTableRecord
100
AcDbBlockTableRecord
  2
CDWK_PTTYP6
  0
BLOCK_RECORD
  5
133
100
AcDbSymbolTableRecord
100
AcDbBlockTableRecord
  2
CDWK_PTTYP7
  0
BLOCK_RECORD
  5
134
100
AcDbSymbolTableRecord
100
AcDbBlockTableRecord
  2
CDWK_PTTYP8
  0
BLOCK_RECORD
  5
135
100
AcDbSymbolTableRecord
100
AcDbBlockTableRecord
  2
CDWK_PTTYP9
  0
BLOCK_RECORD
  5
136
100
AcDbSymbolTableRecord
100
AcDbBlockTableRecord
  2
CDWK_PTTYP10
  0
BLOCK_RECORD
  5
137
100
AcDbSymbolTableRecord
100
AcDbBlockTableRecord
  2
CDWK_PTTYP11
  0
BLOCK_RECORD
  5
138
100
AcDbSymbolTableRecord
100
AcDbBlockTableRecord
  2
CDWK_PTTYP12
  0
BLOCK_RECORD
  5
139
100
AcDbSymbolTableRecord
100
AcDbBlockTableRecord
  2
CDWK_PTTYP13
  0
BLOCK_RECORD
  5
13A
100
AcDbSymbolTableRecord
100
AcDbBlockTableRecord
  2
CDWK_PTTYP14
  0
BLOCK_RECORD
  5
13B
100
AcDbSymbolTableRecord
100
AcDbBlockTableRecord
  2
CDWK_PTTYP15
  0
BLOCK_RECORD
  5
13C
100
AcDbSymbolTableRecord
100
AcDbBlockTableRecord
  2
CDWK_PTTYP16
  0
BLOCK_RECORD
  5
13D
100
AcDbSymbolTableRecord
100
AcDbBlockTableRecord
  2
CDWK_PTTYP17
  0
BLOCK_RECORD
  5
13E
100
AcDbSymbolTableRecord
100
AcDbBlockTableRecord
  2
CDWK_PTTYP18
  0
BLOCK_RECORD
  5
13F
100
AcDbSymbolTableRecord
100
AcDbBlockTableRecord
  2
CDWK_PTTYP19
  0
BLOCK_RECORD
  5
140
100
AcDbSymbolTableRecord
100
AcDbBlockTableRecord
  2
CDWK_PTTYP20
  0
BLOCK_RECORD
  5
141
100
AcDbSymbolTableRecord
100
AcDbBlockTableRecord
  2
CDWK_PTTYP21
  0
BLOCK_RECORD
  5
142
100
AcDbSymbolTableRecord
100
AcDbBlockTableRecord
  2
CDWK_PTTYP22
  0
BLOCK_RECORD
  5
143
100
AcDbSymbolTableRecord
100
AcDbBlockTableRecord
  2
CDWK_PTTYP23
  0
BLOCK_RECORD
  5
144
100
AcDbSymbolTableRecord
100
AcDbBlockTableRecord
  2
CDWK_PTTYP24
  0
BLOCK_RECORD
  5
145
100
AcDbSymbolTableRecord
100
AcDbBlockTableRecord
  2
CDWK_PTTYP25
  0
BLOCK_RECORD
  5
146
100
AcDbSymbolTableRecord
100
AcDbBlockTableRecord
  2
CDWK_PTTYP26
  0
BLOCK_RECORD
  5
147
100
AcDbSymbolTableRecord
100
AcDbBlockTableRecord
  2
CDWK_PTTYP27
  0
BLOCK_RECORD
  5
148
100
AcDbSymbolTableRecord
100
AcDbBlockTableRecord
  2
CDWK_PTTYP28
  0
BLOCK_RECORD
  5
149
100
AcDbSymbolTableRecord
100
AcDbBlockTableRecord
  2
CDWK_PTTYP29
  0
BLOCK_RECORD
  5
14A
100
AcDbSymbolTableRecord
100
AcDbBlockTableRecord
  2
CDWK_PTTYP30
  0
BLOCK_RECORD
  5
14B
100
AcDbSymbolTableRecord
100
AcDbBlockTableRecord
  2
CDWK_PTTYP31
  0
BLOCK_RECORD
  5
14C
100
AcDbSymbolTableRecord
100
AcDbBlockTableRecord
  2
CDWK_PTTYP32
  0
BLOCK_RECORD
  5
14D
100
AcDbSymbolTableRecord
100
AcDbBlockTableRecord
  2
CDWK_PTTYP33
  0
BLOCK_RECORD
  5
14E
100
AcDbSymbolTableRecord
100
AcDbBlockTableRecord
  2
CDWK_PTTYP34
  0
BLOCK_RECORD
  5
14F
100
AcDbSymbolTableRecord
100
AcDbBlockTableRecord
  2
CDWK_PTTYP35
  0
BLOCK_RECORD
  5
150
100
AcDbSymbolTableRecord
100
AcDbBlockTableRecord
  2
CDWK_PTTYP36
  0
BLOCK_RECORD
  5
151
100
AcDbSymbolTableRecord
100
AcDbBlockTableRecord
  2
CDWK_PTTYP37
  0
BLOCK_RECORD
  5
152
100
AcDbSymbolTableRecord
100
AcDbBlockTableRecord
  2
CDWK_PTTYP38
  0
BLOCK_RECORD
  5
153
100
AcDbSymbolTableRecord
100
AcDbBlockTableRecord
  2
*X1
  0
ENDTAB
  0
ENDSEC
  0
SECTION
  2
BLOCKS
  0
BLOCK
  5
154
100
AcDbEntity
  8
0
100
AcDbBlockBegin
  2
*MODEL_SPACE
 70
     0
 10
0.0
 20
0.0
 30
0.0
  3
*MODEL_SPACE
  1

  0
ENDBLK
  5
155
100
AcDbEntity
100
AcDbBlockEnd
  0
BLOCK
  5
156
100
AcDbEntity
  8
0
100
AcDbBlockBegin
  2
*PAPER_SPACE
 70
     0
 10
0.0
 20
0.0
 30
0.0
  3
*PAPER_SPACE
  1

  0
ENDBLK
  5
157
100
AcDbEntity
100
AcDbBlockEnd
  0
BLOCK
  5
158
100
AcDbEntity
  8
0
100
AcDbBlockBegin
  2
CDWK_EXTR_0
 70
     0
 10
0.0
 20
0.0
 30
0.0
  3
CDWK_EXTR_0
  1

  4
Cadwork line-extremity
  0
LINE
  5
159
100
AcDbEntity
  8
0
 62
     0
370
    -2
100
AcDbLine
 10
0.0
 20
0.0
 30
0.0
 11
2.0
 21
0.5
 31
0.0
  0
LINE
  5
15A
100
AcDbEntity
  8
0
 62
     0
370
    -2
100
AcDbLine
 10
0.0
 20
0.0
 30
0.0
 11
2.0
 21
-0.5
 31
0.0
  0
LINE
  5
15B
100
AcDbEntity
  8
0
 62
     0
370
    -2
100
AcDbLine
 10
2.0
 20
0.5
 30
0.0
 11
2.0
 21
-0.5
 31
0.0
  0
ENDBLK
  5
15C
100
AcDbEntity
100
AcDbBlockEnd
  0
BLOCK
  5
15D
100
AcDbEntity
  8
0
100
AcDbBlockBegin
  2
CDWK_EXTR_1D
 70
     0
 10
0.0
 20
0.0
 30
0.0
  3
CDWK_EXTR_1D
  1

  4
Cadwork line-extremity
  0
LINE
  5
15E
100
AcDbEntity
  8
0
 62
     0
370
    -2
100
AcDbLine
 10
0.0
 20
0.0
 30
0.0
 11
0.0
 21
1.0
 31
0.0
  0
LINE
  5
15F
100
AcDbEntity
  8
0
 62
     0
370
    -2
100
AcDbLine
 10
0.0
 20
1.0
 30
0.0
 11
0.5
 21
1.5
 31
0.0
  0
LINE
  5
160
100
AcDbEntity
  8
0
 62
     0
370
    -2
100
AcDbLine
 10
0.5
 20
1.5
 30
0.0
 11
1.5
 21
1.5
 31
0.0
  0
ENDBLK
  5
161
100
AcDbEntity
100
AcDbBlockEnd
  0
BLOCK
  5
162
100
AcDbEntity
  8
0
100
AcDbBlockBegin
  2
CDWK_EXTR_1G
 70
     0
 10
0.0
 20
0.0
 30
0.0
  3
CDWK_EXTR_1G
  1

  4
Cadwork line-extremity
  0
LINE
  5
163
100
AcDbEntity
  8
0
 62
     0
370
    -2
100
AcDbLine
 10
0.0
 20
0.0
 30
0.0
 11
0.0
 21
-1.0
 31
0.0
  0
LINE
  5
164
100
AcDbEntity
  8
0
 62
     0
370
    -2
100
AcDbLine
 10
0.0
 20
-1.0
 30
0.0
 11
0.5
 21
-1.5
 31
0.0
  0
LINE
  5
165
100
AcDbEntity
  8
0
 62
     0
370
    -2
100
AcDbLine
 10
0.5
 20
-1.5
 30
0.0
 11
1.5
 21
-1.5
 31
0.0
  0
ENDBLK
  5
166
100
AcDbEntity
100
AcDbBlockEnd
  0
BLOCK
  5
167
100
AcDbEntity
  8
0
100
AcDbBlockBegin
  2
CDWK_EXTR_2
 70
     0
 10
0.0
 20
0.0
 30
0.0
  3
CDWK_EXTR_2
  1

  4
Cadwork line-extremity
  0
SOLID
  5
168
100
AcDbEntity
  8
0
 62
     0
100
AcDbTrace
 10
0.0
 20
0.0
 11
2.0
 21
0.5
 12
2.0
 22
-0.5
 13
2.0
 23
-0.5
  0
ENDBLK
  5
169
100
AcDbEntity
100
AcDbBlockEnd
  0
BLOCK
  5
16A
100
AcDbEntity
  8
0
100
AcDbBlockBegin
  2
CDWK_EXTR_3
 70
     0
 10
0.0
 20
0.0
 30
0.0
  3
CDWK_EXTR_3
  1

  4
Cadwork line-extremity
  0
SOLID
  5
16B
100
AcDbEntity
  8
0
 62
     0
100
AcDbTrace
 10
0.0
 20
0.0
 11
2.0
 21
0.5
 12
2.0
 22
-0.5
 13
2.0
 23
-0.5
  0
LINE
  5
16C
100
AcDbEntity
  8
0
 62
     0
370
    -2
100
AcDbLine
 10
0.0
 20
1.0
 30
0.0
 11
0.0
 21
-1.0
 31
0.0
  0
ENDBLK
  5
16D
100
AcDbEntity
100
AcDbBlockEnd
  0
BLOCK
  5
16E
100
AcDbEntity
  8
0
100
AcDbBlockBegin
  2
CDWK_EXTR_4
 70
     0
 10
0.0
 20
0.0
 30
0.0
  3
CDWK_EXTR_4
  1

  4
Cadwork line-extremity
  0
HATCH
  5
16F
100
AcDbEntity
  8
0
 62
     0
370
    -2
100
AcDbHatch
 10
0.0
 20
0.0
 30
0.0
210
0.0
220
0.0
230
1.0
  2
SOLID
 70
     1
 71
     0
 91
        1
 92
        1
 93
        1
 72
     2
 10
0.0
 20
0.0
 40
0.5
 50
0.0
 51
360.0
 73
     1
 97
        0
 75
     0
 76
     1
 98
        1
 10
0.0
 20
0.0
  0
ENDBLK
  5
170
100
AcDbEntity
100
AcDbBlockEnd
  0
BLOCK
  5
171
100
AcDbEntity
  8
0
100
AcDbBlockBegin
  2
CDWK_PTTYP0
 70
     0
 10
0.0
 20
0.0
 30
0.0
  3
CDWK_PTTYP0
  1

  4
Cadwork point
  0
POINT
  5
172
100
AcDbEntity
  8
0
 62
     0
100
AcDbPoint
 10
0.0
 20
0.0
 30
0.0
  0
ENDBLK
  5
173
100
AcDbEntity
100
AcDbBlockEnd
  0
BLOCK
  5
174
100
AcDbEntity
  8
0
100
AcDbBlockBegin
  2
CDWK_PTTYP1
 70
     0
 10
0.0
 20
0.0
 30
0.0
  3
CDWK_PTTYP1
  1

  4
Cadwork node
  0
LINE
  5
175
100
AcDbEntity
  8
0
 62
     0
370
    -2
100
AcDbLine
 10
-0.5
 20
0.5
 30
0.0
 11
0.5
 21
0.5
 31
0.0
  0
LINE
  5
176
100
AcDbEntity
  8
0
 62
     0
370
    -2
100
AcDbLine
 10
0.5
 20
0.5
 30
0.0
 11
0.5
 21
-0.5
 31
0.0
  0
LINE
  5
177
100
AcDbEntity
  8
0
 62
     0
370
    -2
100
AcDbLine
 10
0.5
 20
-0.5
 30
0.0
 11
-0.5
 21
-0.5
 31
0.0
  0
LINE
  5
178
100
AcDbEntity
  8
0
 62
     0
370
    -2
100
AcDbLine
 10
-0.5
 20
-0.5
 30
0.0
 11
-0.5
 21
0.5
 31
0.0
  0
ENDBLK
  5
179
100
AcDbEntity
100
AcDbBlockEnd
  0
BLOCK
  5
17A
100
AcDbEntity
  8
0
100
AcDbBlockBegin
  2
CDWK_PTTYP2
 70
     0
 10
0.0
 20
0.0
 30
0.0
  3
CDWK_PTTYP2
  1

  4
Cadwork node
  0
LINE
  5
17B
100
AcDbEntity
  8
0
 62
     0
370
    -2
100
AcDbLine
 10
0.0
 20
0.5
 30
0.0
 11
0.0
 21
-0.5
 31
0.0
  0
LINE
  5
17C
100
AcDbEntity
  8
0
 62
     0
370
    -2
100
AcDbLine
 10
-0.5
 20
0.0
 30
0.0
 11
0.5
 21
0.0
 31
0.0
  0
ENDBLK
  5
17D
100
AcDbEntity
100
AcDbBlockEnd
  0
BLOCK
  5
17E
100
AcDbEntity
  8
0
100
AcDbBlockBegin
  2
CDWK_PTTYP3
 70
     0
 10
0.0
 20
0.0
 30
0.0
  3
CDWK_PTTYP3
  1

  4
Cadwork node
  0
CIRCLE
  5
17F
100
AcDbEntity
  8
0
 62
     0
370
    -2
100
AcDbCircle
 10
0.0
 20
0.0
 30
0.0
 40
0.5
  0
ENDBLK
  5
180
100
AcDbEntity
100
AcDbBlockEnd
  0
BLOCK
  5
181
100
AcDbEntity
  8
0
100
AcDbBlockBegin
  2
CDWK_PTTYP4
 70
     0
 10
0.0
 20
0.0
 30
0.0
  3
CDWK_PTTYP4
  1

  4
Cadwork node
  0
HATCH
  5
182
100
AcDbEntity
  8
0
 62
     0
370
    -2
100
AcDbHatch
 10
0.0
 20
0.0
 30
0.0
210
0.0
220
0.0
230
1.0
  2
SOLID
 70
     1
 71
     0
 91
        1
 92
        1
 93
        1
 72
     2
 10
0.0
 20
0.0
 40
0.5
 50
0.0
 51
360.0
 73
     1
 97
        0
 75
     0
 76
     1
 98
        1
 10
0.0
 20
0.0
  0
ENDBLK
  5
183
100
AcDbEntity
100
AcDbBlockEnd
  0
BLOCK
  5
184
100
AcDbEntity
  8
0
100
AcDbBlockBegin
  2
CDWK_PTTYP5
 70
     0
 10
0.0
 20
0.0
 30
0.0
  3
CDWK_PTTYP5
  1

  4
Cadwork node
  0
LINE
  5
185
100
AcDbEntity
  8
0
 62
     0
370
    -2
100
AcDbLine
 10
-0.5
 20
0.5
 30
0.0
 11
0.5
 21
0.5
 31
0.0
  0
LINE
  5
186
100
AcDbEntity
  8
0
 62
     0
370
    -2
100
AcDbLine
 10
0.5
 20
0.5
 30
0.0
 11
0.5
 21
-0.5
 31
0.0
  0
LINE
  5
187
100
AcDbEntity
  8
0
 62
     0
370
    -2
100
AcDbLine
 10
0.5
 20
-0.5
 30
0.0
 11
-0.5
 21
-0.5
 31
0.0
  0
LINE
  5
188
100
AcDbEntity
  8
0
 62
     0
370
    -2
100
AcDbLine
 10
-0.5
 20
-0.5
 30
0.0
 11
-0.5
 21
0.5
 31
0.0
  0
SOLID
  5
189
100
AcDbEntity
  8
0
 62
     0
100
AcDbTrace
 10
-0.5
 20
-0.5
 11
-0.5
 21
0.0
 12
0.0
 22
-0.5
 13
0.0
 23
0.0
  0
SOLID
  5
18A
100
AcDbEntity
  8
0
 62
     0
100
AcDbTrace
 10
0.0
 20
0.0
 11
0.0
 21
0.5
 12
0.5
 22
0.0
 13
0.5
 23
0.5
  0
ENDBLK
  5
18B
100
AcDbEntity
100
AcDbBlockEnd
  0
BLOCK
  5
18C
100
AcDbEntity
  8
0
100
AcDbBlockBegin
  2
CDWK_PTTYP6
 70
     0
 10
0.0
 20
0.0
 30
0.0
  3
CDWK_PTTYP6
  1

  4
Cadwork node
  0
LINE
  5
18D
100
AcDbEntity
  8
0
 62
     0
370
    -2
100
AcDbLine
 10
-0.5
 20
0.5
 30
0.0
 11
0.5
 21
0.5
 31
0.0
  0
LINE
  5
18E
100
AcDbEntity
  8
0
 62
     0
370
    -2
100
AcDbLine
 10
0.5
 20
0.5
 30
0.0
 11
0.5
 21
-0.5
 31
0.0
  0
LINE
  5
18F
100
AcDbEntity
  8
0
 62
     0
370
    -2
100
AcDbLine
 10
0.5
 20
-0.5
 30
0.0
 11
-0.5
 21
-0.5
 31
0.0
  0
LINE
  5
190
100
AcDbEntity
  8
0
 62
     0
370
    -2
100
AcDbLine
 10
-0.5
 20
-0.5
 30
0.0
 11
-0.5
 21
0.5
 31
0.0
  0
SOLID
  5
191
100
AcDbEntity
  8
0
 62
     0
100
AcDbTrace
 10
-0.5
 20
-0.5
 11
-0.5
 21
0.5
 12
0.5
 22
0.5
 13
0.5
 23
0.5
  0
ENDBLK
  5
192
100
AcDbEntity
100
AcDbBlockEnd
  0
BLOCK
  5
193
100
AcDbEntity
  8
0
100
AcDbBlockBegin
  2
CDWK_PTTYP7
 70
     0
 10
0.0
 20
0.0
 30
0.0
  3
CDWK_PTTYP7
  1

  4
Cadwork node
  0
LINE
  5
194
100
AcDbEntity
  8
0
 62
     0
370
    -2
100
AcDbLine
 10
-0.5
 20
0.5
 30
0.0
 11
0.5
 21
0.5
 31
0.0
  0
LINE
  5
195
100
AcDbEntity
  8
0
 62
     0
370
    -2
100
AcDbLine
 10
0.5
 20
0.5
 30
0.0
 11
0.5
 21
-0.5
 31
0.0
  0
LINE
  5
196
100
AcDbEntity
  8
0
 62
     0
370
    -2
100
AcDbLine
 10
0.5
 20
-0.5
 30
0.0
 11
-0.5
 21
-0.5
 31
0.0
  0
LINE
  5
197
100
AcDbEntity
  8
0
 62
     0
370
    -2
100
AcDbLine
 10
-0.5
 20
-0.5
 30
0.0
 11
-0.5
 21
0.5
 31
0.0
  0
LINE
  5
198
100
AcDbEntity
  8
0
 62
     0
370
    -2
100
AcDbLine
 10
0.0
 20
0.5
 30
0.0
 11
0.0
 21
-0.5
 31
0.0
  0
LINE
  5
199
100
AcDbEntity
  8
0
 62
     0
370
    -2
100
AcDbLine
 10
-0.5
 20
0.0
 30
0.0
 11
0.5
 21
0.0
 31
0.0
  0
ENDBLK
  5
19A
100
AcDbEntity
100
AcDbBlockEnd
  0
BLOCK
  5
19B
100
AcDbEntity
  8
0
100
AcDbBlockBegin
  2
CDWK_PTTYP8
 70
     0
 10
0.0
 20
0.0
 30
0.0
  3
CDWK_PTTYP8
  1

  4
Cadwork node
  0
SOLID
  5
19C
100
AcDbEntity
  8
0
 62
     0
100
AcDbTrace
 10
-0.5
 20
0.5
 11
0.5
 21
0.5
 12
-0.5
 22
-0.5
 13
0.5
 23
-0.5
  0
ENDBLK
  5
19D
100
AcDbEntity
100
AcDbBlockEnd
  0
BLOCK
  5
19E
100
AcDbEntity
  8
0
100
AcDbBlockBegin
  2
CDWK_PTTYP9
 70
     0
 10
0.0
 20
0.0
 30
0.0
  3
CDWK_PTTYP9
  1

  4
Cadwork node
  0
CIRCLE
  5
19F
100
AcDbEntity
  8
0
 62
     0
370
    -2
100
AcDbCircle
 10
0.0
 20
0.0
 30
0.0
 40
0.5
  0
CIRCLE
  5
1A0
100
AcDbEntity
  8
0
 62
     0
370
    -2
100
AcDbCircle
 10
0.0
 20
0.0
 30
0.0
 40
0.16666667
  0
ENDBLK
  5
1A1
100
AcDbEntity
100
AcDbBlockEnd
  0
BLOCK
  5
1A2
100
AcDbEntity
  8
0
100
AcDbBlockBegin
  2
CDWK_PTTYP10
 70
     0
 10
0.0
 20
0.0
 30
0.0
  3
CDWK_PTTYP10
  1

  4
Cadwork node
  0
CIRCLE
  5
1A3
100
AcDbEntity
  8
0
 62
     0
370
    -2
100
AcDbCircle
 10
0.0
 20
0.0
 30
0.0
 40
0.5
  0
ENDBLK
  5
1A4
100
AcDbEntity
100
AcDbBlockEnd
  0
BLOCK
  5
1A5
100
AcDbEntity
  8
0
100
AcDbBlockBegin
  2
CDWK_PTTYP11
 70
     0
 10
0.0
 20
0.0
 30
0.0
  3
CDWK_PTTYP11
  1

  4
Cadwork node
  0
CIRCLE
  5
1A6
100
AcDbEntity
  8
0
 62
     0
370
    -2
100
AcDbCircle
 10
0.0
 20
0.0
 30
0.0
 40
0.5
  0
CIRCLE
  5
1A7
100
AcDbEntity
  8
0
 62
     0
370
    -2
100
AcDbCircle
 10
0.0
 20
0.0
 30
0.0
 40
0.25
  0
ENDBLK
  5
1A8
100
AcDbEntity
100
AcDbBlockEnd
  0
BLOCK
  5
1A9
100
AcDbEntity
  8
0
100
AcDbBlockBegin
  2
CDWK_PTTYP12
 70
     0
 10
0.0
 20
0.0
 30
0.0
  3
CDWK_PTTYP12
  1

  4
Cadwork node
  0
CIRCLE
  5
1AA
100
AcDbEntity
  8
0
 62
     0
370
    -2
100
AcDbCircle
 10
0.0
 20
0.0
 30
0.0
 40
0.5
  0
CIRCLE
  5
1AB
100
AcDbEntity
  8
0
 62
     0
370
    -2
100
AcDbCircle
 10
0.25
 20
0.0
 30
0.0
 40
0.25
  0
ENDBLK
  5
1AC
100
AcDbEntity
100
AcDbBlockEnd
  0
BLOCK
  5
1AD
100
AcDbEntity
  8
0
100
AcDbBlockBegin
  2
CDWK_PTTYP13
 70
     0
 10
0.0
 20
0.0
 30
0.0
  3
CDWK_PTTYP13
  1

  4
Cadwork node
  0
CIRCLE
  5
1AE
100
AcDbEntity
  8
0
 62
     0
370
    -2
100
AcDbCircle
 10
0.0
 20
0.0
 30
0.0
 40
0.5
  0
CIRCLE
  5
1AF
100
AcDbEntity
  8
0
 62
     0
370
    -2
100
AcDbCircle
 10
0.25
 20
0.0
 30
0.0
 40
0.25
  0
CIRCLE
  5
1B0
100
AcDbEntity
  8
0
 62
     0
370
    -2
100
AcDbCircle
 10
-0.25
 20
0.0
 30
0.0
 40
0.25
  0
ENDBLK
  5
1B1
100
AcDbEntity
100
AcDbBlockEnd
  0
BLOCK
  5
1B2
100
AcDbEntity
  8
0
100
AcDbBlockBegin
  2
CDWK_PTTYP14
 70
     0
 10
0.0
 20
0.0
 30
0.0
  3
CDWK_PTTYP14
  1

  4
Cadwork node
  0
POINT
  5
1B3
100
AcDbEntity
  8
0
 62
     0
100
AcDbPoint
 10
0.0
 20
0.0
 30
0.0
  0
ENDBLK
  5
1B4
100
AcDbEntity
100
AcDbBlockEnd
  0
BLOCK
  5
1B5
100
AcDbEntity
  8
0
100
AcDbBlockBegin
  2
CDWK_PTTYP15
 70
     0
 10
0.0
 20
0.0
 30
0.0
  3
CDWK_PTTYP15
  1

  4
Cadwork node
  0
POINT
  5
1B6
100
AcDbEntity
  8
0
 62
     0
100
AcDbPoint
 10
0.0
 20
0.0
 30
0.0
  0
ENDBLK
  5
1B7
100
AcDbEntity
100
AcDbBlockEnd
  0
BLOCK
  5
1B8
100
AcDbEntity
  8
0
100
AcDbBlockBegin
  2
CDWK_PTTYP16
 70
     0
 10
0.0
 20
0.0
 30
0.0
  3
CDWK_PTTYP16
  1

  4
Cadwork node
  0
LINE
  5
1B9
100
AcDbEntity
  8
0
 62
     0
370
    -2
100
AcDbLine
 10
-0.5
 20
-0.28867513
 30
0.0
 11
0.5
 21
-0.28867513
 31
0.0
  0
LINE
  5
1BA
100
AcDbEntity
  8
0
 62
     0
370
    -2
100
AcDbLine
 10
0.5
 20
-0.28867513
 30
0.0
 11
0.0
 21
0.57735027
 31
0.0
  0
LINE
  5
1BB
100
AcDbEntity
  8
0
 62
     0
370
    -2
100
AcDbLine
 10
0.0
 20
0.57735027
 30
0.0
 11
-0.5
 21
-0.28867513
 31
0.0
  0
CIRCLE
  5
1BC
100
AcDbEntity
  8
0
 62
     0
370
    -2
100
AcDbCircle
 10
0.0
 20
0.0
 30
0.0
 40
0.28867513
  0
ENDBLK
  5
1BD
100
AcDbEntity
100
AcDbBlockEnd
  0
BLOCK
  5
1BE
100
AcDbEntity
  8
0
100
AcDbBlockBegin
  2
CDWK_PTTYP17
 70
     0
 10
0.0
 20
0.0
 30
0.0
  3
CDWK_PTTYP17
  1

  4
Cadwork node
  0
CIRCLE
  5
1BF
100
AcDbEntity
  8
0
 62
     0
370
    -2
100
AcDbCircle
 10
0.0
 20
0.0
 30
0.0
 40
0.5
  0
HATCH
  5
1C0
100
AcDbEntity
  8
0
 62
     0
370
    -2
100
AcDbHatch
 10
0.0
 20
0.0
 30
0.0
210
0.0
220
0.0
230
1.0
  2
SOLID
 70
     1
 71
     0
 91
        1
 92
        1
 93
        1
 72
     2
 10
0.0
 20
0.0
 40
0.25
 50
0.0
 51
360.0
 73
     1
 97
        0
 75
     0
 76
     1
 98
        1
 10
0.0
 20
0.0
  0
ENDBLK
  5
1C1
100
AcDbEntity
100
AcDbBlockEnd
  0
BLOCK
  5
1C2
100
AcDbEntity
  8
0
100
AcDbBlockBegin
  2
CDWK_PTTYP18
 70
     0
 10
0.0
 20
0.0
 30
0.0
  3
CDWK_PTTYP18
  1

  4
Cadwork node
  0
CIRCLE
  5
1C3
100
AcDbEntity
  8
0
 62
     0
370
    -2
100
AcDbCircle
 10
0.0
 20
0.0
 30
0.0
 40
0.5
  0
CIRCLE
  5
1C4
100
AcDbEntity
  8
0
 62
     0
370
    -2
100
AcDbCircle
 10
0.0
 20
0.0
 30
0.0
 40
0.2
  0
ENDBLK
  5
1C5
100
AcDbEntity
100
AcDbBlockEnd
  0
BLOCK
  5
1C6
100
AcDbEntity
  8
0
100
AcDbBlockBegin
  2
CDWK_PTTYP19
 70
     0
 10
0.0
 20
0.0
 30
0.0
  3
CDWK_PTTYP19
  1

  4
Cadwork node
  0
CIRCLE
  5
1C7
100
AcDbEntity
  8
0
 62
     0
370
    -2
100
AcDbCircle
 10
0.0
 20
0.0
 30
0.0
 40
0.4
  0
CIRCLE
  5
1C8
100
AcDbEntity
  8
0
 62
     0
370
    -2
100
AcDbCircle
 10
0.0
 20
0.0
 30
0.0
 40
0.25
  0
LINE
  5
1C9
100
AcDbEntity
  8
0
 62
     0
370
    -2
100
AcDbLine
 10
-0.25
 20
0.0
 30
0.0
 11
0.25
 21
0.0
 31
0.0
  0
ENDBLK
  5
1CA
100
AcDbEntity
100
AcDbBlockEnd
  0
BLOCK
  5
1CB
100
AcDbEntity
  8
0
100
AcDbBlockBegin
  2
CDWK_PTTYP20
 70
     0
 10
0.0
 20
0.0
 30
0.0
  3
CDWK_PTTYP20
  1

  4
Cadwork node
  0
CIRCLE
  5
1CC
100
AcDbEntity
  8
0
 62
     0
370
    -2
100
AcDbCircle
 10
0.0
 20
0.0
 30
0.0
 40
0.5
  0
CIRCLE
  5
1CD
100
AcDbEntity
  8
0
 62
     0
370
    -2
100
AcDbCircle
 10
0.0
 20
0.0
 30
0.0
 40
0.3
  0
ENDBLK
  5
1CE
100
AcDbEntity
100
AcDbBlockEnd
  0
BLOCK
  5
1CF
100
AcDbEntity
  8
0
100
AcDbBlockBegin
  2
CDWK_PTTYP21
 70
     0
 10
0.0
 20
0.0
 30
0.0
  3
CDWK_PTTYP21
  1

  4
Cadwork node
  0
CIRCLE
  5
1D0
100
AcDbEntity
  8
0
 62
     0
370
    -2
100
AcDbCircle
 10
0.0
 20
0.0
 30
0.0
 40
0.5
  0
LINE
  5
1D1
100
AcDbEntity
  8
0
 62
     0
370
    -2
100
AcDbLine
 10
-0.5
 20
0.0
 30
0.0
 11
0.5
 21
0.0
 31
0.0
  0
ENDBLK
  5
1D2
100
AcDbEntity
100
AcDbBlockEnd
  0
BLOCK
  5
1D3
100
AcDbEntity
  8
0
100
AcDbBlockBegin
  2
CDWK_PTTYP22
 70
     0
 10
0.0
 20
0.0
 30
0.0
  3
CDWK_PTTYP22
  1

  4
Cadwork node
  0
POINT
  5
1D4
100
AcDbEntity
  8
0
 62
     0
100
AcDbPoint
 10
0.0
 20
0.0
 30
0.0
  0
ENDBLK
  5
1D5
100
AcDbEntity
100
AcDbBlockEnd
  0
BLOCK
  5
1D6
100
AcDbEntity
  8
0
100
AcDbBlockBegin
  2
CDWK_PTTYP23
 70
     0
 10
0.0
 20
0.0
 30
0.0
  3
CDWK_PTTYP23
  1

  4
Cadwork node
  0
POINT
  5
1D7
100
AcDbEntity
  8
0
 62
     0
100
AcDbPoint
 10
0.0
 20
0.0
 30
0.0
  0
ENDBLK
  5
1D8
100
AcDbEntity
100
AcDbBlockEnd
  0
BLOCK
  5
1D9
100
AcDbEntity
  8
0
100
AcDbBlockBegin
  2
CDWK_PTTYP24
 70
     0
 10
0.0
 20
0.0
 30
0.0
  3
CDWK_PTTYP24
  1

  4
Cadwork node
  0
POINT
  5
1DA
100
AcDbEntity
  8
0
 62
     0
100
AcDbPoint
 10
0.0
 20
0.0
 30
0.0
  0
ENDBLK
  5
1DB
100
AcDbEntity
100
AcDbBlockEnd
  0
BLOCK
  5
1DC
100
AcDbEntity
  8
0
100
AcDbBlockBegin
  2
CDWK_PTTYP25
 70
     0
 10
0.0
 20
0.0
 30
0.0
  3
CDWK_PTTYP25
  1

  4
Cadwork node
  0
LINE
  5
1DD
100
AcDbEntity
  8
0
 62
     0
370
    -2
100
AcDbLine
 10
-0.43290044
 20
-0.25
 30
0.0
 11
0.43290044
 21
-0.25
 31
0.0
  0
LINE
  5
1DE
100
AcDbEntity
  8
0
 62
     0
370
    -2
100
AcDbLine
 10
-0.43290044
 20
-0.25
 30
0.0
 11
0.0
 21
0.5
 31
0.0
  0
LINE
  5
1DF
100
AcDbEntity
  8
0
 62
     0
370
    -2
100
AcDbLine
 10
0.43290044
 20
-0.25
 30
0.0
 11
0.0
 21
0.5
 31
0.0
  0
CIRCLE
  5
1E0
100
AcDbEntity
  8
0
 62
     0
370
    -2
100
AcDbCircle
 10
0.0
 20
0.0
 30
0.0
 40
0.5
  0
ENDBLK
  5
1E1
100
AcDbEntity
100
AcDbBlockEnd
  0
BLOCK
  5
1E2
100
AcDbEntity
  8
0
100
AcDbBlockBegin
  2
CDWK_PTTYP26
 70
     0
 10
0.0
 20
0.0
 30
0.0
  3
CDWK_PTTYP26
  1

  4
Cadwork node
  0
LINE
  5
1E3
100
AcDbEntity
  8
0
 62
     0
370
    -2
100
AcDbLine
 10
-0.5
 20
-0.28850001
 30
0.0
 11
0.5
 21
-0.28850001
 31
0.0
  0
LINE
  5
1E4
100
AcDbEntity
  8
0
 62
     0
370
    -2
100
AcDbLine
 10
-0.5
 20
-0.28850001
 30
0.0
 11
0.0
 21
0.57736721
 31
0.0
  0
LINE
  5
1E5
100
AcDbEntity
  8
0
 62
     0
370
    -2
100
AcDbLine
 10
0.5
 20
-0.28850001
 30
0.0
 11
0.0
 21
0.57736721
 31
0.0
  0
CIRCLE
  5
1E6
100
AcDbEntity
  8
0
 62
     0
370
    -2
100
AcDbCircle
 10
0.0
 20
0.0
 30
0.0
 40
0.1312336
  0
ENDBLK
  5
1E7
100
AcDbEntity
100
AcDbBlockEnd
  0
BLOCK
  5
1E8
100
AcDbEntity
  8
0
100
AcDbBlockBegin
  2
CDWK_PTTYP27
 70
     0
 10
0.0
 20
0.0
 30
0.0
  3
CDWK_PTTYP27
  1

  4
Cadwork node
  0
LINE
  5
1E9
100
AcDbEntity
  8
0
 62
     0
370
    -2
100
AcDbLine
 10
-0.43290044
 20
-0.25
 30
0.0
 11
0.43290044
 21
-0.25
 31
0.0
  0
LINE
  5
1EA
100
AcDbEntity
  8
0
 62
     0
370
    -2
100
AcDbLine
 10
-0.43290044
 20
-0.25
 30
0.0
 11
0.0
 21
0.5
 31
0.0
  0
LINE
  5
1EB
100
AcDbEntity
  8
0
 62
     0
370
    -2
100
AcDbLine
 10
0.43290044
 20
-0.25
 30
0.0
 11
0.0
 21
0.5
 31
0.0
  0
CIRCLE
  5
1EC
100
AcDbEntity
  8
0
 62
     0
370
    -2
100
AcDbCircle
 10
0.0
 20
0.0
 30
0.0
 40
0.5
  0
CIRCLE
  5
1ED
100
AcDbEntity
  8
0
 62
     0
370
    -2
100
AcDbCircle
 10
0.0
 20
0.0
 30
0.0
 40
0.1312336
  0
ENDBLK
  5
1EE
100
AcDbEntity
100
AcDbBlockEnd
  0
BLOCK
  5
1EF
100
AcDbEntity
  8
0
100
AcDbBlockBegin
  2
CDWK_PTTYP28
 70
     0
 10
0.0
 20
0.0
 30
0.0
  3
CDWK_PTTYP28
  1

  4
Cadwork node
  0
POINT
  5
1F0
100
AcDbEntity
  8
0
 62
     0
100
AcDbPoint
 10
0.0
 20
0.0
 30
0.0
  0
ENDBLK
  5
1F1
100
AcDbEntity
100
AcDbBlockEnd
  0
BLOCK
  5
1F2
100
AcDbEntity
  8
0
100
AcDbBlockBegin
  2
CDWK_PTTYP29
 70
     0
 10
0.0
 20
0.0
 30
0.0
  3
CDWK_PTTYP29
  1

  4
Cadwork node
  0
CIRCLE
  5
1F3
100
AcDbEntity
  8
0
 62
     0
370
    -2
100
AcDbCircle
 10
0.0
 20
0.0
 30
0.0
 40
0.5
  0
CIRCLE
  5
1F4
100
AcDbEntity
  8
0
 62
     0
370
    -2
100
AcDbCircle
 10
0.0
 20
0.0
 30
0.0
 40
0.375
  0
CIRCLE
  5
1F5
100
AcDbEntity
  8
0
 62
     0
370
    -2
100
AcDbCircle
 10
0.0
 20
0.0
 30
0.0
 40
0.21875
  0
ENDBLK
  5
1F6
100
AcDbEntity
100
AcDbBlockEnd
  0
BLOCK
  5
1F7
100
AcDbEntity
  8
0
100
AcDbBlockBegin
  2
CDWK_PTTYP30
 70
     0
 10
0.0
 20
0.0
 30
0.0
  3
CDWK_PTTYP30
  1

  4
Cadwork node
  0
LINE
  5
1F8
100
AcDbEntity
  8
0
 62
     0
370
    -2
100
AcDbLine
 10
0.17680339
 20
0.17680339
 30
0.0
 11
0.5
 21
0.5
 31
0.0
  0
LINE
  5
1F9
100
AcDbEntity
  8
0
 62
     0
370
    -2
100
AcDbLine
 10
-0.17680339
 20
0.17680339
 30
0.0
 11
-0.5
 21
0.5
 31
0.0
  0
LINE
  5
1FA
100
AcDbEntity
  8
0
 62
     0
370
    -2
100
AcDbLine
 10
0.17680339
 20
-0.17680339
 30
0.0
 11
0.5
 21
-0.5
 31
0.0
  0
LINE
  5
1FB
100
AcDbEntity
  8
0
 62
     0
370
    -2
100
AcDbLine
 10
-0.17680339
 20
-0.17680339
 30
0.0
 11
-0.5
 21
-0.5
 31
0.0
  0
ENDBLK
  5
1FC
100
AcDbEntity
100
AcDbBlockEnd
  0
BLOCK
  5
1FD
100
AcDbEntity
  8
0
100
AcDbBlockBegin
  2
CDWK_PTTYP31
 70
     0
 10
0.0
 20
0.0
 30
0.0
  3
CDWK_PTTYP31
  1

  4
Cadwork node
  0
CIRCLE
  5
1FE
100
AcDbEntity
  8
0
 62
     0
370
    -2
100
AcDbCircle
 10
0.0
 20
0.0
 30
0.0
 40
0.075
  0
LINE
  5
1FF
100
AcDbEntity
  8
0
 62
     0
370
    -2
100
AcDbLine
 10
0.075
 20
0.0
 30
0.0
 11
0.5
 21
0.0
 31
0.0
  0
LINE
  5
200
100
AcDbEntity
  8
0
 62
     0
370
    -2
100
AcDbLine
 10
-0.075
 20
0.0
 30
0.0
 11
-0.5
 21
0.0
 31
0.0
  0
LINE
  5
201
100
AcDbEntity
  8
0
 62
     0
370
    -2
100
AcDbLine
 10
0.0
 20
0.075
 30
0.0
 11
0.0
 21
0.5
 31
0.0
  0
LINE
  5
202
100
AcDbEntity
  8
0
 62
     0
370
    -2
100
AcDbLine
 10
0.0
 20
-0.075
 30
0.0
 11
0.0
 21
-0.5
 31
0.0
  0
ENDBLK
  5
203
100
AcDbEntity
100
AcDbBlockEnd
  0
BLOCK
  5
204
100
AcDbEntity
  8
0
100
AcDbBlockBegin
  2
CDWK_PTTYP32
 70
     0
 10
0.0
 20
0.0
 30
0.0
  3
CDWK_PTTYP32
  1

  4
Cadwork node
  0
CIRCLE
  5
205
100
AcDbEntity
  8
0
 62
     0
370
    -2
100
AcDbCircle
 10
0.0
 20
0.0
 30
0.0
 40
0.5
  0
CIRCLE
  5
206
100
AcDbEntity
  8
0
 62
     0
370
    -2
100
AcDbCircle
 10
0.0
 20
0.0
 30
0.0
 40
0.16666667
  0
LINE
  5
207
100
AcDbEntity
  8
0
 62
     0
370
    -2
100
AcDbLine
 10
0.11786893
 20
0.11786893
 30
0.0
 11
0.35360678
 21
0.35360678
 31
0.0
  0
LINE
  5
208
100
AcDbEntity
  8
0
 62
     0
370
    -2
100
AcDbLine
 10
-0.11786893
 20
0.11786893
 30
0.0
 11
-0.35360678
 21
0.35360678
 31
0.0
  0
LINE
  5
209
100
AcDbEntity
  8
0
 62
     0
370
    -2
100
AcDbLine
 10
0.11786893
 20
-0.11786893
 30
0.0
 11
0.35360678
 21
-0.35360678
 31
0.0
  0
LINE
  5
20A
100
AcDbEntity
  8
0
 62
     0
370
    -2
100
AcDbLine
 10
-0.11786893
 20
-0.11786893
 30
0.0
 11
-0.35360678
 21
-0.35360678
 31
0.0
  0
ENDBLK
  5
20B
100
AcDbEntity
100
AcDbBlockEnd
  0
BLOCK
  5
20C
100
AcDbEntity
  8
0
100
AcDbBlockBegin
  2
CDWK_PTTYP33
 70
     0
 10
0.0
 20
0.0
 30
0.0
  3
CDWK_PTTYP33
  1

  4
Cadwork node
  0
CIRCLE
  5
20D
100
AcDbEntity
  8
0
 62
     0
370
    -2
100
AcDbCircle
 10
0.0
 20
0.0
 30
0.0
 40
0.5
  0
LINE
  5
20E
100
AcDbEntity
  8
0
 62
     0
370
    -2
100
AcDbLine
 10
0.0
 20
0.5
 30
0.0
 11
0.0
 21
-0.5
 31
0.0
  0
LINE
  5
20F
100
AcDbEntity
  8
0
 62
     0
370
    -2
100
AcDbLine
 10
-0.5
 20
0.0
 30
0.0
 11
0.5
 21
0.0
 31
0.0
  0
ENDBLK
  5
210
100
AcDbEntity
100
AcDbBlockEnd
  0
BLOCK
  5
211
100
AcDbEntity
  8
0
100
AcDbBlockBegin
  2
CDWK_PTTYP34
 70
     0
 10
0.0
 20
0.0
 30
0.0
  3
CDWK_PTTYP34
  1

  4
Cadwork node
  0
CIRCLE
  5
212
100
AcDbEntity
  8
0
 62
     0
370
    -2
100
AcDbCircle
 10
0.0
 20
0.0
 30
0.0
 40
0.5
  0
LINE
  5
213
100
AcDbEntity
  8
0
 62
     0
370
    -2
100
AcDbLine
 10
-0.30360678
 20
-0.40360678
 30
0.0
 11
0.40360678
 21
0.30360678
 31
0.0
  0
LINE
  5
214
100
AcDbEntity
  8
0
 62
     0
370
    -2
100
AcDbLine
 10
-0.40360678
 20
-0.30360678
 30
0.0
 11
0.30360678
 21
0.40360678
 31
0.0
  0
ENDBLK
  5
215
100
AcDbEntity
100
AcDbBlockEnd
  0
BLOCK
  5
216
100
AcDbEntity
  8
0
100
AcDbBlockBegin
  2
CDWK_PTTYP35
 70
     0
 10
0.0
 20
0.0
 30
0.0
  3
CDWK_PTTYP35
  1

  4
Cadwork node
  0
CIRCLE
  5
217
100
AcDbEntity
  8
0
 62
     0
370
    -2
100
AcDbCircle
 10
0.0
 20
0.0
 30
0.0
 40
0.21431634
  0
LINE
  5
218
100
AcDbEntity
  8
0
 62
     0
370
    -2
100
AcDbLine
 10
0.0
 20
0.21431634
 30
0.0
 11
0.0
 21
0.5
 31
0.0
  0
LINE
  5
219
100
AcDbEntity
  8
0
 62
     0
370
    -2
100
AcDbLine
 10
0.0
 20
-0.21431634
 30
0.0
 11
0.0
 21
-0.5
 31
0.0
  0
ENDBLK
  5
21A
100
AcDbEntity
100
AcDbBlockEnd
  0
BLOCK
  5
21B
100
AcDbEntity
  8
0
100
AcDbBlockBegin
  2
CDWK_PTTYP36
 70
     0
 10
0.0
 20
0.0
 30
0.0
  3
CDWK_PTTYP36
  1

  4
Cadwork node
  0
LINE
  5
21C
100
AcDbEntity
  8
0
 62
     0
370
    -2
100
AcDbLine
 10
-0.5
 20
-0.16666667
 30
0.0
 11
0.5
 21
-0.16666667
 31
0.0
  0
LINE
  5
21D
100
AcDbEntity
  8
0
 62
     0
370
    -2
100
AcDbLine
 10
0.5
 20
-0.16666667
 30
0.0
 11
0.5
 21
0.16666667
 31
0.0
  0
LINE
  5
21E
100
AcDbEntity
  8
0
 62
     0
370
    -2
100
AcDbLine
 10
0.5
 20
0.16666667
 30
0.0
 11
-0.5
 21
0.16666667
 31
0.0
  0
LINE
  5
21F
100
AcDbEntity
  8
0
 62
     0
370
    -2
100
AcDbLine
 10
-0.5
 20
0.16666667
 30
0.0
 11
-0.5
 21
-0.16666667
 31
0.0
  0
SOLID
  5
220
100
AcDbEntity
  8
0
 62
     0
100
AcDbTrace
 10
-0.5
 20
-0.16666667
 11
0.5
 21
0.16666667
 12
0.5
 22
-0.16666667
 13
0.5
 23
-0.16666667
  0
ENDBLK
  5
221
100
AcDbEntity
100
AcDbBlockEnd
  0
BLOCK
  5
222
100
AcDbEntity
  8
0
100
AcDbBlockBegin
  2
CDWK_PTTYP37
 70
     0
 10
0.0
 20
0.0
 30
0.0
  3
CDWK_PTTYP37
  1

  4
Cadwork node
  0
CIRCLE
  5
223
100
AcDbEntity
  8
0
 62
     0
370
    -2
100
AcDbCircle
 10
0.0
 20
0.0
 30
0.0
 40
0.5
  0
SOLID
  5
224
100
AcDbEntity
  8
0
 62
     0
100
AcDbTrace
 10
0.0
 20
0.0
 11
0.35350001
 21
0.35350001
 12
0.5
 22
0.0
 13
0.46200001
 23
0.19149999
  0
SOLID
  5
225
100
AcDbEntity
  8
0
 62
     0
100
AcDbTrace
 10
0.0
 20
0.0
 11
0.35350001
 21
-0.35350001
 12
0.5
 22
0.0
 13
0.46200001
 23
-0.19149999
  0
SOLID
  5
226
100
AcDbEntity
  8
0
 62
     0
100
AcDbTrace
 10
0.0
 20
0.0
 11
0.0
 21
-0.5
 12
0.35350001
 22
-0.35350001
 13
0.19149999
 23
-0.46200001
  0
SOLID
  5
227
100
AcDbEntity
  8
0
 62
     0
100
AcDbTrace
 10
0.0
 20
0.0
 11
0.0
 21
-0.5
 12
-0.35350001
 22
-0.35350001
 13
-0.19149999
 23
-0.46200001
  0
ENDBLK
  5
228
100
AcDbEntity
100
AcDbBlockEnd
  0
BLOCK
  5
229
100
AcDbEntity
  8
0
100
AcDbBlockBegin
  2
CDWK_PTTYP38
 70
     0
 10
0.0
 20
0.0
 30
0.0
  3
CDWK_PTTYP38
  1

  4
Cadwork node
  0
CIRCLE
  5
22A
100
AcDbEntity
  8
0
 62
     0
370
    -2
100
AcDbCircle
 10
0.0
 20
0.0
 30
0.0
 40
0.5
  0
SOLID
  5
22B
100
AcDbEntity
  8
0
 62
     0
100
AcDbTrace
 10
0.0
 20
0.0
 11
0.35350001
 21
0.35350001
 12
0.0
 22
0.5
 13
0.19149999
 23
0.46200001
  0
SOLID
  5
22C
100
AcDbEntity
  8
0
 62
     0
100
AcDbTrace
 10
0.0
 20
0.0
 11
0.5
 21
0.0
 12
0.35350001
 22
0.35350001
 13
0.46200001
 23
0.19149999
  0
SOLID
  5
22D
100
AcDbEntity
  8
0
 62
     0
100
AcDbTrace
 10
0.0
 20
0.0
 11
0.0
 21
-0.5
 12
-0.35350001
 22
-0.35350001
 13
-0.19149999
 23
-0.46200001
  0
SOLID
  5
22E
100
AcDbEntity
  8
0
 62
     0
100
AcDbTrace
 10
0.0
 20
0.0
 11
-0.5
 21
0.0
 12
-0.35350001
 22
-0.35350001
 13
-0.46200001
 23
-0.19149999
  0
ENDBLK
  5
22F
100
AcDbEntity
100
AcDbBlockEnd
  0
BLOCK
  5
230
100
AcDbEntity
  8
Ech.1_5
100
AcDbBlockBegin
  2
*X1
 70
     1
 10
0.0
 20
0.0
 30
0.0
  3
*X1
  1

  4
Cadwork hatch
  0
LINE
  5
231
100
AcDbEntity
  8
Ech.1_5
 62
   190
  6
CONTINUOUS
370
    -2
100
AcDbLine
 10
31899.31282513
 20
-30864.24223263
 30
0.0
 11
31944.30679842
 21
-30644.2422031
 31
0.0
  0
LINE
  5
232
100
AcDbEntity
  8
Ech.1_5
 62
   190
  6
CONTINUOUS
370
    -2
100
AcDbLine
 10
31944.30679842
 20
-30864.24223263
 30
0.0
 11
31899.31282513
 21
-30644.2422031
 31
0.0
  0
ENDBLK
  5
233
100
AcDbEntity
100
AcDbBlockEnd
  0
ENDSEC
  0
SECTION
  2
ENTITIES
  0
INSERT
  5
234
100
AcDbEntity
  8
Ech.1_5
 62
     0
370
    -3
100
AcDbBlockReference
  2
*X1
 10
0.0
 20
0.0
 30
0.0
  0
LWPOLYLINE
  5
235
100
AcDbEntity
  8
Ech.1_5
 62
   190
  6
CONTINUOUS
370
    -3
100
AcDbPolyline
 90
        4
 70
     1
 43
0.0
 10
31909.31032925
 20
-31073.16610758
 10
31959.31032925
 20
-31073.16610758
 10
31959.31032925
 20
-30864.24214207
 10
31909.31032925
 20
-30864.24214207
  0
LWPOLYLINE
  5
236
100
AcDbEntity
  8
Ech.1_5
 62
   190
  6
CONTINUOUS
370
    -3
100
AcDbPolyline
 90
        4
 70
     1
 43
0.0
 10
31972.31028129
 20
-30864.24214207
 10
31959.31028129
 20
-30864.24214207
 10
31959.31029967
 20
-31073.16610758
 10
31972.31029967
 20
-31073.16610758
  0
LWPOLYLINE
  5
237
102
{ACAD_REACTORS
330
238
102
}
100
AcDbEntity
  8
Ech.1_5
 62
     7
  6
CONTINUOUS
370
    -3
100
AcDbPolyline
 90
        4
 70
     1
 43
0.0
 10
31959.31028129
 20
-30864.24229886
 10
31959.31029967
 20
-31073.16610758
 10
31972.31029967
 20
-31073.16610758
 10
31972.31028129
 20
-30864.24214207
  0
HATCH
  5
238
100
AcDbEntity
  8
Ech.1_5
 62
   190
  6
CONTINUOUS
100
AcDbHatch
 10
0.0
 20
0.0
 30
0.0
210
0.0
220
0.0
230
1.0
  2
DOTS2
 70
     0
 71
     1
 91
        1
 92
        7
 72
     0
 73
     1
 93
        4
 10
31959.31028129
 20
-30864.24229886
 10
31959.31029967
 20
-31073.16610758
 10
31972.31029967
 20
-31073.16610758
 10
31972.31028129
 20
-30864.24214207
 97
        1
330
237
 75
     0
 76
     2
 52
0.0
 41
4.72440952
 77
     0
 78
     1
 53
0.0
 43
0.0
 44
0.0
 45
3.75
 46
3.535
 79
     2
 49
0.0
 49
-3.535
 47
0.775229
 98
        1
 10
0.0
 20
0.0
  0
LWPOLYLINE
  5
239
100
AcDbEntity
  8
Ech.1_5
 62
   190
  6
CONTINUOUS
370
    -3
100
AcDbPolyline
 90
        4
 70
     1
 43
0.0
 10
31944.31032925
 20
-30644.24214207
 10
31944.31032925
 20
-30864.24214207
 10
32400.26721759
 20
-30864.24214207
 10
32400.26721759
 20
-30644.24214207
  0
LWPOLYLINE
  5
23A
102
{ACAD_REACTORS
330
23B
102
}
100
AcDbEntity
  8
Ech.1_5
 62
     9
  6
CONTINUOUS
370
    -3
100
AcDbPolyline
 90
        8
 70
     1
 43
0.0
 38
2500.0
 39
-2500.0
 10
31899.31032925
 20
-30261.25854754
 10
31720.81444209
 20
-30261.25854754
 10
31720.8145602
 20
-31073.16610758
 10
31826.01793451
 20
-31073.16610758
 10
31842.50343767
 20
-31055.18875917
 10
31828.39349765
 20
-31091.14445918
 10
31844.87985173
 20
-31073.16610758
 10
31899.31032925
 20
-31073.16610758
  0
HATCH
  5
23B
100
AcDbEntity
  8
Ech.1_5
 62
     9
  6
CONTINUOUS
100
AcDbHatch
 10
0.0
 20
0.0
 30
0.0
210
0.0
220
0.0
230
1.0
  2
ANSI31
 70
     0
 71
     1
 91
        1
 92
        7
 72
     0
 73
     1
 93
        8
 10
31899.31032925
 20
-30261.25854754
 10
31720.81444209
 20
-30261.25854754
 10
31720.8145602
 20
-31073.16610758
 10
31826.01793451
 20
-31073.16610758
 10
31842.50343767
 20
-31055.18875917
 10
31828.39349765
 20
-31091.14445918
 10
31844.87985173
 20
-31073.16610758
 10
31899.31032925
 20
-31073.16610758
 97
        1
330
23A
 75
     0
 76
     2
 52
0.0
 41
4.72443907
 77
     0
 78
     1
 53
45.0
 43
0.0
 44
0.0
 45
10.60660172
 46
-10.60660172
 79
     0
 47
0.775229
 98
        1
 10
0.0
 20
0.0
  0
LWPOLYLINE
  5
23C
100
AcDbEntity
  8
Ech.1_5
 62
   190
  6
CONTINUOUS
370
    -3
100
AcDbPolyline
 90
        5
 70
     1
 43
0.0
 10
32868.69414016
 20
-29821.62778782
 10
32868.69414016
 20
-29736.49356602
 10
31220.81444209
 20
-30336.27272577
 10
31220.81444209
 20
-30336.27272577
 10
31220.81444209
 20
-30421.40694757
  0
LWPOLYLINE
  5
23D
100
AcDbEntity
  8
Ech.1_5
 62
   190
  6
CONTINUOUS
370
    -3
100
AcDbPolyline
 90
       23
 70
     1
 43
0.0
 10
31536.24347723
 20
-30163.76161834
 10
31542.352392
 20
-30186.53680162
 10
31566.08505629
 20
-30180.17106478
 10
31553.48079763
 20
-30127.97525783
 10
31544.03637917
 20
-30130.25589875
 10
31546.6140787
 20
-30140.93047395
 10
31529.66155836
 20
-30145.0241735
 10
31527.08385884
 20
-30134.34959829
 10
31517.63944037
 20
-30136.63023921
 10
31520.2171399
 20
-30147.30481442
 10
31497.10284152
 20
-30152.88646192
 10
31487.63905354
 20
-30113.69573568
 10
31483.97234168
 20
-30098.51142462
 10
31157.58490726
 20
-30177.32755731
 42
0.41421356
 10
31141.13708435
 20
-30204.2479494
 10
31149.0312996
 20
-30236.93887921
 10
31158.07363232
 20
-30274.38430662
 10
31178.37618566
 20
-30269.48164013
 10
31175.84293298
 20
-30258.9911249
 10
31191.62759006
 20
-30254.82030683
 10
31194.12300718
 20
-30265.15414032
 10
31204.582205
 20
-30262.34870305
 10
31202.39897249
 20
-30253.30766493
  0
LWPOLYLINE
  5
23E
100
AcDbEntity
  8
Ech.1_5
 62
   190
  6
CONTINUOUS
370
    -3
100
AcDbPolyline
 90
       25
 70
     1
 43
0.0
 10
31874.85123117
 20
-30040.51847481
 10
31880.96014593
 20
-30063.2936581
 10
31904.69281022
 20
-30056.92792126
 10
31892.08855157
 20
-30004.7321143
 10
31882.6441331
 20
-30007.01275522
 10
31885.22183263
 20
-30017.68733043
 10
31868.2693123
 20
-30021.78102998
 10
31865.69161277
 20
-30011.10645477
 10
31856.24719431
 20
-30013.38709569
 10
31858.82489384
 20
-30024.0616709
 10
31835.75854505
 20
-30029.63173952
 10
31835.32170127
 20
-30027.82271494
 10
31835.26657654
 20
-30027.83602648
 10
31826.22424383
 20
-29990.39059906
 10
31822.57292048
 20
-29975.27001375
 10
31496.19266119
 20
-30054.08441379
 42
0.41421356
 10
31479.74483829
 20
-30081.00480587
 10
31483.97234168
 20
-30098.51142462
 10
31496.68138625
 20
-30151.1411631
 10
31516.98393959
 20
-30146.23849661
 10
31514.45068692
 20
-30135.74798138
 10
31530.23534399
 20
-30131.5771633
 10
31532.73076111
 20
-30141.91099679
 10
31543.18995894
 20
-30139.10555952
 10
31541.00672642
 20
-30130.06452141
  0
LINE
  5
23F
100
AcDbEntity
  8
Ech.1_5
 62
   190
  6
CONTINUOUS
370
    -3
100
AcDbLine
 10
31826.22424383
 20
-29990.39059906
 30
0.0
 11
31885.04373393
 21
-29976.18685147
 31
0.0
  0
LWPOLYLINE
  5
240
100
AcDbEntity
  8
Ech.1_5
 62
   190
  6
CONTINUOUS
370
    -3
100
AcDbPolyline
 90
        9
 70
     1
 43
0.0
 10
31855.56912988
 20
-30022.93335998
 10
31853.03587721
 20
-30012.44284476
 10
31868.82053428
 20
-30008.27202668
 10
31871.3159514
 20
-30018.60586017
 10
31881.77514923
 20
-30015.8004229
 10
31879.59191671
 20
-30006.75938479
 10
31993.57207144
 20
-29976.18685147
 10
31822.85265793
 20
-29976.18685147
 10
31835.32170127
 20
-30027.82271494
  0
ARC
  5
241
100
AcDbEntity
  8
Ech.1_5
 62
   190
  6
CONTINUOUS
370
    -3
100
AcDbCircle
 10
32414.82565701
 20
-30132.26114685
 30
0.0
 40
16.66620748
100
AcDbArc
 50
150.87152699
 51
209.12847301
  0
LWPOLYLINE
  5
242
100
AcDbEntity
  8
Ech.1_5
 62
   190
  6
CONTINUOUS
370
    -3
100
AcDbPolyline
 90
        4
 70
     1
 43
0.0
 10
31235.8700139
 20
-30330.79294578
 10
32210.14225082
 20
-29976.18685147
 10
32131.19944682
 20
-29976.18685147
 10
31226.63547003
 20
-30305.42124502
  0
LWPOLYLINE
  5
243
100
AcDbEntity
  8
Ech.1_5
 62
     7
100
AcDbPolyline
 90
       57
 70
     0
 43
0.0
 10
31132.5069344
 20
-30426.25381286
 10
31133.90202156
 20
-30426.05108664
 10
31135.29821613
 20
-30425.84644655
 10
31136.69662551
 20
-30425.63797873
 10
31138.0983571
 20
-30425.42376929
 10
31139.5045183
 20
-30425.20190439
 10
31140.91621654
 20
-30424.97047013
 10
31142.3345592
 20
-30424.72755267
 10
31143.7606537
 20
-30424.47123812
 10
31145.19560743
 20
-30424.19961262
 10
31146.64052781
 20
-30423.91076231
 10
31148.09652224
 20
-30423.6027733
 10
31149.56469812
 20
-30423.27373174
 10
31151.04616285
 20
-30422.92172375
 10
31152.54202385
 20
-30422.54483547
 10
31154.05336909
 20
-30422.14119768
 10
31155.57943281
 20
-30421.71320172
 10
31157.1160896
 20
-30421.27096058
 10
31158.65885968
 20
-30420.82540179
 10
31160.20326322
 20
-30420.38745291
 10
31161.74482042
 20
-30419.96804148
 10
31163.27905148
 20
-30419.57809506
 10
31164.80147659
 20
-30419.22854119
 10
31166.30761594
 20
-30418.93030743
 10
31167.79298972
 20
-30418.69432132
 10
31169.25311812
 20
-30418.5315104
 10
31170.68352135
 20
-30418.45280224
 10
31172.07971958
 20
-30418.46912438
 10
31173.43723302
 20
-30418.59140436
 10
31174.75158186
 20
-30418.83056973
 10
31176.01828629
 20
-30419.19754805
 10
31177.23286737
 20
-30419.70326313
 10
31178.39204152
 20
-30420.35351489
 10
31179.49608995
 20
-30421.13882285
 10
31180.54595543
 20
-30422.04687072
 10
31181.54258073
 20
-30423.0653422
 10
31182.48690862
 20
-30424.181921
 10
31183.37988186
 20
-30425.38429081
 10
31184.22244324
 20
-30426.66013535
 10
31185.01553551
 20
-30427.99713832
 10
31185.76010147
 20
-30429.38298341
 10
31186.45708386
 20
-30430.80535434
 10
31187.10742547
 20
-30432.25193481
 10
31187.71206907
 20
-30433.71040852
 10
31188.27195742
 20
-30435.16845918
 10
31188.78806955
 20
-30436.61403729
 10
31189.2623986
 20
-30438.04255832
 10
31189.69806352
 20
-30439.45772487
 10
31190.09824196
 20
-30440.86367141
 10
31190.46611154
 20
-30442.26453238
 10
31190.80484989
 20
-30443.66444224
 10
31191.11763463
 20
-30445.06753544
 10
31191.40764341
 20
-30446.47794642
 10
31191.67807251
 20
-30447.89973383
 10
31191.93293641
 20
-30449.33363138
 10
31192.17736958
 20
-30450.7758215
 10
31192.41658739
 20
-30452.2221579
  0
ARC
  5
244
100
AcDbEntity
  8
Ech.1_5
 62
     7
100
AcDbCircle
 10
31123.80609957
 20
-30359.02461911
 30
0.0
 40
67.78988877
100
AcDbArc
 50
176.81519387
 51
17.9333216
  0
LINE
  5
245
100
AcDbEntity
  8
Ech.1_5
 62
     7
100
AcDbLine
 10
31265.31428933
 20
-30320.07610595
 30
0.0
 11
32065.41690837
 21
-30028.86256826
 31
0.0
  0
LINE
  5
246
100
AcDbEntity
  8
Ech.1_5
 62
     7
100
AcDbLine
 10
31187.00794122
 20
-30338.15143539
 30
0.0
 11
31198.81444209
 21
-30338.15143539
 31
0.0
  0
LINE
  5
247
100
AcDbEntity
  8
Ech.1_5
 62
     7
100
AcDbLine
 10
31220.81444209
 20
-30467.14524964
 30
0.0
 11
31220.81444209
 21
-30467.14524964
 31
0.0
  0
ARC
  5
248
100
AcDbEntity
  8
Ech.1_5
 62
     7
100
AcDbCircle
 10
31195.79491305
 20
-30451.60778045
 30
0.0
 40
3.43373615
100
AcDbArc
 50
190.3070861
 51
331.56661712
  0
LINE
  5
249
100
AcDbEntity
  8
Ech.1_5
 62
     7
100
AcDbLine
 10
31899.31032925
 20
-30391.95361811
 30
0.0
 11
31899.31032925
 21
-30418.01332689
 31
0.0
  0
LWPOLYLINE
  5
24A
102
{ACAD_REACTORS
330
24B
102
}
100
AcDbEntity
  8
Ech.1_5
 62
     7
  6
CONTINUOUS
100
AcDbPolyline
 90
        3
 70
     1
 43
0.0
 10
31296.45926728
 20
-30283.23612467
 10
31318.2347428
 20
-30278.41190346
 10
31299.20093229
 20
-30290.03767234
  0
HATCH
  5
24B
100
AcDbEntity
  8
Ech.1_5
 62
     7
  6
CONTINUOUS
100
AcDbHatch
 10
0.0
 20
0.0
 30
0.0
210
0.0
220
0.0
230
1.0
  2
SOLID
 70
     1
 71
     1
 91
        1
 92
        7
 72
     0
 73
     1
 93
        3
 10
31296.45926728
 20
-30283.23612467
 10
31318.2347428
 20
-30278.41190346
 10
31299.20093229
 20
-30290.03767234
 97
        1
330
24A
 75
     0
 76
     2
 47
0.775229
 98
        1
 10
0.0
 20
0.0
  0
ARC
  5
24C
100
AcDbEntity
  8
Ech.1_5
 62
     7
100
AcDbCircle
 10
31666.20782865
 20
-31109.66564116
 30
0.0
 40
901.70863496
100
AcDbArc
 50
114.11271308
 51
118.22750414
  0
ARC
  5
24D
100
AcDbEntity
  8
Ech.1_5
 62
     7
100
AcDbCircle
 10
31191.61133395
 20
-30221.5712472
 30
0.0
 40
105.25912681
100
AcDbArc
 50
263.48671375
 51
297.1989192
  0
LWPOLYLINE
  5
24E
100
AcDbEntity
  8
Ech.1_5
 62
     7
  6
CONTINUOUS
370
    -3
100
AcDbPolyline
 90
        9
 70
     1
 43
0.0
 10
31211.67846719
 20
-30486.74588059
 10
31220.81444209
 20
-30486.74588059
 10
31220.81444209
 20
-30464.21698833
 10
31220.81444209
 20
-30464.21698833
 10
31220.81444209
 20
-30450.13570249
 10
31220.81444209
 20
-30450.13570249
 10
31220.81444209
 20
-30336.27272577
 10
31198.81444209
 20
-30336.27272577
 10
31198.81444209
 20
-30473.88185548
 42
0.47612089
  0
LWPOLYLINE
  5
24F
100
AcDbEntity
  8
Ech.1_5
100
AcDbPolyline
 90
       10
 70
     0
 43
0.0
 10
31286.57062243
 20
-30312.33943341
 10
31285.88658215
 20
-30310.46004817
 10
31234.79770939
 20
-30329.05487716
 10
31177.53400035
 20
-30336.58390961
 10
31177.53400035
 20
-30365.19172921
 10
31182.25072639
 20
-30359.93063241
 10
31179.53400035
 20
-30359.93063241
 10
31179.53400035
 20
-30338.33816253
 10
31235.27576227
 20
-30331.00923568
 10
31286.57062243
 20
-30312.33943341
  0
LWPOLYLINE
  5
250
102
{ACAD_REACTORS
330
251
102
}
100
AcDbEntity
  8
Ech.1_5
 62
   190
  6
CONTINUOUS
370
    -3
100
AcDbPolyline
 90
        9
 70
     1
 43
0.0
 10
31286.57062243
 20
-30312.33943341
 10
31285.88658215
 20
-30310.46004817
 10
31234.79770939
 20
-30329.05487716
 10
31177.53400035
 20
-30336.58390961
 10
31177.53400035
 20
-30365.19172921
 10
31182.25072639
 20
-30359.93063241
 10
31179.53400035
 20
-30359.93063241
 10
31179.53400035
 20
-30338.33816253
 10
31235.27576227
 20
-30331.00923568
  0
HATCH
  5
251
100
AcDbEntity
  8
Ech.1_5
 62
   177
  6
CONTINUOUS
100
AcDbHatch
 10
0.0
 20
0.0
 30
0.0
210
0.0
220
0.0
230
1.0
  2
SOLID
 70
     1
 71
     1
 91
        1
 92
        7
 72
     0
 73
     1
 93
        9
 10
31286.57062243
 20
-30312.33943341
 10
31285.88658215
 20
-30310.46004817
 10
31234.79770939
 20
-30329.05487716
 10
31177.53400035
 20
-30336.58390961
 10
31177.53400035
 20
-30365.19172921
 10
31182.25072639
 20
-30359.93063241
 10
31179.53400035
 20
-30359.93063241
 10
31179.53400035
 20
-30338.33816253
 10
31235.27576227
 20
-30331.00923568
 97
        1
330
250
 75
     0
 76
     2
 47
0.775229
 98
        1
 10
0.0
 20
0.0
  0
LWPOLYLINE
  5
252
100
AcDbEntity
  8
Ech.1_5
 62
   190
  6
CONTINUOUS
370
    -3
100
AcDbPolyline
 90
        4
 70
     1
 43
0.0
 10
31574.77983699
 20
-30292.57407987
 10
31612.36754182
 20
-30278.89327414
 10
31621.60208569
 20
-30304.2649749
 10
31584.01438086
 20
-30317.94578063
  0
LWPOLYLINE
  5
253
100
AcDbEntity
  8
Ech.1_5
 62
   190
  6
CONTINUOUS
370
    -3
100
AcDbPolyline
 90
        4
 70
     0
 43
0.0
 10
31612.36754182
 20
-30278.89327414
 10
31584.01438086
 20
-30317.94578063
 10
31621.60208569
 20
-30304.2649749
 10
31574.77983699
 20
-30292.57407987
  0
ARC
  5
254
100
AcDbEntity
  8
Ech.1_5
 62
     7
100
AcDbCircle
 10
31122.99992433
 20
-30351.16525604
 30
0.0
 40
65.31757614
100
AcDbArc
 50
182.93511954
 51
11.68289665
  0
ARC
  5
255
100
AcDbEntity
  8
Ech.1_5
 62
     7
100
AcDbCircle
 10
31122.99992433
 20
-30351.16525604
 30
0.0
 40
62.81757614
100
AcDbArc
 50
180.12287567
 51
11.68289665
  0
CIRCLE
  5
256
100
AcDbEntity
  8
Ech.1_5
 62
     7
100
AcDbCircle
 10
31054.52285815
 20
-30349.5558258
 30
0.0
 40
5.9222896
  0
LINE
  5
257
100
AcDbEntity
  8
Ech.1_5
 62
     7
100
AcDbLine
 10
31184.51612766
 20
-30338.44501229
 30
0.0
 11
31186.96433591
 21
-30337.93877484
 31
0.0
  0
LINE
  5
258
100
AcDbEntity
  8
Ech.1_5
 62
   190
  6
CONTINUOUS
370
    -3
100
AcDbLine
 10
31149.0312996
 20
-30236.93887921
 30
0.0
 11
31497.10284152
 21
-30152.88646192
 31
0.0
  0
LWPOLYLINE
  5
259
100
AcDbEntity
  8
Ech.1_5
 62
   190
  6
CONTINUOUS
370
    -3
100
AcDbPolyline
 90
       23
 70
     0
 43
0.0
 10
31544.03637917
 20
-30130.25589875
 10
31553.48079763
 20
-30127.97525783
 10
31566.08505629
 20
-30180.17106478
 10
31542.352392
 20
-30186.53680162
 10
31536.24347723
 20
-30163.76161834
 10
31202.39897249
 20
-30253.30766493
 10
31204.582205
 20
-30262.34870305
 10
31194.12300718
 20
-30265.15414032
 10
31191.62759006
 20
-30254.82030683
 10
31175.84293298
 20
-30258.9911249
 10
31178.37618566
 20
-30269.48164013
 10
31158.07363232
 20
-30274.38430662
 10
31149.0312996
 20
-30236.93887921
 10
31141.13708435
 20
-30204.2479494
 42
-0.41421356
 10
31157.58490726
 20
-30177.32755731
 10
31483.97234168
 20
-30098.51142462
 10
31497.10284152
 20
-30152.88646192
 10
31520.2171399
 20
-30147.30481442
 10
31517.63944037
 20
-30136.63023921
 10
31527.08385884
 20
-30134.34959829
 10
31529.66155836
 20
-30145.0241735
 10
31546.6140787
 20
-30140.93047395
 10
31544.03637917
 20
-30130.25589875
  0
LINE
  5
25A
100
AcDbEntity
  8
Ech.1_5
 62
   190
  6
CONTINUOUS
370
    -3
100
AcDbLine
 10
31487.63905354
 20
-30113.69573568
 30
0.0
 11
31835.71059545
 21
-30029.6433184
 31
0.0
  0
LWPOLYLINE
  5
25B
100
AcDbEntity
  8
Ech.1_5
 62
   190
  6
CONTINUOUS
370
    -3
100
AcDbPolyline
 90
       23
 70
     0
 43
0.0
 10
31882.6441331
 20
-30007.01275522
 10
31892.08855157
 20
-30004.7321143
 10
31904.69281022
 20
-30056.92792126
 10
31880.96014593
 20
-30063.2936581
 10
31874.85123117
 20
-30040.51847481
 10
31541.00672642
 20
-30130.06452141
 10
31543.18995894
 20
-30139.10555952
 10
31532.73076111
 20
-30141.91099679
 10
31530.23534399
 20
-30131.5771633
 10
31514.45068692
 20
-30135.74798138
 10
31516.98393959
 20
-30146.23849661
 10
31496.68138625
 20
-30151.1411631
 10
31487.63905354
 20
-30113.69573568
 10
31479.74483829
 20
-30081.00480587
 42
-0.41421356
 10
31496.19266119
 20
-30054.08441379
 10
31822.62804521
 20
-29975.25670221
 10
31835.75854505
 20
-30029.63173952
 10
31858.82489384
 20
-30024.0616709
 10
31856.24719431
 20
-30013.38709569
 10
31865.69161277
 20
-30011.10645477
 10
31868.2693123
 20
-30021.78102998
 10
31885.22183263
 20
-30017.68733043
 10
31882.6441331
 20
-30007.01275522
  0
LWPOLYLINE
  5
25C
100
AcDbEntity
  8
Ech.1_5
 62
   190
  6
CONTINUOUS
370
    -3
100
AcDbPolyline
 90
       10
 70
     0
 43
0.0
 10
31993.57207144
 20
-29976.18685147
 10
31879.59191671
 20
-30006.75938479
 10
31881.77514923
 20
-30015.8004229
 10
31871.3159514
 20
-30018.60586017
 10
31868.82053428
 20
-30008.27202668
 10
31853.03587721
 20
-30012.44284476
 10
31855.56912988
 20
-30022.93335998
 10
31835.26657654
 20
-30027.83602648
 10
31826.22424383
 20
-29990.39059906
 10
31822.79431872
 20
-29976.18685147
  0
LWPOLYLINE
  5
25D
100
AcDbEntity
  8
Ech.1_5
 62
     7
  6
CONTINUOUS
370
    -3
100
AcDbPolyline
 90
        5
 70
     0
 43
0.0
 10
31833.55062579
 20
-30055.75080381
 10
31871.13833062
 20
-30042.06999808
 10
31880.37287449
 20
-30067.44169884
 10
31842.78516966
 20
-30081.12250457
 10
31833.55062579
 20
-30055.75080381
  0
LINE
  5
25E
100
AcDbEntity
  8
Ech.1_5
 62
     7
100
AcDbLine
 10
31273.12128002
 20
-30359.64779385
 30
0.0
 11
31272.98410219
 21
-30359.67134694
 31
0.0
  0
LWPOLYLINE
  5
25F
100
AcDbEntity
  8
Ech.1_5
 62
   190
  6
CONTINUOUS
370
    -3
100
AcDbPolyline
 90
        4
 70
     1
 43
0.0
 10
31871.10025057
 20
-30042.12244801
 10
31833.56302835
 20
-30055.78487957
 10
31842.77500673
 20
-30081.09458216
 10
31880.31085424
 20
-30067.4283736
  0
LWPOLYLINE
  5
260
100
AcDbEntity
  8
Ech.1_5
 62
   190
  6
CONTINUOUS
370
    -3
100
AcDbPolyline
 90
        4
 70
     1
 43
0.0
 10
31532.49249664
 20
-30165.36559153
 10
31494.90479181
 20
-30179.04639726
 10
31504.12917275
 20
-30204.39017561
 10
31541.71550102
 20
-30190.70558781
  0
LWPOLYLINE
  5
261
100
AcDbEntity
  8
Ech.1_5
 62
   190
  6
CONTINUOUS
370
    -3
100
AcDbPolyline
 90
        4
 70
     1
 43
0.0
 10
31263.48549991
 20
-30238.79160346
 10
31227.40896324
 20
-30248.46829781
 10
31227.42608764
 20
-30305.13339365
 10
31280.15705545
 20
-30285.93488205
  0
LWPOLYLINE
  5
262
100
AcDbEntity
  8
Ech.1_5
 62
   190
  6
CONTINUOUS
370
    -3
100
AcDbPolyline
 90
        4
 70
     0
 43
0.0
 10
31263.48549991
 20
-30238.79160346
 10
31227.42608766
 20
-30305.13348373
 10
31280.1545461
 20
-30285.94189436
 10
31227.40896324
 20
-30248.46829781
  0
LWPOLYLINE
  5
263
100
AcDbEntity
  8
Ech.1_5
 62
   190
  6
CONTINUOUS
370
    -3
100
AcDbPolyline
 90
        4
 70
     0
 43
0.0
 10
31532.49249664
 20
-30165.36559153
 10
31504.13933568
 20
-30204.41809803
 10
31541.72704051
 20
-30190.73729229
 10
31494.90479181
 20
-30179.04639726
  0
LWPOLYLINE
  5
264
100
AcDbEntity
  8
Ech.1_5
 62
   190
  6
CONTINUOUS
370
    -3
100
AcDbPolyline
 90
        4
 70
     0
 43
0.0
 10
31871.10025057
 20
-30042.12244801
 10
31842.74708961
 20
-30081.1749545
 10
31880.33479444
 20
-30067.49414877
 10
31833.51254574
 20
-30055.80325374
  0
LWPOLYLINE
  5
265
100
AcDbEntity
  8
Ech.1_5
 62
   190
  6
CONTINUOUS
370
    -3
100
AcDbPolyline
 90
        4
 70
     1
 43
0.0
 10
31239.29767809
 20
-30454.043941
 10
31711.8145018
 20
-30281.90388954
 10
31711.81447835
 20
-30271.26097581
 10
31235.81444209
 20
-30444.66995524
  0
LWPOLYLINE
  5
266
102
{ACAD_REACTORS
330
267
102
}
100
AcDbEntity
  8
Ech.1_5
 62
     7
  6
CONTINUOUS
370
    -3
100
AcDbPolyline
 90
        4
 70
     1
 43
0.0
 10
31239.29767809
 20
-30454.043941
 10
31711.8145018
 20
-30281.90388954
 10
31711.81447835
 20
-30271.26097581
 10
31235.81444209
 20
-30444.66995524
  0
HATCH
  5
267
100
AcDbEntity
  8
Ech.1_5
 62
   190
  6
CONTINUOUS
100
AcDbHatch
 10
0.0
 20
0.0
 30
0.0
210
0.0
220
0.0
230
1.0
  2
ANSI37
 70
     0
 71
     1
 91
        1
 92
        7
 72
     0
 73
     1
 93
        4
 10
31239.29767809
 20
-30454.043941
 10
31711.8145018
 20
-30281.90388954
 10
31711.81447835
 20
-30271.26097581
 10
31235.81444209
 20
-30444.66995524
 97
        1
330
266
 75
     0
 76
     2
 52
0.0
 41
1.88976388
 77
     0
 78
     2
 53
45.0
 43
0.0
 44
0.0
 45
4.24264086
 46
-4.24264086
 79
     0
 53
-45.0
 43
0.0
 44
0.0
 45
4.24264086
 46
4.24264086
 79
     0
 47
0.775229
 98
        1
 10
0.0
 20
0.0
  0
LWPOLYLINE
  5
268
100
AcDbEntity
  8
Ech.1_5
 62
   190
  6
CONTINUOUS
370
    -3
100
AcDbPolyline
 90
        6
 70
     0
 43
0.0
 10
31620.30989881
 20
-31073.16610758
 10
31826.01793451
 20
-31073.16610758
 10
31842.50343767
 20
-31055.18875917
 10
31828.39349765
 20
-31091.14445918
 10
31844.87985173
 20
-31073.16610758
 10
32400.26721759
 20
-31073.16610758
  0
LWPOLYLINE
  5
269
100
AcDbEntity
  8
Ech.1_5
 62
     5
  6
CONTINUOUS
370
    -3
100
AcDbPolyline
 90
        5
 70
     0
 43
0.0
 10
31494.90479181
 20
-30179.04639726
 10
31532.49249664
 20
-30165.36559153
 10
31541.72704051
 20
-30190.73729229
 10
31504.13933568
 20
-30204.41809803
 10
31494.90479181
 20
-30179.04639726
  0
LWPOLYLINE
  5
26A
100
AcDbEntity
  8
Ech.1_5
 62
     5
  6
CONTINUOUS
370
    -3
100
AcDbPolyline
 90
        5
 70
     0
 43
0.0
 10
31227.40896324
 20
-30248.46829781
 10
31263.48549991
 20
-30238.79160346
 10
31280.15896632
 20
-30285.94028553
 10
31227.42608766
 20
-30305.13348373
 10
31227.40896324
 20
-30248.46829781
  0
LWPOLYLINE
  5
26B
100
AcDbEntity
  8
Ech.1_5
 62
     5
  6
CONTINUOUS
370
    -3
100
AcDbPolyline
 90
        5
 70
     0
 43
0.0
 10
31833.51254574
 20
-30055.80325374
 10
31871.10025057
 20
-30042.12244801
 10
31880.33479444
 20
-30067.49414877
 10
31842.74708961
 20
-30081.1749545
 10
31833.51254574
 20
-30055.80325374
  0
LWPOLYLINE
  5
26C
100
AcDbEntity
  8
Ech.1_5
 62
   254
  6
CONTINUOUS
370
    -3
100
AcDbPolyline
 90
        5
 70
     0
 43
0.0
 10
31574.77983699
 20
-30292.57407987
 10
31612.36754182
 20
-30278.89327414
 10
31621.60208569
 20
-30304.2649749
 10
31584.01438086
 20
-30317.94578063
 10
31574.77983699
 20
-30292.57407987
  0
LWPOLYLINE
  5
26D
100
AcDbEntity
  8
Ech.1_5
 62
   190
  6
CONTINUOUS
370
    -3
100
AcDbPolyline
 90
        4
 70
     0
 43
0.0
 10
32212.66124175
 20
-29975.27001375
 10
31235.8700139
 20
-30330.79294578
 10
31226.63547003
 20
-30305.42124502
 10
32133.71843751
 20
-29975.27001375
  0
LINE
  5
26E
100
AcDbEntity
  8
Ech.1_5
 62
   190
  6
CONTINUOUS
370
    -3
100
AcDbLine
 10
32400.26721759
 20
-29975.27001375
 30
0.0
 11
32400.26721759
 21
-30375.75905092
 31
0.0
  0
LWPOLYLINE
  5
26F
100
AcDbEntity
  8
Ech.1_5
 62
     9
  6
CADWORK_22
370
    35
100
AcDbPolyline
 90
        4
 70
     0
 43
0.0
 38
2500.0
 10
31234.07800691
 20
-30327.21837122
 10
31285.12346665
 20
-30308.36340558
 10
31292.0517745
 20
-30308.74819055
 10
32208.27553515
 20
-29975.27001375
  0
LWPOLYLINE
  5
270
100
AcDbEntity
  8
Ech.1_5
 62
   190
  6
CONTINUOUS
370
    -3
100
AcDbPolyline
 90
        5
 70
     0
 43
0.0
 10
32212.66124175
 20
-29975.27001375
 10
31720.81444209
 20
-30154.28760864
 10
31220.81444209
 20
-30336.27272577
 10
31220.81444209
 20
-30421.40694757
 10
32400.26721759
 20
-29992.12124457
  0
LINE
  5
271
100
AcDbEntity
  8
Ech.1_5
 62
   190
  6
CONTINUOUS
370
    -3
100
AcDbLine
 10
32400.26721759
 20
-29975.27001375
 30
0.0
 11
32400.26721759
 21
-29992.12124457
 31
0.0
  0
ARC
  5
272
100
AcDbEntity
  8
Ech.1_5
 62
   190
  6
CONTINUOUS
370
    -3
100
AcDbCircle
 10
32027.09862768
 20
-30149.1134082
 30
0.0
 40
20.00045761
100
AcDbArc
 50
124.66518872
 51
125.79100959
  0
ARC
  5
273
100
AcDbEntity
  8
Ech.1_5
 62
   190
  6
CONTINUOUS
370
    -3
100
AcDbCircle
 10
32132.92511924
 20
-30234.86298167
 30
0.0
 40
16.66620749
100
AcDbArc
 50
128.40061582
 51
138.4089803
  0
LWPOLYLINE
  5
274
100
AcDbEntity
  8
Ech.1_5
 62
     7
  6
CONTINUOUS
370
    -3
100
AcDbPolyline
 90
        4
 70
     1
 43
0.0
 10
31234.90983141
 20
-30416.27664542
 10
31272.49753624
 20
-30402.59583969
 10
31281.73208011
 20
-30427.96754045
 10
31244.14437528
 20
-30441.64834618
  0
LWPOLYLINE
  5
275
100
AcDbEntity
  8
Ech.1_5
 62
   190
  6
CONTINUOUS
370
    -3
100
AcDbPolyline
 90
        4
 70
     0
 43
0.0
 10
31272.49753624
 20
-30402.59583969
 10
31244.14437528
 20
-30441.64834618
 10
31281.73208011
 20
-30427.96754045
 10
31234.90983141
 20
-30416.27664542
  0
LWPOLYLINE
  5
276
100
AcDbEntity
  8
Ech.1_5
 62
     5
  6
CONTINUOUS
370
    -3
100
AcDbPolyline
 90
        5
 70
     0
 43
0.0
 10
31234.90983141
 20
-30416.27664542
 10
31272.49753624
 20
-30402.59583969
 10
31281.73208011
 20
-30427.96754045
 10
31244.14437528
 20
-30441.64834618
 10
31234.90983141
 20
-30416.27664542
  0
LWPOLYLINE
  5
277
100
AcDbEntity
  8
Ech.1_5
 62
     7
  6
CONTINUOUS
370
    -3
100
AcDbPolyline
 90
      228
 70
     0
 43
0.0
 10
31228.99317867
 20
-30488.93850415
 10
31228.36780282
 20
-30483.35091654
 10
31227.76150803
 20
-30477.77494898
 10
31227.19337537
 20
-30472.22222153
 10
31226.6824859
 20
-30466.70435422
 10
31226.24792068
 20
-30461.23296711
 10
31225.90876078
 20
-30455.81968025
 10
31225.68408726
 20
-30450.4761137
 10
31225.59298118
 20
-30445.21388749
 10
31225.65452361
 20
-30440.04462168
 10
31225.88779562
 20
-30434.97993632
 10
31226.31187825
 20
-30430.03145145
 10
31226.94585259
 20
-30425.21078714
 10
31227.80879968
 20
-30420.52956343
 10
31228.91980061
 20
-30415.99940036
 10
31230.29793642
 20
-30411.63191799
 10
31231.96228818
 20
-30407.43873638
 10
31233.93193696
 20
-30403.43147556
 10
31236.22566038
 20
-30399.62157445
 10
31238.84718913
 20
-30396.01148969
 10
31241.77858608
 20
-30392.59074328
 10
31245.00023107
 20
-30389.34785256
 10
31248.49250395
 20
-30386.27133484
 10
31252.23578456
 20
-30383.34970747
 10
31256.21045273
 20
-30380.57148776
 10
31260.3968883
 20
-30377.92519303
 10
31264.77547111
 20
-30375.39934062
 10
31269.326581
 20
-30372.98244785
 10
31274.03059782
 20
-30370.66303205
 10
31278.86790139
 20
-30368.42961054
 10
31283.81887156
 20
-30366.27070064
 10
31288.86388818
 20
-30364.17481969
 10
31293.98333107
 20
-30362.13048501
 10
31299.15758008
 20
-30360.12621393
 10
31304.36701505
 20
-30358.15052376
 10
31309.59201582
 20
-30356.19193185
 10
31314.8144685
 20
-30354.23983387
 10
31320.02846117
 20
-30352.29074082
 10
31325.23399934
 20
-30350.34461435
 10
31330.43112751
 20
-30348.40143885
 10
31335.61989019
 20
-30346.46119869
 10
31340.80033188
 20
-30344.52387827
 10
31345.9724971
 20
-30342.58946196
 10
31351.13643035
 20
-30340.65793415
 10
31356.29217614
 20
-30338.72927922
 10
31361.43977896
 20
-30336.80348156
 10
31366.57928333
 20
-30334.88052554
 10
31371.71073376
 20
-30332.96039556
 10
31376.83417475
 20
-30331.04307599
 10
31381.9496508
 20
-30329.12855122
 10
31387.05720642
 20
-30327.21680563
 10
31392.15688612
 20
-30325.30782361
 10
31397.2487344
 20
-30323.40158953
 10
31402.33279578
 20
-30321.49808779
 10
31407.40911475
 20
-30319.59730276
 10
31412.47773582
 20
-30317.69921883
 10
31417.53870351
 20
-30315.80382038
 10
31422.5920623
 20
-30313.9110918
 10
31427.63785672
 20
-30312.02101746
 10
31432.67613127
 20
-30310.13358176
 10
31437.70693044
 20
-30308.24876907
 10
31442.73029876
 20
-30306.36656378
 10
31447.74628072
 20
-30304.48695027
 10
31452.75492084
 20
-30302.60991292
 10
31457.75626361
 20
-30300.73543613
 10
31462.75035355
 20
-30298.86350426
 10
31467.73723515
 20
-30296.99410172
 10
31472.71695293
 20
-30295.12721287
 10
31477.6895514
 20
-30293.2628221
 10
31482.65507505
 20
-30291.40091379
 10
31487.6135684
 20
-30289.54147234
 10
31492.56507594
 20
-30287.68448211
 10
31497.5096422
 20
-30285.82992751
 10
31502.44731166
 20
-30283.9777929
 10
31507.37812885
 20
-30282.12806267
 10
31512.30213826
 20
-30280.28072121
 10
31517.2193844
 20
-30278.43575289
 10
31522.12991178
 20
-30276.59314211
 10
31527.0337649
 20
-30274.75287324
 10
31531.93098827
 20
-30272.91493067
 10
31536.8216264
 20
-30271.07929879
 10
31541.70572379
 20
-30269.24596197
 10
31546.58332495
 20
-30267.41490459
 10
31551.45447438
 20
-30265.58611105
 10
31556.31921659
 20
-30263.75956573
 10
31561.17759609
 20
-30261.935253
 10
31566.02965738
 20
-30260.11315725
 10
31570.87544497
 20
-30258.29326287
 10
31575.71500337
 20
-30256.47555424
 10
31580.54837707
 20
-30254.66001574
 10
31585.3756106
 20
-30252.84663176
 10
31590.19674844
 20
-30251.03538667
 10
31595.01183512
 20
-30249.22626487
 10
31599.82091513
 20
-30247.41925073
 10
31604.62403298
 20
-30245.61432864
 10
31609.42123318
 20
-30243.81148298
 10
31614.21256023
 20
-30242.01069814
 10
31618.99805865
 20
-30240.21195849
 10
31623.77777293
 20
-30238.41524843
 10
31628.55174758
 20
-30236.62055233
 10
31633.32002711
 20
-30234.82785459
 10
31638.08265603
 20
-30233.03713957
 10
31642.83967883
 20
-30231.24839167
 10
31647.59114003
 20
-30229.46159527
 10
31652.33708414
 20
-30227.67673475
 10
31657.07755565
 20
-30225.89379449
 10
31661.81259908
 20
-30224.11275889
 10
31666.54225893
 20
-30222.33361231
 10
31671.26657971
 20
-30220.55633915
 10
31675.98560592
 20
-30218.7809238
 10
31680.69938208
 20
-30217.00735062
 10
31685.40795267
 20
-30215.23560401
 10
31690.11136222
 20
-30213.46566834
 10
31694.80965523
 20
-30211.69752801
 10
31699.5028762
 20
-30209.9311674
 10
31704.19106964
 20
-30208.16657088
 10
31708.87428006
 20
-30206.40372284
 10
31713.55255196
 20
-30204.64260768
 10
31718.22592985
 20
-30202.88320975
 10
31722.89445824
 20
-30201.12551347
 10
31727.55818162
 20
-30199.36950319
 10
31732.21714451
 20
-30197.61516332
 10
31736.87139142
 20
-30195.86247823
 10
31741.52096684
 20
-30194.1114323
 10
31746.1659153
 20
-30192.36200993
 10
31750.80628128
 20
-30190.61419548
 10
31755.4421093
 20
-30188.86797335
 10
31760.07344386
 20
-30187.12332792
 10
31764.70032948
 20
-30185.38024357
 10
31769.32281065
 20
-30183.63870469
 10
31773.94093188
 20
-30181.89869566
 10
31778.55473768
 20
-30180.16020086
 10
31783.16427256
 20
-30178.42320467
 10
31787.76958101
 20
-30176.68769148
 10
31792.37070756
 20
-30174.95364568
 10
31796.96769669
 20
-30173.22105164
 10
31801.56059293
 20
-30171.48989375
 10
31806.14944077
 20
-30169.76015639
 10
31810.73428472
 20
-30168.03182395
 10
31815.31516929
 20
-30166.30488081
 10
31819.89213898
 20
-30164.57931135
 10
31824.46523831
 20
-30162.85509995
 10
31829.03451176
 20
-30161.13223101
 10
31833.60000387
 20
-30159.41068889
 10
31838.16175911
 20
-30157.69045799
 10
31842.71982202
 20
-30155.9715227
 10
31847.27423708
 20
-30154.25386738
 10
31851.82504881
 20
-30152.53747643
 10
31856.37230171
 20
-30150.82233423
 10
31860.9160403
 20
-30149.10842516
 10
31865.45630906
 20
-30147.3957336
 10
31869.99315252
 20
-30145.68424395
 10
31874.52661517
 20
-30143.97394058
 10
31879.05674153
 20
-30142.26480787
 10
31883.5835761
 20
-30140.55683022
 10
31888.10716338
 20
-30138.84999199
 10
31892.62754789
 20
-30137.14427758
 10
31897.14477412
 20
-30135.43967137
 10
31901.65888659
 20
-30133.73615775
 10
31906.1699298
 20
-30132.03372109
 10
31910.67794825
 20
-30130.33234577
 10
31915.18298645
 20
-30128.63201619
 10
31919.68508892
 20
-30126.93271673
 10
31924.18430015
 20
-30125.23443177
 10
31928.68066465
 20
-30123.53714569
 10
31933.17422692
 20
-30121.84084287
 10
31937.66503148
 20
-30120.1455077
 10
31942.15312283
 20
-30118.45112457
 10
31946.63854547
 20
-30116.75767785
 10
31951.12134392
 20
-30115.06515193
 10
31955.60156267
 20
-30113.3735312
 10
31960.07924624
 20
-30111.68280003
 10
31964.55443913
 20
-30109.9929428
 10
31969.02718584
 20
-30108.30394392
 10
31973.49753088
 20
-30106.61578774
 10
31977.96551877
 20
-30104.92845867
 10
31982.43119399
 20
-30103.24194108
 10
31986.89460107
 20
-30101.55621936
 10
31991.3557845
 20
-30099.87127788
 10
31995.8147888
 20
-30098.18710104
 10
32000.27165847
 20
-30096.50367321
 10
32004.72643801
 20
-30094.82097878
 10
32009.17917193
 20
-30093.13900214
 10
32013.62990474
 20
-30091.45772766
 10
32018.07868094
 20
-30089.77713973
 10
32022.52554504
 20
-30088.09722274
 10
32026.97054155
 20
-30086.41796106
 10
32031.41371497
 20
-30084.73933907
 10
32035.85510981
 20
-30083.06134118
 10
32040.29477057
 20
-30081.38395174
 10
32044.73274176
 20
-30079.70715516
 10
32049.16906789
 20
-30078.03093581
 10
32053.60379346
 20
-30076.35527808
 10
32058.03696298
 20
-30074.68016634
 10
32062.46862096
 20
-30073.00558499
 10
32066.89881189
 20
-30071.33151841
 10
32071.32758029
 20
-30069.65795097
 10
32075.75497067
 20
-30067.98486707
 10
32080.18102752
 20
-30066.31225108
 10
32084.60579536
 20
-30064.64008739
 10
32089.02931869
 20
-30062.96836039
 10
32093.45164202
 20
-30061.29705445
 10
32097.87280985
 20
-30059.62615396
 10
32102.29286669
 20
-30057.95564331
 10
32106.71185705
 20
-30056.28550687
 10
32111.12982543
 20
-30054.61572903
 10
32115.54681634
 20
-30052.94629417
 10
32119.96287429
 20
-30051.27718668
 10
32124.37804377
 20
-30049.60839094
 10
32128.7923693
 20
-30047.93989133
 10
32133.20589538
 20
-30046.27167224
 10
32137.61866653
 20
-30044.60371804
 10
32142.03072723
 20
-30042.93601313
 10
32146.44212201
 20
-30041.26854189
 10
32150.85289537
 20
-30039.6012887
 10
32155.26309181
 20
-30037.93423793
 10
32159.67275584
 20
-30036.26737399
 10
32164.08193196
 20
-30034.60068125
 10
32168.49066469
 20
-30032.93414408
 10
32172.89899852
 20
-30031.26774689
 10
32177.30697797
 20
-30029.60147404
 10
32181.71464754
 20
-30027.93530993
 10
32186.12205173
 20
-30026.26923893
 10
32190.52923506
 20
-30024.60324544
 10
32194.93624203
 20
-30022.93731382
 10
32199.34311714
 20
-30021.27142847
 10
32203.7499049
 20
-30019.60557378
 10
32207.99197096
 20
-30018.0019861
  0
LWPOLYLINE
  5
278
102
{ACAD_REACTORS
330
279
102
}
100
AcDbEntity
  8
Ech.1_5
 62
     7
  6
CONTINUOUS
370
    -3
100
AcDbPolyline
 90
        4
 70
     1
 43
0.0
 10
32209.82948533
 20
-30022.74083804
 10
32206.15445658
 20
-30013.26313415
 10
32226.46382537
 20
-30009.78152676
 10
32210.02290668
 20
-30022.74083804
  0
HATCH
  5
279
100
AcDbEntity
  8
Ech.1_5
 62
     7
  6
CONTINUOUS
100
AcDbHatch
 10
0.0
 20
0.0
 30
0.0
210
0.0
220
0.0
230
1.0
  2
SOLID
 70
     1
 71
     1
 91
        1
 92
        7
 72
     0
 73
     1
 93
        4
 10
32209.82948533
 20
-30022.74083804
 10
32206.15445658
 20
-30013.26313415
 10
32226.46382537
 20
-30009.78152676
 10
32210.02290668
 20
-30022.74083804
 97
        1
330
278
 75
     0
 76
     2
 47
0.775229
 98
        1
 10
0.0
 20
0.0
  0
LWPOLYLINE
  5
27A
100
AcDbEntity
  8
Ech.1_5
 62
   190
  6
CONTINUOUS
370
    -3
100
AcDbPolyline
 90
        6
 70
     1
 43
0.0
 10
31784.45503881
 20
-30216.25854754
 10
31720.81444209
 20
-30239.42183044
 10
31720.81444209
 20
-30261.25854754
 10
31840.81444209
 20
-30261.25854754
 10
31840.81444209
 20
-30236.25854754
 10
31840.81444209
 20
-30216.25854754
  0
LWPOLYLINE
  5
27B
100
AcDbEntity
  8
Ech.1_5
 62
   190
  6
CONTINUOUS
370
    -3
100
AcDbPolyline
 90
        3
 70
     0
 43
0.0
 10
31752.15979516
 20
-30228.01305494
 10
31780.81444209
 20
-30238.75854754
 10
31720.81444209
 20
-30261.25854754
  0
LWPOLYLINE
  5
27C
100
AcDbEntity
  8
Ech.1_5
 62
   190
  6
CONTINUOUS
370
    -3
100
AcDbPolyline
 90
        3
 70
     0
 43
0.0
 10
31840.81444209
 20
-30261.25854754
 10
31840.81444209
 20
-30216.25854754
 10
31780.81444209
 20
-30238.75854754
  0
LINE
  5
27D
100
AcDbEntity
  8
Ech.1_5
 62
   190
  6
CONTINUOUS
370
    -3
100
AcDbLine
 10
31780.81444209
 20
-30238.75854754
 30
0.0
 11
31840.81444209
 21
-30261.25854754
 31
0.0
  0
LWPOLYLINE
  5
27E
100
AcDbEntity
  8
Ech.1_5
 62
     5
  6
CONTINUOUS
370
    -3
100
AcDbPolyline
 90
        6
 70
     0
 43
0.0
 10
31784.45503881
 20
-30216.25854754
 10
31840.81444209
 20
-30216.25854754
 10
31840.81444209
 20
-30261.25854754
 10
31720.81444209
 20
-30261.25854754
 10
31720.81444209
 20
-30239.42183044
 10
31784.45503881
 20
-30216.25854754
  0
LWPOLYLINE
  5
27F
102
{ACAD_REACTORS
330
280
102
}
100
AcDbEntity
  8
Ech.1_5
 62
     9
  6
CONTINUOUS
370
    -3
100
AcDbPolyline
 90
        4
 70
     1
 43
0.0
 10
31899.31032925
 20
-30630.24214207
 10
31899.31032925
 20
-30644.24214207
 10
32400.26721759
 20
-30644.24214207
 10
32400.26721759
 20
-30630.24214207
  0
HATCH
  5
280
100
AcDbEntity
  8
Ech.1_5
 62
     9
  6
CONTINUOUS
100
AcDbHatch
 10
0.0
 20
0.0
 30
0.0
210
0.0
220
0.0
230
1.0
  2
ANSI31
 70
     0
 71
     1
 91
        1
 92
        7
 72
     0
 73
     1
 93
        4
 10
31899.31032925
 20
-30630.24214207
 10
31899.31032925
 20
-30644.24214207
 10
32400.26721759
 20
-30644.24214207
 10
32400.26721759
 20
-30630.24214207
 97
        1
330
27F
 75
     0
 76
     2
 52
90.0
 41
3.14962605
 77
     0
 78
     1
 53
-45.0
 43
0.0
 44
0.0
 45
7.07106781
 46
7.07106781
 79
     0
 47
0.775229
 98
        1
 10
0.0
 20
0.0
  0
LWPOLYLINE
  5
281
100
AcDbEntity
  8
Ech.1_5
 62
   190
  6
CONTINUOUS
370
    -3
100
AcDbPolyline
 90
        5
 70
     0
 43
0.0
 10
31415.26721759
 20
-31331.18685147
 10
32400.26721759
 20
-31331.18685147
 10
32400.26721759
 20
-29976.18685147
 10
31415.26721759
 20
-29976.18685147
 10
31415.26721759
 20
-31331.18685147
  0
LWPOLYLINE
  5
282
100
AcDbEntity
  8
Ech.1_5
 62
   190
  6
CONTINUOUS
370
    -3
100
AcDbPolyline
 90
        4
 70
     1
 43
0.0
 10
31944.31032925
 20
-30644.24214207
 10
31899.31032925
 20
-30644.24214207
 10
31899.31032925
 20
-30864.24214207
 10
31944.31032925
 20
-30864.24214207
  0
LWPOLYLINE
  5
283
100
AcDbEntity
  8
Ech.1_5
 62
   190
  6
CONTINUOUS
370
    -3
100
AcDbPolyline
 90
        4
 70
     1
 43
0.0
 10
31899.31032925
 20
-30864.24214207
 10
31944.31032925
 20
-30864.24214207
 10
31944.31032925
 20
-30644.24214207
 10
31899.31032925
 20
-30644.24214207
  0
LWPOLYLINE
  5
284
100
AcDbEntity
  8
Ech.1_5
 62
     5
  6
CONTINUOUS
370
    -3
100
AcDbPolyline
 90
        5
 70
     0
 43
0.0
 10
31899.31032925
 20
-30644.24214207
 10
31944.31032925
 20
-30644.24214207
 10
31944.31032925
 20
-30864.24214207
 10
31899.31032925
 20
-30864.24214207
 10
31899.31032925
 20
-30644.24214207
  0
LWPOLYLINE
  5
285
100
AcDbEntity
  8
Ech.1_5
 62
   190
  6
CONTINUOUS
370
    -3
100
AcDbPolyline
 90
        4
 70
     1
 43
0.0
 10
31899.31032925
 20
-30530.24214207
 10
31899.31032925
 20
-30630.24214207
 10
32400.26721759
 20
-30630.24214207
 10
32400.26721759
 20
-30530.24214207
  0
LWPOLYLINE
  5
286
100
AcDbEntity
  8
Ech.1_5
 62
   190
  6
CONTINUOUS
370
    -3
100
AcDbPolyline
 90
        4
 70
     1
 43
0.0
 10
31899.31032925
 20
-30430.24214207
 10
31899.31032925
 20
-30530.24214207
 10
32400.26721759
 20
-30530.24214207
 10
32400.26721759
 20
-30430.24214207
  0
LWPOLYLINE
  5
287
100
AcDbEntity
  8
Ech.1_5
 62
     5
  6
CONTINUOUS
370
    -3
100
AcDbPolyline
 90
        5
 70
     0
 43
0.0
 10
31574.77983699
 20
-30292.57407987
 10
31612.36754182
 20
-30278.89327414
 10
31621.60208569
 20
-30304.2649749
 10
31584.01438086
 20
-30317.94578063
 10
31574.77983699
 20
-30292.57407987
  0
LWPOLYLINE
  5
288
100
AcDbEntity
  8
Ech.1_5
 62
   190
  6
CONTINUOUS
370
    -3
100
AcDbPolyline
 90
       11
 70
     1
 43
0.0
 10
32264.13121522
 20
-30041.67069724
 10
32237.64054858
 20
-30051.31251139
 10
32259.18646318
 20
-30110.50942524
 10
32271.73239532
 20
-30144.97898541
 10
32274.8057372
 20
-30153.42302793
 10
32274.81052343
 20
-30153.43617797
 10
32277.67197791
 20
-30161.29795954
 10
32312.88498011
 20
-30258.04488796
 10
32361.56972313
 20
-30240.32509064
 10
32388.06038977
 20
-30230.68327649
 10
32312.81595824
 20
-30023.95089992
  0
LWPOLYLINE
  5
289
100
AcDbEntity
  8
Ech.1_5
 62
     5
  6
CONTINUOUS
370
    -3
100
AcDbPolyline
 90
        7
 70
     0
 43
0.0
 10
32312.81595824
 20
-30023.95089992
 10
32264.13121522
 20
-30041.67069724
 10
32237.64054858
 20
-30051.31251139
 10
32312.88498011
 20
-30258.04488796
 10
32361.56972313
 20
-30240.32509064
 10
32388.06038977
 20
-30230.68327649
 10
32312.81595824
 20
-30023.95089992
  0
LINE
  5
28A
100
AcDbEntity
  8
Ech.1_5
 62
   190
  6
CONTINUOUS
370
    -3
100
AcDbLine
 10
32312.88498011
 20
-30258.04488796
 30
0.0
 11
32312.81595824
 21
-30023.95089992
 31
0.0
  0
LINE
  5
28B
100
AcDbEntity
  8
Ech.1_5
 62
   190
  6
CONTINUOUS
370
    -3
100
AcDbLine
 10
32237.64054858
 20
-30051.31251139
 30
0.0
 11
32388.06038977
 21
-30230.68327649
 31
0.0
  0
LWPOLYLINE
  5
28C
100
AcDbEntity
  8
Ech.1_5
 62
   190
  6
CONTINUOUS
370
    -3
100
AcDbPolyline
 90
        3
 70
     0
 43
0.0
 10
32297.48347358
 20
-30161.18054845
 10
32248.9207033
 20
-30262.53413174
 10
32228.9207033
 20
-30262.53413174
  0
INSERT
  5
28D
100
AcDbEntity
  8
Ech.1_5
 62
   190
  6
CONTINUOUS
370
    -3
100
AcDbBlockReference
  2
CDWK_EXTR_4
 10
32297.48347358
 20
-30161.18054845
 30
0.0
 41
5.0
 42
5.0
 43
5.0
 50
244.39895648
  0
LWPOLYLINE
  5
28E
100
AcDbEntity
  8
Ech.1_5
 62
     7
  6
CONTINUOUS
370
    -3
100
AcDbPolyline
 90
        8
 70
     1
 43
0.0
 10
32108.89979089
 20
-30051.52961495
 10
32088.18725452
 20
-30176.23354779
 10
32091.1658552
 20
-30175.1494258
 10
32113.65865823
 20
-30040.9878016
 10
32108.14681465
 20
-30048.12612782
 10
32158.90254194
 20
-29778.48563113
 10
32156.12801074
 20
-29778.48563113
 10
32103.38794726
 20
-30058.66794124
  0
LWPOLYLINE
  5
28F
100
AcDbEntity
  8
Ech.1_5
 62
   190
  6
CONTINUOUS
370
    -3
100
AcDbPolyline
 90
       50
 70
     0
 43
0.0
 10
31950.97699592
 20
-31073.16610949
 42
1.14028181
 10
31948.82016192
 20
-31056.78339607
 10
31919.80049084
 20
-31064.54883057
 42
-1.30322619
 10
31919.80048714
 20
-31048.4500694
 10
31948.82016179
 20
-31056.21549057
 42
1.30322619
 10
31948.8201581
 20
-31040.1167294
 10
31919.80048701
 20
-31047.8821639
 42
-1.30322619
 10
31919.80048332
 20
-31031.78340273
 10
31948.82015797
 20
-31039.54882391
 42
1.30322619
 10
31948.82015427
 20
-31023.45006274
 10
31919.80048318
 20
-31031.21549723
 42
-1.30322619
 10
31919.80047949
 20
-31015.11673606
 10
31948.82015414
 20
-31022.88215724
 42
1.30322619
 10
31948.82015044
 20
-31006.78339607
 10
31919.80047936
 20
-31014.54883057
 42
-1.30322619
 10
31919.80047566
 20
-30998.4500694
 10
31948.82015031
 20
-31006.21549057
 42
1.30322619
 10
31948.82014662
 20
-30990.1167294
 10
31919.80047553
 20
-30997.8821639
 42
-1.30322619
 10
31919.80047184
 20
-30981.78340273
 10
31948.82014649
 20
-30989.54882391
 42
1.30322619
 10
31948.82014279
 20
-30973.45006274
 10
31919.80047171
 20
-30981.21549723
 42
-1.30322619
 10
31919.80046801
 20
-30965.11673607
 10
31948.82014266
 20
-30972.88215724
 42
1.30322619
 10
31948.82013897
 20
-30956.78339607
 10
31919.80046788
 20
-30964.54883057
 42
-1.30322619
 10
31919.80046418
 20
-30948.4500694
 10
31948.82013884
 20
-30956.21549057
 42
1.30322619
 10
31948.82013514
 20
-30940.1167294
 10
31919.80046405
 20
-30947.8821639
 42
-1.30322619
 10
31919.80046036
 20
-30931.78340273
 10
31948.82013501
 20
-30939.54882391
 42
1.30322619
 10
31948.82013131
 20
-30923.45006274
 10
31919.80046023
 20
-30931.21549723
 42
-1.30322619
 10
31919.80045653
 20
-30915.11673607
 10
31948.82013118
 20
-30922.88215724
 42
1.30322619
 10
31948.82012749
 20
-30906.78339607
 10
31919.8004564
 20
-30914.54883057
 42
-1.30322619
 10
31919.80045271
 20
-30898.4500694
 10
31948.82012736
 20
-30906.21549057
 42
1.30322619
 10
31948.82012366
 20
-30890.1167294
 10
31919.80045258
 20
-30897.8821639
 42
-1.30322619
 10
31919.80044888
 20
-30881.78340273
 10
31948.82012353
 20
-30889.54882391
 42
1.30322619
 10
31948.82011984
 20
-30873.45006274
 10
31919.80044875
 20
-30881.21549723
 42
-1.30322619
 10
31919.80044505
 20
-30865.11673607
 10
31948.82011971
 20
-30872.88215724
 42
0.51538904
 10
31959.28932415
 20
-30864.24214208
  0
LWPOLYLINE
  5
290
100
AcDbEntity
  8
Ech.1_5
 62
   190
  6
CONTINUOUS
370
    -3
100
AcDbPolyline
 90
       60
 70
     0
 43
0.0
 10
31899.31032925
 20
-30513.57547541
 42
1.14028181
 10
31932.07575709
 20
-30509.26181494
 10
31916.54490141
 20
-30451.22246921
 42
-1.30322619
 10
31948.74242375
 20
-30451.22246921
 10
31933.21156808
 20
-30509.26181494
 42
1.30322619
 10
31965.40909042
 20
-30509.26181494
 10
31949.87823475
 20
-30451.22246921
 42
-1.30322619
 10
31982.07575709
 20
-30451.22246921
 10
31966.54490141
 20
-30509.26181494
 42
1.30322619
 10
31998.74242375
 20
-30509.26181494
 10
31983.21156808
 20
-30451.22246921
 42
-1.30322619
 10
32015.40909042
 20
-30451.22246921
 10
31999.87823475
 20
-30509.26181494
 42
1.30322619
 10
32032.07575709
 20
-30509.26181494
 10
32016.54490141
 20
-30451.22246921
 42
-1.30322619
 10
32048.74242375
 20
-30451.22246921
 10
32033.21156808
 20
-30509.26181494
 42
1.30322619
 10
32065.40909042
 20
-30509.26181494
 10
32049.87823475
 20
-30451.22246921
 42
-1.30322619
 10
32082.07575709
 20
-30451.22246921
 10
32066.54490141
 20
-30509.26181494
 42
1.30322619
 10
32098.74242375
 20
-30509.26181494
 10
32083.21156808
 20
-30451.22246921
 42
-1.30322619
 10
32115.40909042
 20
-30451.22246921
 10
32099.87823475
 20
-30509.26181494
 42
1.30322619
 10
32132.07575709
 20
-30509.26181494
 10
32116.54490141
 20
-30451.22246921
 42
-1.30322619
 10
32148.74242375
 20
-30451.22246921
 10
32133.21156808
 20
-30509.26181494
 42
1.30322619
 10
32165.40909042
 20
-30509.26181494
 10
32149.87823475
 20
-30451.22246921
 42
-1.30322619
 10
32182.07575709
 20
-30451.22246921
 10
32166.54490141
 20
-30509.26181494
 42
1.30322619
 10
32198.74242375
 20
-30509.26181494
 10
32183.21156808
 20
-30451.22246921
 42
-1.30322619
 10
32215.40909042
 20
-30451.22246921
 10
32199.87823475
 20
-30509.26181494
 42
1.30322619
 10
32232.07575709
 20
-30509.26181494
 10
32216.54490141
 20
-30451.22246921
 42
-1.30322619
 10
32248.74242375
 20
-30451.22246921
 10
32233.21156808
 20
-30509.26181494
 42
1.30322619
 10
32265.40909042
 20
-30509.26181494
 10
32249.87823475
 20
-30451.22246921
 42
-1.30322619
 10
32282.07575709
 20
-30451.22246921
 10
32266.54490141
 20
-30509.26181494
 42
1.30322619
 10
32298.74242375
 20
-30509.26181494
 10
32283.21156808
 20
-30451.22246921
 42
-1.30322619
 10
32315.40909042
 20
-30451.22246921
 10
32299.87823475
 20
-30509.26181494
 42
1.30322619
 10
32332.07575709
 20
-30509.26181494
 10
32316.54490141
 20
-30451.22246921
 42
-1.30322619
 10
32348.74242375
 20
-30451.22246921
 10
32333.21156808
 20
-30509.26181494
 42
1.30322619
 10
32365.40909042
 20
-30509.26181494
 10
32349.87823475
 20
-30451.22246921
 42
-1.30322619
 10
32382.07575709
 20
-30451.22246921
 10
32366.54490141
 20
-30509.26181494
 42
1.30322619
 10
32398.74242375
 20
-30509.26181494
 10
32383.21156808
 20
-30451.22246921
 42
-0.51112797
 10
32400.26721759
 20
-30430.26963381
  0
LWPOLYLINE
  5
291
100
AcDbEntity
  8
Ech.1_5
 62
   190
  6
CONTINUOUS
370
    -3
100
AcDbPolyline
 90
       60
 70
     0
 43
0.0
 10
31899.31032925
 20
-30613.57547541
 42
1.14028181
 10
31932.07575709
 20
-30609.26181494
 10
31916.54490141
 20
-30551.22246921
 42
-1.30322619
 10
31948.74242375
 20
-30551.22246921
 10
31933.21156808
 20
-30609.26181494
 42
1.30322619
 10
31965.40909042
 20
-30609.26181494
 10
31949.87823475
 20
-30551.22246921
 42
-1.30322619
 10
31982.07575709
 20
-30551.22246921
 10
31966.54490141
 20
-30609.26181494
 42
1.30322619
 10
31998.74242375
 20
-30609.26181494
 10
31983.21156808
 20
-30551.22246921
 42
-1.30322619
 10
32015.40909042
 20
-30551.22246921
 10
31999.87823475
 20
-30609.26181494
 42
1.30322619
 10
32032.07575709
 20
-30609.26181494
 10
32016.54490141
 20
-30551.22246921
 42
-1.30322619
 10
32048.74242375
 20
-30551.22246921
 10
32033.21156808
 20
-30609.26181494
 42
1.30322619
 10
32065.40909042
 20
-30609.26181494
 10
32049.87823475
 20
-30551.22246921
 42
-1.30322619
 10
32082.07575709
 20
-30551.22246921
 10
32066.54490141
 20
-30609.26181494
 42
1.30322619
 10
32098.74242375
 20
-30609.26181494
 10
32083.21156808
 20
-30551.22246921
 42
-1.30322619
 10
32115.40909042
 20
-30551.22246921
 10
32099.87823475
 20
-30609.26181494
 42
1.30322619
 10
32132.07575709
 20
-30609.26181494
 10
32116.54490141
 20
-30551.22246921
 42
-1.30322619
 10
32148.74242375
 20
-30551.22246921
 10
32133.21156808
 20
-30609.26181494
 42
1.30322619
 10
32165.40909042
 20
-30609.26181494
 10
32149.87823475
 20
-30551.22246921
 42
-1.30322619
 10
32182.07575709
 20
-30551.22246921
 10
32166.54490141
 20
-30609.26181494
 42
1.30322619
 10
32198.74242375
 20
-30609.26181494
 10
32183.21156808
 20
-30551.22246921
 42
-1.30322619
 10
32215.40909042
 20
-30551.22246921
 10
32199.87823475
 20
-30609.26181494
 42
1.30322619
 10
32232.07575709
 20
-30609.26181494
 10
32216.54490141
 20
-30551.22246921
 42
-1.30322619
 10
32248.74242375
 20
-30551.22246921
 10
32233.21156808
 20
-30609.26181494
 42
1.30322619
 10
32265.40909042
 20
-30609.26181494
 10
32249.87823475
 20
-30551.22246921
 42
-1.30322619
 10
32282.07575709
 20
-30551.22246921
 10
32266.54490141
 20
-30609.26181494
 42
1.30322619
 10
32298.74242375
 20
-30609.26181494
 10
32283.21156808
 20
-30551.22246921
 42
-1.30322619
 10
32315.40909042
 20
-30551.22246921
 10
32299.87823475
 20
-30609.26181494
 42
1.30322619
 10
32332.07575709
 20
-30609.26181494
 10
32316.54490141
 20
-30551.22246921
 42
-1.30322619
 10
32348.74242375
 20
-30551.22246921
 10
32333.21156808
 20
-30609.26181494
 42
1.30322619
 10
32365.40909042
 20
-30609.26181494
 10
32349.87823475
 20
-30551.22246921
 42
-1.30322619
 10
32382.07575709
 20
-30551.22246921
 10
32366.54490141
 20
-30609.26181494
 42
1.30322619
 10
32398.74242375
 20
-30609.26181494
 10
32383.21156808
 20
-30551.22246921
 42
-0.51112797
 10
32400.26721759
 20
-30530.26963381
  0
LINE
  5
292
100
AcDbEntity
  8
Ech.1_5
 62
     1
  6
CADWORK_22
 48
-5.0
370
    35
100
AcDbLine
 10
31899.31032925
 20
-30630.24214207
 30
0.0
 11
32400.26721759
 21
-30630.24214207
 31
0.0
  0
ENDSEC
  0
SECTION
  2
OBJECTS
  0
DICTIONARY
  5
1
100
AcDbDictionary
  3
ACAD_GROUP
350
2
  3
ACAD_MLINESTYLE
350
3
  0
DICTIONARY
  5
2
102
{CDWK_REACTORS
330
1
102
}
100
AcDbDictionary
  0
DICTIONARY
  5
3
102
{CDWK_REACTORS
330
1
102
}
100
AcDbDictionary
  3
STANDARD
350
4
  0
MLINESTYLE
  5
4
102
{CDWK_REACTORS
330
3
102
}
100
AcDbMlineStyle
  2
STANDARD
 70
     0
  3

 62
     0
 51
90.0
 52
90.0
 71
     2
 49
0.5
 62
   256
  6
BYLAYER
 49
-0.5
 62
   256
  6
BYLAYER
  0
ENDSEC
  0
EOF
