  0
SECTION
  2
HEADER
  9
$ACADVER
  1
AC1014
  9
$DWGCODEPAGE
  3
ANSI_1252
  9
$INSBASE
 10
0.0
 20
0.0
 30
0.0
  9
$EXTMIN
 10
16.95292807
 20
-25140.77708765
  9
$EXTMAX
 10
35874.64455702
 20
784.39574146
  9
$LIMMIN
 10
16.95292807
 20
-25140.77708765
  9
$LIMMAX
 10
35874.64455702
 20
784.39574146
  9
$ORTHOMODE
 70
     0
  9
$REGENMODE
 70
     1
  9
$FILLMODE
 70
     1
  9
$QTEXTMODE
 70
     0
  9
$MIRRTEXT
 70
     1
  9
$DRAGMODE
 70
     2
  9
$LTSCALE
 40
5.0
  9
$OSMODE
 70
     0
  9
$ATTMODE
 70
     1
  9
$TEXTSIZE
 40
3.5
  9
$TRACEWID
 40
1.0
  9
$TEXTSTYLE
  7
STANDARD
  9
$CLAYER
  8
0
  9
$CELTYPE
  6
BYLAYER
  9
$CECOLOR
 62
   256
  9
$DIMSCALE
 40
1.0
  9
$DIMASZ
 40
2.0
  9
$DIMEXO
 40
5.0
  9
$DIMDLI
 40
10.0
  9
$DIMRND
 40
0.0
  9
$DIMDLE
 40
2.0
  9
$DIMEXE
 40
2.0
  9
$DIMTP
 40
0.0
  9
$DIMTM
 40
0.0
  9
$DIMTXT
 40
2.5
  9
$DIMCEN
 40
1.5
  9
$DIMTSZ
 40
0.0
  9
$DIMTOL
 70
     0
  9
$DIMLIM
 70
     0
  9
$DIMTIH
 70
     1
  9
$DIMTOH
 70
     0
  9
$DIMSE1
 70
     0
  9
$DIMSE2
 70
     0
  9
$DIMTAD
 70
     1
  9
$DIMZIN
 70
     8
  9
$DIMBLK
  1

  9
$DIMASO
 70
     1
  9
$DIMSHO
 70
     1
  9
$DIMPOST
  1

  9
$DIMAPOST
  1

  9
$DIMALT
 70
     0
  9
$DIMALTD
 70
     2
  9
$DIMALTF
 40
25.4
  9
$DIMLFAC
 40
1.0
  9
$DIMTOFL
 70
     0
  9
$DIMTVP
 40
0.0
  9
$DIMTIX
 70
     0
  9
$DIMSOXD
 70
     0
  9
$DIMSAH
 70
     0
  9
$DIMBLK1
  1

  9
$DIMBLK2
  1

  9
$DIMSTYLE
  2
*UNNAMED
  9
$DIMCLRD
 70
   190
  9
$DIMCLRE
 70
   190
  9
$DIMCLRT
 70
   190
  9
$DIMTFAC
 40
1.0
  9
$DIMGAP
 40
0.09
  9
$DIMUNIT
 70
     2
  9
$LUNITS
 70
     2
  9
$LUPREC
 70
     6
  9
$AXISMODE
 70
     0
  9
$AXISUNIT
 10
0.0
 20
0.0
  9
$SKETCHINC
 40
0.1
  9
$FILLETRAD
 40
0.0
  9
$AUNITS
 70
     0
  9
$AUPREC
 70
     0
  9
$MENU
  1
ACAD
  9
$ELEVATION
 40
0.0
  9
$PELEVATION
 40
0.0
  9
$THICKNESS
 40
0.0
  9
$LIMCHECK
 70
     0
  9
$BLIPMODE
 70
     1
  9
$CHAMFERA
 40
0.0
  9
$CHAMFERB
 40
0.0
  9
$SKPOLY
 70
     1
  9
$TDCREATE
 40
2457811.0000000000
  9
$TDUPDATE
 40
2457811.0000000000
  9
$TDINDWG
 40
0.0
  9
$TDUSRTIMER
 40
0.0
  9
$USRTIMER
 70
     1
  9
$ANGBASE
 50
0.0
  9
$ANGDIR
 70
     0
  9
$PDMODE
 70
     0
  9
$PDSIZE
 40
0.0
  9
$PLINEWID
 40
0.0
  9
$COORDS
 70
     2
  9
$SPLFRAME
 70
     0
  9
$SPLINETYPE
 70
     6
  9
$SPLINESEGS
 70
     8
  9
$ATTDIA
 70
     1
  9
$ATTREQ
 70
     1
  9
$HANDLING
 70
     1
  9
$HANDSEED
  5
     2B4
  9
$SURFTAB1
 70
     6
  9
$SURFTAB2
 70
     6
  9
$SURFTYPE
 70
     6
  9
$SURFU
 70
     6
  9
$SURFV
 70
     6
  9
$UCSNAME
  2

  9
$UCSORG
 10
0.0
 20
0.0
 30
0.0
  9
$UCSXDIR
 10
1.0
 20
0.0
 30
0.0
  9
$UCSYDIR
 10
0.0
 20
1.0
 30
0.0
  9
$PUCSNAME
  2

  9
$PUCSORG
 10
0.0
 20
0.0
 30
0.0
  9
$PUCSXDIR
 10
1.0
 20
0.0
 30
0.0
  9
$PUCSYDIR
 10
0.0
 20
1.0
 30
0.0
  9
$USERI1
 70
     0
  9
$USERI2
 70
     0
  9
$USERI3
 70
     0
  9
$USERI4
 70
     0
  9
$USERI5
 70
     0
  9
$USERR1
 40
0.0
  9
$USERR2
 40
0.0
  9
$USERR3
 40
0.0
  9
$USERR4
 40
0.0
  9
$USERR5
 40
0.0
  9
$WORLDVIEW
 70
     1
  9
$SHADEDGE
 70
     3
  9
$SHADEDIF
 70
    70
  9
$TILEMODE
 70
     1
  9
$MAXACTVP
 70
    16
  9
$PINSBASE
 10
0.0
 20
0.0
 30
0.0
  9
$PLIMCHECK
 70
     0
  9
$PEXTMIN
 10
1.0000000000000E+20
 20
1.0000000000000E+20
 30
1.0000000000000E+20
  9
$PEXTMAX
 10
-1.0000000000000E+20
 20
-1.0000000000000E+20
 30
-1.0000000000000E+20
  9
$PLIMMIN
 10
0.0
 20
0.0
  9
$UNITMODE
 70
     0
  9
$VISRETAIN
 70
     0
  9
$MEASUREMENT
 70
     1
  0
ENDSEC
  0
SECTION
  2
TABLES
  0
TABLE
  2
VPORT
  5
E9
100
AcDbSymbolTable
 70
     1
  0
ENDTAB
  0
TABLE
  2
STYLE
  5
EA
100
AcDbSymbolTable
 70
     3
  0
STYLE
  5
EB
100
AcDbSymbolTableRecord
100
AcDbTextStyleTableRecord
  2
STANDARD
 70
     0
 40
0.0
 41
1.0
 50
0.0
 71
     0
 42
3.5
  3
MONOTXT
  4

  0
STYLE
  5
EC
100
AcDbSymbolTableRecord
100
AcDbTextStyleTableRecord
  2
SYMAP
 70
     0
 40
0.0
 41
1.0
 50
0.0
 71
     0
 42
3.5
  3
SYMAP
  4

  0
STYLE
  5
ED
100
AcDbSymbolTableRecord
100
AcDbTextStyleTableRecord
  2
CADWORK1
 70
     0
 40
0.0
 41
1.0
 50
0.0
 71
     0
 42
3.5
  3
MONOTXT
  4

  0
STYLE
  5
EE
100
AcDbSymbolTableRecord
100
AcDbTextStyleTableRecord
  2
MONOTXT
 70
     0
 40
0.0
 41
1.0
 50
0.0
 71
     0
 42
3.5
  3
MONOTXT
  4

  0
STYLE
  5
EF
100
AcDbSymbolTableRecord
100
AcDbTextStyleTableRecord
  2
ARIAL
 70
     0
 40
0.0
 41
1.0
 50
0.0
 71
     0
 42
3.5
  3

  4

1001
ACAD
1000
Arial
1071
        0
  0
ENDTAB
  0
TABLE
  2
LTYPE
  5
F0
100
AcDbSymbolTable
 70
    13
  0
LTYPE
  5
F1
100
AcDbSymbolTableRecord
100
AcDbLinetypeTableRecord
  2
BYBLOCK
 70
    64
  3

 72
    65
 73
     0
 40
0.0
  0
LTYPE
  5
F2
100
AcDbSymbolTableRecord
100
AcDbLinetypeTableRecord
  2
BYLAYER
 70
    64
  3

 72
    65
 73
     0
 40
0.0
  0
LTYPE
  5
F3
100
AcDbSymbolTableRecord
100
AcDbLinetypeTableRecord
  2
CONTINUOUS
 70
    64
  3
Solid line
 72
    65
 73
     0
 40
0.0
  0
LTYPE
  5
F4
100
AcDbSymbolTableRecord
100
AcDbLinetypeTableRecord
  2
DOT2
 70
    64
  3
...............................................
 72
    65
 73
     2
 40
1.25
 49
0.0
 74
     0
 49
-1.25
 74
     0
  0
LTYPE
  5
F5
100
AcDbSymbolTableRecord
100
AcDbLinetypeTableRecord
  2
DASHDOT
 70
    64
  3
 __ . __ . __ . __ . __ . __ . __ . __ . __ . __
 72
    65
 73
     4
 40
10.0
 49
5.0
 74
     0
 49
-2.5
 74
     0
 49
0.0
 74
     0
 49
-2.5
 74
     0
  0
LTYPE
  5
F6
100
AcDbSymbolTableRecord
100
AcDbLinetypeTableRecord
  2
DASHEDX2
 70
    64
  3
____  ____  ____  ____  ____  ____  ____  ____
 72
    65
 73
     2
 40
3.75
 49
2.5
 74
     0
 49
-1.25
 74
     0
  0
LTYPE
  5
F7
100
AcDbSymbolTableRecord
100
AcDbLinetypeTableRecord
  2
CADWORK_22
 70
    64
  3
22 =======================================
 72
    65
 73
     0
 40
0.0
  0
LTYPE
  5
F8
100
AcDbSymbolTableRecord
100
AcDbLinetypeTableRecord
  2
DAL
 70
    64
  3
Solid line (for MAPS)
 72
    65
 73
     0
 40
0.0
  0
LTYPE
  5
F9
100
AcDbSymbolTableRecord
100
AcDbLinetypeTableRecord
  2
MUR
 70
    64
  3
Solid line (for MAPS)
 72
    65
 73
     0
 40
0.0
  0
LTYPE
  5
FA
100
AcDbSymbolTableRecord
100
AcDbLinetypeTableRecord
  2
SOM
 70
    64
  3
Solid line (for MAPS)
 72
    65
 73
     0
 40
0.0
  0
LTYPE
  5
FB
100
AcDbSymbolTableRecord
100
AcDbLinetypeTableRecord
  2
COL
 70
    64
  3
Solid line (for MAPS)
 72
    65
 73
     0
 40
0.0
  0
LTYPE
  5
FC
100
AcDbSymbolTableRecord
100
AcDbLinetypeTableRecord
  2
LGN
 70
    64
  3
Solid line (for MAPS)
 72
    65
 73
     0
 40
0.0
  0
LTYPE
  5
FD
100
AcDbSymbolTableRecord
100
AcDbLinetypeTableRecord
  2
PNT
 70
    64
  3
Solid line (for MAPS)
 72
    65
 73
     0
 40
0.0
  0
ENDTAB
  0
TABLE
  2
LAYER
  5
FE
100
AcDbSymbolTable
 70
    32
  0
LAYER
  5
FF
100
AcDbSymbolTableRecord
100
AcDbLayerTableRecord
  2
Standard
 70
     0
 62
     7
  6
CONTINUOUS
370
    -3
  0
LAYER
  5
100
100
AcDbSymbolTableRecord
100
AcDbLayerTableRecord
  2
Ech.1_1
 70
     0
 62
     7
  6
CONTINUOUS
370
    -3
  0
LAYER
  5
101
100
AcDbSymbolTableRecord
100
AcDbLayerTableRecord
  2
Ech.1_2
 70
     0
 62
     7
  6
CONTINUOUS
370
    -3
  0
LAYER
  5
102
100
AcDbSymbolTableRecord
100
AcDbLayerTableRecord
  2
Ech.1_5
 70
     0
 62
     7
  6
CONTINUOUS
370
    -3
  0
LAYER
  5
103
100
AcDbSymbolTableRecord
100
AcDbLayerTableRecord
  2
Ech.1_10
 70
     0
 62
     7
  6
CONTINUOUS
370
    -3
  0
LAYER
  5
104
100
AcDbSymbolTableRecord
100
AcDbLayerTableRecord
  2
Ech.1_20
 70
     0
 62
     7
  6
CONTINUOUS
370
    -3
  0
LAYER
  5
105
100
AcDbSymbolTableRecord
100
AcDbLayerTableRecord
  2
Ech.1_25
 70
     0
 62
     7
  6
CONTINUOUS
370
    -3
  0
LAYER
  5
106
100
AcDbSymbolTableRecord
100
AcDbLayerTableRecord
  2
Ech.1_33
 70
     0
 62
     7
  6
CONTINUOUS
370
    -3
  0
LAYER
  5
107
100
AcDbSymbolTableRecord
100
AcDbLayerTableRecord
  2
Ech.1_50
 70
     0
 62
     7
  6
CONTINUOUS
370
    -3
  0
LAYER
  5
108
100
AcDbSymbolTableRecord
100
AcDbLayerTableRecord
  2
Ech.1_75
 70
     0
 62
     7
  6
CONTINUOUS
370
    -3
  0
LAYER
  5
109
100
AcDbSymbolTableRecord
100
AcDbLayerTableRecord
  2
Ech.1_100
 70
     0
 62
     7
  6
CONTINUOUS
370
    -3
  0
LAYER
  5
10A
100
AcDbSymbolTableRecord
100
AcDbLayerTableRecord
  2
Ech.1_200
 70
     0
 62
     7
  6
CONTINUOUS
370
    -3
  0
LAYER
  5
10B
100
AcDbSymbolTableRecord
100
AcDbLayerTableRecord
  2
Ech.1_500
 70
     0
 62
     7
  6
CONTINUOUS
370
    -3
  0
LAYER
  5
10C
100
AcDbSymbolTableRecord
100
AcDbLayerTableRecord
  2
Ech.1_1000
 70
     0
 62
     7
  6
CONTINUOUS
370
    -3
  0
LAYER
  5
10D
100
AcDbSymbolTableRecord
100
AcDbLayerTableRecord
  2
Cadres traceur
 70
     0
 62
     7
  6
CONTINUOUS
370
    18
  0
LAYER
  5
10E
100
AcDbSymbolTableRecord
100
AcDbLayerTableRecord
  2
Cadres laser
 70
     0
 62
     7
  6
CONTINUOUS
370
    18
  0
LAYER
  5
10F
100
AcDbSymbolTableRecord
100
AcDbLayerTableRecord
  2
Légende d_aide
 70
     0
 62
     7
  6
CONTINUOUS
370
    18
  0
LAYER
  5
110
100
AcDbSymbolTableRecord
100
AcDbLayerTableRecord
  2
hachures ok
 70
     0
 62
     7
  6
CONTINUOUS
370
    18
  0
LAYER
  5
111
100
AcDbSymbolTableRecord
100
AcDbLayerTableRecord
  2
ossature bois
 70
     0
 62
     7
  6
CONTINUOUS
370
    18
  0
LAYER
  5
112
100
AcDbSymbolTableRecord
100
AcDbLayerTableRecord
  2
VR
 70
     0
 62
     7
  6
CONTINUOUS
370
    25
  0
LAYER
  5
113
100
AcDbSymbolTableRecord
100
AcDbLayerTableRecord
  2
Calque1
 70
     0
 62
     7
  6
CONTINUOUS
370
     9
  0
LAYER
  5
114
100
AcDbSymbolTableRecord
100
AcDbLayerTableRecord
  2
0
 70
     0
 62
     7
  6
CONTINUOUS
370
    -3
  0
LAYER
  5
115
100
AcDbSymbolTableRecord
100
AcDbLayerTableRecord
  2
menuiserie
 70
     0
 62
     7
  6
CONTINUOUS
370
    -3
  0
LAYER
  5
116
100
AcDbSymbolTableRecord
100
AcDbLayerTableRecord
  2
cotation
 70
     0
 62
   250
  6
CONTINUOUS
370
     9
  0
LAYER
  5
117
100
AcDbSymbolTableRecord
100
AcDbLayerTableRecord
  2
Defpoints
 70
     0
 62
    10
  6
CONTINUOUS
370
    -3
  0
LAYER
  5
118
100
AcDbSymbolTableRecord
100
AcDbLayerTableRecord
  2
HACHURE
 70
     0
 62
   254
  6
CONTINUOUS
370
    25
  0
LAYER
  5
119
100
AcDbSymbolTableRecord
100
AcDbLayerTableRecord
  2
mat1
 70
     0
 62
     7
  6
CONTINUOUS
370
    30
  0
LAYER
  5
11A
100
AcDbSymbolTableRecord
100
AcDbLayerTableRecord
  2
mat2
 70
     0
 62
     7
  6
CONTINUOUS
370
     5
  0
LAYER
  5
11B
100
AcDbSymbolTableRecord
100
AcDbLayerTableRecord
  2
hach
 70
     0
 62
     8
  6
CONTINUOUS
370
     5
  0
LAYER
  5
11C
100
AcDbSymbolTableRecord
100
AcDbLayerTableRecord
  2
menuiseries
 70
     0
 62
     7
  6
CONTINUOUS
370
     9
  0
LAYER
  5
11D
100
AcDbSymbolTableRecord
100
AcDbLayerTableRecord
  2
BétonMétal
 70
     0
 62
     7
  6
CONTINUOUS
370
    80
  0
LAYER
  5
11E
100
AcDbSymbolTableRecord
100
AcDbLayerTableRecord
  2
bois
 70
     0
 62
     7
  6
CONTINUOUS
370
    60
  0
ENDTAB
  0
TABLE
  2
VIEW
  5
11F
100
AcDbSymbolTable
 70
     0
  0
ENDTAB
  0
TABLE
  2
UCS
  5
120
100
AcDbSymbolTable
 70
     0
  0
ENDTAB
  0
TABLE
  2
APPID
  5
121
100
AcDbSymbolTable
 70
     1
  0
APPID
  5
122
100
AcDbSymbolTableRecord
100
AcDbRegAppTableRecord
  2
ACAD
 70
     0
  0
ENDTAB
  0
TABLE
  2
DIMSTYLE
  5
123
100
AcDbSymbolTable
 70
     0
  0
ENDTAB
  0
TABLE
  2
BLOCK_RECORD
  5
124
100
AcDbSymbolTable
 70
     0
  0
BLOCK_RECORD
  5
125
100
AcDbSymbolTableRecord
100
AcDbBlockTableRecord
  2
*MODEL_SPACE
  0
BLOCK_RECORD
  5
126
100
AcDbSymbolTableRecord
100
AcDbBlockTableRecord
  2
*PAPER_SPACE
  0
BLOCK_RECORD
  5
127
100
AcDbSymbolTableRecord
100
AcDbBlockTableRecord
  2
CDWK_EXTR_0
  0
BLOCK_RECORD
  5
128
100
AcDbSymbolTableRecord
100
AcDbBlockTableRecord
  2
CDWK_EXTR_1D
  0
BLOCK_RECORD
  5
129
100
AcDbSymbolTableRecord
100
AcDbBlockTableRecord
  2
CDWK_EXTR_1G
  0
BLOCK_RECORD
  5
12A
100
AcDbSymbolTableRecord
100
AcDbBlockTableRecord
  2
CDWK_EXTR_2
  0
BLOCK_RECORD
  5
12B
100
AcDbSymbolTableRecord
100
AcDbBlockTableRecord
  2
CDWK_EXTR_3
  0
BLOCK_RECORD
  5
12C
100
AcDbSymbolTableRecord
100
AcDbBlockTableRecord
  2
CDWK_EXTR_4
  0
BLOCK_RECORD
  5
12D
100
AcDbSymbolTableRecord
100
AcDbBlockTableRecord
  2
CDWK_PTTYP0
  0
BLOCK_RECORD
  5
12E
100
AcDbSymbolTableRecord
100
AcDbBlockTableRecord
  2
CDWK_PTTYP1
  0
BLOCK_RECORD
  5
12F
100
AcDbSymbolTableRecord
100
AcDbBlockTableRecord
  2
CDWK_PTTYP2
  0
BLOCK_RECORD
  5
130
100
AcDbSymbolTableRecord
100
AcDbBlockTableRecord
  2
CDWK_PTTYP3
  0
BLOCK_RECORD
  5
131
100
AcDbSymbolTableRecord
100
AcDbBlockTableRecord
  2
CDWK_PTTYP4
  0
BLOCK_RECORD
  5
132
100
AcDbSymbolTableRecord
100
AcDbBlockTableRecord
  2
CDWK_PTTYP5
  0
BLOCK_RECORD
  5
133
100
AcDbSymbolTableRecord
100
AcDbBlockTableRecord
  2
CDWK_PTTYP6
  0
BLOCK_RECORD
  5
134
100
AcDbSymbolTableRecord
100
AcDbBlockTableRecord
  2
CDWK_PTTYP7
  0
BLOCK_RECORD
  5
135
100
AcDbSymbolTableRecord
100
AcDbBlockTableRecord
  2
CDWK_PTTYP8
  0
BLOCK_RECORD
  5
136
100
AcDbSymbolTableRecord
100
AcDbBlockTableRecord
  2
CDWK_PTTYP9
  0
BLOCK_RECORD
  5
137
100
AcDbSymbolTableRecord
100
AcDbBlockTableRecord
  2
CDWK_PTTYP10
  0
BLOCK_RECORD
  5
138
100
AcDbSymbolTableRecord
100
AcDbBlockTableRecord
  2
CDWK_PTTYP11
  0
BLOCK_RECORD
  5
139
100
AcDbSymbolTableRecord
100
AcDbBlockTableRecord
  2
CDWK_PTTYP12
  0
BLOCK_RECORD
  5
13A
100
AcDbSymbolTableRecord
100
AcDbBlockTableRecord
  2
CDWK_PTTYP13
  0
BLOCK_RECORD
  5
13B
100
AcDbSymbolTableRecord
100
AcDbBlockTableRecord
  2
CDWK_PTTYP14
  0
BLOCK_RECORD
  5
13C
100
AcDbSymbolTableRecord
100
AcDbBlockTableRecord
  2
CDWK_PTTYP15
  0
BLOCK_RECORD
  5
13D
100
AcDbSymbolTableRecord
100
AcDbBlockTableRecord
  2
CDWK_PTTYP16
  0
BLOCK_RECORD
  5
13E
100
AcDbSymbolTableRecord
100
AcDbBlockTableRecord
  2
CDWK_PTTYP17
  0
BLOCK_RECORD
  5
13F
100
AcDbSymbolTableRecord
100
AcDbBlockTableRecord
  2
CDWK_PTTYP18
  0
BLOCK_RECORD
  5
140
100
AcDbSymbolTableRecord
100
AcDbBlockTableRecord
  2
CDWK_PTTYP19
  0
BLOCK_RECORD
  5
141
100
AcDbSymbolTableRecord
100
AcDbBlockTableRecord
  2
CDWK_PTTYP20
  0
BLOCK_RECORD
  5
142
100
AcDbSymbolTableRecord
100
AcDbBlockTableRecord
  2
CDWK_PTTYP21
  0
BLOCK_RECORD
  5
143
100
AcDbSymbolTableRecord
100
AcDbBlockTableRecord
  2
CDWK_PTTYP22
  0
BLOCK_RECORD
  5
144
100
AcDbSymbolTableRecord
100
AcDbBlockTableRecord
  2
CDWK_PTTYP23
  0
BLOCK_RECORD
  5
145
100
AcDbSymbolTableRecord
100
AcDbBlockTableRecord
  2
CDWK_PTTYP24
  0
BLOCK_RECORD
  5
146
100
AcDbSymbolTableRecord
100
AcDbBlockTableRecord
  2
CDWK_PTTYP25
  0
BLOCK_RECORD
  5
147
100
AcDbSymbolTableRecord
100
AcDbBlockTableRecord
  2
CDWK_PTTYP26
  0
BLOCK_RECORD
  5
148
100
AcDbSymbolTableRecord
100
AcDbBlockTableRecord
  2
CDWK_PTTYP27
  0
BLOCK_RECORD
  5
149
100
AcDbSymbolTableRecord
100
AcDbBlockTableRecord
  2
CDWK_PTTYP28
  0
BLOCK_RECORD
  5
14A
100
AcDbSymbolTableRecord
100
AcDbBlockTableRecord
  2
CDWK_PTTYP29
  0
BLOCK_RECORD
  5
14B
100
AcDbSymbolTableRecord
100
AcDbBlockTableRecord
  2
CDWK_PTTYP30
  0
BLOCK_RECORD
  5
14C
100
AcDbSymbolTableRecord
100
AcDbBlockTableRecord
  2
CDWK_PTTYP31
  0
BLOCK_RECORD
  5
14D
100
AcDbSymbolTableRecord
100
AcDbBlockTableRecord
  2
CDWK_PTTYP32
  0
BLOCK_RECORD
  5
14E
100
AcDbSymbolTableRecord
100
AcDbBlockTableRecord
  2
CDWK_PTTYP33
  0
BLOCK_RECORD
  5
14F
100
AcDbSymbolTableRecord
100
AcDbBlockTableRecord
  2
CDWK_PTTYP34
  0
BLOCK_RECORD
  5
150
100
AcDbSymbolTableRecord
100
AcDbBlockTableRecord
  2
CDWK_PTTYP35
  0
BLOCK_RECORD
  5
151
100
AcDbSymbolTableRecord
100
AcDbBlockTableRecord
  2
CDWK_PTTYP36
  0
BLOCK_RECORD
  5
152
100
AcDbSymbolTableRecord
100
AcDbBlockTableRecord
  2
CDWK_PTTYP37
  0
BLOCK_RECORD
  5
153
100
AcDbSymbolTableRecord
100
AcDbBlockTableRecord
  2
CDWK_PTTYP38
  0
BLOCK_RECORD
  5
154
100
AcDbSymbolTableRecord
100
AcDbBlockTableRecord
  2
*X1
  0
BLOCK_RECORD
  5
155
100
AcDbSymbolTableRecord
100
AcDbBlockTableRecord
  2
*X2
  0
BLOCK_RECORD
  5
156
100
AcDbSymbolTableRecord
100
AcDbBlockTableRecord
  2
*X3
  0
BLOCK_RECORD
  5
157
100
AcDbSymbolTableRecord
100
AcDbBlockTableRecord
  2
*X4
  0
BLOCK_RECORD
  5
158
100
AcDbSymbolTableRecord
100
AcDbBlockTableRecord
  2
*X5
  0
BLOCK_RECORD
  5
159
100
AcDbSymbolTableRecord
100
AcDbBlockTableRecord
  2
*X6
  0
BLOCK_RECORD
  5
15A
100
AcDbSymbolTableRecord
100
AcDbBlockTableRecord
  2
*D9
  0
BLOCK_RECORD
  5
15B
100
AcDbSymbolTableRecord
100
AcDbBlockTableRecord
  2
*D10
  0
ENDTAB
  0
ENDSEC
  0
SECTION
  2
BLOCKS
  0
BLOCK
  5
15C
100
AcDbEntity
  8
0
100
AcDbBlockBegin
  2
*MODEL_SPACE
 70
     0
 10
0.0
 20
0.0
 30
0.0
  3
*MODEL_SPACE
  1

  0
ENDBLK
  5
15D
100
AcDbEntity
100
AcDbBlockEnd
  0
BLOCK
  5
15E
100
AcDbEntity
  8
0
100
AcDbBlockBegin
  2
*PAPER_SPACE
 70
     0
 10
0.0
 20
0.0
 30
0.0
  3
*PAPER_SPACE
  1

  0
ENDBLK
  5
15F
100
AcDbEntity
100
AcDbBlockEnd
  0
BLOCK
  5
160
100
AcDbEntity
  8
0
100
AcDbBlockBegin
  2
CDWK_EXTR_0
 70
     0
 10
0.0
 20
0.0
 30
0.0
  3
CDWK_EXTR_0
  1

  4
Cadwork line-extremity
  0
LINE
  5
161
100
AcDbEntity
  8
0
 62
     0
370
    -2
100
AcDbLine
 10
0.0
 20
0.0
 30
0.0
 11
2.0
 21
0.5
 31
0.0
  0
LINE
  5
162
100
AcDbEntity
  8
0
 62
     0
370
    -2
100
AcDbLine
 10
0.0
 20
0.0
 30
0.0
 11
2.0
 21
-0.5
 31
0.0
  0
LINE
  5
163
100
AcDbEntity
  8
0
 62
     0
370
    -2
100
AcDbLine
 10
2.0
 20
0.5
 30
0.0
 11
2.0
 21
-0.5
 31
0.0
  0
ENDBLK
  5
164
100
AcDbEntity
100
AcDbBlockEnd
  0
BLOCK
  5
165
100
AcDbEntity
  8
0
100
AcDbBlockBegin
  2
CDWK_EXTR_1D
 70
     0
 10
0.0
 20
0.0
 30
0.0
  3
CDWK_EXTR_1D
  1

  4
Cadwork line-extremity
  0
LINE
  5
166
100
AcDbEntity
  8
0
 62
     0
370
    -2
100
AcDbLine
 10
0.0
 20
0.0
 30
0.0
 11
0.0
 21
1.0
 31
0.0
  0
LINE
  5
167
100
AcDbEntity
  8
0
 62
     0
370
    -2
100
AcDbLine
 10
0.0
 20
1.0
 30
0.0
 11
0.5
 21
1.5
 31
0.0
  0
LINE
  5
168
100
AcDbEntity
  8
0
 62
     0
370
    -2
100
AcDbLine
 10
0.5
 20
1.5
 30
0.0
 11
1.5
 21
1.5
 31
0.0
  0
ENDBLK
  5
169
100
AcDbEntity
100
AcDbBlockEnd
  0
BLOCK
  5
16A
100
AcDbEntity
  8
0
100
AcDbBlockBegin
  2
CDWK_EXTR_1G
 70
     0
 10
0.0
 20
0.0
 30
0.0
  3
CDWK_EXTR_1G
  1

  4
Cadwork line-extremity
  0
LINE
  5
16B
100
AcDbEntity
  8
0
 62
     0
370
    -2
100
AcDbLine
 10
0.0
 20
0.0
 30
0.0
 11
0.0
 21
-1.0
 31
0.0
  0
LINE
  5
16C
100
AcDbEntity
  8
0
 62
     0
370
    -2
100
AcDbLine
 10
0.0
 20
-1.0
 30
0.0
 11
0.5
 21
-1.5
 31
0.0
  0
LINE
  5
16D
100
AcDbEntity
  8
0
 62
     0
370
    -2
100
AcDbLine
 10
0.5
 20
-1.5
 30
0.0
 11
1.5
 21
-1.5
 31
0.0
  0
ENDBLK
  5
16E
100
AcDbEntity
100
AcDbBlockEnd
  0
BLOCK
  5
16F
100
AcDbEntity
  8
0
100
AcDbBlockBegin
  2
CDWK_EXTR_2
 70
     0
 10
0.0
 20
0.0
 30
0.0
  3
CDWK_EXTR_2
  1

  4
Cadwork line-extremity
  0
SOLID
  5
170
100
AcDbEntity
  8
0
 62
     0
100
AcDbTrace
 10
0.0
 20
0.0
 11
2.0
 21
0.5
 12
2.0
 22
-0.5
 13
2.0
 23
-0.5
  0
ENDBLK
  5
171
100
AcDbEntity
100
AcDbBlockEnd
  0
BLOCK
  5
172
100
AcDbEntity
  8
0
100
AcDbBlockBegin
  2
CDWK_EXTR_3
 70
     0
 10
0.0
 20
0.0
 30
0.0
  3
CDWK_EXTR_3
  1

  4
Cadwork line-extremity
  0
SOLID
  5
173
100
AcDbEntity
  8
0
 62
     0
100
AcDbTrace
 10
0.0
 20
0.0
 11
2.0
 21
0.5
 12
2.0
 22
-0.5
 13
2.0
 23
-0.5
  0
LINE
  5
174
100
AcDbEntity
  8
0
 62
     0
370
    -2
100
AcDbLine
 10
0.0
 20
1.0
 30
0.0
 11
0.0
 21
-1.0
 31
0.0
  0
ENDBLK
  5
175
100
AcDbEntity
100
AcDbBlockEnd
  0
BLOCK
  5
176
100
AcDbEntity
  8
0
100
AcDbBlockBegin
  2
CDWK_EXTR_4
 70
     0
 10
0.0
 20
0.0
 30
0.0
  3
CDWK_EXTR_4
  1

  4
Cadwork line-extremity
  0
HATCH
  5
177
100
AcDbEntity
  8
0
 62
     0
370
    -2
100
AcDbHatch
 10
0.0
 20
0.0
 30
0.0
210
0.0
220
0.0
230
1.0
  2
SOLID
 70
     1
 71
     0
 91
        1
 92
        1
 93
        1
 72
     2
 10
0.0
 20
0.0
 40
0.5
 50
0.0
 51
360.0
 73
     1
 97
        0
 75
     0
 76
     1
 98
        1
 10
0.0
 20
0.0
  0
ENDBLK
  5
178
100
AcDbEntity
100
AcDbBlockEnd
  0
BLOCK
  5
179
100
AcDbEntity
  8
0
100
AcDbBlockBegin
  2
CDWK_PTTYP0
 70
     0
 10
0.0
 20
0.0
 30
0.0
  3
CDWK_PTTYP0
  1

  4
Cadwork point
  0
POINT
  5
17A
100
AcDbEntity
  8
0
 62
     0
100
AcDbPoint
 10
0.0
 20
0.0
 30
0.0
  0
ENDBLK
  5
17B
100
AcDbEntity
100
AcDbBlockEnd
  0
BLOCK
  5
17C
100
AcDbEntity
  8
0
100
AcDbBlockBegin
  2
CDWK_PTTYP1
 70
     0
 10
0.0
 20
0.0
 30
0.0
  3
CDWK_PTTYP1
  1

  4
Cadwork node
  0
LINE
  5
17D
100
AcDbEntity
  8
0
 62
     0
370
    -2
100
AcDbLine
 10
-0.5
 20
0.5
 30
0.0
 11
0.5
 21
0.5
 31
0.0
  0
LINE
  5
17E
100
AcDbEntity
  8
0
 62
     0
370
    -2
100
AcDbLine
 10
0.5
 20
0.5
 30
0.0
 11
0.5
 21
-0.5
 31
0.0
  0
LINE
  5
17F
100
AcDbEntity
  8
0
 62
     0
370
    -2
100
AcDbLine
 10
0.5
 20
-0.5
 30
0.0
 11
-0.5
 21
-0.5
 31
0.0
  0
LINE
  5
180
100
AcDbEntity
  8
0
 62
     0
370
    -2
100
AcDbLine
 10
-0.5
 20
-0.5
 30
0.0
 11
-0.5
 21
0.5
 31
0.0
  0
ENDBLK
  5
181
100
AcDbEntity
100
AcDbBlockEnd
  0
BLOCK
  5
182
100
AcDbEntity
  8
0
100
AcDbBlockBegin
  2
CDWK_PTTYP2
 70
     0
 10
0.0
 20
0.0
 30
0.0
  3
CDWK_PTTYP2
  1

  4
Cadwork node
  0
LINE
  5
183
100
AcDbEntity
  8
0
 62
     0
370
    -2
100
AcDbLine
 10
0.0
 20
0.5
 30
0.0
 11
0.0
 21
-0.5
 31
0.0
  0
LINE
  5
184
100
AcDbEntity
  8
0
 62
     0
370
    -2
100
AcDbLine
 10
-0.5
 20
0.0
 30
0.0
 11
0.5
 21
0.0
 31
0.0
  0
ENDBLK
  5
185
100
AcDbEntity
100
AcDbBlockEnd
  0
BLOCK
  5
186
100
AcDbEntity
  8
0
100
AcDbBlockBegin
  2
CDWK_PTTYP3
 70
     0
 10
0.0
 20
0.0
 30
0.0
  3
CDWK_PTTYP3
  1

  4
Cadwork node
  0
CIRCLE
  5
187
100
AcDbEntity
  8
0
 62
     0
370
    -2
100
AcDbCircle
 10
0.0
 20
0.0
 30
0.0
 40
0.5
  0
ENDBLK
  5
188
100
AcDbEntity
100
AcDbBlockEnd
  0
BLOCK
  5
189
100
AcDbEntity
  8
0
100
AcDbBlockBegin
  2
CDWK_PTTYP4
 70
     0
 10
0.0
 20
0.0
 30
0.0
  3
CDWK_PTTYP4
  1

  4
Cadwork node
  0
HATCH
  5
18A
100
AcDbEntity
  8
0
 62
     0
370
    -2
100
AcDbHatch
 10
0.0
 20
0.0
 30
0.0
210
0.0
220
0.0
230
1.0
  2
SOLID
 70
     1
 71
     0
 91
        1
 92
        1
 93
        1
 72
     2
 10
0.0
 20
0.0
 40
0.5
 50
0.0
 51
360.0
 73
     1
 97
        0
 75
     0
 76
     1
 98
        1
 10
0.0
 20
0.0
  0
ENDBLK
  5
18B
100
AcDbEntity
100
AcDbBlockEnd
  0
BLOCK
  5
18C
100
AcDbEntity
  8
0
100
AcDbBlockBegin
  2
CDWK_PTTYP5
 70
     0
 10
0.0
 20
0.0
 30
0.0
  3
CDWK_PTTYP5
  1

  4
Cadwork node
  0
LINE
  5
18D
100
AcDbEntity
  8
0
 62
     0
370
    -2
100
AcDbLine
 10
-0.5
 20
0.5
 30
0.0
 11
0.5
 21
0.5
 31
0.0
  0
LINE
  5
18E
100
AcDbEntity
  8
0
 62
     0
370
    -2
100
AcDbLine
 10
0.5
 20
0.5
 30
0.0
 11
0.5
 21
-0.5
 31
0.0
  0
LINE
  5
18F
100
AcDbEntity
  8
0
 62
     0
370
    -2
100
AcDbLine
 10
0.5
 20
-0.5
 30
0.0
 11
-0.5
 21
-0.5
 31
0.0
  0
LINE
  5
190
100
AcDbEntity
  8
0
 62
     0
370
    -2
100
AcDbLine
 10
-0.5
 20
-0.5
 30
0.0
 11
-0.5
 21
0.5
 31
0.0
  0
SOLID
  5
191
100
AcDbEntity
  8
0
 62
     0
100
AcDbTrace
 10
-0.5
 20
-0.5
 11
-0.5
 21
0.0
 12
0.0
 22
-0.5
 13
0.0
 23
0.0
  0
SOLID
  5
192
100
AcDbEntity
  8
0
 62
     0
100
AcDbTrace
 10
0.0
 20
0.0
 11
0.0
 21
0.5
 12
0.5
 22
0.0
 13
0.5
 23
0.5
  0
ENDBLK
  5
193
100
AcDbEntity
100
AcDbBlockEnd
  0
BLOCK
  5
194
100
AcDbEntity
  8
0
100
AcDbBlockBegin
  2
CDWK_PTTYP6
 70
     0
 10
0.0
 20
0.0
 30
0.0
  3
CDWK_PTTYP6
  1

  4
Cadwork node
  0
LINE
  5
195
100
AcDbEntity
  8
0
 62
     0
370
    -2
100
AcDbLine
 10
-0.5
 20
0.5
 30
0.0
 11
0.5
 21
0.5
 31
0.0
  0
LINE
  5
196
100
AcDbEntity
  8
0
 62
     0
370
    -2
100
AcDbLine
 10
0.5
 20
0.5
 30
0.0
 11
0.5
 21
-0.5
 31
0.0
  0
LINE
  5
197
100
AcDbEntity
  8
0
 62
     0
370
    -2
100
AcDbLine
 10
0.5
 20
-0.5
 30
0.0
 11
-0.5
 21
-0.5
 31
0.0
  0
LINE
  5
198
100
AcDbEntity
  8
0
 62
     0
370
    -2
100
AcDbLine
 10
-0.5
 20
-0.5
 30
0.0
 11
-0.5
 21
0.5
 31
0.0
  0
SOLID
  5
199
100
AcDbEntity
  8
0
 62
     0
100
AcDbTrace
 10
-0.5
 20
-0.5
 11
-0.5
 21
0.5
 12
0.5
 22
0.5
 13
0.5
 23
0.5
  0
ENDBLK
  5
19A
100
AcDbEntity
100
AcDbBlockEnd
  0
BLOCK
  5
19B
100
AcDbEntity
  8
0
100
AcDbBlockBegin
  2
CDWK_PTTYP7
 70
     0
 10
0.0
 20
0.0
 30
0.0
  3
CDWK_PTTYP7
  1

  4
Cadwork node
  0
LINE
  5
19C
100
AcDbEntity
  8
0
 62
     0
370
    -2
100
AcDbLine
 10
-0.5
 20
0.5
 30
0.0
 11
0.5
 21
0.5
 31
0.0
  0
LINE
  5
19D
100
AcDbEntity
  8
0
 62
     0
370
    -2
100
AcDbLine
 10
0.5
 20
0.5
 30
0.0
 11
0.5
 21
-0.5
 31
0.0
  0
LINE
  5
19E
100
AcDbEntity
  8
0
 62
     0
370
    -2
100
AcDbLine
 10
0.5
 20
-0.5
 30
0.0
 11
-0.5
 21
-0.5
 31
0.0
  0
LINE
  5
19F
100
AcDbEntity
  8
0
 62
     0
370
    -2
100
AcDbLine
 10
-0.5
 20
-0.5
 30
0.0
 11
-0.5
 21
0.5
 31
0.0
  0
LINE
  5
1A0
100
AcDbEntity
  8
0
 62
     0
370
    -2
100
AcDbLine
 10
0.0
 20
0.5
 30
0.0
 11
0.0
 21
-0.5
 31
0.0
  0
LINE
  5
1A1
100
AcDbEntity
  8
0
 62
     0
370
    -2
100
AcDbLine
 10
-0.5
 20
0.0
 30
0.0
 11
0.5
 21
0.0
 31
0.0
  0
ENDBLK
  5
1A2
100
AcDbEntity
100
AcDbBlockEnd
  0
BLOCK
  5
1A3
100
AcDbEntity
  8
0
100
AcDbBlockBegin
  2
CDWK_PTTYP8
 70
     0
 10
0.0
 20
0.0
 30
0.0
  3
CDWK_PTTYP8
  1

  4
Cadwork node
  0
SOLID
  5
1A4
100
AcDbEntity
  8
0
 62
     0
100
AcDbTrace
 10
-0.5
 20
0.5
 11
0.5
 21
0.5
 12
-0.5
 22
-0.5
 13
0.5
 23
-0.5
  0
ENDBLK
  5
1A5
100
AcDbEntity
100
AcDbBlockEnd
  0
BLOCK
  5
1A6
100
AcDbEntity
  8
0
100
AcDbBlockBegin
  2
CDWK_PTTYP9
 70
     0
 10
0.0
 20
0.0
 30
0.0
  3
CDWK_PTTYP9
  1

  4
Cadwork node
  0
CIRCLE
  5
1A7
100
AcDbEntity
  8
0
 62
     0
370
    -2
100
AcDbCircle
 10
0.0
 20
0.0
 30
0.0
 40
0.5
  0
CIRCLE
  5
1A8
100
AcDbEntity
  8
0
 62
     0
370
    -2
100
AcDbCircle
 10
0.0
 20
0.0
 30
0.0
 40
0.16666667
  0
ENDBLK
  5
1A9
100
AcDbEntity
100
AcDbBlockEnd
  0
BLOCK
  5
1AA
100
AcDbEntity
  8
0
100
AcDbBlockBegin
  2
CDWK_PTTYP10
 70
     0
 10
0.0
 20
0.0
 30
0.0
  3
CDWK_PTTYP10
  1

  4
Cadwork node
  0
CIRCLE
  5
1AB
100
AcDbEntity
  8
0
 62
     0
370
    -2
100
AcDbCircle
 10
0.0
 20
0.0
 30
0.0
 40
0.5
  0
ENDBLK
  5
1AC
100
AcDbEntity
100
AcDbBlockEnd
  0
BLOCK
  5
1AD
100
AcDbEntity
  8
0
100
AcDbBlockBegin
  2
CDWK_PTTYP11
 70
     0
 10
0.0
 20
0.0
 30
0.0
  3
CDWK_PTTYP11
  1

  4
Cadwork node
  0
CIRCLE
  5
1AE
100
AcDbEntity
  8
0
 62
     0
370
    -2
100
AcDbCircle
 10
0.0
 20
0.0
 30
0.0
 40
0.5
  0
CIRCLE
  5
1AF
100
AcDbEntity
  8
0
 62
     0
370
    -2
100
AcDbCircle
 10
0.0
 20
0.0
 30
0.0
 40
0.25
  0
ENDBLK
  5
1B0
100
AcDbEntity
100
AcDbBlockEnd
  0
BLOCK
  5
1B1
100
AcDbEntity
  8
0
100
AcDbBlockBegin
  2
CDWK_PTTYP12
 70
     0
 10
0.0
 20
0.0
 30
0.0
  3
CDWK_PTTYP12
  1

  4
Cadwork node
  0
CIRCLE
  5
1B2
100
AcDbEntity
  8
0
 62
     0
370
    -2
100
AcDbCircle
 10
0.0
 20
0.0
 30
0.0
 40
0.5
  0
CIRCLE
  5
1B3
100
AcDbEntity
  8
0
 62
     0
370
    -2
100
AcDbCircle
 10
0.25
 20
0.0
 30
0.0
 40
0.25
  0
ENDBLK
  5
1B4
100
AcDbEntity
100
AcDbBlockEnd
  0
BLOCK
  5
1B5
100
AcDbEntity
  8
0
100
AcDbBlockBegin
  2
CDWK_PTTYP13
 70
     0
 10
0.0
 20
0.0
 30
0.0
  3
CDWK_PTTYP13
  1

  4
Cadwork node
  0
CIRCLE
  5
1B6
100
AcDbEntity
  8
0
 62
     0
370
    -2
100
AcDbCircle
 10
0.0
 20
0.0
 30
0.0
 40
0.5
  0
CIRCLE
  5
1B7
100
AcDbEntity
  8
0
 62
     0
370
    -2
100
AcDbCircle
 10
0.25
 20
0.0
 30
0.0
 40
0.25
  0
CIRCLE
  5
1B8
100
AcDbEntity
  8
0
 62
     0
370
    -2
100
AcDbCircle
 10
-0.25
 20
0.0
 30
0.0
 40
0.25
  0
ENDBLK
  5
1B9
100
AcDbEntity
100
AcDbBlockEnd
  0
BLOCK
  5
1BA
100
AcDbEntity
  8
0
100
AcDbBlockBegin
  2
CDWK_PTTYP14
 70
     0
 10
0.0
 20
0.0
 30
0.0
  3
CDWK_PTTYP14
  1

  4
Cadwork node
  0
POINT
  5
1BB
100
AcDbEntity
  8
0
 62
     0
100
AcDbPoint
 10
0.0
 20
0.0
 30
0.0
  0
ENDBLK
  5
1BC
100
AcDbEntity
100
AcDbBlockEnd
  0
BLOCK
  5
1BD
100
AcDbEntity
  8
0
100
AcDbBlockBegin
  2
CDWK_PTTYP15
 70
     0
 10
0.0
 20
0.0
 30
0.0
  3
CDWK_PTTYP15
  1

  4
Cadwork node
  0
POINT
  5
1BE
100
AcDbEntity
  8
0
 62
     0
100
AcDbPoint
 10
0.0
 20
0.0
 30
0.0
  0
ENDBLK
  5
1BF
100
AcDbEntity
100
AcDbBlockEnd
  0
BLOCK
  5
1C0
100
AcDbEntity
  8
0
100
AcDbBlockBegin
  2
CDWK_PTTYP16
 70
     0
 10
0.0
 20
0.0
 30
0.0
  3
CDWK_PTTYP16
  1

  4
Cadwork node
  0
LINE
  5
1C1
100
AcDbEntity
  8
0
 62
     0
370
    -2
100
AcDbLine
 10
-0.5
 20
-0.28867513
 30
0.0
 11
0.5
 21
-0.28867513
 31
0.0
  0
LINE
  5
1C2
100
AcDbEntity
  8
0
 62
     0
370
    -2
100
AcDbLine
 10
0.5
 20
-0.28867513
 30
0.0
 11
0.0
 21
0.57735027
 31
0.0
  0
LINE
  5
1C3
100
AcDbEntity
  8
0
 62
     0
370
    -2
100
AcDbLine
 10
0.0
 20
0.57735027
 30
0.0
 11
-0.5
 21
-0.28867513
 31
0.0
  0
CIRCLE
  5
1C4
100
AcDbEntity
  8
0
 62
     0
370
    -2
100
AcDbCircle
 10
0.0
 20
0.0
 30
0.0
 40
0.28867513
  0
ENDBLK
  5
1C5
100
AcDbEntity
100
AcDbBlockEnd
  0
BLOCK
  5
1C6
100
AcDbEntity
  8
0
100
AcDbBlockBegin
  2
CDWK_PTTYP17
 70
     0
 10
0.0
 20
0.0
 30
0.0
  3
CDWK_PTTYP17
  1

  4
Cadwork node
  0
CIRCLE
  5
1C7
100
AcDbEntity
  8
0
 62
     0
370
    -2
100
AcDbCircle
 10
0.0
 20
0.0
 30
0.0
 40
0.5
  0
HATCH
  5
1C8
100
AcDbEntity
  8
0
 62
     0
370
    -2
100
AcDbHatch
 10
0.0
 20
0.0
 30
0.0
210
0.0
220
0.0
230
1.0
  2
SOLID
 70
     1
 71
     0
 91
        1
 92
        1
 93
        1
 72
     2
 10
0.0
 20
0.0
 40
0.25
 50
0.0
 51
360.0
 73
     1
 97
        0
 75
     0
 76
     1
 98
        1
 10
0.0
 20
0.0
  0
ENDBLK
  5
1C9
100
AcDbEntity
100
AcDbBlockEnd
  0
BLOCK
  5
1CA
100
AcDbEntity
  8
0
100
AcDbBlockBegin
  2
CDWK_PTTYP18
 70
     0
 10
0.0
 20
0.0
 30
0.0
  3
CDWK_PTTYP18
  1

  4
Cadwork node
  0
CIRCLE
  5
1CB
100
AcDbEntity
  8
0
 62
     0
370
    -2
100
AcDbCircle
 10
0.0
 20
0.0
 30
0.0
 40
0.5
  0
CIRCLE
  5
1CC
100
AcDbEntity
  8
0
 62
     0
370
    -2
100
AcDbCircle
 10
0.0
 20
0.0
 30
0.0
 40
0.2
  0
ENDBLK
  5
1CD
100
AcDbEntity
100
AcDbBlockEnd
  0
BLOCK
  5
1CE
100
AcDbEntity
  8
0
100
AcDbBlockBegin
  2
CDWK_PTTYP19
 70
     0
 10
0.0
 20
0.0
 30
0.0
  3
CDWK_PTTYP19
  1

  4
Cadwork node
  0
CIRCLE
  5
1CF
100
AcDbEntity
  8
0
 62
     0
370
    -2
100
AcDbCircle
 10
0.0
 20
0.0
 30
0.0
 40
0.4
  0
CIRCLE
  5
1D0
100
AcDbEntity
  8
0
 62
     0
370
    -2
100
AcDbCircle
 10
0.0
 20
0.0
 30
0.0
 40
0.25
  0
LINE
  5
1D1
100
AcDbEntity
  8
0
 62
     0
370
    -2
100
AcDbLine
 10
-0.25
 20
0.0
 30
0.0
 11
0.25
 21
0.0
 31
0.0
  0
ENDBLK
  5
1D2
100
AcDbEntity
100
AcDbBlockEnd
  0
BLOCK
  5
1D3
100
AcDbEntity
  8
0
100
AcDbBlockBegin
  2
CDWK_PTTYP20
 70
     0
 10
0.0
 20
0.0
 30
0.0
  3
CDWK_PTTYP20
  1

  4
Cadwork node
  0
CIRCLE
  5
1D4
100
AcDbEntity
  8
0
 62
     0
370
    -2
100
AcDbCircle
 10
0.0
 20
0.0
 30
0.0
 40
0.5
  0
CIRCLE
  5
1D5
100
AcDbEntity
  8
0
 62
     0
370
    -2
100
AcDbCircle
 10
0.0
 20
0.0
 30
0.0
 40
0.3
  0
ENDBLK
  5
1D6
100
AcDbEntity
100
AcDbBlockEnd
  0
BLOCK
  5
1D7
100
AcDbEntity
  8
0
100
AcDbBlockBegin
  2
CDWK_PTTYP21
 70
     0
 10
0.0
 20
0.0
 30
0.0
  3
CDWK_PTTYP21
  1

  4
Cadwork node
  0
CIRCLE
  5
1D8
100
AcDbEntity
  8
0
 62
     0
370
    -2
100
AcDbCircle
 10
0.0
 20
0.0
 30
0.0
 40
0.5
  0
LINE
  5
1D9
100
AcDbEntity
  8
0
 62
     0
370
    -2
100
AcDbLine
 10
-0.5
 20
0.0
 30
0.0
 11
0.5
 21
0.0
 31
0.0
  0
ENDBLK
  5
1DA
100
AcDbEntity
100
AcDbBlockEnd
  0
BLOCK
  5
1DB
100
AcDbEntity
  8
0
100
AcDbBlockBegin
  2
CDWK_PTTYP22
 70
     0
 10
0.0
 20
0.0
 30
0.0
  3
CDWK_PTTYP22
  1

  4
Cadwork node
  0
POINT
  5
1DC
100
AcDbEntity
  8
0
 62
     0
100
AcDbPoint
 10
0.0
 20
0.0
 30
0.0
  0
ENDBLK
  5
1DD
100
AcDbEntity
100
AcDbBlockEnd
  0
BLOCK
  5
1DE
100
AcDbEntity
  8
0
100
AcDbBlockBegin
  2
CDWK_PTTYP23
 70
     0
 10
0.0
 20
0.0
 30
0.0
  3
CDWK_PTTYP23
  1

  4
Cadwork node
  0
POINT
  5
1DF
100
AcDbEntity
  8
0
 62
     0
100
AcDbPoint
 10
0.0
 20
0.0
 30
0.0
  0
ENDBLK
  5
1E0
100
AcDbEntity
100
AcDbBlockEnd
  0
BLOCK
  5
1E1
100
AcDbEntity
  8
0
100
AcDbBlockBegin
  2
CDWK_PTTYP24
 70
     0
 10
0.0
 20
0.0
 30
0.0
  3
CDWK_PTTYP24
  1

  4
Cadwork node
  0
POINT
  5
1E2
100
AcDbEntity
  8
0
 62
     0
100
AcDbPoint
 10
0.0
 20
0.0
 30
0.0
  0
ENDBLK
  5
1E3
100
AcDbEntity
100
AcDbBlockEnd
  0
BLOCK
  5
1E4
100
AcDbEntity
  8
0
100
AcDbBlockBegin
  2
CDWK_PTTYP25
 70
     0
 10
0.0
 20
0.0
 30
0.0
  3
CDWK_PTTYP25
  1

  4
Cadwork node
  0
LINE
  5
1E5
100
AcDbEntity
  8
0
 62
     0
370
    -2
100
AcDbLine
 10
-0.43290044
 20
-0.25
 30
0.0
 11
0.43290044
 21
-0.25
 31
0.0
  0
LINE
  5
1E6
100
AcDbEntity
  8
0
 62
     0
370
    -2
100
AcDbLine
 10
-0.43290044
 20
-0.25
 30
0.0
 11
0.0
 21
0.5
 31
0.0
  0
LINE
  5
1E7
100
AcDbEntity
  8
0
 62
     0
370
    -2
100
AcDbLine
 10
0.43290044
 20
-0.25
 30
0.0
 11
0.0
 21
0.5
 31
0.0
  0
CIRCLE
  5
1E8
100
AcDbEntity
  8
0
 62
     0
370
    -2
100
AcDbCircle
 10
0.0
 20
0.0
 30
0.0
 40
0.5
  0
ENDBLK
  5
1E9
100
AcDbEntity
100
AcDbBlockEnd
  0
BLOCK
  5
1EA
100
AcDbEntity
  8
0
100
AcDbBlockBegin
  2
CDWK_PTTYP26
 70
     0
 10
0.0
 20
0.0
 30
0.0
  3
CDWK_PTTYP26
  1

  4
Cadwork node
  0
LINE
  5
1EB
100
AcDbEntity
  8
0
 62
     0
370
    -2
100
AcDbLine
 10
-0.5
 20
-0.28850001
 30
0.0
 11
0.5
 21
-0.28850001
 31
0.0
  0
LINE
  5
1EC
100
AcDbEntity
  8
0
 62
     0
370
    -2
100
AcDbLine
 10
-0.5
 20
-0.28850001
 30
0.0
 11
0.0
 21
0.57736721
 31
0.0
  0
LINE
  5
1ED
100
AcDbEntity
  8
0
 62
     0
370
    -2
100
AcDbLine
 10
0.5
 20
-0.28850001
 30
0.0
 11
0.0
 21
0.57736721
 31
0.0
  0
CIRCLE
  5
1EE
100
AcDbEntity
  8
0
 62
     0
370
    -2
100
AcDbCircle
 10
0.0
 20
0.0
 30
0.0
 40
0.1312336
  0
ENDBLK
  5
1EF
100
AcDbEntity
100
AcDbBlockEnd
  0
BLOCK
  5
1F0
100
AcDbEntity
  8
0
100
AcDbBlockBegin
  2
CDWK_PTTYP27
 70
     0
 10
0.0
 20
0.0
 30
0.0
  3
CDWK_PTTYP27
  1

  4
Cadwork node
  0
LINE
  5
1F1
100
AcDbEntity
  8
0
 62
     0
370
    -2
100
AcDbLine
 10
-0.43290044
 20
-0.25
 30
0.0
 11
0.43290044
 21
-0.25
 31
0.0
  0
LINE
  5
1F2
100
AcDbEntity
  8
0
 62
     0
370
    -2
100
AcDbLine
 10
-0.43290044
 20
-0.25
 30
0.0
 11
0.0
 21
0.5
 31
0.0
  0
LINE
  5
1F3
100
AcDbEntity
  8
0
 62
     0
370
    -2
100
AcDbLine
 10
0.43290044
 20
-0.25
 30
0.0
 11
0.0
 21
0.5
 31
0.0
  0
CIRCLE
  5
1F4
100
AcDbEntity
  8
0
 62
     0
370
    -2
100
AcDbCircle
 10
0.0
 20
0.0
 30
0.0
 40
0.5
  0
CIRCLE
  5
1F5
100
AcDbEntity
  8
0
 62
     0
370
    -2
100
AcDbCircle
 10
0.0
 20
0.0
 30
0.0
 40
0.1312336
  0
ENDBLK
  5
1F6
100
AcDbEntity
100
AcDbBlockEnd
  0
BLOCK
  5
1F7
100
AcDbEntity
  8
0
100
AcDbBlockBegin
  2
CDWK_PTTYP28
 70
     0
 10
0.0
 20
0.0
 30
0.0
  3
CDWK_PTTYP28
  1

  4
Cadwork node
  0
POINT
  5
1F8
100
AcDbEntity
  8
0
 62
     0
100
AcDbPoint
 10
0.0
 20
0.0
 30
0.0
  0
ENDBLK
  5
1F9
100
AcDbEntity
100
AcDbBlockEnd
  0
BLOCK
  5
1FA
100
AcDbEntity
  8
0
100
AcDbBlockBegin
  2
CDWK_PTTYP29
 70
     0
 10
0.0
 20
0.0
 30
0.0
  3
CDWK_PTTYP29
  1

  4
Cadwork node
  0
CIRCLE
  5
1FB
100
AcDbEntity
  8
0
 62
     0
370
    -2
100
AcDbCircle
 10
0.0
 20
0.0
 30
0.0
 40
0.5
  0
CIRCLE
  5
1FC
100
AcDbEntity
  8
0
 62
     0
370
    -2
100
AcDbCircle
 10
0.0
 20
0.0
 30
0.0
 40
0.375
  0
CIRCLE
  5
1FD
100
AcDbEntity
  8
0
 62
     0
370
    -2
100
AcDbCircle
 10
0.0
 20
0.0
 30
0.0
 40
0.21875
  0
ENDBLK
  5
1FE
100
AcDbEntity
100
AcDbBlockEnd
  0
BLOCK
  5
1FF
100
AcDbEntity
  8
0
100
AcDbBlockBegin
  2
CDWK_PTTYP30
 70
     0
 10
0.0
 20
0.0
 30
0.0
  3
CDWK_PTTYP30
  1

  4
Cadwork node
  0
LINE
  5
200
100
AcDbEntity
  8
0
 62
     0
370
    -2
100
AcDbLine
 10
0.17680339
 20
0.17680339
 30
0.0
 11
0.5
 21
0.5
 31
0.0
  0
LINE
  5
201
100
AcDbEntity
  8
0
 62
     0
370
    -2
100
AcDbLine
 10
-0.17680339
 20
0.17680339
 30
0.0
 11
-0.5
 21
0.5
 31
0.0
  0
LINE
  5
202
100
AcDbEntity
  8
0
 62
     0
370
    -2
100
AcDbLine
 10
0.17680339
 20
-0.17680339
 30
0.0
 11
0.5
 21
-0.5
 31
0.0
  0
LINE
  5
203
100
AcDbEntity
  8
0
 62
     0
370
    -2
100
AcDbLine
 10
-0.17680339
 20
-0.17680339
 30
0.0
 11
-0.5
 21
-0.5
 31
0.0
  0
ENDBLK
  5
204
100
AcDbEntity
100
AcDbBlockEnd
  0
BLOCK
  5
205
100
AcDbEntity
  8
0
100
AcDbBlockBegin
  2
CDWK_PTTYP31
 70
     0
 10
0.0
 20
0.0
 30
0.0
  3
CDWK_PTTYP31
  1

  4
Cadwork node
  0
CIRCLE
  5
206
100
AcDbEntity
  8
0
 62
     0
370
    -2
100
AcDbCircle
 10
0.0
 20
0.0
 30
0.0
 40
0.075
  0
LINE
  5
207
100
AcDbEntity
  8
0
 62
     0
370
    -2
100
AcDbLine
 10
0.075
 20
0.0
 30
0.0
 11
0.5
 21
0.0
 31
0.0
  0
LINE
  5
208
100
AcDbEntity
  8
0
 62
     0
370
    -2
100
AcDbLine
 10
-0.075
 20
0.0
 30
0.0
 11
-0.5
 21
0.0
 31
0.0
  0
LINE
  5
209
100
AcDbEntity
  8
0
 62
     0
370
    -2
100
AcDbLine
 10
0.0
 20
0.075
 30
0.0
 11
0.0
 21
0.5
 31
0.0
  0
LINE
  5
20A
100
AcDbEntity
  8
0
 62
     0
370
    -2
100
AcDbLine
 10
0.0
 20
-0.075
 30
0.0
 11
0.0
 21
-0.5
 31
0.0
  0
ENDBLK
  5
20B
100
AcDbEntity
100
AcDbBlockEnd
  0
BLOCK
  5
20C
100
AcDbEntity
  8
0
100
AcDbBlockBegin
  2
CDWK_PTTYP32
 70
     0
 10
0.0
 20
0.0
 30
0.0
  3
CDWK_PTTYP32
  1

  4
Cadwork node
  0
CIRCLE
  5
20D
100
AcDbEntity
  8
0
 62
     0
370
    -2
100
AcDbCircle
 10
0.0
 20
0.0
 30
0.0
 40
0.5
  0
CIRCLE
  5
20E
100
AcDbEntity
  8
0
 62
     0
370
    -2
100
AcDbCircle
 10
0.0
 20
0.0
 30
0.0
 40
0.16666667
  0
LINE
  5
20F
100
AcDbEntity
  8
0
 62
     0
370
    -2
100
AcDbLine
 10
0.11786893
 20
0.11786893
 30
0.0
 11
0.35360678
 21
0.35360678
 31
0.0
  0
LINE
  5
210
100
AcDbEntity
  8
0
 62
     0
370
    -2
100
AcDbLine
 10
-0.11786893
 20
0.11786893
 30
0.0
 11
-0.35360678
 21
0.35360678
 31
0.0
  0
LINE
  5
211
100
AcDbEntity
  8
0
 62
     0
370
    -2
100
AcDbLine
 10
0.11786893
 20
-0.11786893
 30
0.0
 11
0.35360678
 21
-0.35360678
 31
0.0
  0
LINE
  5
212
100
AcDbEntity
  8
0
 62
     0
370
    -2
100
AcDbLine
 10
-0.11786893
 20
-0.11786893
 30
0.0
 11
-0.35360678
 21
-0.35360678
 31
0.0
  0
ENDBLK
  5
213
100
AcDbEntity
100
AcDbBlockEnd
  0
BLOCK
  5
214
100
AcDbEntity
  8
0
100
AcDbBlockBegin
  2
CDWK_PTTYP33
 70
     0
 10
0.0
 20
0.0
 30
0.0
  3
CDWK_PTTYP33
  1

  4
Cadwork node
  0
CIRCLE
  5
215
100
AcDbEntity
  8
0
 62
     0
370
    -2
100
AcDbCircle
 10
0.0
 20
0.0
 30
0.0
 40
0.5
  0
LINE
  5
216
100
AcDbEntity
  8
0
 62
     0
370
    -2
100
AcDbLine
 10
0.0
 20
0.5
 30
0.0
 11
0.0
 21
-0.5
 31
0.0
  0
LINE
  5
217
100
AcDbEntity
  8
0
 62
     0
370
    -2
100
AcDbLine
 10
-0.5
 20
0.0
 30
0.0
 11
0.5
 21
0.0
 31
0.0
  0
ENDBLK
  5
218
100
AcDbEntity
100
AcDbBlockEnd
  0
BLOCK
  5
219
100
AcDbEntity
  8
0
100
AcDbBlockBegin
  2
CDWK_PTTYP34
 70
     0
 10
0.0
 20
0.0
 30
0.0
  3
CDWK_PTTYP34
  1

  4
Cadwork node
  0
CIRCLE
  5
21A
100
AcDbEntity
  8
0
 62
     0
370
    -2
100
AcDbCircle
 10
0.0
 20
0.0
 30
0.0
 40
0.5
  0
LINE
  5
21B
100
AcDbEntity
  8
0
 62
     0
370
    -2
100
AcDbLine
 10
-0.30360678
 20
-0.40360678
 30
0.0
 11
0.40360678
 21
0.30360678
 31
0.0
  0
LINE
  5
21C
100
AcDbEntity
  8
0
 62
     0
370
    -2
100
AcDbLine
 10
-0.40360678
 20
-0.30360678
 30
0.0
 11
0.30360678
 21
0.40360678
 31
0.0
  0
ENDBLK
  5
21D
100
AcDbEntity
100
AcDbBlockEnd
  0
BLOCK
  5
21E
100
AcDbEntity
  8
0
100
AcDbBlockBegin
  2
CDWK_PTTYP35
 70
     0
 10
0.0
 20
0.0
 30
0.0
  3
CDWK_PTTYP35
  1

  4
Cadwork node
  0
CIRCLE
  5
21F
100
AcDbEntity
  8
0
 62
     0
370
    -2
100
AcDbCircle
 10
0.0
 20
0.0
 30
0.0
 40
0.21431634
  0
LINE
  5
220
100
AcDbEntity
  8
0
 62
     0
370
    -2
100
AcDbLine
 10
0.0
 20
0.21431634
 30
0.0
 11
0.0
 21
0.5
 31
0.0
  0
LINE
  5
221
100
AcDbEntity
  8
0
 62
     0
370
    -2
100
AcDbLine
 10
0.0
 20
-0.21431634
 30
0.0
 11
0.0
 21
-0.5
 31
0.0
  0
ENDBLK
  5
222
100
AcDbEntity
100
AcDbBlockEnd
  0
BLOCK
  5
223
100
AcDbEntity
  8
0
100
AcDbBlockBegin
  2
CDWK_PTTYP36
 70
     0
 10
0.0
 20
0.0
 30
0.0
  3
CDWK_PTTYP36
  1

  4
Cadwork node
  0
LINE
  5
224
100
AcDbEntity
  8
0
 62
     0
370
    -2
100
AcDbLine
 10
-0.5
 20
-0.16666667
 30
0.0
 11
0.5
 21
-0.16666667
 31
0.0
  0
LINE
  5
225
100
AcDbEntity
  8
0
 62
     0
370
    -2
100
AcDbLine
 10
0.5
 20
-0.16666667
 30
0.0
 11
0.5
 21
0.16666667
 31
0.0
  0
LINE
  5
226
100
AcDbEntity
  8
0
 62
     0
370
    -2
100
AcDbLine
 10
0.5
 20
0.16666667
 30
0.0
 11
-0.5
 21
0.16666667
 31
0.0
  0
LINE
  5
227
100
AcDbEntity
  8
0
 62
     0
370
    -2
100
AcDbLine
 10
-0.5
 20
0.16666667
 30
0.0
 11
-0.5
 21
-0.16666667
 31
0.0
  0
SOLID
  5
228
100
AcDbEntity
  8
0
 62
     0
100
AcDbTrace
 10
-0.5
 20
-0.16666667
 11
0.5
 21
0.16666667
 12
0.5
 22
-0.16666667
 13
0.5
 23
-0.16666667
  0
ENDBLK
  5
229
100
AcDbEntity
100
AcDbBlockEnd
  0
BLOCK
  5
22A
100
AcDbEntity
  8
0
100
AcDbBlockBegin
  2
CDWK_PTTYP37
 70
     0
 10
0.0
 20
0.0
 30
0.0
  3
CDWK_PTTYP37
  1

  4
Cadwork node
  0
CIRCLE
  5
22B
100
AcDbEntity
  8
0
 62
     0
370
    -2
100
AcDbCircle
 10
0.0
 20
0.0
 30
0.0
 40
0.5
  0
SOLID
  5
22C
100
AcDbEntity
  8
0
 62
     0
100
AcDbTrace
 10
0.0
 20
0.0
 11
0.35350001
 21
0.35350001
 12
0.5
 22
0.0
 13
0.46200001
 23
0.19149999
  0
SOLID
  5
22D
100
AcDbEntity
  8
0
 62
     0
100
AcDbTrace
 10
0.0
 20
0.0
 11
0.35350001
 21
-0.35350001
 12
0.5
 22
0.0
 13
0.46200001
 23
-0.19149999
  0
SOLID
  5
22E
100
AcDbEntity
  8
0
 62
     0
100
AcDbTrace
 10
0.0
 20
0.0
 11
0.0
 21
-0.5
 12
0.35350001
 22
-0.35350001
 13
0.19149999
 23
-0.46200001
  0
SOLID
  5
22F
100
AcDbEntity
  8
0
 62
     0
100
AcDbTrace
 10
0.0
 20
0.0
 11
0.0
 21
-0.5
 12
-0.35350001
 22
-0.35350001
 13
-0.19149999
 23
-0.46200001
  0
ENDBLK
  5
230
100
AcDbEntity
100
AcDbBlockEnd
  0
BLOCK
  5
231
100
AcDbEntity
  8
0
100
AcDbBlockBegin
  2
CDWK_PTTYP38
 70
     0
 10
0.0
 20
0.0
 30
0.0
  3
CDWK_PTTYP38
  1

  4
Cadwork node
  0
CIRCLE
  5
232
100
AcDbEntity
  8
0
 62
     0
370
    -2
100
AcDbCircle
 10
0.0
 20
0.0
 30
0.0
 40
0.5
  0
SOLID
  5
233
100
AcDbEntity
  8
0
 62
     0
100
AcDbTrace
 10
0.0
 20
0.0
 11
0.35350001
 21
0.35350001
 12
0.0
 22
0.5
 13
0.19149999
 23
0.46200001
  0
SOLID
  5
234
100
AcDbEntity
  8
0
 62
     0
100
AcDbTrace
 10
0.0
 20
0.0
 11
0.5
 21
0.0
 12
0.35350001
 22
0.35350001
 13
0.46200001
 23
0.19149999
  0
SOLID
  5
235
100
AcDbEntity
  8
0
 62
     0
100
AcDbTrace
 10
0.0
 20
0.0
 11
0.0
 21
-0.5
 12
-0.35350001
 22
-0.35350001
 13
-0.19149999
 23
-0.46200001
  0
SOLID
  5
236
100
AcDbEntity
  8
0
 62
     0
100
AcDbTrace
 10
0.0
 20
0.0
 11
-0.5
 21
0.0
 12
-0.35350001
 22
-0.35350001
 13
-0.46200001
 23
-0.19149999
  0
ENDBLK
  5
237
100
AcDbEntity
100
AcDbBlockEnd
  0
BLOCK
  5
238
100
AcDbEntity
  8
Ech.1_5
100
AcDbBlockBegin
  2
*X1
 70
     1
 10
0.0
 20
0.0
 30
0.0
  3
*X1
  1

  4
Cadwork hatch
  0
LINE
  5
239
100
AcDbEntity
  8
Ech.1_5
 62
   190
  6
CONTINUOUS
370
    -2
100
AcDbLine
 10
35111.63101644
 20
-24274.29506908
 30
0.0
 11
35071.62908886
 21
-24301.29525708
 31
0.0
  0
LINE
  5
23A
100
AcDbEntity
  8
Ech.1_5
 62
   190
  6
CONTINUOUS
370
    -2
100
AcDbLine
 10
35071.62908886
 20
-24274.29506908
 30
0.0
 11
35111.63101644
 21
-24301.29525708
 31
0.0
  0
ENDBLK
  5
23B
100
AcDbEntity
100
AcDbBlockEnd
  0
BLOCK
  5
23C
100
AcDbEntity
  8
Ech.1_5
100
AcDbBlockBegin
  2
*X2
 70
     1
 10
0.0
 20
0.0
 30
0.0
  3
*X2
  1

  4
Cadwork hatch
  0
LINE
  5
23D
100
AcDbEntity
  8
Ech.1_5
 62
   190
  6
CONTINUOUS
370
    -2
100
AcDbLine
 10
34868.1316658
 20
-24274.29506908
 30
0.0
 11
34828.13344863
 21
-24301.29525708
 31
0.0
  0
LINE
  5
23E
100
AcDbEntity
  8
Ech.1_5
 62
   190
  6
CONTINUOUS
370
    -2
100
AcDbLine
 10
34828.13344863
 20
-24274.29506908
 30
0.0
 11
34868.1316658
 21
-24301.29525708
 31
0.0
  0
ENDBLK
  5
23F
100
AcDbEntity
100
AcDbBlockEnd
  0
BLOCK
  5
240
100
AcDbEntity
  8
Ech.1_5
100
AcDbBlockBegin
  2
*X3
 70
     1
 10
0.0
 20
0.0
 30
0.0
  3
*X3
  1

  4
Cadwork hatch
  0
LINE
  5
241
100
AcDbEntity
  8
Ech.1_5
 62
   190
  6
CONTINUOUS
370
    -2
100
AcDbLine
 10
35111.63101644
 20
-24274.29506908
 30
0.0
 11
35071.62908886
 21
-24301.29525708
 31
0.0
  0
LINE
  5
242
100
AcDbEntity
  8
Ech.1_5
 62
   190
  6
CONTINUOUS
370
    -2
100
AcDbLine
 10
35071.62908886
 20
-24274.29506908
 30
0.0
 11
35111.63101644
 21
-24301.29525708
 31
0.0
  0
ENDBLK
  5
243
100
AcDbEntity
100
AcDbBlockEnd
  0
BLOCK
  5
244
100
AcDbEntity
  8
Ech.1_5
100
AcDbBlockBegin
  2
*X4
 70
     1
 10
0.0
 20
0.0
 30
0.0
  3
*X4
  1

  4
Cadwork hatch
  0
LINE
  5
245
100
AcDbEntity
  8
Ech.1_5
 62
   190
  6
CONTINUOUS
370
    -2
100
AcDbLine
 10
35118.62884924
 20
-24301.29525708
 30
0.0
 11
35073.62899972
 21
-24381.29540182
 31
0.0
  0
LINE
  5
246
100
AcDbEntity
  8
Ech.1_5
 62
   190
  6
CONTINUOUS
370
    -2
100
AcDbLine
 10
35073.62899972
 20
-24301.29525708
 30
0.0
 11
35118.62884924
 21
-24381.29540182
 31
0.0
  0
ENDBLK
  5
247
100
AcDbEntity
100
AcDbBlockEnd
  0
BLOCK
  5
248
100
AcDbEntity
  8
Ech.1_5
100
AcDbBlockBegin
  2
*X5
 70
     1
 10
0.0
 20
0.0
 30
0.0
  3
*X5
  1

  4
Cadwork hatch
  0
LINE
  5
249
100
AcDbEntity
  8
Ech.1_5
 62
   190
  6
CONTINUOUS
370
    -2
100
AcDbLine
 10
34868.1316658
 20
-24274.29506908
 30
0.0
 11
34828.13344863
 21
-24301.29525708
 31
0.0
  0
LINE
  5
24A
100
AcDbEntity
  8
Ech.1_5
 62
   190
  6
CONTINUOUS
370
    -2
100
AcDbLine
 10
34828.13344863
 20
-24274.29506908
 30
0.0
 11
34868.1316658
 21
-24301.29525708
 31
0.0
  0
ENDBLK
  5
24B
100
AcDbEntity
100
AcDbBlockEnd
  0
BLOCK
  5
24C
100
AcDbEntity
  8
Ech.1_5
100
AcDbBlockBegin
  2
*X6
 70
     1
 10
0.0
 20
0.0
 30
0.0
  3
*X6
  1

  4
Cadwork hatch
  0
LINE
  5
24D
100
AcDbEntity
  8
Ech.1_5
 62
   190
  6
CONTINUOUS
370
    -2
100
AcDbLine
 10
34893.13611714
 20
-24301.29525708
 30
0.0
 11
34828.13344863
 21
-24381.29540182
 31
0.0
  0
LINE
  5
24E
100
AcDbEntity
  8
Ech.1_5
 62
   190
  6
CONTINUOUS
370
    -2
100
AcDbLine
 10
34828.13344863
 20
-24301.29525708
 30
0.0
 11
34893.13611714
 21
-24381.29540182
 31
0.0
  0
ENDBLK
  5
24F
100
AcDbEntity
100
AcDbBlockEnd
  0
BLOCK
  5
250
100
AcDbEntity
  8
Ech.1_5
100
AcDbBlockBegin
  2
*D9
 70
     1
 10
0.0
 20
0.0
 30
0.0
  3
*D9
  1

  4
Cadwork dimension
  0
TEXT
  5
251
100
AcDbEntity
  8
Ech.1_5
 62
   190
370
    18
100
AcDbText
 10
35723.17517091
 20
-24505.55042268
 30
0.0
 40
25.0
  1
2/3*
  7
ARIAL
 50
89.9999975
 41
1.0
 51
0.0
100
AcDbText
  0
LINE
  5
252
100
AcDbEntity
  8
Ech.1_5
 62
   190
370
    -2
100
AcDbLine
 10
35733.17517091
 20
-24381.29528523
 30
0.0
 11
35697.2562394
 21
-24381.29528523
 31
0.0
  0
LINE
  5
253
100
AcDbEntity
  8
Ech.1_5
 62
   190
370
    -2
100
AcDbLine
 10
35733.17517091
 20
-24601.29528523
 30
0.0
 11
35697.25635682
 21
-24601.29528523
 31
0.0
  0
LINE
  5
254
100
AcDbEntity
  8
Ech.1_5
 62
   190
370
    -2
100
AcDbLine
 10
35728.17517091
 20
-24376.29528523
 30
0.0
 11
35728.17517091
 21
-24606.29528523
 31
0.0
  0
LINE
  5
255
100
AcDbEntity
  8
Ech.1_5
 62
   190
370
    -2
100
AcDbLine
 10
35725.67517091
 20
-24378.79528523
 30
0.0
 11
35730.67517091
 21
-24383.79528523
 31
0.0
  0
LINE
  5
256
100
AcDbEntity
  8
Ech.1_5
 62
   190
370
    -2
100
AcDbLine
 10
35725.67517091
 20
-24598.79528523
 30
0.0
 11
35730.67517091
 21
-24603.79528523
 31
0.0
  0
ENDBLK
  5
257
100
AcDbEntity
100
AcDbBlockEnd
  0
BLOCK
  5
258
100
AcDbEntity
  8
Ech.1_5
100
AcDbBlockBegin
  2
*D10
 70
     1
 10
0.0
 20
0.0
 30
0.0
  3
*D10
  1

  4
Cadwork dimension
  0
TEXT
  5
259
100
AcDbEntity
  8
Ech.1_5
 62
   190
370
    18
100
AcDbText
 10
35723.17517091
 20
-24691.30039396
 30
0.0
 40
25.0
  1
1/3*
  7
ARIAL
 50
89.9999975
 41
1.0
 51
0.0
100
AcDbText
  0
LINE
  5
25A
100
AcDbEntity
  8
Ech.1_5
 62
   190
370
    -2
100
AcDbLine
 10
35733.17517091
 20
-24601.29528523
 30
0.0
 11
35697.25635682
 21
-24601.29528523
 31
0.0
  0
LINE
  5
25B
100
AcDbEntity
  8
Ech.1_5
 62
   190
370
    -2
100
AcDbLine
 10
35733.17517091
 20
-24752.7952278
 30
0.0
 11
35697.25635682
 21
-24752.7952278
 31
0.0
  0
LINE
  5
25C
100
AcDbEntity
  8
Ech.1_5
 62
   190
370
    -2
100
AcDbLine
 10
35728.17517091
 20
-24596.29528523
 30
0.0
 11
35728.17517091
 21
-24757.7952278
 31
0.0
  0
LINE
  5
25D
100
AcDbEntity
  8
Ech.1_5
 62
   190
370
    -2
100
AcDbLine
 10
35725.67517091
 20
-24598.79528523
 30
0.0
 11
35730.67517091
 21
-24603.79528523
 31
0.0
  0
LINE
  5
25E
100
AcDbEntity
  8
Ech.1_5
 62
   190
370
    -2
100
AcDbLine
 10
35725.67517091
 20
-24750.2952278
 30
0.0
 11
35730.67517091
 21
-24755.2952278
 31
0.0
  0
ENDBLK
  5
25F
100
AcDbEntity
100
AcDbBlockEnd
  0
ENDSEC
  0
SECTION
  2
ENTITIES
  0
INSERT
  5
260
100
AcDbEntity
  8
Ech.1_5
 62
     0
370
    -3
100
AcDbBlockReference
  2
*X1
 10
0.0
 20
0.0
 30
0.0
  0
INSERT
  5
261
100
AcDbEntity
  8
Ech.1_5
 62
     0
370
    -3
100
AcDbBlockReference
  2
*X2
 10
0.0
 20
0.0
 30
0.0
  0
INSERT
  5
262
100
AcDbEntity
  8
Ech.1_5
 62
     0
370
    -3
100
AcDbBlockReference
  2
*X3
 10
0.0
 20
0.0
 30
0.0
  0
INSERT
  5
263
100
AcDbEntity
  8
Ech.1_5
 62
     0
370
    -3
100
AcDbBlockReference
  2
*X4
 10
0.0
 20
0.0
 30
0.0
  0
INSERT
  5
264
100
AcDbEntity
  8
Ech.1_5
 62
     0
370
    -3
100
AcDbBlockReference
  2
*X5
 10
0.0
 20
0.0
 30
0.0
  0
INSERT
  5
265
100
AcDbEntity
  8
Ech.1_5
 62
     0
370
    -3
100
AcDbBlockReference
  2
*X6
 10
0.0
 20
0.0
 30
0.0
  0
LWPOLYLINE
  5
266
100
AcDbEntity
  8
Ech.1_5
 62
   190
  6
CONTINUOUS
370
    -3
100
AcDbPolyline
 90
        4
 70
     1
 43
0.0
 10
35111.62986166
 20
-24274.29528523
 10
35071.62986166
 20
-24274.29528523
 10
35071.62986166
 20
-24301.29528523
 10
35111.62986166
 20
-24301.29528523
  0
LWPOLYLINE
  5
267
100
AcDbEntity
  8
Ech.1_5
 62
   190
100
AcDbPolyline
 90
        5
 70
     0
 43
0.0
 10
34645.79225443
 20
-25054.7812077
 10
34780.22103342
 20
-25054.7812077
 10
34780.22103342
 20
-25111.50416652
 10
34645.79225443
 20
-25111.50416652
 10
34645.79225443
 20
-25054.7812077
  0
LWPOLYLINE
  5
268
100
AcDbEntity
  8
Ech.1_5
 62
   190
100
AcDbPolyline
 90
        5
 70
     0
 43
0.0
 10
34664.07230022
 20
-25088.43801883
 10
34714.07230022
 20
-25088.43801883
 10
34714.07230022
 20
-25081.0228813
 10
34664.07230022
 20
-25081.0228813
 10
34664.07230022
 20
-25088.43801883
  0
HATCH
  5
269
100
AcDbEntity
  8
Ech.1_5
 62
   190
100
AcDbHatch
 10
0.0
 20
0.0
 30
0.0
210
0.0
220
0.0
230
1.0
  2
SOLID
 70
     1
 71
     0
 91
        1
 92
        7
 72
     0
 73
     1
 93
        4
 10
34664.07230022
 20
-25088.43801883
 10
34714.07230022
 20
-25088.43801883
 10
34714.07230022
 20
-25081.0228813
 10
34664.07230022
 20
-25081.0228813
 97
        0
 75
     0
 76
     2
 47
0.775229
 98
        1
 10
0.0
 20
0.0
  0
LWPOLYLINE
  5
26A
100
AcDbEntity
  8
Ech.1_5
 62
   190
100
AcDbPolyline
 90
        5
 70
     0
 43
0.0
 10
34714.07230022
 20
-25088.43801883
 10
34764.07230022
 20
-25088.43801883
 10
34764.07230022
 20
-25081.0228813
 10
34714.07230022
 20
-25081.0228813
 10
34714.07230022
 20
-25088.43801883
  0
LWPOLYLINE
  5
26B
100
AcDbEntity
  8
Ech.1_5
 62
   190
  6
CONTINUOUS
370
    -3
100
AcDbPolyline
 90
        4
 70
     1
 43
0.0
 10
35111.62986166
 20
-24274.29528523
 10
35071.62986166
 20
-24274.29528523
 10
35071.62986166
 20
-24301.29528523
 10
35111.62986166
 20
-24301.29528523
  0
LWPOLYLINE
  5
26C
100
AcDbEntity
  8
Ech.1_5
 62
   190
  6
CONTINUOUS
370
    -3
100
AcDbPolyline
 90
        5
 70
     1
 43
0.0
 10
35692.25642911
 20
-24247.29528523
 10
34828.1339906
 20
-24247.29528523
 10
34828.1339906
 20
-24274.29528523
 10
34868.1339906
 20
-24274.29528523
 10
35692.25642911
 20
-24274.29528523
  0
LWPOLYLINE
  5
26D
100
AcDbEntity
  8
Ech.1_5
 62
   190
  6
CONTINUOUS
370
    -3
100
AcDbPolyline
 90
        4
 70
     1
 43
0.0
 10
34868.1339906
 20
-24274.29528523
 10
34828.1339906
 20
-24274.29528523
 10
34828.1339906
 20
-24301.29528523
 10
34868.1339906
 20
-24301.29528523
  0
LWPOLYLINE
  5
26E
100
AcDbEntity
  8
Ech.1_5
 62
   190
  6
CONTINUOUS
370
    -3
100
AcDbPolyline
 90
        4
 70
     1
 43
0.0
 10
34868.1339906
 20
-24274.29528523
 10
34828.1339906
 20
-24274.29528523
 10
34828.1339906
 20
-24301.29528523
 10
34868.1339906
 20
-24301.29528523
  0
LWPOLYLINE
  5
26F
100
AcDbEntity
  8
Ech.1_5
 62
   190
  6
CONTINUOUS
370
    -3
100
AcDbPolyline
 90
        4
 70
     1
 43
0.0
 10
35111.62986166
 20
-24274.29528523
 10
35071.62986166
 20
-24274.29528523
 10
35071.62986166
 20
-24301.29528523
 10
35111.62986166
 20
-24301.29528523
  0
LWPOLYLINE
  5
270
100
AcDbEntity
  8
Ech.1_5
 62
   190
100
AcDbPolyline
 90
        5
 70
     0
 43
0.0
 10
34645.79225443
 20
-25054.7812077
 10
34780.22103342
 20
-25054.7812077
 10
34780.22103342
 20
-25111.50416652
 10
34645.79225443
 20
-25111.50416652
 10
34645.79225443
 20
-25054.7812077
  0
LWPOLYLINE
  5
271
100
AcDbEntity
  8
Ech.1_5
 62
   190
100
AcDbPolyline
 90
        5
 70
     0
 43
0.0
 10
34664.07230022
 20
-25088.43801883
 10
34714.07230022
 20
-25088.43801883
 10
34714.07230022
 20
-25081.0228813
 10
34664.07230022
 20
-25081.0228813
 10
34664.07230022
 20
-25088.43801883
  0
HATCH
  5
272
100
AcDbEntity
  8
Ech.1_5
 62
   190
100
AcDbHatch
 10
0.0
 20
0.0
 30
0.0
210
0.0
220
0.0
230
1.0
  2
SOLID
 70
     1
 71
     0
 91
        1
 92
        7
 72
     0
 73
     1
 93
        4
 10
34664.07230022
 20
-25088.43801883
 10
34714.07230022
 20
-25088.43801883
 10
34714.07230022
 20
-25081.0228813
 10
34664.07230022
 20
-25081.0228813
 97
        0
 75
     0
 76
     2
 47
0.775229
 98
        1
 10
0.0
 20
0.0
  0
LWPOLYLINE
  5
273
100
AcDbEntity
  8
Ech.1_5
 62
   190
100
AcDbPolyline
 90
        5
 70
     0
 43
0.0
 10
34714.07230022
 20
-25088.43801883
 10
34764.07230022
 20
-25088.43801883
 10
34764.07230022
 20
-25081.0228813
 10
34714.07230022
 20
-25081.0228813
 10
34714.07230022
 20
-25088.43801883
  0
LWPOLYLINE
  5
274
100
AcDbEntity
  8
Ech.1_5
 62
   190
  6
CONTINUOUS
370
    -3
100
AcDbPolyline
 90
        4
 70
     1
 43
0.0
 10
35111.62986166
 20
-24274.29528523
 10
35071.62986166
 20
-24274.29528523
 10
35071.62986166
 20
-24301.29528523
 10
35111.62986166
 20
-24301.29528523
  0
LWPOLYLINE
  5
275
100
AcDbEntity
  8
Ech.1_5
 62
   190
  6
CONTINUOUS
370
    -3
100
AcDbPolyline
 90
        4
 70
     1
 43
0.0
 10
35118.62986166
 20
-24301.29528523
 10
35073.62986166
 20
-24301.29528523
 10
35073.62986166
 20
-24381.29528523
 10
35118.62986166
 20
-24381.29528523
  0
LWPOLYLINE
  5
276
100
AcDbEntity
  8
Ech.1_5
 62
   190
  6
CONTINUOUS
370
    -3
100
AcDbPolyline
 90
        4
 70
     1
 43
0.0
 10
35118.62986166
 20
-24301.29528523
 10
35073.62986166
 20
-24301.29528523
 10
35073.62986166
 20
-24381.29528523
 10
35118.62986166
 20
-24381.29528523
  0
LWPOLYLINE
  5
277
100
AcDbEntity
  8
Ech.1_5
 62
   190
  6
CONTINUOUS
370
    -3
100
AcDbPolyline
 90
       14
 70
     1
 43
0.0
 10
34901.43105874
 20
-24218.1392005
 10
34889.65406188
 20
-24218.1392005
 10
34884.27511742
 20
-24230.19453982
 10
34870.61506954
 20
-24230.19453982
 10
34870.61506954
 20
-24218.1392005
 10
34858.83807269
 20
-24218.1392005
 10
34858.83807269
 20
-24230.19453982
 10
34794.25373304
 20
-24230.19453982
 10
34784.75712759
 20
-24239.69114528
 10
34784.75712759
 20
-24363.93684354
 10
34800.4835373
 20
-24363.93684354
 10
34800.4835373
 20
-24250.34499312
 10
34806.29002472
 20
-24244.69453982
 10
34896.05211427
 20
-24244.69453982
  0
LWPOLYLINE
  5
278
100
AcDbEntity
  8
Ech.1_5
 62
   190
  6
CONTINUOUS
370
    -3
100
AcDbPolyline
 90
       21
 70
     1
 43
0.0
 10
34880.97245831
 20
-24187.96269919
 42
-0.5436568
 10
35002.18672587
 20
-24232.95957405
 42
0.35131149
 10
35016.82706574
 20
-24244.69453982
 10
35115.11954849
 20
-24244.69453982
 10
35120.49849295
 20
-24218.1392005
 10
35108.72149609
 20
-24218.1392005
 10
35103.34255163
 20
-24230.19453982
 10
35089.68250376
 20
-24230.19453982
 10
35089.68250376
 20
-24218.1392005
 10
35077.9055069
 20
-24218.1392005
 10
35077.9055069
 20
-24230.19453982
 10
35020.09864484
 20
-24230.19453982
 42
-0.37555118
 10
35012.66565996
 20
-24223.69490767
 42
0.74707677
 10
34840.96161774
 20
-24224.9791734
 10
34837.9663597
 20
-24224.9791734
 10
34837.9663597
 20
-24226.69804528
 10
34855.35937727
 20
-24226.69804528
 42
-0.03525917
 10
34857.26909249
 20
-24216.73115337
 10
34871.84520132
 20
-24216.73115337
 10
34871.84520132
 20
-24226.69804528
 10
34877.24155836
 20
-24226.69804528
  0
LWPOLYLINE
  5
279
100
AcDbEntity
  8
Ech.1_5
 62
   190
  6
CONTINUOUS
370
    -3
100
AcDbPolyline
 90
       21
 70
     1
 43
0.0
 10
35221.25416009
 20
-24232.95957405
 42
0.35131149
 10
35235.89449996
 20
-24244.69453982
 10
35334.1869827
 20
-24244.69453982
 10
35339.56592716
 20
-24218.1392005
 10
35327.78893031
 20
-24218.1392005
 10
35322.40998584
 20
-24230.19453982
 10
35308.74993797
 20
-24230.19453982
 10
35308.74993797
 20
-24218.1392005
 10
35296.97294111
 20
-24218.1392005
 10
35296.97294111
 20
-24230.19453982
 10
35239.16607905
 20
-24230.19453982
 42
-0.37555118
 10
35231.73309417
 20
-24223.69490767
 42
0.74707677
 10
35060.02905195
 20
-24224.9791734
 10
35057.03379391
 20
-24224.9791734
 10
35057.03379391
 20
-24226.69804528
 10
35074.42681148
 20
-24226.69804528
 42
-0.03525917
 10
35076.3365267
 20
-24216.73115337
 10
35090.91263553
 20
-24216.73115337
 10
35090.91263553
 20
-24226.69804528
 10
35096.30899257
 20
-24226.69804528
 10
35100.03989252
 20
-24187.96269919
 42
-0.5436568
  0
LWPOLYLINE
  5
27A
100
AcDbEntity
  8
Ech.1_5
 62
   190
  6
CONTINUOUS
370
    -3
100
AcDbPolyline
 90
       22
 70
     0
 43
0.0
 10
35077.9055069
 20
-24230.19453982
 10
35020.09864484
 20
-24230.19453982
 42
-0.37555118
 10
35012.66565996
 20
-24223.69490767
 42
0.74707677
 10
34840.96161774
 20
-24224.9791734
 10
34837.9663597
 20
-24224.9791734
 10
34837.9663597
 20
-24226.69804528
 10
34855.35937727
 20
-24226.69804528
 42
-0.03525917
 10
34857.26909249
 20
-24216.73115337
 10
34871.84520132
 20
-24216.73115337
 10
34871.84520132
 20
-24226.69804528
 10
34877.24155836
 20
-24226.69804528
 10
34880.97245831
 20
-24187.96269919
 42
-0.5436568
 10
35002.18672587
 20
-24232.95957405
 42
0.35131149
 10
35016.82706574
 20
-24244.69453982
 10
35115.11954849
 20
-24244.69453982
 10
35120.49849295
 20
-24218.1392005
 10
35108.72149609
 20
-24218.1392005
 10
35103.34255163
 20
-24230.19453982
 10
35089.68250376
 20
-24230.19453982
 10
35089.68250376
 20
-24218.1392005
 10
35077.9055069
 20
-24218.1392005
 10
35077.9055069
 20
-24230.19453982
  0
LWPOLYLINE
  5
27B
100
AcDbEntity
  8
Ech.1_5
 62
   190
  6
CONTINUOUS
370
    -3
100
AcDbPolyline
 90
        4
 70
     1
 43
0.0
 10
34868.1339906
 20
-24274.29528523
 10
34828.1339906
 20
-24274.29528523
 10
34828.1339906
 20
-24301.29528523
 10
34868.1339906
 20
-24301.29528523
  0
LWPOLYLINE
  5
27C
100
AcDbEntity
  8
Ech.1_5
 62
   190
  6
CONTINUOUS
370
    -3
100
AcDbPolyline
 90
        4
 70
     1
 43
0.0
 10
34868.1339906
 20
-24274.29528523
 10
34828.1339906
 20
-24274.29528523
 10
34828.1339906
 20
-24301.29528523
 10
34868.1339906
 20
-24301.29528523
  0
LWPOLYLINE
  5
27D
100
AcDbEntity
  8
Ech.1_5
 62
   190
  6
CONTINUOUS
370
    -3
100
AcDbPolyline
 90
       22
 70
     0
 43
0.0
 10
35296.97294111
 20
-24230.19453982
 10
35239.16607905
 20
-24230.19453982
 42
-0.37555118
 10
35231.73309417
 20
-24223.69490767
 42
0.74707677
 10
35060.02905195
 20
-24224.9791734
 10
35057.03379391
 20
-24224.9791734
 10
35057.03379391
 20
-24226.69804528
 10
35074.42681148
 20
-24226.69804528
 42
-0.03525917
 10
35076.3365267
 20
-24216.73115337
 10
35090.91263553
 20
-24216.73115337
 10
35090.91263553
 20
-24226.69804528
 10
35096.30899257
 20
-24226.69804528
 10
35100.03989252
 20
-24187.96269919
 42
-0.5436568
 10
35221.25416009
 20
-24232.95957405
 42
0.35131149
 10
35235.89449996
 20
-24244.69453982
 10
35334.1869827
 20
-24244.69453982
 10
35339.56592716
 20
-24218.1392005
 10
35327.78893031
 20
-24218.1392005
 10
35322.40998584
 20
-24230.19453982
 10
35308.74993797
 20
-24230.19453982
 10
35308.74993797
 20
-24218.1392005
 10
35296.97294111
 20
-24218.1392005
 10
35296.97294111
 20
-24230.19453982
  0
LWPOLYLINE
  5
27E
100
AcDbEntity
  8
Ech.1_5
 62
     5
  6
CONTINUOUS
370
    -3
100
AcDbPolyline
 90
        5
 70
     0
 43
0.0
 10
35071.62986166
 20
-24274.29528523
 10
35111.62986166
 20
-24274.29528523
 10
35111.62986166
 20
-24301.29528523
 10
35071.62986166
 20
-24301.29528523
 10
35071.62986166
 20
-24274.29528523
  0
LWPOLYLINE
  5
27F
100
AcDbEntity
  8
Ech.1_5
 62
     5
  6
CONTINUOUS
370
    -3
100
AcDbPolyline
 90
        5
 70
     0
 43
0.0
 10
35071.62986166
 20
-24274.29528523
 10
35111.62986166
 20
-24274.29528523
 10
35111.62986166
 20
-24301.29528523
 10
35071.62986166
 20
-24301.29528523
 10
35071.62986166
 20
-24274.29528523
  0
LWPOLYLINE
  5
280
100
AcDbEntity
  8
Ech.1_5
 62
     5
  6
CONTINUOUS
370
    -3
100
AcDbPolyline
 90
        5
 70
     0
 43
0.0
 10
34828.1339906
 20
-24274.29528523
 10
34868.1339906
 20
-24274.29528523
 10
34868.1339906
 20
-24301.29528523
 10
34828.1339906
 20
-24301.29528523
 10
34828.1339906
 20
-24274.29528523
  0
LWPOLYLINE
  5
281
100
AcDbEntity
  8
Ech.1_5
 62
     5
  6
CONTINUOUS
370
    -3
100
AcDbPolyline
 90
        5
 70
     0
 43
0.0
 10
35118.62986166
 20
-24381.29528523
 10
35073.62986166
 20
-24381.29528523
 10
35073.62986166
 20
-24301.29528523
 10
35118.62986166
 20
-24301.29528523
 10
35118.62986166
 20
-24381.29528523
  0
LWPOLYLINE
  5
282
100
AcDbEntity
  8
Ech.1_5
 62
     5
  6
CONTINUOUS
370
    -3
100
AcDbPolyline
 90
        5
 70
     0
 43
0.0
 10
34828.1339906
 20
-24274.29528523
 10
34868.1339906
 20
-24274.29528523
 10
34868.1339906
 20
-24301.29528523
 10
34828.1339906
 20
-24301.29528523
 10
34828.1339906
 20
-24274.29528523
  0
LWPOLYLINE
  5
283
100
AcDbEntity
  8
Ech.1_5
 62
   190
  6
CONTINUOUS
370
    -3
100
AcDbPolyline
 90
        8
 70
     1
 43
0.0
 10
35674.27800522
 20
-24533.0969741
 10
35710.23370523
 20
-24547.20691412
 10
35692.25635682
 20
-24530.72141096
 10
35692.2562394
 20
-24381.29528523
 10
35073.62986166
 20
-24381.29528523
 10
35073.62986166
 20
-24601.29528523
 10
35692.25635682
 20
-24601.29528523
 10
35692.25635682
 20
-24549.58332818
  0
LWPOLYLINE
  5
284
100
AcDbEntity
  8
Ech.1_5
 62
   190
  6
CONTINUOUS
370
    -3
100
AcDbPolyline
 90
        4
 70
     1
 43
0.0
 10
34893.1339906
 20
-24301.29528523
 10
34828.1339906
 20
-24301.29528523
 10
34828.1339906
 20
-24381.29528523
 10
34893.1339906
 20
-24381.29528523
  0
LWPOLYLINE
  5
285
100
AcDbEntity
  8
Ech.1_5
 62
   190
  6
CONTINUOUS
370
    -3
100
AcDbPolyline
 90
        4
 70
     1
 43
0.0
 10
34893.1339906
 20
-24301.29528523
 10
34828.1339906
 20
-24301.29528523
 10
34828.1339906
 20
-24381.29528523
 10
34893.1339906
 20
-24381.29528523
  0
LWPOLYLINE
  5
286
100
AcDbEntity
  8
Ech.1_5
 62
     5
  6
CONTINUOUS
370
    -3
100
AcDbPolyline
 90
        5
 70
     0
 43
0.0
 10
34893.1339906
 20
-24381.29528523
 10
34828.1339906
 20
-24381.29528523
 10
34828.1339906
 20
-24301.29528523
 10
34893.1339906
 20
-24301.29528523
 10
34893.1339906
 20
-24381.29528523
  0
LINE
  5
287
100
AcDbEntity
  8
Ech.1_5
 62
   190
  6
CONTINUOUS
370
    -3
100
AcDbLine
 10
34866.46527889
 20
-24400.49135675
 30
0.0
 11
34866.46527889
 21
-24400.49135675
 31
0.0
  0
LINE
  5
288
100
AcDbEntity
  8
Ech.1_5
 62
   190
  6
CONTINUOUS
370
    -3
100
AcDbLine
 10
34864.96527889
 20
-24398.99135675
 30
0.0
 11
34864.96527889
 21
-24398.99135675
 31
0.0
  0
LINE
  5
289
100
AcDbEntity
  8
Ech.1_5
 62
   190
  6
CONTINUOUS
370
    -3
100
AcDbLine
 10
34864.96527889
 20
-24413.1268747
 30
0.0
 11
34864.96527889
 21
-24413.1268747
 31
0.0
  0
LINE
  5
28A
100
AcDbEntity
  8
Ech.1_5
 62
   190
  6
CONTINUOUS
370
    -3
100
AcDbLine
 10
34866.46527889
 20
-24400.49135675
 30
0.0
 11
34866.46527889
 21
-24400.49135675
 31
0.0
  0
LINE
  5
28B
100
AcDbEntity
  8
Ech.1_5
 62
   190
  6
CONTINUOUS
370
    -3
100
AcDbLine
 10
34864.96527889
 20
-24398.99135675
 30
0.0
 11
34864.96527889
 21
-24398.99135675
 31
0.0
  0
LINE
  5
28C
100
AcDbEntity
  8
Ech.1_5
 62
   190
  6
CONTINUOUS
370
    -3
100
AcDbLine
 10
34864.96527889
 20
-24413.1268747
 30
0.0
 11
34864.96527889
 21
-24413.1268747
 31
0.0
  0
LWPOLYLINE
  5
28D
100
AcDbEntity
  8
Ech.1_5
 62
   190
  6
CONTINUOUS
370
    -3
100
AcDbPolyline
 90
       12
 70
     1
 43
0.0
 10
34828.1339906
 20
-24301.22818607
 10
34828.1339906
 20
-24274.22818607
 10
34828.1339906
 20
-24247.29528523
 10
34806.1339906
 20
-24247.29528523
 10
34806.1339906
 20
-24481.35772523
 42
0.44196403
 10
34818.9980157
 20
-24494.22175033
 10
34828.1339906
 20
-24494.22175033
 10
34828.1339906
 20
-24484.22175033
 10
34823.1339906
 20
-24481.72175033
 10
34828.1339906
 20
-24479.22175033
 10
34828.1339906
 20
-24468.78894182
 10
34828.1339906
 20
-24462.6604271
  0
LWPOLYLINE
  5
28E
100
AcDbEntity
  8
Ech.1_5
100
AcDbPolyline
 90
        4
 70
     0
 43
0.0
 10
35692.25711735
 20
-24726.7952278
 10
35073.62986166
 20
-24726.7952278
 10
35073.62986166
 20
-24739.7952278
 10
35435.02443073
 20
-24739.7952278
  0
LWPOLYLINE
  5
28F
100
AcDbEntity
  8
Ech.1_5
 62
   190
  6
CONTINUOUS
370
    -3
100
AcDbPolyline
 90
        4
 70
     1
 43
0.0
 10
35073.62986166
 20
-24739.79528523
 10
35073.62986166
 20
-24752.79528523
 10
35692.25635682
 20
-24752.7952278
 10
35692.25635682
 20
-24739.7952278
  0
LWPOLYLINE
  5
290
102
{ACAD_REACTORS
330
291
102
}
100
AcDbEntity
  8
Ech.1_5
 62
     7
  6
CONTINUOUS
370
    -3
100
AcDbPolyline
 90
        4
 70
     1
 43
0.0
 10
35073.62986166
 20
-24739.79528523
 10
35073.62986166
 20
-24752.79528523
 10
35692.25635682
 20
-24752.79528523
 10
35692.25635682
 20
-24739.79528523
  0
HATCH
  5
291
100
AcDbEntity
  8
Ech.1_5
 62
   190
  6
CONTINUOUS
100
AcDbHatch
 10
0.0
 20
0.0
 30
0.0
210
0.0
220
0.0
230
1.0
  2
DOTS2
 70
     0
 71
     1
 91
        1
 92
        7
 72
     0
 73
     1
 93
        4
 10
35073.62986166
 20
-24739.79528523
 10
35073.62986166
 20
-24752.79528523
 10
35692.25635682
 20
-24752.79528523
 10
35692.25635682
 20
-24739.79528523
 97
        1
330
290
 75
     0
 76
     2
 52
0.0
 41
4.72440952
 77
     0
 78
     1
 53
0.0
 43
0.0
 44
0.0
 45
3.75
 46
3.535
 79
     2
 49
0.0
 49
-3.535
 47
0.775229
 98
        1
 10
0.0
 20
0.0
  0
LWPOLYLINE
  5
292
100
AcDbEntity
  8
Ech.1_5
100
AcDbPolyline
 90
        4
 70
     0
 43
0.0
 10
35435.02443073
 20
-24739.79528523
 10
35073.62986166
 20
-24739.79528523
 10
35073.62986166
 20
-24752.79528523
 10
35435.02443073
 20
-24752.79528523
  0
LINE
  5
293
100
AcDbEntity
  8
Ech.1_5
 48
0.2
100
AcDbLine
 10
35116.87439845
 20
-24715.86484461
 30
0.0
 11
35116.87439845
 21
-24623.45851827
 31
0.0
  0
LINE
  5
294
100
AcDbEntity
  8
Ech.1_5
  6
DASHEDX2
 48
0.2
100
AcDbLine
 10
35116.87439845
 20
-24710.86496276
 30
0.0
 11
35116.87439845
 21
-24734.7964288
 31
0.0
  0
LWPOLYLINE
  5
295
100
AcDbEntity
  8
Ech.1_5
 62
     7
  6
CONTINUOUS
370
    -3
100
AcDbPolyline
 90
        4
 70
     1
 43
0.0
 10
35115.62986166
 20
-24659.79528523
 10
35115.62986166
 20
-24599.79528523
 10
35073.62986166
 20
-24599.79528523
 10
35073.62986166
 20
-24659.79528523
  0
LWPOLYLINE
  5
296
100
AcDbEntity
  8
Ech.1_5
 62
   190
  6
CONTINUOUS
370
    -3
100
AcDbPolyline
 90
        4
 70
     0
 43
0.0
 10
35073.62986166
 20
-24659.79528523
 10
35115.62986166
 20
-24599.79528523
 10
35115.62986166
 20
-24659.79528523
 10
35073.62986166
 20
-24599.79528523
  0
LWPOLYLINE
  5
297
100
AcDbEntity
  8
Ech.1_5
 62
   190
  6
CONTINUOUS
370
    -3
100
AcDbPolyline
 90
        4
 70
     1
 43
0.0
 10
35073.62986166
 20
-24659.79528523
 10
35073.62986166
 20
-24739.7952278
 10
35692.25635682
 20
-24739.7952278
 10
35692.25635682
 20
-24659.79528523
  0
LWPOLYLINE
  5
298
100
AcDbEntity
  8
Ech.1_5
 62
   190
  6
CONTINUOUS
370
    -3
100
AcDbPolyline
 90
        5
 70
     0
 43
0.0
 10
34519.64455702
 20
-25140.77708765
 10
35874.64455702
 20
-25140.77708765
 10
35874.64455702
 20
-24155.77708765
 10
34519.64455702
 20
-24155.77708765
 10
34519.64455702
 20
-25140.77708765
  0
LWPOLYLINE
  5
299
100
AcDbEntity
  8
Ech.1_5
 62
   190
  6
CONTINUOUS
370
    -3
100
AcDbPolyline
 90
        6
 70
     0
 43
0.0
 10
35692.2562394
 20
-24169.16830668
 10
35692.25711735
 20
-24530.72141096
 10
35710.23446575
 20
-24547.20691412
 10
35674.27876574
 20
-24533.0969741
 10
35692.25711735
 20
-24549.58332818
 10
35692.25711735
 20
-24788.55951809
  0
LWPOLYLINE
  5
29A
100
AcDbEntity
  8
Ech.1_5
 62
   190
  6
CONTINUOUS
370
    -3
100
AcDbPolyline
 90
       21
 70
     1
 43
0.0
 10
35440.3215943
 20
-24232.95957405
 42
0.35131149
 10
35454.96193417
 20
-24244.69453982
 10
35553.25441691
 20
-24244.69453982
 10
35558.63336138
 20
-24218.1392005
 10
35546.85636452
 20
-24218.1392005
 10
35541.47742006
 20
-24230.19453982
 10
35527.81737218
 20
-24230.19453982
 10
35527.81737218
 20
-24218.1392005
 10
35516.04037533
 20
-24218.1392005
 10
35516.04037533
 20
-24230.19453982
 10
35458.23351326
 20
-24230.19453982
 42
-0.37555118
 10
35450.80052839
 20
-24223.69490767
 42
0.74707677
 10
35279.09648617
 20
-24224.9791734
 10
35276.10122813
 20
-24224.9791734
 10
35276.10122813
 20
-24226.69804528
 10
35293.4942457
 20
-24226.69804528
 42
-0.03525917
 10
35295.40396092
 20
-24216.73115337
 10
35309.98006974
 20
-24216.73115337
 10
35309.98006974
 20
-24226.69804528
 10
35315.37642678
 20
-24226.69804528
 10
35319.10732674
 20
-24187.96269919
 42
-0.5436568
  0
LWPOLYLINE
  5
29B
100
AcDbEntity
  8
Ech.1_5
 62
   190
  6
CONTINUOUS
370
    -3
100
AcDbPolyline
 90
       15
 70
     1
 43
0.0
 10
35674.02936838
 20
-24244.69453982
 10
35692.25688806
 20
-24244.69453982
 10
35692.25688806
 20
-24230.19453982
 10
35677.30094748
 20
-24230.19453982
 42
-0.37555118
 10
35669.8679626
 20
-24223.69490767
 42
0.74707677
 10
35498.16392038
 20
-24224.9791734
 10
35495.16866234
 20
-24224.9791734
 10
35495.16866234
 20
-24226.69804528
 10
35512.56167991
 20
-24226.69804528
 42
-0.03525917
 10
35514.47139513
 20
-24216.73115337
 10
35529.04750396
 20
-24216.73115337
 10
35529.04750396
 20
-24226.69804528
 10
35534.44386099
 20
-24226.69804528
 10
35538.17476095
 20
-24187.96269919
 42
-0.5436568
 10
35659.38902851
 20
-24232.95957405
 42
0.35131149
  0
LWPOLYLINE
  5
29C
100
AcDbEntity
  8
Ech.1_5
 62
   190
  6
CONTINUOUS
370
    -3
100
AcDbPolyline
 90
       32
 70
     0
 43
0.0
 10
35692.2562394
 20
-24417.9619519
 42
1.14028181
 10
35620.17229816
 20
-24427.45200492
 10
35654.34018064
 20
-24555.13856554
 42
-1.30322619
 10
35583.50563149
 20
-24555.13856554
 10
35617.67351397
 20
-24427.45200492
 42
1.30322619
 10
35546.83896483
 20
-24427.45200492
 10
35581.0068473
 20
-24555.13856554
 42
-1.30322619
 10
35510.17229816
 20
-24555.13856554
 10
35544.34018064
 20
-24427.45200492
 42
1.30322619
 10
35473.50563149
 20
-24427.45200492
 10
35507.67351397
 20
-24555.13856554
 42
-1.30322619
 10
35436.83896483
 20
-24555.13856554
 10
35471.0068473
 20
-24427.45200492
 42
1.30322619
 10
35400.17229816
 20
-24427.45200492
 10
35434.34018064
 20
-24555.13856554
 42
-1.30322619
 10
35363.50563149
 20
-24555.13856554
 10
35397.67351397
 20
-24427.45200492
 42
1.30322619
 10
35326.83896483
 20
-24427.45200492
 10
35361.0068473
 20
-24555.13856554
 42
-1.30322619
 10
35290.17229816
 20
-24555.13856554
 10
35324.34018064
 20
-24427.45200492
 42
1.30322619
 10
35253.50563149
 20
-24427.45200492
 10
35287.67351397
 20
-24555.13856554
 42
-1.30322619
 10
35216.83896483
 20
-24555.13856554
 10
35251.0068473
 20
-24427.45200492
 42
1.30322619
 10
35180.17229816
 20
-24427.45200492
 10
35214.34018064
 20
-24555.13856554
 42
-1.30322619
 10
35143.50563149
 20
-24555.13856554
 10
35177.67351397
 20
-24427.45200492
 42
1.30322619
 10
35106.83896483
 20
-24427.45200492
 10
35141.0068473
 20
-24555.13856554
 42
-0.88199453
 10
35073.62986166
 20
-24582.60141224
  0
LWPOLYLINE
  5
29D
100
AcDbEntity
  8
Ech.1_5
 62
   190
  6
CONTINUOUS
370
    -3
100
AcDbPolyline
 90
       92
 70
     0
 43
0.0
 10
35692.25635682
 20
-24673.12860899
 42
1.14028181
 10
35666.04403337
 20
-24676.57953489
 10
35678.46870899
 20
-24723.01097815
 42
-1.30322619
 10
35652.71070961
 20
-24723.01097815
 10
35665.13538522
 20
-24676.57953489
 42
1.30322619
 10
35639.37738584
 20
-24676.57953489
 10
35651.80206146
 20
-24723.01097815
 42
-1.30322619
 10
35626.04406208
 20
-24723.01097815
 10
35638.4687377
 20
-24676.57953489
 42
1.30322619
 10
35612.71073832
 20
-24676.57953489
 10
35625.13541394
 20
-24723.01097815
 42
-1.30322619
 10
35599.37741456
 20
-24723.01097815
 10
35611.80209018
 20
-24676.57953489
 42
1.30322619
 10
35586.0440908
 20
-24676.57953489
 10
35598.46876641
 20
-24723.01097815
 42
-1.30322619
 10
35572.71076704
 20
-24723.01097815
 10
35585.13544265
 20
-24676.57953489
 42
1.30322619
 10
35559.37744327
 20
-24676.57953489
 10
35571.80211889
 20
-24723.01097815
 42
-1.30322619
 10
35546.04411951
 20
-24723.01097815
 10
35558.46879513
 20
-24676.57953489
 42
1.30322619
 10
35532.71079575
 20
-24676.57953489
 10
35545.13547137
 20
-24723.01097815
 42
-1.30322619
 10
35519.37747199
 20
-24723.01097815
 10
35531.80214761
 20
-24676.57953489
 42
1.30322619
 10
35506.04414823
 20
-24676.57953489
 10
35518.46882384
 20
-24723.01097815
 42
-1.30322619
 10
35492.71082446
 20
-24723.01097815
 10
35505.13550008
 20
-24676.57953489
 42
1.30322619
 10
35479.3775007
 20
-24676.57953489
 10
35491.80217632
 20
-24723.01097815
 42
-1.30322619
 10
35466.04417694
 20
-24723.01097815
 10
35478.46885256
 20
-24676.57953489
 42
1.30322619
 10
35452.71085318
 20
-24676.57953489
 10
35465.1355288
 20
-24723.01097815
 42
-1.30322619
 10
35439.37752942
 20
-24723.01097815
 10
35451.80220503
 20
-24676.57953489
 42
1.30322619
 10
35426.04420566
 20
-24676.57953489
 10
35438.46888127
 20
-24723.01097815
 42
-1.30322619
 10
35412.71088189
 20
-24723.01097815
 10
35425.13555751
 20
-24676.57953489
 42
1.30322619
 10
35399.37755813
 20
-24676.57953489
 10
35411.80223375
 20
-24723.01097815
 42
-1.30322619
 10
35386.04423437
 20
-24723.01097815
 10
35398.46890999
 20
-24676.57953489
 42
1.30322619
 10
35372.71091061
 20
-24676.57953489
 10
35385.13558623
 20
-24723.01097815
 42
-1.30322619
 10
35359.37758685
 20
-24723.01097815
 10
35371.80226246
 20
-24676.57953489
 42
1.30322619
 10
35346.04426308
 20
-24676.57953489
 10
35358.4689387
 20
-24723.01097815
 42
-1.30322619
 10
35332.71093932
 20
-24723.01097815
 10
35345.13561494
 20
-24676.57953489
 42
1.30322619
 10
35319.37761556
 20
-24676.57953489
 10
35331.80229118
 20
-24723.01097815
 42
-1.30322619
 10
35306.0442918
 20
-24723.01097815
 10
35318.46896742
 20
-24676.57953489
 42
1.30322619
 10
35292.71096804
 20
-24676.57953489
 10
35305.13564365
 20
-24723.01097815
 42
-1.30322619
 10
35279.37764428
 20
-24723.01097815
 10
35291.80231989
 20
-24676.57953489
 42
1.30322619
 10
35266.04432051
 20
-24676.57953489
 10
35278.46899613
 20
-24723.01097815
 42
-1.30322619
 10
35252.71099675
 20
-24723.01097815
 10
35265.13567237
 20
-24676.57953489
 42
1.30322619
 10
35239.37767299
 20
-24676.57953489
 10
35251.80234861
 20
-24723.01097815
 42
-1.30322619
 10
35226.04434923
 20
-24723.01097815
 10
35238.46902485
 20
-24676.57953489
 42
1.30322619
 10
35212.71102547
 20
-24676.57953489
 10
35225.13570108
 20
-24723.01097815
 42
-1.30322619
 10
35199.3777017
 20
-24723.01097815
 10
35211.80237732
 20
-24676.57953489
 42
1.30322619
 10
35186.04437794
 20
-24676.57953489
 10
35198.46905356
 20
-24723.01097815
 42
-1.30322619
 10
35172.71105418
 20
-24723.01097815
 10
35185.1357298
 20
-24676.57953489
 42
1.30322619
 10
35159.37773042
 20
-24676.57953489
 10
35171.80240604
 20
-24723.01097815
 42
-1.30322619
 10
35146.04440666
 20
-24723.01097815
 10
35158.46908227
 20
-24676.57953489
 42
1.30322619
 10
35132.7110829
 20
-24676.57953489
 10
35145.13575851
 20
-24723.01097815
 42
-1.30322619
 10
35119.37775913
 20
-24723.01097815
 10
35131.80243475
 20
-24676.57953489
 42
1.30322619
 10
35106.04443537
 20
-24676.57953489
 10
35118.46911099
 20
-24723.01097815
 42
-1.30322619
 10
35092.71111161
 20
-24723.01097815
 10
35105.13578723
 20
-24676.57953489
 42
1.30322619
 10
35079.37778785
 20
-24676.57953489
 10
35091.80246347
 20
-24723.01097815
 42
-0.62725065
 10
35073.62986166
 20
-24738.69935881
  0
LWPOLYLINE
  5
29E
100
AcDbEntity
  8
Ech.1_5
 62
     9
  6
CADWORK_22
370
    35
100
AcDbPolyline
 90
        3
 70
     0
 43
0.0
 38
2500.0
 10
35692.2562394
 20
-24301.29528523
 10
34828.1339906
 20
-24301.29528523
 10
34828.1339906
 20
-24355.54936353
  0
LWPOLYLINE
  5
29F
100
AcDbEntity
  8
Ech.1_5
 62
     3
370
    70
100
AcDbPolyline
 90
        4
 70
     0
 43
0.0
 10
35081.3902339
 20
-24655.98699888
 10
35081.3902339
 20
-24642.99786546
 10
35087.07084686
 20
-24639.06313332
 10
35087.07084686
 20
-24625.58470332
  0
LWPOLYLINE
  5
2A0
100
AcDbEntity
  8
Ech.1_5
 62
     1
  6
CADWORK_22
 48
-5.0
370
    35
100
AcDbPolyline
 90
        3
 70
     0
 43
0.0
 10
35081.40807568
 20
-24639.82259312
 10
35081.40807568
 20
-24601.29528523
 10
35692.25635682
 20
-24601.29528523
  0
LWPOLYLINE
  5
2A1
102
{ACAD_REACTORS
330
2A2
102
}
100
AcDbEntity
  8
Ech.1_5
 62
     9
  6
CONTINUOUS
370
    -3
100
AcDbPolyline
 90
        8
 70
     1
 43
0.0
 38
2500.0
 39
-2500.0
 10
35071.62986166
 20
-24301.29528523
 10
34893.1339745
 20
-24301.29528523
 10
34893.13409261
 20
-24877.50673569
 10
35007.70233563
 20
-24877.50752143
 10
35024.18783879
 20
-24859.53017302
 10
35010.07789877
 20
-24895.48587303
 10
35026.56425285
 20
-24877.50752143
 10
35071.62986166
 20
-24877.50673569
  0
HATCH
  5
2A2
100
AcDbEntity
  8
Ech.1_5
 62
     9
  6
CONTINUOUS
100
AcDbHatch
 10
0.0
 20
0.0
 30
0.0
210
0.0
220
0.0
230
1.0
  2
ANSI31
 70
     0
 71
     1
 91
        1
 92
        7
 72
     0
 73
     1
 93
        8
 10
35071.62986166
 20
-24301.29528523
 10
34893.1339745
 20
-24301.29528523
 10
34893.13409261
 20
-24877.50673569
 10
35007.70233563
 20
-24877.50752143
 10
35024.18783879
 20
-24859.53017302
 10
35010.07789877
 20
-24895.48587303
 10
35026.56425285
 20
-24877.50752143
 10
35071.62986166
 20
-24877.50673569
 97
        1
330
2A1
 75
     0
 76
     2
 52
0.0
 41
4.72443907
 77
     0
 78
     1
 53
45.0
 43
0.0
 44
0.0
 45
10.60660172
 46
-10.60660172
 79
     0
 47
0.775229
 98
        1
 10
0.0
 20
0.0
  0
LWPOLYLINE
  5
2A3
100
AcDbEntity
  8
Ech.1_5
 62
   190
  6
CONTINUOUS
370
    -3
100
AcDbPolyline
 90
        4
 70
     1
 43
0.0
 10
35081.62986166
 20
-24877.50673569
 10
35131.62986166
 20
-24877.50673569
 10
35131.62986166
 20
-24752.79528523
 10
35081.62986166
 20
-24752.79528523
  0
LWPOLYLINE
  5
2A4
100
AcDbEntity
  8
Ech.1_5
 62
   190
  6
CONTINUOUS
370
    -3
100
AcDbPolyline
 90
        4
 70
     1
 43
0.0
 10
35131.62986166
 20
-24877.50673569
 10
35144.62986166
 20
-24877.50673569
 10
35144.6298198
 20
-24752.79528523
 10
35131.6298198
 20
-24752.79528523
  0
LWPOLYLINE
  5
2A5
102
{ACAD_REACTORS
330
2A6
102
}
100
AcDbEntity
  8
Ech.1_5
 62
     7
  6
CONTINUOUS
370
    -3
100
AcDbPolyline
 90
        4
 70
     1
 43
0.0
 10
35131.62986166
 20
-24877.50673569
 10
35144.62986166
 20
-24877.50673569
 10
35144.6298198
 20
-24752.79528523
 10
35131.6298198
 20
-24752.79528523
  0
HATCH
  5
2A6
100
AcDbEntity
  8
Ech.1_5
 62
   190
  6
CONTINUOUS
100
AcDbHatch
 10
0.0
 20
0.0
 30
0.0
210
0.0
220
0.0
230
1.0
  2
DOTS2
 70
     0
 71
     1
 91
        1
 92
        7
 72
     0
 73
     1
 93
        4
 10
35131.62986166
 20
-24877.50673569
 10
35144.62986166
 20
-24877.50673569
 10
35144.6298198
 20
-24752.79528523
 10
35131.6298198
 20
-24752.79528523
 97
        1
330
2A5
 75
     0
 76
     2
 52
0.0
 41
4.72440952
 77
     0
 78
     1
 53
0.0
 43
0.0
 44
0.0
 45
3.75
 46
3.535
 79
     2
 49
0.0
 49
-3.535
 47
0.775229
 98
        1
 10
0.0
 20
0.0
  0
LWPOLYLINE
  5
2A7
100
AcDbEntity
  8
Ech.1_5
 62
   190
  6
CONTINUOUS
370
    -3
100
AcDbPolyline
 90
       28
 70
     0
 43
0.0
 10
35089.96319499
 20
-24752.79528523
 42
1.14028181
 10
35092.12002522
 20
-24769.17799915
 10
35121.13969809
 20
-24761.41257132
 42
-1.30322619
 10
35121.13969809
 20
-24777.51133248
 10
35092.12002522
 20
-24769.74590465
 42
1.30322619
 10
35092.12002522
 20
-24785.84466582
 10
35121.13969809
 20
-24778.07923798
 42
-1.30322619
 10
35121.13969809
 20
-24794.17799915
 10
35092.12002522
 20
-24786.41257132
 42
1.30322619
 10
35092.12002522
 20
-24802.51133248
 10
35121.13969809
 20
-24794.74590465
 42
-1.30322619
 10
35121.13969809
 20
-24810.84466582
 10
35092.12002522
 20
-24803.07923798
 42
1.30322619
 10
35092.12002522
 20
-24819.17799915
 10
35121.13969809
 20
-24811.41257132
 42
-1.30322619
 10
35121.13969809
 20
-24827.51133248
 10
35092.12002522
 20
-24819.74590465
 42
1.30322619
 10
35092.12002522
 20
-24835.84466582
 10
35121.13969809
 20
-24828.07923798
 42
-1.30322619
 10
35121.13969809
 20
-24844.17799915
 10
35092.12002522
 20
-24836.41257132
 42
1.30322619
 10
35092.12002522
 20
-24852.51133248
 10
35121.13969809
 20
-24844.74590465
 42
-1.30322619
 10
35121.13969809
 20
-24860.84466582
 10
35092.12002522
 20
-24853.07923798
 42
1.30322619
 10
35092.12002522
 20
-24869.17799915
 10
35121.13969809
 20
-24861.41257132
 42
-0.99893913
 10
35125.47044143
 20
-24877.50673569
  0
LWPOLYLINE
  5
2A8
100
AcDbEntity
  8
Ech.1_5
 62
   190
  6
CONTINUOUS
370
    -3
100
AcDbPolyline
 90
        6
 70
     0
 43
0.0
 10
35174.08828753
 20
-24877.50589188
 10
35026.56425285
 20
-24877.50752143
 10
35010.0787497
 20
-24895.48486984
 10
35024.18868972
 20
-24859.52916983
 10
35007.70233563
 20
-24877.50752143
 10
34851.79839944
 20
-24877.50673569
  0
LWPOLYLINE
  5
2A9
100
AcDbEntity
  8
Ech.1_5
 62
   190
  6
CONTINUOUS
370
    -3
100
AcDbPolyline
 90
        5
 70
     0
 43
0.0
 10
35874.64455702
 20
-25140.77708765
 10
35874.64455702
 20
-24155.77708765
 10
34519.64455702
 20
-24155.77708765
 10
34519.64455702
 20
-25140.77708765
 10
35874.64455702
 20
-25140.77708765
  0
TEXT
  5
2AA
100
AcDbEntity
  8
Ech.1_5
 62
   190
100
AcDbText
 10
34675.36659284
 20
-25071.43687822
 30
0.0
 40
8.00000012
  1
Echelle en mm
  7
ARIAL
 50
0.0
 41
1.0
 51
0.0
100
AcDbText
  0
TEXT
  5
2AB
100
AcDbEntity
  8
Ech.1_5
 62
   190
100
AcDbText
 10
34661.38600809
 20
-25099.64671375
 30
0.0
 40
8.00000012
  1
0
  7
ARIAL
 50
0.0
 41
1.0
 51
0.0
100
AcDbText
  0
TEXT
  5
2AC
100
AcDbEntity
  8
Ech.1_5
 62
   190
100
AcDbText
 10
34747.98306599
 20
-25099.64671375
 30
0.0
 40
8.00000012
  1
100
  7
ARIAL
 50
0.0
 41
1.0
 51
0.0
100
AcDbText
  0
TEXT
  5
2AD
100
AcDbEntity
  8
Ech.1_5
 62
   190
100
AcDbText
 10
34709.24263442
 20
-25099.64671375
 30
0.0
 40
8.00000012
  1
50
  7
ARIAL
 50
0.0
 41
1.0
 51
0.0
100
AcDbText
  0
TEXT
  5
2AE
100
AcDbEntity
  8
Ech.1_5
 62
   190
100
AcDbText
 10
34675.36659284
 20
-25071.43687822
 30
0.0
 40
8.00000012
  1
Echelle en mm
  7
ARIAL
 50
0.0
 41
1.0
 51
0.0
100
AcDbText
  0
TEXT
  5
2AF
100
AcDbEntity
  8
Ech.1_5
 62
   190
100
AcDbText
 10
34661.38600809
 20
-25099.64671375
 30
0.0
 40
8.00000012
  1
0
  7
ARIAL
 50
0.0
 41
1.0
 51
0.0
100
AcDbText
  0
TEXT
  5
2B0
100
AcDbEntity
  8
Ech.1_5
 62
   190
100
AcDbText
 10
34747.98306599
 20
-25099.64671375
 30
0.0
 40
8.00000012
  1
100
  7
ARIAL
 50
0.0
 41
1.0
 51
0.0
100
AcDbText
  0
TEXT
  5
2B1
100
AcDbEntity
  8
Ech.1_5
 62
   190
100
AcDbText
 10
34709.24263442
 20
-25099.64671375
 30
0.0
 40
8.00000012
  1
50
  7
ARIAL
 50
0.0
 41
1.0
 51
0.0
100
AcDbText
  0
INSERT
  5
2B2
100
AcDbEntity
  8
Ech.1_5
 62
     0
370
    -3
100
AcDbBlockReference
  2
*D9
 10
0.0
 20
0.0
 30
0.0
  0
INSERT
  5
2B3
100
AcDbEntity
  8
Ech.1_5
 62
     0
370
    -3
100
AcDbBlockReference
  2
*D10
 10
0.0
 20
0.0
 30
0.0
  0
ENDSEC
  0
SECTION
  2
OBJECTS
  0
DICTIONARY
  5
1
100
AcDbDictionary
  3
ACAD_GROUP
350
2
  3
ACAD_MLINESTYLE
350
3
  0
DICTIONARY
  5
2
102
{CDWK_REACTORS
330
1
102
}
100
AcDbDictionary
  0
DICTIONARY
  5
3
102
{CDWK_REACTORS
330
1
102
}
100
AcDbDictionary
  3
STANDARD
350
4
  0
MLINESTYLE
  5
4
102
{CDWK_REACTORS
330
3
102
}
100
AcDbMlineStyle
  2
STANDARD
 70
     0
  3

 62
     0
 51
90.0
 52
90.0
 71
     2
 49
0.5
 62
   256
  6
BYLAYER
 49
-0.5
 62
   256
  6
BYLAYER
  0
ENDSEC
  0
EOF
