  0
SECTION
  2
HEADER
  9
$ACADVER
  1
AC1014
  9
$DWGCODEPAGE
  3
ANSI_1252
  9
$INSBASE
 10
0.0
 20
0.0
 30
0.0
  9
$EXTMIN
 10
16.95292807
 20
-25127.9515032
  9
$EXTMAX
 10
34108.89425522
 20
784.39574146
  9
$LIMMIN
 10
16.95292807
 20
-25127.9515032
  9
$LIMMAX
 10
34108.89425522
 20
784.39574146
  9
$ORTHOMODE
 70
     0
  9
$REGENMODE
 70
     1
  9
$FILLMODE
 70
     1
  9
$QTEXTMODE
 70
     0
  9
$MIRRTEXT
 70
     1
  9
$DRAGMODE
 70
     2
  9
$LTSCALE
 40
5.0
  9
$OSMODE
 70
     0
  9
$ATTMODE
 70
     1
  9
$TEXTSIZE
 40
3.5
  9
$TRACEWID
 40
1.0
  9
$TEXTSTYLE
  7
STANDARD
  9
$CLAYER
  8
0
  9
$CELTYPE
  6
BYLAYER
  9
$CECOLOR
 62
   256
  9
$DIMSCALE
 40
1.0
  9
$DIMASZ
 40
2.0
  9
$DIMEXO
 40
5.0
  9
$DIMDLI
 40
10.0
  9
$DIMRND
 40
0.0
  9
$DIMDLE
 40
2.0
  9
$DIMEXE
 40
2.0
  9
$DIMTP
 40
0.0
  9
$DIMTM
 40
0.0
  9
$DIMTXT
 40
2.5
  9
$DIMCEN
 40
1.5
  9
$DIMTSZ
 40
0.0
  9
$DIMTOL
 70
     0
  9
$DIMLIM
 70
     0
  9
$DIMTIH
 70
     1
  9
$DIMTOH
 70
     0
  9
$DIMSE1
 70
     0
  9
$DIMSE2
 70
     0
  9
$DIMTAD
 70
     1
  9
$DIMZIN
 70
     8
  9
$DIMBLK
  1

  9
$DIMASO
 70
     1
  9
$DIMSHO
 70
     1
  9
$DIMPOST
  1

  9
$DIMAPOST
  1

  9
$DIMALT
 70
     0
  9
$DIMALTD
 70
     2
  9
$DIMALTF
 40
25.4
  9
$DIMLFAC
 40
1.0
  9
$DIMTOFL
 70
     0
  9
$DIMTVP
 40
0.0
  9
$DIMTIX
 70
     0
  9
$DIMSOXD
 70
     0
  9
$DIMSAH
 70
     0
  9
$DIMBLK1
  1

  9
$DIMBLK2
  1

  9
$DIMSTYLE
  2
*UNNAMED
  9
$DIMCLRD
 70
   190
  9
$DIMCLRE
 70
   190
  9
$DIMCLRT
 70
   190
  9
$DIMTFAC
 40
1.0
  9
$DIMGAP
 40
0.09
  9
$DIMUNIT
 70
     2
  9
$LUNITS
 70
     2
  9
$LUPREC
 70
     6
  9
$AXISMODE
 70
     0
  9
$AXISUNIT
 10
0.0
 20
0.0
  9
$SKETCHINC
 40
0.1
  9
$FILLETRAD
 40
0.0
  9
$AUNITS
 70
     0
  9
$AUPREC
 70
     0
  9
$MENU
  1
ACAD
  9
$ELEVATION
 40
0.0
  9
$PELEVATION
 40
0.0
  9
$THICKNESS
 40
0.0
  9
$LIMCHECK
 70
     0
  9
$BLIPMODE
 70
     1
  9
$CHAMFERA
 40
0.0
  9
$CHAMFERB
 40
0.0
  9
$SKPOLY
 70
     1
  9
$TDCREATE
 40
2457811.0000000000
  9
$TDUPDATE
 40
2457811.0000000000
  9
$TDINDWG
 40
0.0
  9
$TDUSRTIMER
 40
0.0
  9
$USRTIMER
 70
     1
  9
$ANGBASE
 50
0.0
  9
$ANGDIR
 70
     0
  9
$PDMODE
 70
     0
  9
$PDSIZE
 40
0.0
  9
$PLINEWID
 40
0.0
  9
$COORDS
 70
     2
  9
$SPLFRAME
 70
     0
  9
$SPLINETYPE
 70
     6
  9
$SPLINESEGS
 70
     8
  9
$ATTDIA
 70
     1
  9
$ATTREQ
 70
     1
  9
$HANDLING
 70
     1
  9
$HANDSEED
  5
     2EE
  9
$SURFTAB1
 70
     6
  9
$SURFTAB2
 70
     6
  9
$SURFTYPE
 70
     6
  9
$SURFU
 70
     6
  9
$SURFV
 70
     6
  9
$UCSNAME
  2

  9
$UCSORG
 10
0.0
 20
0.0
 30
0.0
  9
$UCSXDIR
 10
1.0
 20
0.0
 30
0.0
  9
$UCSYDIR
 10
0.0
 20
1.0
 30
0.0
  9
$PUCSNAME
  2

  9
$PUCSORG
 10
0.0
 20
0.0
 30
0.0
  9
$PUCSXDIR
 10
1.0
 20
0.0
 30
0.0
  9
$PUCSYDIR
 10
0.0
 20
1.0
 30
0.0
  9
$USERI1
 70
     0
  9
$USERI2
 70
     0
  9
$USERI3
 70
     0
  9
$USERI4
 70
     0
  9
$USERI5
 70
     0
  9
$USERR1
 40
0.0
  9
$USERR2
 40
0.0
  9
$USERR3
 40
0.0
  9
$USERR4
 40
0.0
  9
$USERR5
 40
0.0
  9
$WORLDVIEW
 70
     1
  9
$SHADEDGE
 70
     3
  9
$SHADEDIF
 70
    70
  9
$TILEMODE
 70
     1
  9
$MAXACTVP
 70
    16
  9
$PINSBASE
 10
0.0
 20
0.0
 30
0.0
  9
$PLIMCHECK
 70
     0
  9
$PEXTMIN
 10
1.0000000000000E+20
 20
1.0000000000000E+20
 30
1.0000000000000E+20
  9
$PEXTMAX
 10
-1.0000000000000E+20
 20
-1.0000000000000E+20
 30
-1.0000000000000E+20
  9
$PLIMMIN
 10
0.0
 20
0.0
  9
$UNITMODE
 70
     0
  9
$VISRETAIN
 70
     0
  9
$MEASUREMENT
 70
     1
  0
ENDSEC
  0
SECTION
  2
TABLES
  0
TABLE
  2
VPORT
  5
E9
100
AcDbSymbolTable
 70
     1
  0
ENDTAB
  0
TABLE
  2
STYLE
  5
EA
100
AcDbSymbolTable
 70
     3
  0
STYLE
  5
EB
100
AcDbSymbolTableRecord
100
AcDbTextStyleTableRecord
  2
STANDARD
 70
     0
 40
0.0
 41
1.0
 50
0.0
 71
     0
 42
3.5
  3
MONOTXT
  4

  0
STYLE
  5
EC
100
AcDbSymbolTableRecord
100
AcDbTextStyleTableRecord
  2
SYMAP
 70
     0
 40
0.0
 41
1.0
 50
0.0
 71
     0
 42
3.5
  3
SYMAP
  4

  0
STYLE
  5
ED
100
AcDbSymbolTableRecord
100
AcDbTextStyleTableRecord
  2
CADWORK1
 70
     0
 40
0.0
 41
1.0
 50
0.0
 71
     0
 42
3.5
  3
MONOTXT
  4

  0
STYLE
  5
EE
100
AcDbSymbolTableRecord
100
AcDbTextStyleTableRecord
  2
MONOTXT
 70
     0
 40
0.0
 41
1.0
 50
0.0
 71
     0
 42
3.5
  3
MONOTXT
  4

  0
STYLE
  5
EF
100
AcDbSymbolTableRecord
100
AcDbTextStyleTableRecord
  2
ARIAL
 70
     0
 40
0.0
 41
1.0
 50
0.0
 71
     0
 42
3.5
  3

  4

1001
ACAD
1000
Arial
1071
        0
  0
ENDTAB
  0
TABLE
  2
LTYPE
  5
F0
100
AcDbSymbolTable
 70
    13
  0
LTYPE
  5
F1
100
AcDbSymbolTableRecord
100
AcDbLinetypeTableRecord
  2
BYBLOCK
 70
    64
  3

 72
    65
 73
     0
 40
0.0
  0
LTYPE
  5
F2
100
AcDbSymbolTableRecord
100
AcDbLinetypeTableRecord
  2
BYLAYER
 70
    64
  3

 72
    65
 73
     0
 40
0.0
  0
LTYPE
  5
F3
100
AcDbSymbolTableRecord
100
AcDbLinetypeTableRecord
  2
CONTINUOUS
 70
    64
  3
Solid line
 72
    65
 73
     0
 40
0.0
  0
LTYPE
  5
F4
100
AcDbSymbolTableRecord
100
AcDbLinetypeTableRecord
  2
DOT2
 70
    64
  3
...............................................
 72
    65
 73
     2
 40
1.25
 49
0.0
 74
     0
 49
-1.25
 74
     0
  0
LTYPE
  5
F5
100
AcDbSymbolTableRecord
100
AcDbLinetypeTableRecord
  2
DASHDOT
 70
    64
  3
 __ . __ . __ . __ . __ . __ . __ . __ . __ . __
 72
    65
 73
     4
 40
10.0
 49
5.0
 74
     0
 49
-2.5
 74
     0
 49
0.0
 74
     0
 49
-2.5
 74
     0
  0
LTYPE
  5
F6
100
AcDbSymbolTableRecord
100
AcDbLinetypeTableRecord
  2
DASHEDX2
 70
    64
  3
____  ____  ____  ____  ____  ____  ____  ____
 72
    65
 73
     2
 40
3.75
 49
2.5
 74
     0
 49
-1.25
 74
     0
  0
LTYPE
  5
F7
100
AcDbSymbolTableRecord
100
AcDbLinetypeTableRecord
  2
CADWORK_22
 70
    64
  3
22 =======================================
 72
    65
 73
     0
 40
0.0
  0
LTYPE
  5
F8
100
AcDbSymbolTableRecord
100
AcDbLinetypeTableRecord
  2
DAL
 70
    64
  3
Solid line (for MAPS)
 72
    65
 73
     0
 40
0.0
  0
LTYPE
  5
F9
100
AcDbSymbolTableRecord
100
AcDbLinetypeTableRecord
  2
MUR
 70
    64
  3
Solid line (for MAPS)
 72
    65
 73
     0
 40
0.0
  0
LTYPE
  5
FA
100
AcDbSymbolTableRecord
100
AcDbLinetypeTableRecord
  2
SOM
 70
    64
  3
Solid line (for MAPS)
 72
    65
 73
     0
 40
0.0
  0
LTYPE
  5
FB
100
AcDbSymbolTableRecord
100
AcDbLinetypeTableRecord
  2
COL
 70
    64
  3
Solid line (for MAPS)
 72
    65
 73
     0
 40
0.0
  0
LTYPE
  5
FC
100
AcDbSymbolTableRecord
100
AcDbLinetypeTableRecord
  2
LGN
 70
    64
  3
Solid line (for MAPS)
 72
    65
 73
     0
 40
0.0
  0
LTYPE
  5
FD
100
AcDbSymbolTableRecord
100
AcDbLinetypeTableRecord
  2
PNT
 70
    64
  3
Solid line (for MAPS)
 72
    65
 73
     0
 40
0.0
  0
ENDTAB
  0
TABLE
  2
LAYER
  5
FE
100
AcDbSymbolTable
 70
    32
  0
LAYER
  5
FF
100
AcDbSymbolTableRecord
100
AcDbLayerTableRecord
  2
Standard
 70
     0
 62
     7
  6
CONTINUOUS
370
    -3
  0
LAYER
  5
100
100
AcDbSymbolTableRecord
100
AcDbLayerTableRecord
  2
Ech.1_1
 70
     0
 62
     7
  6
CONTINUOUS
370
    -3
  0
LAYER
  5
101
100
AcDbSymbolTableRecord
100
AcDbLayerTableRecord
  2
Ech.1_2
 70
     0
 62
     7
  6
CONTINUOUS
370
    -3
  0
LAYER
  5
102
100
AcDbSymbolTableRecord
100
AcDbLayerTableRecord
  2
Ech.1_5
 70
     0
 62
     7
  6
CONTINUOUS
370
    -3
  0
LAYER
  5
103
100
AcDbSymbolTableRecord
100
AcDbLayerTableRecord
  2
Ech.1_10
 70
     0
 62
     7
  6
CONTINUOUS
370
    -3
  0
LAYER
  5
104
100
AcDbSymbolTableRecord
100
AcDbLayerTableRecord
  2
Ech.1_20
 70
     0
 62
     7
  6
CONTINUOUS
370
    -3
  0
LAYER
  5
105
100
AcDbSymbolTableRecord
100
AcDbLayerTableRecord
  2
Ech.1_25
 70
     0
 62
     7
  6
CONTINUOUS
370
    -3
  0
LAYER
  5
106
100
AcDbSymbolTableRecord
100
AcDbLayerTableRecord
  2
Ech.1_33
 70
     0
 62
     7
  6
CONTINUOUS
370
    -3
  0
LAYER
  5
107
100
AcDbSymbolTableRecord
100
AcDbLayerTableRecord
  2
Ech.1_50
 70
     0
 62
     7
  6
CONTINUOUS
370
    -3
  0
LAYER
  5
108
100
AcDbSymbolTableRecord
100
AcDbLayerTableRecord
  2
Ech.1_75
 70
     0
 62
     7
  6
CONTINUOUS
370
    -3
  0
LAYER
  5
109
100
AcDbSymbolTableRecord
100
AcDbLayerTableRecord
  2
Ech.1_100
 70
     0
 62
     7
  6
CONTINUOUS
370
    -3
  0
LAYER
  5
10A
100
AcDbSymbolTableRecord
100
AcDbLayerTableRecord
  2
Ech.1_200
 70
     0
 62
     7
  6
CONTINUOUS
370
    -3
  0
LAYER
  5
10B
100
AcDbSymbolTableRecord
100
AcDbLayerTableRecord
  2
Ech.1_500
 70
     0
 62
     7
  6
CONTINUOUS
370
    -3
  0
LAYER
  5
10C
100
AcDbSymbolTableRecord
100
AcDbLayerTableRecord
  2
Ech.1_1000
 70
     0
 62
     7
  6
CONTINUOUS
370
    -3
  0
LAYER
  5
10D
100
AcDbSymbolTableRecord
100
AcDbLayerTableRecord
  2
Cadres traceur
 70
     0
 62
     7
  6
CONTINUOUS
370
    18
  0
LAYER
  5
10E
100
AcDbSymbolTableRecord
100
AcDbLayerTableRecord
  2
Cadres laser
 70
     0
 62
     7
  6
CONTINUOUS
370
    18
  0
LAYER
  5
10F
100
AcDbSymbolTableRecord
100
AcDbLayerTableRecord
  2
Légende d_aide
 70
     0
 62
     7
  6
CONTINUOUS
370
    18
  0
LAYER
  5
110
100
AcDbSymbolTableRecord
100
AcDbLayerTableRecord
  2
hachures ok
 70
     0
 62
     7
  6
CONTINUOUS
370
    18
  0
LAYER
  5
111
100
AcDbSymbolTableRecord
100
AcDbLayerTableRecord
  2
ossature bois
 70
     0
 62
     7
  6
CONTINUOUS
370
    18
  0
LAYER
  5
112
100
AcDbSymbolTableRecord
100
AcDbLayerTableRecord
  2
VR
 70
     0
 62
     7
  6
CONTINUOUS
370
    25
  0
LAYER
  5
113
100
AcDbSymbolTableRecord
100
AcDbLayerTableRecord
  2
Calque1
 70
     0
 62
     7
  6
CONTINUOUS
370
     9
  0
LAYER
  5
114
100
AcDbSymbolTableRecord
100
AcDbLayerTableRecord
  2
0
 70
     0
 62
     7
  6
CONTINUOUS
370
    -3
  0
LAYER
  5
115
100
AcDbSymbolTableRecord
100
AcDbLayerTableRecord
  2
menuiserie
 70
     0
 62
     7
  6
CONTINUOUS
370
    -3
  0
LAYER
  5
116
100
AcDbSymbolTableRecord
100
AcDbLayerTableRecord
  2
cotation
 70
     0
 62
   250
  6
CONTINUOUS
370
     9
  0
LAYER
  5
117
100
AcDbSymbolTableRecord
100
AcDbLayerTableRecord
  2
Defpoints
 70
     0
 62
    10
  6
CONTINUOUS
370
    -3
  0
LAYER
  5
118
100
AcDbSymbolTableRecord
100
AcDbLayerTableRecord
  2
HACHURE
 70
     0
 62
   254
  6
CONTINUOUS
370
    25
  0
LAYER
  5
119
100
AcDbSymbolTableRecord
100
AcDbLayerTableRecord
  2
mat1
 70
     0
 62
     7
  6
CONTINUOUS
370
    30
  0
LAYER
  5
11A
100
AcDbSymbolTableRecord
100
AcDbLayerTableRecord
  2
mat2
 70
     0
 62
     7
  6
CONTINUOUS
370
     5
  0
LAYER
  5
11B
100
AcDbSymbolTableRecord
100
AcDbLayerTableRecord
  2
hach
 70
     0
 62
     8
  6
CONTINUOUS
370
     5
  0
LAYER
  5
11C
100
AcDbSymbolTableRecord
100
AcDbLayerTableRecord
  2
menuiseries
 70
     0
 62
     7
  6
CONTINUOUS
370
     9
  0
LAYER
  5
11D
100
AcDbSymbolTableRecord
100
AcDbLayerTableRecord
  2
BétonMétal
 70
     0
 62
     7
  6
CONTINUOUS
370
    80
  0
LAYER
  5
11E
100
AcDbSymbolTableRecord
100
AcDbLayerTableRecord
  2
bois
 70
     0
 62
     7
  6
CONTINUOUS
370
    60
  0
ENDTAB
  0
TABLE
  2
VIEW
  5
11F
100
AcDbSymbolTable
 70
     0
  0
ENDTAB
  0
TABLE
  2
UCS
  5
120
100
AcDbSymbolTable
 70
     0
  0
ENDTAB
  0
TABLE
  2
APPID
  5
121
100
AcDbSymbolTable
 70
     1
  0
APPID
  5
122
100
AcDbSymbolTableRecord
100
AcDbRegAppTableRecord
  2
ACAD
 70
     0
  0
ENDTAB
  0
TABLE
  2
DIMSTYLE
  5
123
100
AcDbSymbolTable
 70
     0
  0
ENDTAB
  0
TABLE
  2
BLOCK_RECORD
  5
124
100
AcDbSymbolTable
 70
     0
  0
BLOCK_RECORD
  5
125
100
AcDbSymbolTableRecord
100
AcDbBlockTableRecord
  2
*MODEL_SPACE
  0
BLOCK_RECORD
  5
126
100
AcDbSymbolTableRecord
100
AcDbBlockTableRecord
  2
*PAPER_SPACE
  0
BLOCK_RECORD
  5
127
100
AcDbSymbolTableRecord
100
AcDbBlockTableRecord
  2
CDWK_EXTR_0
  0
BLOCK_RECORD
  5
128
100
AcDbSymbolTableRecord
100
AcDbBlockTableRecord
  2
CDWK_EXTR_1D
  0
BLOCK_RECORD
  5
129
100
AcDbSymbolTableRecord
100
AcDbBlockTableRecord
  2
CDWK_EXTR_1G
  0
BLOCK_RECORD
  5
12A
100
AcDbSymbolTableRecord
100
AcDbBlockTableRecord
  2
CDWK_EXTR_2
  0
BLOCK_RECORD
  5
12B
100
AcDbSymbolTableRecord
100
AcDbBlockTableRecord
  2
CDWK_EXTR_3
  0
BLOCK_RECORD
  5
12C
100
AcDbSymbolTableRecord
100
AcDbBlockTableRecord
  2
CDWK_EXTR_4
  0
BLOCK_RECORD
  5
12D
100
AcDbSymbolTableRecord
100
AcDbBlockTableRecord
  2
CDWK_PTTYP0
  0
BLOCK_RECORD
  5
12E
100
AcDbSymbolTableRecord
100
AcDbBlockTableRecord
  2
CDWK_PTTYP1
  0
BLOCK_RECORD
  5
12F
100
AcDbSymbolTableRecord
100
AcDbBlockTableRecord
  2
CDWK_PTTYP2
  0
BLOCK_RECORD
  5
130
100
AcDbSymbolTableRecord
100
AcDbBlockTableRecord
  2
CDWK_PTTYP3
  0
BLOCK_RECORD
  5
131
100
AcDbSymbolTableRecord
100
AcDbBlockTableRecord
  2
CDWK_PTTYP4
  0
BLOCK_RECORD
  5
132
100
AcDbSymbolTableRecord
100
AcDbBlockTableRecord
  2
CDWK_PTTYP5
  0
BLOCK_RECORD
  5
133
100
AcDbSymbolTableRecord
100
AcDbBlockTableRecord
  2
CDWK_PTTYP6
  0
BLOCK_RECORD
  5
134
100
AcDbSymbolTableRecord
100
AcDbBlockTableRecord
  2
CDWK_PTTYP7
  0
BLOCK_RECORD
  5
135
100
AcDbSymbolTableRecord
100
AcDbBlockTableRecord
  2
CDWK_PTTYP8
  0
BLOCK_RECORD
  5
136
100
AcDbSymbolTableRecord
100
AcDbBlockTableRecord
  2
CDWK_PTTYP9
  0
BLOCK_RECORD
  5
137
100
AcDbSymbolTableRecord
100
AcDbBlockTableRecord
  2
CDWK_PTTYP10
  0
BLOCK_RECORD
  5
138
100
AcDbSymbolTableRecord
100
AcDbBlockTableRecord
  2
CDWK_PTTYP11
  0
BLOCK_RECORD
  5
139
100
AcDbSymbolTableRecord
100
AcDbBlockTableRecord
  2
CDWK_PTTYP12
  0
BLOCK_RECORD
  5
13A
100
AcDbSymbolTableRecord
100
AcDbBlockTableRecord
  2
CDWK_PTTYP13
  0
BLOCK_RECORD
  5
13B
100
AcDbSymbolTableRecord
100
AcDbBlockTableRecord
  2
CDWK_PTTYP14
  0
BLOCK_RECORD
  5
13C
100
AcDbSymbolTableRecord
100
AcDbBlockTableRecord
  2
CDWK_PTTYP15
  0
BLOCK_RECORD
  5
13D
100
AcDbSymbolTableRecord
100
AcDbBlockTableRecord
  2
CDWK_PTTYP16
  0
BLOCK_RECORD
  5
13E
100
AcDbSymbolTableRecord
100
AcDbBlockTableRecord
  2
CDWK_PTTYP17
  0
BLOCK_RECORD
  5
13F
100
AcDbSymbolTableRecord
100
AcDbBlockTableRecord
  2
CDWK_PTTYP18
  0
BLOCK_RECORD
  5
140
100
AcDbSymbolTableRecord
100
AcDbBlockTableRecord
  2
CDWK_PTTYP19
  0
BLOCK_RECORD
  5
141
100
AcDbSymbolTableRecord
100
AcDbBlockTableRecord
  2
CDWK_PTTYP20
  0
BLOCK_RECORD
  5
142
100
AcDbSymbolTableRecord
100
AcDbBlockTableRecord
  2
CDWK_PTTYP21
  0
BLOCK_RECORD
  5
143
100
AcDbSymbolTableRecord
100
AcDbBlockTableRecord
  2
CDWK_PTTYP22
  0
BLOCK_RECORD
  5
144
100
AcDbSymbolTableRecord
100
AcDbBlockTableRecord
  2
CDWK_PTTYP23
  0
BLOCK_RECORD
  5
145
100
AcDbSymbolTableRecord
100
AcDbBlockTableRecord
  2
CDWK_PTTYP24
  0
BLOCK_RECORD
  5
146
100
AcDbSymbolTableRecord
100
AcDbBlockTableRecord
  2
CDWK_PTTYP25
  0
BLOCK_RECORD
  5
147
100
AcDbSymbolTableRecord
100
AcDbBlockTableRecord
  2
CDWK_PTTYP26
  0
BLOCK_RECORD
  5
148
100
AcDbSymbolTableRecord
100
AcDbBlockTableRecord
  2
CDWK_PTTYP27
  0
BLOCK_RECORD
  5
149
100
AcDbSymbolTableRecord
100
AcDbBlockTableRecord
  2
CDWK_PTTYP28
  0
BLOCK_RECORD
  5
14A
100
AcDbSymbolTableRecord
100
AcDbBlockTableRecord
  2
CDWK_PTTYP29
  0
BLOCK_RECORD
  5
14B
100
AcDbSymbolTableRecord
100
AcDbBlockTableRecord
  2
CDWK_PTTYP30
  0
BLOCK_RECORD
  5
14C
100
AcDbSymbolTableRecord
100
AcDbBlockTableRecord
  2
CDWK_PTTYP31
  0
BLOCK_RECORD
  5
14D
100
AcDbSymbolTableRecord
100
AcDbBlockTableRecord
  2
CDWK_PTTYP32
  0
BLOCK_RECORD
  5
14E
100
AcDbSymbolTableRecord
100
AcDbBlockTableRecord
  2
CDWK_PTTYP33
  0
BLOCK_RECORD
  5
14F
100
AcDbSymbolTableRecord
100
AcDbBlockTableRecord
  2
CDWK_PTTYP34
  0
BLOCK_RECORD
  5
150
100
AcDbSymbolTableRecord
100
AcDbBlockTableRecord
  2
CDWK_PTTYP35
  0
BLOCK_RECORD
  5
151
100
AcDbSymbolTableRecord
100
AcDbBlockTableRecord
  2
CDWK_PTTYP36
  0
BLOCK_RECORD
  5
152
100
AcDbSymbolTableRecord
100
AcDbBlockTableRecord
  2
CDWK_PTTYP37
  0
BLOCK_RECORD
  5
153
100
AcDbSymbolTableRecord
100
AcDbBlockTableRecord
  2
CDWK_PTTYP38
  0
BLOCK_RECORD
  5
154
100
AcDbSymbolTableRecord
100
AcDbBlockTableRecord
  2
*X1
  0
BLOCK_RECORD
  5
155
100
AcDbSymbolTableRecord
100
AcDbBlockTableRecord
  2
*D7
  0
BLOCK_RECORD
  5
156
100
AcDbSymbolTableRecord
100
AcDbBlockTableRecord
  2
*D8
  0
ENDTAB
  0
ENDSEC
  0
SECTION
  2
BLOCKS
  0
BLOCK
  5
157
100
AcDbEntity
  8
0
100
AcDbBlockBegin
  2
*MODEL_SPACE
 70
     0
 10
0.0
 20
0.0
 30
0.0
  3
*MODEL_SPACE
  1

  0
ENDBLK
  5
158
100
AcDbEntity
100
AcDbBlockEnd
  0
BLOCK
  5
159
100
AcDbEntity
  8
0
100
AcDbBlockBegin
  2
*PAPER_SPACE
 70
     0
 10
0.0
 20
0.0
 30
0.0
  3
*PAPER_SPACE
  1

  0
ENDBLK
  5
15A
100
AcDbEntity
100
AcDbBlockEnd
  0
BLOCK
  5
15B
100
AcDbEntity
  8
0
100
AcDbBlockBegin
  2
CDWK_EXTR_0
 70
     0
 10
0.0
 20
0.0
 30
0.0
  3
CDWK_EXTR_0
  1

  4
Cadwork line-extremity
  0
LINE
  5
15C
100
AcDbEntity
  8
0
 62
     0
370
    -2
100
AcDbLine
 10
0.0
 20
0.0
 30
0.0
 11
2.0
 21
0.5
 31
0.0
  0
LINE
  5
15D
100
AcDbEntity
  8
0
 62
     0
370
    -2
100
AcDbLine
 10
0.0
 20
0.0
 30
0.0
 11
2.0
 21
-0.5
 31
0.0
  0
LINE
  5
15E
100
AcDbEntity
  8
0
 62
     0
370
    -2
100
AcDbLine
 10
2.0
 20
0.5
 30
0.0
 11
2.0
 21
-0.5
 31
0.0
  0
ENDBLK
  5
15F
100
AcDbEntity
100
AcDbBlockEnd
  0
BLOCK
  5
160
100
AcDbEntity
  8
0
100
AcDbBlockBegin
  2
CDWK_EXTR_1D
 70
     0
 10
0.0
 20
0.0
 30
0.0
  3
CDWK_EXTR_1D
  1

  4
Cadwork line-extremity
  0
LINE
  5
161
100
AcDbEntity
  8
0
 62
     0
370
    -2
100
AcDbLine
 10
0.0
 20
0.0
 30
0.0
 11
0.0
 21
1.0
 31
0.0
  0
LINE
  5
162
100
AcDbEntity
  8
0
 62
     0
370
    -2
100
AcDbLine
 10
0.0
 20
1.0
 30
0.0
 11
0.5
 21
1.5
 31
0.0
  0
LINE
  5
163
100
AcDbEntity
  8
0
 62
     0
370
    -2
100
AcDbLine
 10
0.5
 20
1.5
 30
0.0
 11
1.5
 21
1.5
 31
0.0
  0
ENDBLK
  5
164
100
AcDbEntity
100
AcDbBlockEnd
  0
BLOCK
  5
165
100
AcDbEntity
  8
0
100
AcDbBlockBegin
  2
CDWK_EXTR_1G
 70
     0
 10
0.0
 20
0.0
 30
0.0
  3
CDWK_EXTR_1G
  1

  4
Cadwork line-extremity
  0
LINE
  5
166
100
AcDbEntity
  8
0
 62
     0
370
    -2
100
AcDbLine
 10
0.0
 20
0.0
 30
0.0
 11
0.0
 21
-1.0
 31
0.0
  0
LINE
  5
167
100
AcDbEntity
  8
0
 62
     0
370
    -2
100
AcDbLine
 10
0.0
 20
-1.0
 30
0.0
 11
0.5
 21
-1.5
 31
0.0
  0
LINE
  5
168
100
AcDbEntity
  8
0
 62
     0
370
    -2
100
AcDbLine
 10
0.5
 20
-1.5
 30
0.0
 11
1.5
 21
-1.5
 31
0.0
  0
ENDBLK
  5
169
100
AcDbEntity
100
AcDbBlockEnd
  0
BLOCK
  5
16A
100
AcDbEntity
  8
0
100
AcDbBlockBegin
  2
CDWK_EXTR_2
 70
     0
 10
0.0
 20
0.0
 30
0.0
  3
CDWK_EXTR_2
  1

  4
Cadwork line-extremity
  0
SOLID
  5
16B
100
AcDbEntity
  8
0
 62
     0
100
AcDbTrace
 10
0.0
 20
0.0
 11
2.0
 21
0.5
 12
2.0
 22
-0.5
 13
2.0
 23
-0.5
  0
ENDBLK
  5
16C
100
AcDbEntity
100
AcDbBlockEnd
  0
BLOCK
  5
16D
100
AcDbEntity
  8
0
100
AcDbBlockBegin
  2
CDWK_EXTR_3
 70
     0
 10
0.0
 20
0.0
 30
0.0
  3
CDWK_EXTR_3
  1

  4
Cadwork line-extremity
  0
SOLID
  5
16E
100
AcDbEntity
  8
0
 62
     0
100
AcDbTrace
 10
0.0
 20
0.0
 11
2.0
 21
0.5
 12
2.0
 22
-0.5
 13
2.0
 23
-0.5
  0
LINE
  5
16F
100
AcDbEntity
  8
0
 62
     0
370
    -2
100
AcDbLine
 10
0.0
 20
1.0
 30
0.0
 11
0.0
 21
-1.0
 31
0.0
  0
ENDBLK
  5
170
100
AcDbEntity
100
AcDbBlockEnd
  0
BLOCK
  5
171
100
AcDbEntity
  8
0
100
AcDbBlockBegin
  2
CDWK_EXTR_4
 70
     0
 10
0.0
 20
0.0
 30
0.0
  3
CDWK_EXTR_4
  1

  4
Cadwork line-extremity
  0
HATCH
  5
172
100
AcDbEntity
  8
0
 62
     0
370
    -2
100
AcDbHatch
 10
0.0
 20
0.0
 30
0.0
210
0.0
220
0.0
230
1.0
  2
SOLID
 70
     1
 71
     0
 91
        1
 92
        1
 93
        1
 72
     2
 10
0.0
 20
0.0
 40
0.5
 50
0.0
 51
360.0
 73
     1
 97
        0
 75
     0
 76
     1
 98
        1
 10
0.0
 20
0.0
  0
ENDBLK
  5
173
100
AcDbEntity
100
AcDbBlockEnd
  0
BLOCK
  5
174
100
AcDbEntity
  8
0
100
AcDbBlockBegin
  2
CDWK_PTTYP0
 70
     0
 10
0.0
 20
0.0
 30
0.0
  3
CDWK_PTTYP0
  1

  4
Cadwork point
  0
POINT
  5
175
100
AcDbEntity
  8
0
 62
     0
100
AcDbPoint
 10
0.0
 20
0.0
 30
0.0
  0
ENDBLK
  5
176
100
AcDbEntity
100
AcDbBlockEnd
  0
BLOCK
  5
177
100
AcDbEntity
  8
0
100
AcDbBlockBegin
  2
CDWK_PTTYP1
 70
     0
 10
0.0
 20
0.0
 30
0.0
  3
CDWK_PTTYP1
  1

  4
Cadwork node
  0
LINE
  5
178
100
AcDbEntity
  8
0
 62
     0
370
    -2
100
AcDbLine
 10
-0.5
 20
0.5
 30
0.0
 11
0.5
 21
0.5
 31
0.0
  0
LINE
  5
179
100
AcDbEntity
  8
0
 62
     0
370
    -2
100
AcDbLine
 10
0.5
 20
0.5
 30
0.0
 11
0.5
 21
-0.5
 31
0.0
  0
LINE
  5
17A
100
AcDbEntity
  8
0
 62
     0
370
    -2
100
AcDbLine
 10
0.5
 20
-0.5
 30
0.0
 11
-0.5
 21
-0.5
 31
0.0
  0
LINE
  5
17B
100
AcDbEntity
  8
0
 62
     0
370
    -2
100
AcDbLine
 10
-0.5
 20
-0.5
 30
0.0
 11
-0.5
 21
0.5
 31
0.0
  0
ENDBLK
  5
17C
100
AcDbEntity
100
AcDbBlockEnd
  0
BLOCK
  5
17D
100
AcDbEntity
  8
0
100
AcDbBlockBegin
  2
CDWK_PTTYP2
 70
     0
 10
0.0
 20
0.0
 30
0.0
  3
CDWK_PTTYP2
  1

  4
Cadwork node
  0
LINE
  5
17E
100
AcDbEntity
  8
0
 62
     0
370
    -2
100
AcDbLine
 10
0.0
 20
0.5
 30
0.0
 11
0.0
 21
-0.5
 31
0.0
  0
LINE
  5
17F
100
AcDbEntity
  8
0
 62
     0
370
    -2
100
AcDbLine
 10
-0.5
 20
0.0
 30
0.0
 11
0.5
 21
0.0
 31
0.0
  0
ENDBLK
  5
180
100
AcDbEntity
100
AcDbBlockEnd
  0
BLOCK
  5
181
100
AcDbEntity
  8
0
100
AcDbBlockBegin
  2
CDWK_PTTYP3
 70
     0
 10
0.0
 20
0.0
 30
0.0
  3
CDWK_PTTYP3
  1

  4
Cadwork node
  0
CIRCLE
  5
182
100
AcDbEntity
  8
0
 62
     0
370
    -2
100
AcDbCircle
 10
0.0
 20
0.0
 30
0.0
 40
0.5
  0
ENDBLK
  5
183
100
AcDbEntity
100
AcDbBlockEnd
  0
BLOCK
  5
184
100
AcDbEntity
  8
0
100
AcDbBlockBegin
  2
CDWK_PTTYP4
 70
     0
 10
0.0
 20
0.0
 30
0.0
  3
CDWK_PTTYP4
  1

  4
Cadwork node
  0
HATCH
  5
185
100
AcDbEntity
  8
0
 62
     0
370
    -2
100
AcDbHatch
 10
0.0
 20
0.0
 30
0.0
210
0.0
220
0.0
230
1.0
  2
SOLID
 70
     1
 71
     0
 91
        1
 92
        1
 93
        1
 72
     2
 10
0.0
 20
0.0
 40
0.5
 50
0.0
 51
360.0
 73
     1
 97
        0
 75
     0
 76
     1
 98
        1
 10
0.0
 20
0.0
  0
ENDBLK
  5
186
100
AcDbEntity
100
AcDbBlockEnd
  0
BLOCK
  5
187
100
AcDbEntity
  8
0
100
AcDbBlockBegin
  2
CDWK_PTTYP5
 70
     0
 10
0.0
 20
0.0
 30
0.0
  3
CDWK_PTTYP5
  1

  4
Cadwork node
  0
LINE
  5
188
100
AcDbEntity
  8
0
 62
     0
370
    -2
100
AcDbLine
 10
-0.5
 20
0.5
 30
0.0
 11
0.5
 21
0.5
 31
0.0
  0
LINE
  5
189
100
AcDbEntity
  8
0
 62
     0
370
    -2
100
AcDbLine
 10
0.5
 20
0.5
 30
0.0
 11
0.5
 21
-0.5
 31
0.0
  0
LINE
  5
18A
100
AcDbEntity
  8
0
 62
     0
370
    -2
100
AcDbLine
 10
0.5
 20
-0.5
 30
0.0
 11
-0.5
 21
-0.5
 31
0.0
  0
LINE
  5
18B
100
AcDbEntity
  8
0
 62
     0
370
    -2
100
AcDbLine
 10
-0.5
 20
-0.5
 30
0.0
 11
-0.5
 21
0.5
 31
0.0
  0
SOLID
  5
18C
100
AcDbEntity
  8
0
 62
     0
100
AcDbTrace
 10
-0.5
 20
-0.5
 11
-0.5
 21
0.0
 12
0.0
 22
-0.5
 13
0.0
 23
0.0
  0
SOLID
  5
18D
100
AcDbEntity
  8
0
 62
     0
100
AcDbTrace
 10
0.0
 20
0.0
 11
0.0
 21
0.5
 12
0.5
 22
0.0
 13
0.5
 23
0.5
  0
ENDBLK
  5
18E
100
AcDbEntity
100
AcDbBlockEnd
  0
BLOCK
  5
18F
100
AcDbEntity
  8
0
100
AcDbBlockBegin
  2
CDWK_PTTYP6
 70
     0
 10
0.0
 20
0.0
 30
0.0
  3
CDWK_PTTYP6
  1

  4
Cadwork node
  0
LINE
  5
190
100
AcDbEntity
  8
0
 62
     0
370
    -2
100
AcDbLine
 10
-0.5
 20
0.5
 30
0.0
 11
0.5
 21
0.5
 31
0.0
  0
LINE
  5
191
100
AcDbEntity
  8
0
 62
     0
370
    -2
100
AcDbLine
 10
0.5
 20
0.5
 30
0.0
 11
0.5
 21
-0.5
 31
0.0
  0
LINE
  5
192
100
AcDbEntity
  8
0
 62
     0
370
    -2
100
AcDbLine
 10
0.5
 20
-0.5
 30
0.0
 11
-0.5
 21
-0.5
 31
0.0
  0
LINE
  5
193
100
AcDbEntity
  8
0
 62
     0
370
    -2
100
AcDbLine
 10
-0.5
 20
-0.5
 30
0.0
 11
-0.5
 21
0.5
 31
0.0
  0
SOLID
  5
194
100
AcDbEntity
  8
0
 62
     0
100
AcDbTrace
 10
-0.5
 20
-0.5
 11
-0.5
 21
0.5
 12
0.5
 22
0.5
 13
0.5
 23
0.5
  0
ENDBLK
  5
195
100
AcDbEntity
100
AcDbBlockEnd
  0
BLOCK
  5
196
100
AcDbEntity
  8
0
100
AcDbBlockBegin
  2
CDWK_PTTYP7
 70
     0
 10
0.0
 20
0.0
 30
0.0
  3
CDWK_PTTYP7
  1

  4
Cadwork node
  0
LINE
  5
197
100
AcDbEntity
  8
0
 62
     0
370
    -2
100
AcDbLine
 10
-0.5
 20
0.5
 30
0.0
 11
0.5
 21
0.5
 31
0.0
  0
LINE
  5
198
100
AcDbEntity
  8
0
 62
     0
370
    -2
100
AcDbLine
 10
0.5
 20
0.5
 30
0.0
 11
0.5
 21
-0.5
 31
0.0
  0
LINE
  5
199
100
AcDbEntity
  8
0
 62
     0
370
    -2
100
AcDbLine
 10
0.5
 20
-0.5
 30
0.0
 11
-0.5
 21
-0.5
 31
0.0
  0
LINE
  5
19A
100
AcDbEntity
  8
0
 62
     0
370
    -2
100
AcDbLine
 10
-0.5
 20
-0.5
 30
0.0
 11
-0.5
 21
0.5
 31
0.0
  0
LINE
  5
19B
100
AcDbEntity
  8
0
 62
     0
370
    -2
100
AcDbLine
 10
0.0
 20
0.5
 30
0.0
 11
0.0
 21
-0.5
 31
0.0
  0
LINE
  5
19C
100
AcDbEntity
  8
0
 62
     0
370
    -2
100
AcDbLine
 10
-0.5
 20
0.0
 30
0.0
 11
0.5
 21
0.0
 31
0.0
  0
ENDBLK
  5
19D
100
AcDbEntity
100
AcDbBlockEnd
  0
BLOCK
  5
19E
100
AcDbEntity
  8
0
100
AcDbBlockBegin
  2
CDWK_PTTYP8
 70
     0
 10
0.0
 20
0.0
 30
0.0
  3
CDWK_PTTYP8
  1

  4
Cadwork node
  0
SOLID
  5
19F
100
AcDbEntity
  8
0
 62
     0
100
AcDbTrace
 10
-0.5
 20
0.5
 11
0.5
 21
0.5
 12
-0.5
 22
-0.5
 13
0.5
 23
-0.5
  0
ENDBLK
  5
1A0
100
AcDbEntity
100
AcDbBlockEnd
  0
BLOCK
  5
1A1
100
AcDbEntity
  8
0
100
AcDbBlockBegin
  2
CDWK_PTTYP9
 70
     0
 10
0.0
 20
0.0
 30
0.0
  3
CDWK_PTTYP9
  1

  4
Cadwork node
  0
CIRCLE
  5
1A2
100
AcDbEntity
  8
0
 62
     0
370
    -2
100
AcDbCircle
 10
0.0
 20
0.0
 30
0.0
 40
0.5
  0
CIRCLE
  5
1A3
100
AcDbEntity
  8
0
 62
     0
370
    -2
100
AcDbCircle
 10
0.0
 20
0.0
 30
0.0
 40
0.16666667
  0
ENDBLK
  5
1A4
100
AcDbEntity
100
AcDbBlockEnd
  0
BLOCK
  5
1A5
100
AcDbEntity
  8
0
100
AcDbBlockBegin
  2
CDWK_PTTYP10
 70
     0
 10
0.0
 20
0.0
 30
0.0
  3
CDWK_PTTYP10
  1

  4
Cadwork node
  0
CIRCLE
  5
1A6
100
AcDbEntity
  8
0
 62
     0
370
    -2
100
AcDbCircle
 10
0.0
 20
0.0
 30
0.0
 40
0.5
  0
ENDBLK
  5
1A7
100
AcDbEntity
100
AcDbBlockEnd
  0
BLOCK
  5
1A8
100
AcDbEntity
  8
0
100
AcDbBlockBegin
  2
CDWK_PTTYP11
 70
     0
 10
0.0
 20
0.0
 30
0.0
  3
CDWK_PTTYP11
  1

  4
Cadwork node
  0
CIRCLE
  5
1A9
100
AcDbEntity
  8
0
 62
     0
370
    -2
100
AcDbCircle
 10
0.0
 20
0.0
 30
0.0
 40
0.5
  0
CIRCLE
  5
1AA
100
AcDbEntity
  8
0
 62
     0
370
    -2
100
AcDbCircle
 10
0.0
 20
0.0
 30
0.0
 40
0.25
  0
ENDBLK
  5
1AB
100
AcDbEntity
100
AcDbBlockEnd
  0
BLOCK
  5
1AC
100
AcDbEntity
  8
0
100
AcDbBlockBegin
  2
CDWK_PTTYP12
 70
     0
 10
0.0
 20
0.0
 30
0.0
  3
CDWK_PTTYP12
  1

  4
Cadwork node
  0
CIRCLE
  5
1AD
100
AcDbEntity
  8
0
 62
     0
370
    -2
100
AcDbCircle
 10
0.0
 20
0.0
 30
0.0
 40
0.5
  0
CIRCLE
  5
1AE
100
AcDbEntity
  8
0
 62
     0
370
    -2
100
AcDbCircle
 10
0.25
 20
0.0
 30
0.0
 40
0.25
  0
ENDBLK
  5
1AF
100
AcDbEntity
100
AcDbBlockEnd
  0
BLOCK
  5
1B0
100
AcDbEntity
  8
0
100
AcDbBlockBegin
  2
CDWK_PTTYP13
 70
     0
 10
0.0
 20
0.0
 30
0.0
  3
CDWK_PTTYP13
  1

  4
Cadwork node
  0
CIRCLE
  5
1B1
100
AcDbEntity
  8
0
 62
     0
370
    -2
100
AcDbCircle
 10
0.0
 20
0.0
 30
0.0
 40
0.5
  0
CIRCLE
  5
1B2
100
AcDbEntity
  8
0
 62
     0
370
    -2
100
AcDbCircle
 10
0.25
 20
0.0
 30
0.0
 40
0.25
  0
CIRCLE
  5
1B3
100
AcDbEntity
  8
0
 62
     0
370
    -2
100
AcDbCircle
 10
-0.25
 20
0.0
 30
0.0
 40
0.25
  0
ENDBLK
  5
1B4
100
AcDbEntity
100
AcDbBlockEnd
  0
BLOCK
  5
1B5
100
AcDbEntity
  8
0
100
AcDbBlockBegin
  2
CDWK_PTTYP14
 70
     0
 10
0.0
 20
0.0
 30
0.0
  3
CDWK_PTTYP14
  1

  4
Cadwork node
  0
POINT
  5
1B6
100
AcDbEntity
  8
0
 62
     0
100
AcDbPoint
 10
0.0
 20
0.0
 30
0.0
  0
ENDBLK
  5
1B7
100
AcDbEntity
100
AcDbBlockEnd
  0
BLOCK
  5
1B8
100
AcDbEntity
  8
0
100
AcDbBlockBegin
  2
CDWK_PTTYP15
 70
     0
 10
0.0
 20
0.0
 30
0.0
  3
CDWK_PTTYP15
  1

  4
Cadwork node
  0
POINT
  5
1B9
100
AcDbEntity
  8
0
 62
     0
100
AcDbPoint
 10
0.0
 20
0.0
 30
0.0
  0
ENDBLK
  5
1BA
100
AcDbEntity
100
AcDbBlockEnd
  0
BLOCK
  5
1BB
100
AcDbEntity
  8
0
100
AcDbBlockBegin
  2
CDWK_PTTYP16
 70
     0
 10
0.0
 20
0.0
 30
0.0
  3
CDWK_PTTYP16
  1

  4
Cadwork node
  0
LINE
  5
1BC
100
AcDbEntity
  8
0
 62
     0
370
    -2
100
AcDbLine
 10
-0.5
 20
-0.28867513
 30
0.0
 11
0.5
 21
-0.28867513
 31
0.0
  0
LINE
  5
1BD
100
AcDbEntity
  8
0
 62
     0
370
    -2
100
AcDbLine
 10
0.5
 20
-0.28867513
 30
0.0
 11
0.0
 21
0.57735027
 31
0.0
  0
LINE
  5
1BE
100
AcDbEntity
  8
0
 62
     0
370
    -2
100
AcDbLine
 10
0.0
 20
0.57735027
 30
0.0
 11
-0.5
 21
-0.28867513
 31
0.0
  0
CIRCLE
  5
1BF
100
AcDbEntity
  8
0
 62
     0
370
    -2
100
AcDbCircle
 10
0.0
 20
0.0
 30
0.0
 40
0.28867513
  0
ENDBLK
  5
1C0
100
AcDbEntity
100
AcDbBlockEnd
  0
BLOCK
  5
1C1
100
AcDbEntity
  8
0
100
AcDbBlockBegin
  2
CDWK_PTTYP17
 70
     0
 10
0.0
 20
0.0
 30
0.0
  3
CDWK_PTTYP17
  1

  4
Cadwork node
  0
CIRCLE
  5
1C2
100
AcDbEntity
  8
0
 62
     0
370
    -2
100
AcDbCircle
 10
0.0
 20
0.0
 30
0.0
 40
0.5
  0
HATCH
  5
1C3
100
AcDbEntity
  8
0
 62
     0
370
    -2
100
AcDbHatch
 10
0.0
 20
0.0
 30
0.0
210
0.0
220
0.0
230
1.0
  2
SOLID
 70
     1
 71
     0
 91
        1
 92
        1
 93
        1
 72
     2
 10
0.0
 20
0.0
 40
0.25
 50
0.0
 51
360.0
 73
     1
 97
        0
 75
     0
 76
     1
 98
        1
 10
0.0
 20
0.0
  0
ENDBLK
  5
1C4
100
AcDbEntity
100
AcDbBlockEnd
  0
BLOCK
  5
1C5
100
AcDbEntity
  8
0
100
AcDbBlockBegin
  2
CDWK_PTTYP18
 70
     0
 10
0.0
 20
0.0
 30
0.0
  3
CDWK_PTTYP18
  1

  4
Cadwork node
  0
CIRCLE
  5
1C6
100
AcDbEntity
  8
0
 62
     0
370
    -2
100
AcDbCircle
 10
0.0
 20
0.0
 30
0.0
 40
0.5
  0
CIRCLE
  5
1C7
100
AcDbEntity
  8
0
 62
     0
370
    -2
100
AcDbCircle
 10
0.0
 20
0.0
 30
0.0
 40
0.2
  0
ENDBLK
  5
1C8
100
AcDbEntity
100
AcDbBlockEnd
  0
BLOCK
  5
1C9
100
AcDbEntity
  8
0
100
AcDbBlockBegin
  2
CDWK_PTTYP19
 70
     0
 10
0.0
 20
0.0
 30
0.0
  3
CDWK_PTTYP19
  1

  4
Cadwork node
  0
CIRCLE
  5
1CA
100
AcDbEntity
  8
0
 62
     0
370
    -2
100
AcDbCircle
 10
0.0
 20
0.0
 30
0.0
 40
0.4
  0
CIRCLE
  5
1CB
100
AcDbEntity
  8
0
 62
     0
370
    -2
100
AcDbCircle
 10
0.0
 20
0.0
 30
0.0
 40
0.25
  0
LINE
  5
1CC
100
AcDbEntity
  8
0
 62
     0
370
    -2
100
AcDbLine
 10
-0.25
 20
0.0
 30
0.0
 11
0.25
 21
0.0
 31
0.0
  0
ENDBLK
  5
1CD
100
AcDbEntity
100
AcDbBlockEnd
  0
BLOCK
  5
1CE
100
AcDbEntity
  8
0
100
AcDbBlockBegin
  2
CDWK_PTTYP20
 70
     0
 10
0.0
 20
0.0
 30
0.0
  3
CDWK_PTTYP20
  1

  4
Cadwork node
  0
CIRCLE
  5
1CF
100
AcDbEntity
  8
0
 62
     0
370
    -2
100
AcDbCircle
 10
0.0
 20
0.0
 30
0.0
 40
0.5
  0
CIRCLE
  5
1D0
100
AcDbEntity
  8
0
 62
     0
370
    -2
100
AcDbCircle
 10
0.0
 20
0.0
 30
0.0
 40
0.3
  0
ENDBLK
  5
1D1
100
AcDbEntity
100
AcDbBlockEnd
  0
BLOCK
  5
1D2
100
AcDbEntity
  8
0
100
AcDbBlockBegin
  2
CDWK_PTTYP21
 70
     0
 10
0.0
 20
0.0
 30
0.0
  3
CDWK_PTTYP21
  1

  4
Cadwork node
  0
CIRCLE
  5
1D3
100
AcDbEntity
  8
0
 62
     0
370
    -2
100
AcDbCircle
 10
0.0
 20
0.0
 30
0.0
 40
0.5
  0
LINE
  5
1D4
100
AcDbEntity
  8
0
 62
     0
370
    -2
100
AcDbLine
 10
-0.5
 20
0.0
 30
0.0
 11
0.5
 21
0.0
 31
0.0
  0
ENDBLK
  5
1D5
100
AcDbEntity
100
AcDbBlockEnd
  0
BLOCK
  5
1D6
100
AcDbEntity
  8
0
100
AcDbBlockBegin
  2
CDWK_PTTYP22
 70
     0
 10
0.0
 20
0.0
 30
0.0
  3
CDWK_PTTYP22
  1

  4
Cadwork node
  0
POINT
  5
1D7
100
AcDbEntity
  8
0
 62
     0
100
AcDbPoint
 10
0.0
 20
0.0
 30
0.0
  0
ENDBLK
  5
1D8
100
AcDbEntity
100
AcDbBlockEnd
  0
BLOCK
  5
1D9
100
AcDbEntity
  8
0
100
AcDbBlockBegin
  2
CDWK_PTTYP23
 70
     0
 10
0.0
 20
0.0
 30
0.0
  3
CDWK_PTTYP23
  1

  4
Cadwork node
  0
POINT
  5
1DA
100
AcDbEntity
  8
0
 62
     0
100
AcDbPoint
 10
0.0
 20
0.0
 30
0.0
  0
ENDBLK
  5
1DB
100
AcDbEntity
100
AcDbBlockEnd
  0
BLOCK
  5
1DC
100
AcDbEntity
  8
0
100
AcDbBlockBegin
  2
CDWK_PTTYP24
 70
     0
 10
0.0
 20
0.0
 30
0.0
  3
CDWK_PTTYP24
  1

  4
Cadwork node
  0
POINT
  5
1DD
100
AcDbEntity
  8
0
 62
     0
100
AcDbPoint
 10
0.0
 20
0.0
 30
0.0
  0
ENDBLK
  5
1DE
100
AcDbEntity
100
AcDbBlockEnd
  0
BLOCK
  5
1DF
100
AcDbEntity
  8
0
100
AcDbBlockBegin
  2
CDWK_PTTYP25
 70
     0
 10
0.0
 20
0.0
 30
0.0
  3
CDWK_PTTYP25
  1

  4
Cadwork node
  0
LINE
  5
1E0
100
AcDbEntity
  8
0
 62
     0
370
    -2
100
AcDbLine
 10
-0.43290044
 20
-0.25
 30
0.0
 11
0.43290044
 21
-0.25
 31
0.0
  0
LINE
  5
1E1
100
AcDbEntity
  8
0
 62
     0
370
    -2
100
AcDbLine
 10
-0.43290044
 20
-0.25
 30
0.0
 11
0.0
 21
0.5
 31
0.0
  0
LINE
  5
1E2
100
AcDbEntity
  8
0
 62
     0
370
    -2
100
AcDbLine
 10
0.43290044
 20
-0.25
 30
0.0
 11
0.0
 21
0.5
 31
0.0
  0
CIRCLE
  5
1E3
100
AcDbEntity
  8
0
 62
     0
370
    -2
100
AcDbCircle
 10
0.0
 20
0.0
 30
0.0
 40
0.5
  0
ENDBLK
  5
1E4
100
AcDbEntity
100
AcDbBlockEnd
  0
BLOCK
  5
1E5
100
AcDbEntity
  8
0
100
AcDbBlockBegin
  2
CDWK_PTTYP26
 70
     0
 10
0.0
 20
0.0
 30
0.0
  3
CDWK_PTTYP26
  1

  4
Cadwork node
  0
LINE
  5
1E6
100
AcDbEntity
  8
0
 62
     0
370
    -2
100
AcDbLine
 10
-0.5
 20
-0.28850001
 30
0.0
 11
0.5
 21
-0.28850001
 31
0.0
  0
LINE
  5
1E7
100
AcDbEntity
  8
0
 62
     0
370
    -2
100
AcDbLine
 10
-0.5
 20
-0.28850001
 30
0.0
 11
0.0
 21
0.57736721
 31
0.0
  0
LINE
  5
1E8
100
AcDbEntity
  8
0
 62
     0
370
    -2
100
AcDbLine
 10
0.5
 20
-0.28850001
 30
0.0
 11
0.0
 21
0.57736721
 31
0.0
  0
CIRCLE
  5
1E9
100
AcDbEntity
  8
0
 62
     0
370
    -2
100
AcDbCircle
 10
0.0
 20
0.0
 30
0.0
 40
0.1312336
  0
ENDBLK
  5
1EA
100
AcDbEntity
100
AcDbBlockEnd
  0
BLOCK
  5
1EB
100
AcDbEntity
  8
0
100
AcDbBlockBegin
  2
CDWK_PTTYP27
 70
     0
 10
0.0
 20
0.0
 30
0.0
  3
CDWK_PTTYP27
  1

  4
Cadwork node
  0
LINE
  5
1EC
100
AcDbEntity
  8
0
 62
     0
370
    -2
100
AcDbLine
 10
-0.43290044
 20
-0.25
 30
0.0
 11
0.43290044
 21
-0.25
 31
0.0
  0
LINE
  5
1ED
100
AcDbEntity
  8
0
 62
     0
370
    -2
100
AcDbLine
 10
-0.43290044
 20
-0.25
 30
0.0
 11
0.0
 21
0.5
 31
0.0
  0
LINE
  5
1EE
100
AcDbEntity
  8
0
 62
     0
370
    -2
100
AcDbLine
 10
0.43290044
 20
-0.25
 30
0.0
 11
0.0
 21
0.5
 31
0.0
  0
CIRCLE
  5
1EF
100
AcDbEntity
  8
0
 62
     0
370
    -2
100
AcDbCircle
 10
0.0
 20
0.0
 30
0.0
 40
0.5
  0
CIRCLE
  5
1F0
100
AcDbEntity
  8
0
 62
     0
370
    -2
100
AcDbCircle
 10
0.0
 20
0.0
 30
0.0
 40
0.1312336
  0
ENDBLK
  5
1F1
100
AcDbEntity
100
AcDbBlockEnd
  0
BLOCK
  5
1F2
100
AcDbEntity
  8
0
100
AcDbBlockBegin
  2
CDWK_PTTYP28
 70
     0
 10
0.0
 20
0.0
 30
0.0
  3
CDWK_PTTYP28
  1

  4
Cadwork node
  0
POINT
  5
1F3
100
AcDbEntity
  8
0
 62
     0
100
AcDbPoint
 10
0.0
 20
0.0
 30
0.0
  0
ENDBLK
  5
1F4
100
AcDbEntity
100
AcDbBlockEnd
  0
BLOCK
  5
1F5
100
AcDbEntity
  8
0
100
AcDbBlockBegin
  2
CDWK_PTTYP29
 70
     0
 10
0.0
 20
0.0
 30
0.0
  3
CDWK_PTTYP29
  1

  4
Cadwork node
  0
CIRCLE
  5
1F6
100
AcDbEntity
  8
0
 62
     0
370
    -2
100
AcDbCircle
 10
0.0
 20
0.0
 30
0.0
 40
0.5
  0
CIRCLE
  5
1F7
100
AcDbEntity
  8
0
 62
     0
370
    -2
100
AcDbCircle
 10
0.0
 20
0.0
 30
0.0
 40
0.375
  0
CIRCLE
  5
1F8
100
AcDbEntity
  8
0
 62
     0
370
    -2
100
AcDbCircle
 10
0.0
 20
0.0
 30
0.0
 40
0.21875
  0
ENDBLK
  5
1F9
100
AcDbEntity
100
AcDbBlockEnd
  0
BLOCK
  5
1FA
100
AcDbEntity
  8
0
100
AcDbBlockBegin
  2
CDWK_PTTYP30
 70
     0
 10
0.0
 20
0.0
 30
0.0
  3
CDWK_PTTYP30
  1

  4
Cadwork node
  0
LINE
  5
1FB
100
AcDbEntity
  8
0
 62
     0
370
    -2
100
AcDbLine
 10
0.17680339
 20
0.17680339
 30
0.0
 11
0.5
 21
0.5
 31
0.0
  0
LINE
  5
1FC
100
AcDbEntity
  8
0
 62
     0
370
    -2
100
AcDbLine
 10
-0.17680339
 20
0.17680339
 30
0.0
 11
-0.5
 21
0.5
 31
0.0
  0
LINE
  5
1FD
100
AcDbEntity
  8
0
 62
     0
370
    -2
100
AcDbLine
 10
0.17680339
 20
-0.17680339
 30
0.0
 11
0.5
 21
-0.5
 31
0.0
  0
LINE
  5
1FE
100
AcDbEntity
  8
0
 62
     0
370
    -2
100
AcDbLine
 10
-0.17680339
 20
-0.17680339
 30
0.0
 11
-0.5
 21
-0.5
 31
0.0
  0
ENDBLK
  5
1FF
100
AcDbEntity
100
AcDbBlockEnd
  0
BLOCK
  5
200
100
AcDbEntity
  8
0
100
AcDbBlockBegin
  2
CDWK_PTTYP31
 70
     0
 10
0.0
 20
0.0
 30
0.0
  3
CDWK_PTTYP31
  1

  4
Cadwork node
  0
CIRCLE
  5
201
100
AcDbEntity
  8
0
 62
     0
370
    -2
100
AcDbCircle
 10
0.0
 20
0.0
 30
0.0
 40
0.075
  0
LINE
  5
202
100
AcDbEntity
  8
0
 62
     0
370
    -2
100
AcDbLine
 10
0.075
 20
0.0
 30
0.0
 11
0.5
 21
0.0
 31
0.0
  0
LINE
  5
203
100
AcDbEntity
  8
0
 62
     0
370
    -2
100
AcDbLine
 10
-0.075
 20
0.0
 30
0.0
 11
-0.5
 21
0.0
 31
0.0
  0
LINE
  5
204
100
AcDbEntity
  8
0
 62
     0
370
    -2
100
AcDbLine
 10
0.0
 20
0.075
 30
0.0
 11
0.0
 21
0.5
 31
0.0
  0
LINE
  5
205
100
AcDbEntity
  8
0
 62
     0
370
    -2
100
AcDbLine
 10
0.0
 20
-0.075
 30
0.0
 11
0.0
 21
-0.5
 31
0.0
  0
ENDBLK
  5
206
100
AcDbEntity
100
AcDbBlockEnd
  0
BLOCK
  5
207
100
AcDbEntity
  8
0
100
AcDbBlockBegin
  2
CDWK_PTTYP32
 70
     0
 10
0.0
 20
0.0
 30
0.0
  3
CDWK_PTTYP32
  1

  4
Cadwork node
  0
CIRCLE
  5
208
100
AcDbEntity
  8
0
 62
     0
370
    -2
100
AcDbCircle
 10
0.0
 20
0.0
 30
0.0
 40
0.5
  0
CIRCLE
  5
209
100
AcDbEntity
  8
0
 62
     0
370
    -2
100
AcDbCircle
 10
0.0
 20
0.0
 30
0.0
 40
0.16666667
  0
LINE
  5
20A
100
AcDbEntity
  8
0
 62
     0
370
    -2
100
AcDbLine
 10
0.11786893
 20
0.11786893
 30
0.0
 11
0.35360678
 21
0.35360678
 31
0.0
  0
LINE
  5
20B
100
AcDbEntity
  8
0
 62
     0
370
    -2
100
AcDbLine
 10
-0.11786893
 20
0.11786893
 30
0.0
 11
-0.35360678
 21
0.35360678
 31
0.0
  0
LINE
  5
20C
100
AcDbEntity
  8
0
 62
     0
370
    -2
100
AcDbLine
 10
0.11786893
 20
-0.11786893
 30
0.0
 11
0.35360678
 21
-0.35360678
 31
0.0
  0
LINE
  5
20D
100
AcDbEntity
  8
0
 62
     0
370
    -2
100
AcDbLine
 10
-0.11786893
 20
-0.11786893
 30
0.0
 11
-0.35360678
 21
-0.35360678
 31
0.0
  0
ENDBLK
  5
20E
100
AcDbEntity
100
AcDbBlockEnd
  0
BLOCK
  5
20F
100
AcDbEntity
  8
0
100
AcDbBlockBegin
  2
CDWK_PTTYP33
 70
     0
 10
0.0
 20
0.0
 30
0.0
  3
CDWK_PTTYP33
  1

  4
Cadwork node
  0
CIRCLE
  5
210
100
AcDbEntity
  8
0
 62
     0
370
    -2
100
AcDbCircle
 10
0.0
 20
0.0
 30
0.0
 40
0.5
  0
LINE
  5
211
100
AcDbEntity
  8
0
 62
     0
370
    -2
100
AcDbLine
 10
0.0
 20
0.5
 30
0.0
 11
0.0
 21
-0.5
 31
0.0
  0
LINE
  5
212
100
AcDbEntity
  8
0
 62
     0
370
    -2
100
AcDbLine
 10
-0.5
 20
0.0
 30
0.0
 11
0.5
 21
0.0
 31
0.0
  0
ENDBLK
  5
213
100
AcDbEntity
100
AcDbBlockEnd
  0
BLOCK
  5
214
100
AcDbEntity
  8
0
100
AcDbBlockBegin
  2
CDWK_PTTYP34
 70
     0
 10
0.0
 20
0.0
 30
0.0
  3
CDWK_PTTYP34
  1

  4
Cadwork node
  0
CIRCLE
  5
215
100
AcDbEntity
  8
0
 62
     0
370
    -2
100
AcDbCircle
 10
0.0
 20
0.0
 30
0.0
 40
0.5
  0
LINE
  5
216
100
AcDbEntity
  8
0
 62
     0
370
    -2
100
AcDbLine
 10
-0.30360678
 20
-0.40360678
 30
0.0
 11
0.40360678
 21
0.30360678
 31
0.0
  0
LINE
  5
217
100
AcDbEntity
  8
0
 62
     0
370
    -2
100
AcDbLine
 10
-0.40360678
 20
-0.30360678
 30
0.0
 11
0.30360678
 21
0.40360678
 31
0.0
  0
ENDBLK
  5
218
100
AcDbEntity
100
AcDbBlockEnd
  0
BLOCK
  5
219
100
AcDbEntity
  8
0
100
AcDbBlockBegin
  2
CDWK_PTTYP35
 70
     0
 10
0.0
 20
0.0
 30
0.0
  3
CDWK_PTTYP35
  1

  4
Cadwork node
  0
CIRCLE
  5
21A
100
AcDbEntity
  8
0
 62
     0
370
    -2
100
AcDbCircle
 10
0.0
 20
0.0
 30
0.0
 40
0.21431634
  0
LINE
  5
21B
100
AcDbEntity
  8
0
 62
     0
370
    -2
100
AcDbLine
 10
0.0
 20
0.21431634
 30
0.0
 11
0.0
 21
0.5
 31
0.0
  0
LINE
  5
21C
100
AcDbEntity
  8
0
 62
     0
370
    -2
100
AcDbLine
 10
0.0
 20
-0.21431634
 30
0.0
 11
0.0
 21
-0.5
 31
0.0
  0
ENDBLK
  5
21D
100
AcDbEntity
100
AcDbBlockEnd
  0
BLOCK
  5
21E
100
AcDbEntity
  8
0
100
AcDbBlockBegin
  2
CDWK_PTTYP36
 70
     0
 10
0.0
 20
0.0
 30
0.0
  3
CDWK_PTTYP36
  1

  4
Cadwork node
  0
LINE
  5
21F
100
AcDbEntity
  8
0
 62
     0
370
    -2
100
AcDbLine
 10
-0.5
 20
-0.16666667
 30
0.0
 11
0.5
 21
-0.16666667
 31
0.0
  0
LINE
  5
220
100
AcDbEntity
  8
0
 62
     0
370
    -2
100
AcDbLine
 10
0.5
 20
-0.16666667
 30
0.0
 11
0.5
 21
0.16666667
 31
0.0
  0
LINE
  5
221
100
AcDbEntity
  8
0
 62
     0
370
    -2
100
AcDbLine
 10
0.5
 20
0.16666667
 30
0.0
 11
-0.5
 21
0.16666667
 31
0.0
  0
LINE
  5
222
100
AcDbEntity
  8
0
 62
     0
370
    -2
100
AcDbLine
 10
-0.5
 20
0.16666667
 30
0.0
 11
-0.5
 21
-0.16666667
 31
0.0
  0
SOLID
  5
223
100
AcDbEntity
  8
0
 62
     0
100
AcDbTrace
 10
-0.5
 20
-0.16666667
 11
0.5
 21
0.16666667
 12
0.5
 22
-0.16666667
 13
0.5
 23
-0.16666667
  0
ENDBLK
  5
224
100
AcDbEntity
100
AcDbBlockEnd
  0
BLOCK
  5
225
100
AcDbEntity
  8
0
100
AcDbBlockBegin
  2
CDWK_PTTYP37
 70
     0
 10
0.0
 20
0.0
 30
0.0
  3
CDWK_PTTYP37
  1

  4
Cadwork node
  0
CIRCLE
  5
226
100
AcDbEntity
  8
0
 62
     0
370
    -2
100
AcDbCircle
 10
0.0
 20
0.0
 30
0.0
 40
0.5
  0
SOLID
  5
227
100
AcDbEntity
  8
0
 62
     0
100
AcDbTrace
 10
0.0
 20
0.0
 11
0.35350001
 21
0.35350001
 12
0.5
 22
0.0
 13
0.46200001
 23
0.19149999
  0
SOLID
  5
228
100
AcDbEntity
  8
0
 62
     0
100
AcDbTrace
 10
0.0
 20
0.0
 11
0.35350001
 21
-0.35350001
 12
0.5
 22
0.0
 13
0.46200001
 23
-0.19149999
  0
SOLID
  5
229
100
AcDbEntity
  8
0
 62
     0
100
AcDbTrace
 10
0.0
 20
0.0
 11
0.0
 21
-0.5
 12
0.35350001
 22
-0.35350001
 13
0.19149999
 23
-0.46200001
  0
SOLID
  5
22A
100
AcDbEntity
  8
0
 62
     0
100
AcDbTrace
 10
0.0
 20
0.0
 11
0.0
 21
-0.5
 12
-0.35350001
 22
-0.35350001
 13
-0.19149999
 23
-0.46200001
  0
ENDBLK
  5
22B
100
AcDbEntity
100
AcDbBlockEnd
  0
BLOCK
  5
22C
100
AcDbEntity
  8
0
100
AcDbBlockBegin
  2
CDWK_PTTYP38
 70
     0
 10
0.0
 20
0.0
 30
0.0
  3
CDWK_PTTYP38
  1

  4
Cadwork node
  0
CIRCLE
  5
22D
100
AcDbEntity
  8
0
 62
     0
370
    -2
100
AcDbCircle
 10
0.0
 20
0.0
 30
0.0
 40
0.5
  0
SOLID
  5
22E
100
AcDbEntity
  8
0
 62
     0
100
AcDbTrace
 10
0.0
 20
0.0
 11
0.35350001
 21
0.35350001
 12
0.0
 22
0.5
 13
0.19149999
 23
0.46200001
  0
SOLID
  5
22F
100
AcDbEntity
  8
0
 62
     0
100
AcDbTrace
 10
0.0
 20
0.0
 11
0.5
 21
0.0
 12
0.35350001
 22
0.35350001
 13
0.46200001
 23
0.19149999
  0
SOLID
  5
230
100
AcDbEntity
  8
0
 62
     0
100
AcDbTrace
 10
0.0
 20
0.0
 11
0.0
 21
-0.5
 12
-0.35350001
 22
-0.35350001
 13
-0.19149999
 23
-0.46200001
  0
SOLID
  5
231
100
AcDbEntity
  8
0
 62
     0
100
AcDbTrace
 10
0.0
 20
0.0
 11
-0.5
 21
0.0
 12
-0.35350001
 22
-0.35350001
 13
-0.46200001
 23
-0.19149999
  0
ENDBLK
  5
232
100
AcDbEntity
100
AcDbBlockEnd
  0
BLOCK
  5
233
100
AcDbEntity
  8
Ech.1_5
100
AcDbBlockBegin
  2
*X1
 70
     1
 10
0.0
 20
0.0
 30
0.0
  3
*X1
  1

  4
Cadwork hatch
  0
LINE
  5
234
100
AcDbEntity
  8
Ech.1_5
 62
   190
  6
CONTINUOUS
370
    -2
100
AcDbLine
 10
33412.97753105
 20
-24189.48568661
 30
0.0
 11
33452.97450335
 21
-24361.86114065
 31
0.0
  0
LINE
  5
235
100
AcDbEntity
  8
Ech.1_5
 62
   190
  6
CONTINUOUS
370
    -2
100
AcDbLine
 10
33452.97450335
 20
-24189.48568661
 30
0.0
 11
33412.97753105
 21
-24361.86114065
 31
0.0
  0
ENDBLK
  5
236
100
AcDbEntity
100
AcDbBlockEnd
  0
BLOCK
  5
237
100
AcDbEntity
  8
Ech.1_5
100
AcDbBlockBegin
  2
*D7
 70
     1
 10
0.0
 20
0.0
 30
0.0
  3
*D7
  1

  4
Cadwork dimension
  0
TEXT
  5
238
100
AcDbEntity
  8
Ech.1_5
 62
   190
370
    18
100
AcDbText
 10
33373.05226604
 20
-24762.13435947
 30
0.0
 40
25.0
  1
1/3*
  7
ARIAL
 50
289.99999193
 41
1.0
 51
0.0
100
AcDbText
  0
LINE
  5
239
100
AcDbEntity
  8
Ech.1_5
 62
   190
370
    -2
100
AcDbLine
 10
33351.76325762
 20
-24703.64328901
 30
0.0
 11
33063.15023917
 21
-24808.68983694
 31
0.0
  0
LINE
  5
23A
100
AcDbEntity
  8
Ech.1_5
 62
   190
370
    -2
100
AcDbLine
 10
33404.09236276
 20
-24847.41632487
 30
0.0
 11
33368.91402322
 21
-24860.22019388
 31
0.0
  0
LINE
  5
23B
100
AcDbEntity
  8
Ech.1_5
 62
   190
370
    -2
100
AcDbLine
 10
33345.35469381
 20
-24700.65492661
 30
0.0
 11
33401.10400036
 21
-24853.8248887
 31
0.0
  0
LINE
  5
23C
100
AcDbEntity
  8
Ech.1_5
 62
   190
370
    -2
100
AcDbLine
 10
33343.86051261
 20
-24703.85920852
 30
0.0
 11
33350.26907642
 21
-24706.84757092
 31
0.0
  0
LINE
  5
23D
100
AcDbEntity
  8
Ech.1_5
 62
   190
370
    -2
100
AcDbLine
 10
33396.18961775
 20
-24847.63224439
 30
0.0
 11
33402.59818156
 21
-24850.62060679
 31
0.0
  0
ENDBLK
  5
23E
100
AcDbEntity
100
AcDbBlockEnd
  0
BLOCK
  5
23F
100
AcDbEntity
  8
Ech.1_5
100
AcDbBlockBegin
  2
*D8
 70
     1
 10
0.0
 20
0.0
 30
0.0
  3
*D8
  1

  4
Cadwork dimension
  0
TEXT
  5
240
100
AcDbEntity
  8
Ech.1_5
 62
   190
370
    18
100
AcDbText
 10
33309.2654977
 20
-24586.88165326
 30
0.0
 40
25.0
  1
2/3*
  7
ARIAL
 50
289.99999193
 41
1.0
 51
0.0
100
AcDbText
  0
LINE
  5
241
100
AcDbEntity
  8
Ech.1_5
 62
   190
370
    -2
100
AcDbLine
 10
33276.51882609
 20
-24496.91091243
 30
0.0
 11
32987.90580764
 21
-24601.95746037
 31
0.0
  0
LINE
  5
242
100
AcDbEntity
  8
Ech.1_5
 62
   190
370
    -2
100
AcDbLine
 10
33351.76325762
 20
-24703.64328901
 30
0.0
 11
33063.15023917
 21
-24808.68983694
 31
0.0
  0
LINE
  5
243
100
AcDbEntity
  8
Ech.1_5
 62
   190
370
    -2
100
AcDbLine
 10
33270.11026227
 20
-24493.92255005
 30
0.0
 11
33348.77489523
 21
-24710.05185283
 31
0.0
  0
LINE
  5
244
100
AcDbEntity
  8
Ech.1_5
 62
   190
370
    -2
100
AcDbLine
 10
33268.61608107
 20
-24497.12683196
 30
0.0
 11
33275.02464489
 21
-24500.11519434
 31
0.0
  0
LINE
  5
245
100
AcDbEntity
  8
Ech.1_5
 62
   190
370
    -2
100
AcDbLine
 10
33343.8605126
 20
-24703.85920853
 30
0.0
 11
33350.26907642
 21
-24706.84757092
 31
0.0
  0
ENDBLK
  5
246
100
AcDbEntity
100
AcDbBlockEnd
  0
ENDSEC
  0
SECTION
  2
ENTITIES
  0
INSERT
  5
247
100
AcDbEntity
  8
Ech.1_5
 62
     0
370
    -3
100
AcDbBlockReference
  2
*X1
 10
0.0
 20
0.0
 30
0.0
  0
LWPOLYLINE
  5
248
100
AcDbEntity
  8
Ech.1_5
 62
   190
  6
CONTINUOUS
370
    -3
100
AcDbPolyline
 90
        4
 70
     1
 43
0.0
 10
33432.97787299
 20
-24826.54661309
 10
33849.17104792
 20
-24978.02833389
 10
33876.70364865
 20
-24900.78512868
 10
33432.97787299
 20
-24737.70164921
  0
LWPOLYLINE
  5
249
100
AcDbEntity
  8
Ech.1_5
 62
   190
  6
CONTINUOUS
370
    -3
100
AcDbPolyline
 90
       62
 70
     0
 43
0.0
 10
33853.93007978
 20
-24964.95298349
 42
-1.14028181
 10
33829.45664363
 20
-24952.21292327
 10
33858.21359216
 20
-24911.11454652
 42
1.30322619
 10
33832.95395896
 20
-24901.92080445
 10
33828.56557603
 20
-24951.88860162
 42
-1.30322619
 10
33803.30594283
 20
-24942.69485955
 10
33832.06289135
 20
-24901.59648281
 42
1.30322619
 10
33806.80325815
 20
-24892.40274073
 10
33802.41487522
 20
-24942.37053791
 42
-1.30322619
 10
33777.15524203
 20
-24933.17679583
 10
33805.91219055
 20
-24892.07841909
 42
1.30322619
 10
33780.65255735
 20
-24882.88467701
 10
33776.26417442
 20
-24932.85247419
 42
-1.30322619
 10
33751.00454122
 20
-24923.65873211
 10
33779.76148974
 20
-24882.56035537
 42
1.30322619
 10
33754.50185655
 20
-24873.3666133
 10
33750.11347362
 20
-24923.33441047
 42
-1.30322619
 10
33724.85384042
 20
-24914.1406684
 10
33753.61078894
 20
-24873.04229165
 42
1.30322619
 10
33728.35115574
 20
-24863.84854958
 10
33723.96277281
 20
-24913.81634675
 42
-1.30322619
 10
33698.70313961
 20
-24904.62260468
 10
33727.46008814
 20
-24863.52422794
 42
1.30322619
 10
33702.20045494
 20
-24854.33048586
 10
33697.81207201
 20
-24904.29828303
 42
-1.30322619
 10
33672.55243881
 20
-24895.10454096
 10
33701.30938733
 20
-24854.00616422
 42
1.30322619
 10
33676.04975413
 20
-24844.81242214
 10
33671.6613712
 20
-24894.78021932
 42
-1.30322619
 10
33646.40173801
 20
-24885.58647724
 10
33675.15868653
 20
-24844.4881005
 42
1.30322619
 10
33649.89905333
 20
-24835.29435843
 10
33645.5106704
 20
-24885.2621556
 42
-1.30322619
 10
33620.2510372
 20
-24876.06841352
 10
33649.00798572
 20
-24834.97003678
 42
1.30322619
 10
33623.74835253
 20
-24825.77629471
 10
33619.3599696
 20
-24875.74409188
 42
-1.30322619
 10
33594.1003364
 20
-24866.55034981
 10
33622.85728492
 20
-24825.45197307
 42
1.30322619
 10
33597.59765172
 20
-24816.25823099
 10
33593.20926879
 20
-24866.22602816
 42
-1.30322619
 10
33567.94963559
 20
-24857.03228609
 10
33596.70658412
 20
-24815.93390935
 42
1.30322619
 10
33571.44695092
 20
-24806.74016727
 10
33567.05856799
 20
-24856.70796445
 42
-1.30322619
 10
33541.79893479
 20
-24847.51422237
 10
33570.55588331
 20
-24806.41584563
 42
1.30322619
 10
33545.29625011
 20
-24797.22210356
 10
33540.90786719
 20
-24847.18990073
 42
-1.30322619
 10
33515.64823399
 20
-24837.99615865
 10
33544.40518251
 20
-24796.89778191
 42
1.30322619
 10
33519.14554931
 20
-24787.70403984
 10
33514.75716638
 20
-24837.67183701
 42
-1.30322619
 10
33489.49753318
 20
-24828.47809494
 10
33518.2544817
 20
-24787.3797182
 42
1.30322619
 10
33492.99484851
 20
-24778.18597612
 10
33488.60646558
 20
-24828.15377329
 42
-1.30322619
 10
33463.34683238
 20
-24818.96003122
 10
33492.1037809
 20
-24777.86165448
 42
1.30322619
 10
33466.8441477
 20
-24768.6679124
 10
33462.45576477
 20
-24818.63570958
 42
-0.84758378
 10
33435.08507734
 20
-24820.75710883
  0
LWPOLYLINE
  5
24A
100
AcDbEntity
  8
Ech.1_5
 62
   190
  6
CONTINUOUS
370
    -3
100
AcDbPolyline
 90
        4
 70
     1
 43
0.0
 10
33432.97787299
 20
-24826.54661309
 10
33016.78469805
 20
-24978.02833389
 10
32989.25209733
 20
-24900.78512868
 10
33432.97787299
 20
-24737.70164921
  0
LWPOLYLINE
  5
24B
100
AcDbEntity
  8
Ech.1_5
 62
   190
  6
CONTINUOUS
370
    -3
100
AcDbPolyline
 90
       62
 70
     0
 43
0.0
 10
33012.02566619
 20
-24964.95298349
 42
1.14028181
 10
33036.49910234
 20
-24952.21292327
 10
33007.74215382
 20
-24911.11454652
 42
-1.30322619
 10
33033.00178701
 20
-24901.92080445
 10
33037.39016994
 20
-24951.88860162
 42
1.30322619
 10
33062.64980314
 20
-24942.69485955
 10
33033.89285462
 20
-24901.59648281
 42
-1.30322619
 10
33059.15248782
 20
-24892.40274073
 10
33063.54087075
 20
-24942.37053791
 42
1.30322619
 10
33088.80050395
 20
-24933.17679583
 10
33060.04355542
 20
-24892.07841909
 42
-1.30322619
 10
33085.30318862
 20
-24882.88467701
 10
33089.69157155
 20
-24932.85247419
 42
1.30322619
 10
33114.95120475
 20
-24923.65873211
 10
33086.19425623
 20
-24882.56035537
 42
-1.30322619
 10
33111.45388943
 20
-24873.3666133
 10
33115.84227236
 20
-24923.33441047
 42
1.30322619
 10
33141.10190555
 20
-24914.1406684
 10
33112.34495703
 20
-24873.04229165
 42
-1.30322619
 10
33137.60459023
 20
-24863.84854958
 10
33141.99297316
 20
-24913.81634675
 42
1.30322619
 10
33167.25260636
 20
-24904.62260468
 10
33138.49565784
 20
-24863.52422794
 42
-1.30322619
 10
33163.75529103
 20
-24854.33048586
 10
33168.14367396
 20
-24904.29828303
 42
1.30322619
 10
33193.40330716
 20
-24895.10454096
 10
33164.64635864
 20
-24854.00616422
 42
-1.30322619
 10
33189.90599184
 20
-24844.81242214
 10
33194.29437477
 20
-24894.78021932
 42
1.30322619
 10
33219.55400797
 20
-24885.58647724
 10
33190.79705944
 20
-24844.4881005
 42
-1.30322619
 10
33216.05669264
 20
-24835.29435843
 10
33220.44507557
 20
-24885.2621556
 42
1.30322619
 10
33245.70470877
 20
-24876.06841352
 10
33216.94776025
 20
-24834.97003678
 42
-1.30322619
 10
33242.20739345
 20
-24825.77629471
 10
33246.59577638
 20
-24875.74409188
 42
1.30322619
 10
33271.85540957
 20
-24866.55034981
 10
33243.09846105
 20
-24825.45197307
 42
-1.30322619
 10
33268.35809425
 20
-24816.25823099
 10
33272.74647718
 20
-24866.22602816
 42
1.30322619
 10
33298.00611038
 20
-24857.03228609
 10
33269.24916186
 20
-24815.93390935
 42
-1.30322619
 10
33294.50879505
 20
-24806.74016727
 10
33298.89717798
 20
-24856.70796445
 42
1.30322619
 10
33324.15681118
 20
-24847.51422237
 10
33295.39986266
 20
-24806.41584563
 42
-1.30322619
 10
33320.65949586
 20
-24797.22210356
 10
33325.04787879
 20
-24847.18990073
 42
1.30322619
 10
33350.30751199
 20
-24837.99615865
 10
33321.55056346
 20
-24796.89778191
 42
-1.30322619
 10
33346.81019666
 20
-24787.70403984
 10
33351.19857959
 20
-24837.67183701
 42
1.30322619
 10
33376.45821279
 20
-24828.47809494
 10
33347.70126427
 20
-24787.3797182
 42
-1.30322619
 10
33372.96089747
 20
-24778.18597612
 10
33377.34928039
 20
-24828.15377329
 42
1.30322619
 10
33402.60891359
 20
-24818.96003122
 10
33373.85196507
 20
-24777.86165448
 42
-1.30322619
 10
33399.11159827
 20
-24768.6679124
 10
33403.4999812
 20
-24818.63570958
 42
0.84758378
 10
33430.87066864
 20
-24820.75710883
  0
LWPOLYLINE
  5
24C
100
AcDbEntity
  8
Ech.1_5
 62
   190
  6
CONTINUOUS
370
    -3
100
AcDbPolyline
 90
        9
 70
     1
 43
0.0
 10
32892.97335383
 20
-24636.26145496
 10
32913.57928046
 20
-24692.87577309
 10
32902.32447298
 20
-24714.51569403
 10
32931.28589525
 20
-24688.95911385
 10
32920.03043609
 20
-24710.60017751
 10
32968.73078746
 20
-24844.4032932
 10
33416.82018678
 20
-24679.71604182
 10
33382.97787297
 20
-24679.71604182
 10
33382.97787297
 20
-24457.91455354
  0
LWPOLYLINE
  5
24D
100
AcDbEntity
  8
Ech.1_5
 62
   190
  6
CONTINUOUS
370
    -3
100
AcDbPolyline
 90
        9
 70
     1
 43
0.0
 10
33972.98239214
 20
-24636.26145496
 10
33952.37646551
 20
-24692.87577309
 10
33963.631273
 20
-24714.51569403
 10
33934.66985073
 20
-24688.95911385
 10
33945.92530988
 20
-24710.60017751
 10
33897.22495852
 20
-24844.4032932
 10
33449.13555919
 20
-24679.71604182
 10
33482.977873
 20
-24679.71604182
 10
33482.977873
 20
-24457.91455354
  0
LWPOLYLINE
  5
24E
100
AcDbEntity
  8
Ech.1_5
 62
   190
  6
CONTINUOUS
370
    -3
100
AcDbPolyline
 90
       26
 70
     0
 43
0.0
 10
32956.08988714
 20
-24810.00929256
 42
1.14028181
 10
33020.43422278
 20
-24776.25637968
 10
32944.36395216
 20
-24668.26350191
 42
-1.30322619
 10
33010.80804839
 20
-24643.8431617
 10
33022.77812783
 20
-24775.39491927
 42
1.30322619
 10
33089.22222407
 20
-24750.97457905
 10
33013.15195344
 20
-24642.98170128
 42
-1.30322619
 10
33079.59604968
 20
-24618.56136106
 10
33091.56612911
 20
-24750.11311864
 42
1.30322619
 10
33158.01022535
 20
-24725.69277842
 10
33081.93995472
 20
-24617.69990065
 42
-1.30322619
 10
33148.38405096
 20
-24593.27956043
 10
33160.3541304
 20
-24724.83131801
 42
1.30322619
 10
33226.79822663
 20
-24700.41097779
 10
33150.72795601
 20
-24592.41810002
 42
-1.30322619
 10
33217.17205224
 20
-24567.9977598
 10
33229.14213168
 20
-24699.54951737
 42
1.30322619
 10
33295.58622792
 20
-24675.12917716
 10
33219.51595729
 20
-24567.13629939
 42
-1.30322619
 10
33285.96005353
 20
-24542.71595917
 10
33297.93013296
 20
-24674.26771674
 42
1.30322619
 10
33364.3742292
 20
-24649.84737653
 10
33288.30395857
 20
-24541.85449876
 42
-1.30322619
 10
33354.74805481
 20
-24517.43415854
 10
33366.71813425
 20
-24648.98591611
 42
0.50191908
 10
33416.8151856
 20
-24679.70243435
  0
LWPOLYLINE
  5
24F
100
AcDbEntity
  8
Ech.1_5
 62
   190
  6
CONTINUOUS
370
    -3
100
AcDbPolyline
 90
       26
 70
     0
 43
0.0
 10
33909.86585883
 20
-24810.00929256
 42
-1.14028181
 10
33845.52152319
 20
-24776.25637968
 10
33921.59179381
 20
-24668.26350191
 42
1.30322619
 10
33855.14769758
 20
-24643.8431617
 10
33843.17761814
 20
-24775.39491927
 42
-1.30322619
 10
33776.7335219
 20
-24750.97457905
 10
33852.80379253
 20
-24642.98170128
 42
1.30322619
 10
33786.35969629
 20
-24618.56136106
 10
33774.38961686
 20
-24750.11311864
 42
-1.30322619
 10
33707.94552062
 20
-24725.69277842
 10
33784.01579125
 20
-24617.69990065
 42
1.30322619
 10
33717.57169501
 20
-24593.27956043
 10
33705.60161557
 20
-24724.83131801
 42
-1.30322619
 10
33639.15751934
 20
-24700.41097779
 10
33715.22778996
 20
-24592.41810002
 42
1.30322619
 10
33648.78369373
 20
-24567.9977598
 10
33636.81361429
 20
-24699.54951737
 42
-1.30322619
 10
33570.36951805
 20
-24675.12917716
 10
33646.43978868
 20
-24567.13629939
 42
1.30322619
 10
33579.99569244
 20
-24542.71595917
 10
33568.02561301
 20
-24674.26771674
 42
-1.30322619
 10
33501.58151677
 20
-24649.84737653
 10
33577.6517874
 20
-24541.85449876
 42
1.30322619
 10
33511.20769116
 20
-24517.43415854
 10
33499.23761173
 20
-24648.98591611
 42
-0.50191908
 10
33449.14056037
 20
-24679.70243435
  0
LWPOLYLINE
  5
250
100
AcDbEntity
  8
Ech.1_5
 62
   190
  6
CONTINUOUS
370
    -3
100
AcDbPolyline
 90
        6
 70
     1
 43
0.0
 10
33515.32071444
 20
-24327.24340563
 10
33506.09966513
 20
-24352.57803041
 10
33543.6859934
 20
-24366.26261821
 10
33549.41250014
 20
-24350.52917025
 10
33552.90841928
 20
-24340.92421137
 10
33549.41250014
 20
-24339.65180086
  0
LWPOLYLINE
  5
251
100
AcDbEntity
  8
Ech.1_5
 62
   190
  6
CONTINUOUS
370
    -3
100
AcDbPolyline
 90
        5
 70
     1
 43
0.0
 10
33412.97787297
 20
-24361.86123299
 10
33412.97787297
 20
-24189.48582375
 10
33452.97787297
 20
-24189.48582375
 10
33452.97787297
 20
-24361.86123299
 10
33432.97787297
 20
-24354.58182796
  0
LWPOLYLINE
  5
252
100
AcDbEntity
  8
Ech.1_5
 62
   190
  6
CONTINUOUS
370
    -3
100
AcDbPolyline
 90
        5
 70
     1
 43
0.0
 10
33382.97787297
 20
-24457.91455354
 10
33382.97787297
 20
-24679.71604182
 10
33482.97787297
 20
-24679.71604182
 10
33482.97787297
 20
-24458.01455394
 10
33432.97787299
 20
-24439.71604183
  0
LWPOLYLINE
  5
253
100
AcDbEntity
  8
Ech.1_5
 62
   190
  6
CONTINUOUS
370
    -3
100
AcDbPolyline
 90
        6
 70
     1
 43
0.0
 10
33350.6350315
 20
-24327.24340563
 10
33359.85608082
 20
-24352.57803041
 10
33322.26975255
 20
-24366.26261821
 10
33316.54324581
 20
-24350.52917025
 10
33313.04732667
 20
-24340.92421137
 10
33316.54324581
 20
-24339.65180086
  0
LWPOLYLINE
  5
254
100
AcDbEntity
  8
Ech.1_5
 62
   190
  6
CONTINUOUS
370
    -3
100
AcDbPolyline
 90
        4
 70
     0
 43
0.0
 10
33350.59695146
 20
-24327.29585556
 10
33322.24379049
 20
-24366.34836206
 10
33359.83149533
 20
-24352.66755633
 10
33313.00924662
 20
-24340.9766613
  0
LWPOLYLINE
  5
255
102
{ACAD_REACTORS
330
256
102
}
100
AcDbEntity
  8
Ech.1_5
 62
   190
  6
CONTINUOUS
370
    -3
100
AcDbPolyline
 90
        3
 70
     1
 43
0.0
 10
32963.47621769
 20
-24383.68309952
 10
32962.88815763
 20
-24383.82510444
 10
32964.73743111
 20
-24388.90594157
  0
HATCH
  5
256
100
AcDbEntity
  8
Ech.1_5
 62
    15
  6
CONTINUOUS
100
AcDbHatch
 10
0.0
 20
0.0
 30
0.0
210
0.0
220
0.0
230
1.0
  2
SOLID
 70
     1
 71
     1
 91
        1
 92
        7
 72
     0
 73
     1
 93
        3
 10
32963.47621769
 20
-24383.68309952
 10
32962.88815763
 20
-24383.82510444
 10
32964.73743111
 20
-24388.90594157
 97
        1
330
255
 75
     0
 76
     2
 47
0.775229
 98
        1
 10
0.0
 20
0.0
  0
LWPOLYLINE
  5
257
100
AcDbEntity
  8
Ech.1_5
 62
   190
  6
CONTINUOUS
370
    -3
100
AcDbPolyline
 90
       24
 70
     1
 43
0.0
 10
33360.46402194
 20
-24348.465333
 10
33384.19668624
 20
-24342.09959616
 10
33371.59242758
 20
-24289.90378921
 10
33362.14800912
 20
-24292.18443013
 10
33364.72570865
 20
-24302.85900533
 10
33347.77318831
 20
-24306.95270488
 10
33345.19548878
 20
-24296.27812967
 10
33335.75107032
 20
-24298.55877059
 10
33338.32876985
 20
-24309.2333458
 10
33315.26242107
 20
-24314.80341442
 10
33302.13192123
 20
-24260.42837712
 10
32975.69653721
 20
-24339.25608869
 42
0.41421356
 10
32959.2487143
 20
-24366.17648078
 10
32963.47621769
 20
-24383.68309952
 10
32963.52416729
 20
-24383.67152064
 10
32964.88821829
 20
-24389.32022595
 10
32981.52298878
 20
-24435.02388225
 10
32996.4878156
 20
-24431.41017151
 10
32993.95456293
 20
-24420.91965628
 10
33009.73922
 20
-24416.74883821
 10
33012.23463712
 20
-24427.0826717
 10
33022.69383495
 20
-24424.27723443
 10
33020.51060243
 20
-24415.23619631
 10
33354.35510718
 20
-24325.69014972
  0
LWPOLYLINE
  5
258
100
AcDbEntity
  8
Ech.1_5
 62
   190
  6
CONTINUOUS
370
    -3
100
AcDbPolyline
 90
        3
 70
     0
 43
0.0
 10
32962.88815763
 20
-24383.82510444
 10
32963.52416729
 20
-24383.67152064
 10
32964.88821829
 20
-24389.32022595
  0
LINE
  5
259
100
AcDbEntity
  8
Ech.1_5
 62
   190
  6
CONTINUOUS
370
    -3
100
AcDbLine
 10
32968.26453002
 20
-24398.59656618
 30
0.0
 11
33315.20729634
 21
-24314.81672596
 31
0.0
  0
LINE
  5
25A
100
AcDbEntity
  8
Ech.1_5
 62
   190
  6
CONTINUOUS
370
    -3
100
AcDbLine
 10
32967.13575442
 20
-24398.86914324
 30
0.0
 11
32968.26453002
 21
-24398.59656618
 31
0.0
  0
LWPOLYLINE
  5
25B
100
AcDbEntity
  8
Ech.1_5
 62
   190
  6
CONTINUOUS
370
    -3
100
AcDbPolyline
 90
        4
 70
     0
 43
0.0
 10
33515.35879449
 20
-24327.29585556
 10
33543.71195545
 20
-24366.34836206
 10
33506.12425062
 20
-24352.66755633
 10
33552.94649932
 20
-24340.9766613
  0
LWPOLYLINE
  5
25C
100
AcDbEntity
  8
Ech.1_5
 62
   190
  6
CONTINUOUS
370
    -3
100
AcDbPolyline
 90
       24
 70
     1
 43
0.0
 10
33505.491724
 20
-24348.465333
 10
33481.75905971
 20
-24342.09959616
 10
33494.36331837
 20
-24289.90378921
 10
33503.80773683
 20
-24292.18443013
 10
33501.2300373
 20
-24302.85900533
 10
33518.18255764
 20
-24306.95270488
 10
33520.76025716
 20
-24296.27812967
 10
33530.20467563
 20
-24298.55877059
 10
33527.6269761
 20
-24309.2333458
 10
33550.69332488
 20
-24314.80341442
 10
33563.82382472
 20
-24260.42837712
 10
33890.25920874
 20
-24339.25608869
 42
-0.41421356
 10
33906.70703165
 20
-24366.17648078
 10
33902.47952825
 20
-24383.68309952
 10
33902.43157866
 20
-24383.67152064
 10
33901.06752765
 20
-24389.32022595
 10
33884.43275716
 20
-24435.02388225
 10
33869.46793034
 20
-24431.41017151
 10
33872.00118302
 20
-24420.91965628
 10
33856.21652594
 20
-24416.74883821
 10
33853.72110882
 20
-24427.0826717
 10
33843.261911
 20
-24424.27723443
 10
33845.44514351
 20
-24415.23619631
 10
33511.60063877
 20
-24325.69014972
  0
LINE
  5
25D
100
AcDbEntity
  8
Ech.1_5
 62
   190
  6
CONTINUOUS
370
    -3
100
AcDbLine
 10
33897.69121593
 20
-24398.59656618
 30
0.0
 11
33550.74844961
 21
-24314.81672596
 31
0.0
  0
LINE
  5
25E
100
AcDbEntity
  8
Ech.1_5
 62
   190
  6
CONTINUOUS
370
    -3
100
AcDbLine
 10
33263.91938489
 20
-24269.65595151
 30
0.0
 11
33217.54589873
 21
-24280.85423446
 31
0.0
  0
LWPOLYLINE
  5
25F
100
AcDbEntity
  8
Ech.1_5
 62
   190
  6
CONTINUOUS
370
    -3
100
AcDbPolyline
 90
        4
 70
     1
 43
0.0
 10
33224.16384911
 20
-24263.96869709
 10
33273.97586639
 20
-24251.94007666
 42
-0.46038436
 10
33591.97987955
 20
-24251.94007666
 10
33641.79189683
 20
-24263.96869709
 42
0.56907071
  0
LINE
  5
260
100
AcDbEntity
  8
Ech.1_5
 62
   190
  6
CONTINUOUS
370
    -3
100
AcDbLine
 10
33602.03636105
 20
-24269.65595151
 30
0.0
 11
33648.40984722
 21
-24280.85423446
 31
0.0
  0
LWPOLYLINE
  5
261
100
AcDbEntity
  8
Ech.1_5
 62
   190
  6
CONTINUOUS
370
    -3
100
AcDbPolyline
 90
        5
 70
     1
 43
0.0
 10
33412.97787297
 20
-24189.48582375
 10
33452.97787297
 20
-24189.48582375
 10
33452.97787297
 20
-24361.86123299
 10
33432.97787297
 20
-24354.58182796
 10
33412.97787297
 20
-24361.86123299
  0
LWPOLYLINE
  5
262
100
AcDbEntity
  8
Ech.1_5
 62
   190
  6
CONTINUOUS
370
    -3
100
AcDbPolyline
 90
        6
 70
     0
 43
0.0
 10
34066.6954477
 20
-24378.78695084
 10
33952.37646548
 20
-24692.87577309
 10
33963.63127297
 20
-24714.51569403
 10
33934.6698507
 20
-24688.95911385
 10
33945.92530985
 20
-24710.60017751
 10
33865.24591844
 20
-24932.26498365
  0
LWPOLYLINE
  5
263
100
AcDbEntity
  8
Ech.1_5
 62
   190
  6
CONTINUOUS
370
    -3
100
AcDbPolyline
 90
        4
 70
     0
 43
0.0
 10
33853.92266981
 20
-24450.48103443
 10
33882.27583077
 20
-24489.53354093
 10
33844.68812594
 20
-24475.8527352
 10
33891.51037464
 20
-24464.16184017
  0
LWPOLYLINE
  5
264
100
AcDbEntity
  8
Ech.1_5
 62
   190
  6
CONTINUOUS
370
    -3
100
AcDbPolyline
 90
        4
 70
     1
 43
0.0
 10
33398.72010857
 20
-24367.05062471
 10
33389.48555349
 20
-24341.67887398
 10
32856.37718422
 20
-24535.71430532
 10
32865.61174237
 20
-24561.0860453
  0
LINE
  5
265
100
AcDbEntity
  8
Ech.1_5
 62
   190
  6
CONTINUOUS
370
    -3
100
AcDbLine
 10
32856.37718422
 20
-24535.71430532
 30
0.0
 11
33389.48555349
 21
-24341.67887398
 31
0.0
  0
LINE
  5
266
100
AcDbEntity
  8
Ech.1_5
 62
   190
  6
CONTINUOUS
370
    -3
100
AcDbLine
 10
33412.81549913
 20
-24361.92032599
 30
0.0
 11
32865.61174237
 21
-24561.0860453
 31
0.0
  0
LWPOLYLINE
  5
267
100
AcDbEntity
  8
Ech.1_5
 62
   190
  6
CONTINUOUS
370
    -3
100
AcDbPolyline
 90
        4
 70
     1
 43
0.0
 10
33432.97787299
 20
-24826.54661309
 10
33432.97787299
 20
-24840.38092218
 10
33021.23095991
 20
-24990.24433796
 10
33016.78469805
 20
-24978.02833389
  0
LWPOLYLINE
  5
268
102
{ACAD_REACTORS
330
269
102
}
100
AcDbEntity
  8
Ech.1_5
 62
     7
  6
CONTINUOUS
370
    -3
100
AcDbPolyline
 90
        4
 70
     1
 43
0.0
 10
33432.97787299
 20
-24826.54661309
 10
33432.97787299
 20
-24840.38092218
 10
33021.23091184
 20
-24990.24420588
 10
33016.78464998
 20
-24978.02820181
  0
HATCH
  5
269
100
AcDbEntity
  8
Ech.1_5
 62
   190
  6
CONTINUOUS
100
AcDbHatch
 10
0.0
 20
0.0
 30
0.0
210
0.0
220
0.0
230
1.0
  2
DOTS2
 70
     0
 71
     1
 91
        1
 92
        7
 72
     0
 73
     1
 93
        4
 10
33432.97787299
 20
-24826.54661309
 10
33432.97787299
 20
-24840.38092218
 10
33021.23091184
 20
-24990.24420588
 10
33016.78464998
 20
-24978.02820181
 97
        1
330
268
 75
     0
 76
     2
 52
0.0
 41
4.72440952
 77
     0
 78
     1
 53
0.0
 43
0.0
 44
0.0
 45
3.75
 46
3.535
 79
     2
 49
0.0
 49
-3.535
 47
0.775229
 98
        1
 10
0.0
 20
0.0
  0
LWPOLYLINE
  5
26A
100
AcDbEntity
  8
Ech.1_5
 62
   190
  6
CONTINUOUS
370
    -3
100
AcDbPolyline
 90
        6
 70
     0
 43
0.0
 10
32799.26029825
 20
-24378.78695084
 10
32913.57928046
 20
-24692.87577309
 10
32902.32447298
 20
-24714.51569403
 10
32931.28589525
 20
-24688.95911385
 10
32920.03043609
 20
-24710.60017751
 10
33000.70982751
 20
-24932.26498365
  0
LWPOLYLINE
  5
26B
100
AcDbEntity
  8
Ech.1_5
 62
   190
  6
CONTINUOUS
370
    -3
100
AcDbPolyline
 90
        6
 70
     1
 43
0.0
 10
33012.07115618
 20
-24450.4285845
 10
33021.2922055
 20
-24475.76320928
 10
32983.70587723
 20
-24489.44779708
 10
32977.97937049
 20
-24473.71434912
 10
32974.48345135
 20
-24464.10939024
 10
32977.97937049
 20
-24462.83697973
  0
LWPOLYLINE
  5
26C
100
AcDbEntity
  8
Ech.1_5
 62
   190
  6
CONTINUOUS
370
    -3
100
AcDbPolyline
 90
       14
 70
     1
 43
0.0
 10
33021.90014663
 20
-24471.65051187
 10
33015.79123186
 20
-24448.87532859
 10
32841.76041418
 20
-24495.55505968
 10
32814.14966511
 20
-24419.69515008
 10
32963.56804591
 20
-24383.61355599
 10
32976.69854575
 20
-24437.98859329
 10
32999.76489453
 20
-24432.41852467
 10
32997.187195
 20
-24421.74394946
 10
33006.63161346
 20
-24419.46330854
 10
33009.20931299
 20
-24430.13788375
 10
33026.16183333
 20
-24426.0441842
 10
33023.5841338
 20
-24415.369609
 10
33033.02855226
 20
-24413.08896808
 10
33045.63281092
 20
-24465.28477503
  0
LINE
  5
26D
100
AcDbEntity
  8
Ech.1_5
 62
   190
  6
CONTINUOUS
370
    -3
100
AcDbLine
 10
32833.40246151
 20
-24472.59177343
 30
0.0
 11
32976.64342102
 21
-24438.00190483
 31
0.0
  0
LWPOLYLINE
  5
26E
100
AcDbEntity
  8
Ech.1_5
 62
   190
  6
CONTINUOUS
370
    -3
100
AcDbPolyline
 90
        6
 70
     1
 43
0.0
 10
33853.88458976
 20
-24450.4285845
 10
33844.66354045
 20
-24475.76320928
 10
33882.24986872
 20
-24489.44779708
 10
33887.97637546
 20
-24473.71434912
 10
33891.47229459
 20
-24464.10939024
 10
33887.97637546
 20
-24462.83697973
  0
LWPOLYLINE
  5
26F
100
AcDbEntity
  8
Ech.1_5
 62
   190
  6
CONTINUOUS
370
    -3
100
AcDbPolyline
 90
       14
 70
     1
 43
0.0
 10
33844.05559932
 20
-24471.65051187
 10
33850.16451409
 20
-24448.87532859
 10
34024.19533177
 20
-24495.55505968
 10
34051.80608083
 20
-24419.69515008
 10
33902.38770004
 20
-24383.61355599
 10
33889.2572002
 20
-24437.98859329
 10
33866.19085142
 20
-24432.41852467
 10
33868.76855095
 20
-24421.74394946
 10
33859.32413248
 20
-24419.46330854
 10
33856.74643295
 20
-24430.13788375
 10
33839.79391262
 20
-24426.0441842
 10
33842.37161215
 20
-24415.369609
 10
33832.92719369
 20
-24413.08896808
 10
33820.32293503
 20
-24465.28477503
  0
LINE
  5
270
100
AcDbEntity
  8
Ech.1_5
 62
   190
  6
CONTINUOUS
370
    -3
100
AcDbLine
 10
34032.55328444
 20
-24472.59177343
 30
0.0
 11
33889.31232493
 21
-24438.00190483
 31
0.0
  0
LWPOLYLINE
  5
271
100
AcDbEntity
  8
Ech.1_5
 62
   190
  6
CONTINUOUS
370
    -3
100
AcDbPolyline
 90
        4
 70
     0
 43
0.0
 10
33012.03307614
 20
-24450.48103443
 10
32983.67991518
 20
-24489.53354093
 10
33021.26762001
 20
-24475.8527352
 10
32974.44537131
 20
-24464.16184017
  0
LWPOLYLINE
  5
272
100
AcDbEntity
  8
Ech.1_5
 62
   190
  6
CONTINUOUS
370
    -3
100
AcDbPolyline
 90
        4
 70
     0
 43
0.0
 10
33853.92266981
 20
-24450.48103443
 10
33882.27583077
 20
-24489.53354093
 10
33844.68812594
 20
-24475.8527352
 10
33891.51037464
 20
-24464.16184017
  0
LWPOLYLINE
  5
273
100
AcDbEntity
  8
Ech.1_5
 62
     5
  6
CONTINUOUS
370
    -3
100
AcDbPolyline
 90
        6
 70
     0
 43
0.0
 10
33382.97787297
 20
-24679.71604182
 10
33482.97787297
 20
-24679.71604182
 10
33482.97787297
 20
-24458.01455394
 10
33432.97787297
 20
-24439.71604182
 10
33382.97787297
 20
-24457.91455354
 10
33382.97787297
 20
-24679.71604182
  0
LWPOLYLINE
  5
274
100
AcDbEntity
  8
Ech.1_5
 62
     5
  6
CONTINUOUS
370
    -3
100
AcDbPolyline
 90
        5
 70
     0
 43
0.0
 10
33313.04732667
 20
-24340.92421137
 10
33350.6350315
 20
-24327.24340563
 10
33359.86957537
 20
-24352.6151064
 10
33322.28187054
 20
-24366.29591213
 10
33313.04732667
 20
-24340.92421137
  0
LWPOLYLINE
  5
275
100
AcDbEntity
  8
Ech.1_5
 62
     5
  6
CONTINUOUS
370
    -3
100
AcDbPolyline
 90
        5
 70
     0
 43
0.0
 10
33552.90841928
 20
-24340.92421137
 10
33515.32071444
 20
-24327.24340563
 10
33506.08617057
 20
-24352.6151064
 10
33543.67387541
 20
-24366.29591213
 10
33552.90841928
 20
-24340.92421137
  0
LWPOLYLINE
  5
276
100
AcDbEntity
  8
Ech.1_5
 62
     5
  6
CONTINUOUS
370
    -3
100
AcDbPolyline
 90
        5
 70
     0
 43
0.0
 10
33891.47229459
 20
-24464.10939024
 10
33853.88458976
 20
-24450.4285845
 10
33844.65004589
 20
-24475.80028527
 10
33882.23775072
 20
-24489.481091
 10
33891.47229459
 20
-24464.10939024
  0
LWPOLYLINE
  5
277
100
AcDbEntity
  8
Ech.1_5
 62
     5
  6
CONTINUOUS
370
    -3
100
AcDbPolyline
 90
        5
 70
     0
 43
0.0
 10
32974.48345135
 20
-24464.10939024
 10
33012.07115618
 20
-24450.4285845
 10
33021.30570005
 20
-24475.80028527
 10
32983.71799522
 20
-24489.481091
 10
32974.48345135
 20
-24464.10939024
  0
LWPOLYLINE
  5
278
100
AcDbEntity
  8
Ech.1_5
 62
     5
  6
CONTINUOUS
370
    -3
100
AcDbPolyline
 90
        4
 70
     0
 43
0.0
 10
33452.97787297
 20
-24361.86123299
 10
33452.97787297
 20
-24189.48582375
 10
33412.97787297
 20
-24189.48582375
 10
33412.97787297
 20
-24361.92032599
  0
LWPOLYLINE
  5
279
100
AcDbEntity
  8
Ech.1_5
 62
   190
  6
CONTINUOUS
370
    -3
100
AcDbPolyline
 90
        4
 70
     1
 43
0.0
 10
33467.23563738
 20
-24367.05062471
 10
33476.47019246
 20
-24341.67887398
 10
34009.57856173
 20
-24535.71430532
 10
34000.34400358
 20
-24561.0860453
  0
LINE
  5
27A
100
AcDbEntity
  8
Ech.1_5
 62
   190
  6
CONTINUOUS
370
    -3
100
AcDbLine
 10
34009.57856173
 20
-24535.71430532
 30
0.0
 11
33476.47019246
 21
-24341.67887398
 31
0.0
  0
LWPOLYLINE
  5
27B
100
AcDbEntity
  8
Ech.1_5
 62
     7
  6
CONTINUOUS
370
    -3
100
AcDbPolyline
 90
        5
 70
     1
 43
0.0
 10
32989.25209733
 20
-24900.78512868
 10
32968.73078746
 20
-24844.4032932
 10
33416.82018678
 20
-24679.71604182
 10
33432.97787299
 20
-24679.71604182
 10
33432.97787299
 20
-24737.70164921
  0
ARC
  5
27C
100
AcDbEntity
  8
Ech.1_5
 62
   190
  6
CONTINUOUS
370
    -3
100
AcDbCircle
 10
33488.40394282
 20
-24393.65337935
 30
0.0
 40
18.77624085
100
AcDbArc
 50
51.0483303
 51
88.95169935
  0
LINE
  5
27D
100
AcDbEntity
  8
Ech.1_5
 62
   190
  6
CONTINUOUS
370
    -3
100
AcDbLine
 10
33382.97787297
 20
-24479.71604182
 30
0.0
 11
33482.97787297
 21
-24479.71604182
 31
0.0
  0
LINE
  5
27E
100
AcDbEntity
  8
Ech.1_5
 62
   190
  6
CONTINUOUS
370
    -3
100
AcDbLine
 10
33482.97787297
 20
-24519.71604182
 30
0.0
 11
33382.97787297
 21
-24519.71604182
 31
0.0
  0
LINE
  5
27F
100
AcDbEntity
  8
Ech.1_5
 62
   190
  6
CONTINUOUS
370
    -3
100
AcDbLine
 10
33382.97787297
 20
-24559.71604182
 30
0.0
 11
33482.97787297
 21
-24559.71604182
 31
0.0
  0
LINE
  5
280
100
AcDbEntity
  8
Ech.1_5
 62
   190
  6
CONTINUOUS
370
    -3
100
AcDbLine
 10
33482.97787297
 20
-24599.71604182
 30
0.0
 11
33382.97787297
 21
-24599.71604182
 31
0.0
  0
LINE
  5
281
100
AcDbEntity
  8
Ech.1_5
 62
   190
  6
CONTINUOUS
370
    -3
100
AcDbLine
 10
33382.97787297
 20
-24639.71604182
 30
0.0
 11
33482.97787297
 21
-24639.71604182
 31
0.0
  0
LWPOLYLINE
  5
282
100
AcDbEntity
  8
Ech.1_5
 62
   190
  6
CONTINUOUS
370
    -3
100
AcDbPolyline
 90
        4
 70
     1
 43
0.0
 10
32892.97335383
 20
-24636.26145496
 10
32865.61174237
 20
-24561.0860453
 10
33432.97787297
 20
-24354.58182796
 10
33432.97787297
 20
-24439.71604183
  0
LWPOLYLINE
  5
283
100
AcDbEntity
  8
Ech.1_5
 62
   190
  6
CONTINUOUS
370
    -3
100
AcDbPolyline
 90
        4
 70
     1
 43
0.0
 10
32892.97335383
 20
-24636.26145496
 10
32865.61174237
 20
-24561.0860453
 10
33432.97787297
 20
-24354.58182796
 10
33432.97787297
 20
-24439.71604183
  0
LWPOLYLINE
  5
284
100
AcDbEntity
  8
Ech.1_5
 62
   190
  6
CONTINUOUS
370
    -3
100
AcDbPolyline
 90
        4
 70
     1
 43
0.0
 10
33972.98239212
 20
-24636.26145496
 10
34000.34400358
 20
-24561.0860453
 10
33432.97787297
 20
-24354.58182796
 10
33432.97787297
 20
-24439.71604183
  0
LWPOLYLINE
  5
285
100
AcDbEntity
  8
Ech.1_5
 62
   190
  6
CONTINUOUS
370
    -3
100
AcDbPolyline
 90
        4
 70
     1
 43
0.0
 10
33432.97787299
 20
-24826.54661309
 10
33432.97787299
 20
-24840.38092218
 10
33844.72478606
 20
-24990.24433796
 10
33849.17104792
 20
-24978.02833389
  0
LWPOLYLINE
  5
286
102
{ACAD_REACTORS
330
287
102
}
100
AcDbEntity
  8
Ech.1_5
 62
     7
  6
CONTINUOUS
370
    -3
100
AcDbPolyline
 90
        4
 70
     1
 43
0.0
 10
33432.97787299
 20
-24826.54661309
 10
33432.97787299
 20
-24840.38092218
 10
33844.72483413
 20
-24990.24420588
 10
33849.17109599
 20
-24978.02820181
  0
HATCH
  5
287
100
AcDbEntity
  8
Ech.1_5
 62
   190
  6
CONTINUOUS
100
AcDbHatch
 10
0.0
 20
0.0
 30
0.0
210
0.0
220
0.0
230
1.0
  2
DOTS2
 70
     0
 71
     1
 91
        1
 92
        7
 72
     0
 73
     1
 93
        4
 10
33432.97787299
 20
-24826.54661309
 10
33432.97787299
 20
-24840.38092218
 10
33844.72483413
 20
-24990.24420588
 10
33849.17109599
 20
-24978.02820181
 97
        1
330
286
 75
     0
 76
     2
 52
0.0
 41
4.72440952
 77
     0
 78
     1
 53
0.0
 43
0.0
 44
0.0
 45
3.75
 46
3.535
 79
     2
 49
0.0
 49
-3.535
 47
0.775229
 98
        1
 10
0.0
 20
0.0
  0
LWPOLYLINE
  5
288
100
AcDbEntity
  8
Ech.1_5
100
AcDbPolyline
 90
        4
 70
     0
 43
0.0
 10
33849.17104042
 20
-24978.02835451
 10
33432.97787299
 20
-24826.54661309
 10
33432.97787299
 20
-24840.38092218
 10
33844.72477855
 20
-24990.24435858
  0
LWPOLYLINE
  5
289
100
AcDbEntity
  8
Ech.1_5
 62
     7
  6
CONTINUOUS
370
    -3
100
AcDbPolyline
 90
        5
 70
     1
 43
0.0
 10
33876.70364862
 20
-24900.78512868
 10
33897.22495852
 20
-24844.4032932
 10
33449.13555919
 20
-24679.71604182
 10
33432.97787299
 20
-24679.71604182
 10
33432.97787299
 20
-24737.70164921
  0
LWPOLYLINE
  5
28A
100
AcDbEntity
  8
Ech.1_5
 62
     7
  6
CONTINUOUS
370
    70
100
AcDbPolyline
 90
        3
 70
     0
 43
0.0
 10
33461.16865217
 20
-24834.80721585
 10
33432.97787299
 20
-24824.54661309
 10
33404.74606204
 20
-24834.69377282
  0
CIRCLE
  5
28B
100
AcDbEntity
  8
Ech.1_5
 62
     7
  6
CONTINUOUS
370
    -3
100
AcDbCircle
 10
33292.5709728
 20
-24828.77135581
 30
0.0
 40
2.51802373
  0
LINE
  5
28C
100
AcDbEntity
  8
Ech.1_5
 62
     7
  6
CONTINUOUS
370
    -3
100
AcDbLine
 10
33275.33622512
 20
-24741.94791633
 30
0.0
 11
33311.73440097
 21
-24841.95108259
 31
0.0
  0
CIRCLE
  5
28D
100
AcDbEntity
  8
Ech.1_5
 62
     7
  6
CONTINUOUS
370
    -3
100
AcDbCircle
 10
33277.18006635
 20
-24786.48518788
 30
0.0
 40
2.51802373
  0
ARC
  5
28E
100
AcDbEntity
  8
Ech.1_5
 62
     7
  6
CONTINUOUS
370
    -3
100
AcDbCircle
 10
33281.6642371
 20
-24852.89572717
 30
0.0
 40
5.0
100
AcDbArc
 50
290.0
 51
20.0
  0
LINE
  5
28F
100
AcDbEntity
  8
Ech.1_5
 62
     7
  6
CONTINUOUS
370
    -3
100
AcDbLine
 10
33279.61556734
 20
-24858.96227085
 30
0.0
 11
33283.37433782
 21
-24857.59419028
 31
0.0
  0
ARC
  5
290
100
AcDbEntity
  8
Ech.1_5
 62
     7
  6
CONTINUOUS
370
    -3
100
AcDbCircle
 10
33290.66899044
 20
-24849.08139326
 30
0.0
 40
14.82598747
100
AcDbArc
 50
221.79417108
 51
258.13515835
  0
CIRCLE
  5
291
100
AcDbEntity
  8
Ech.1_5
 62
     7
  6
CONTINUOUS
370
    -3
100
AcDbCircle
 10
33287.44067065
 20
-24814.6759665
 30
0.0
 40
2.51802373
  0
CIRCLE
  5
292
100
AcDbEntity
  8
Ech.1_5
 62
     7
  6
CONTINUOUS
370
    -3
100
AcDbCircle
 10
33297.70127495
 20
-24842.86674513
 30
0.0
 40
2.51802373
  0
CIRCLE
  5
293
100
AcDbEntity
  8
Ech.1_5
 62
     7
  6
CONTINUOUS
370
    -3
100
AcDbCircle
 10
33282.3103685
 20
-24800.58057719
 30
0.0
 40
2.51802373
  0
ARC
  5
294
100
AcDbEntity
  8
Ech.1_5
 62
     7
  6
CONTINUOUS
370
    -3
100
AcDbCircle
 10
33307.08301624
 20
-24843.10717644
 30
0.0
 40
14.82598747
100
AcDbArc
 50
321.86484165
 51
358.20582892
  0
ARC
  5
295
100
AcDbEntity
  8
Ech.1_5
 62
     7
  6
CONTINUOUS
370
    -3
100
AcDbCircle
 10
33322.23386001
 20
-24850.74551268
 30
0.0
 40
3.80485997
100
AcDbArc
 50
203.49676661
 51
324.2539008
  0
ARC
  5
296
100
AcDbEntity
  8
Ech.1_5
 62
     7
  6
CONTINUOUS
370
    -3
100
AcDbCircle
 10
33313.05938762
 20
-24855.27152895
 30
0.0
 40
12.47697948
100
AcDbArc
 50
305.38781896
 51
10.63775604
  0
LINE
  5
297
100
AcDbEntity
  8
Ech.1_5
 62
     7
  6
CONTINUOUS
370
    -3
100
AcDbLine
 10
33321.90173527
 20
-24843.5713644
 30
0.0
 11
33318.14296479
 21
-24844.93944497
 31
0.0
  0
ARC
  5
298
100
AcDbEntity
  8
Ech.1_5
 62
     7
  6
CONTINUOUS
370
    -3
100
AcDbCircle
 10
33316.43286407
 20
-24840.24098187
 30
0.0
 40
5.0
100
AcDbArc
 50
200.0
 51
290.0
  0
LINE
  5
299
100
AcDbEntity
  8
Ech.1_5
 62
     7
  6
CONTINUOUS
370
    -3
100
AcDbLine
 10
33321.4648345
 20
-24853.39343284
 30
0.0
 11
33320.78079421
 21
-24851.5140476
 31
0.0
  0
LINE
  5
29A
100
AcDbEntity
  8
Ech.1_5
 62
     7
  6
CONTINUOUS
370
    -3
100
AcDbLine
 10
33321.4648345
 20
-24853.39343284
 30
0.0
 11
33325.34615399
 21
-24851.98074807
 31
0.0
  0
LINE
  5
29B
100
AcDbEntity
  8
Ech.1_5
 62
     7
  6
CONTINUOUS
370
    -3
100
AcDbLine
 10
33325.34615399
 20
-24851.98074807
 30
0.0
 11
33329.08091259
 21
-24862.241913
 31
0.0
  0
LINE
  5
29C
100
AcDbEntity
  8
Ech.1_5
 62
     7
  6
CONTINUOUS
370
    -3
100
AcDbLine
 10
33320.78079421
 20
-24851.5140476
 30
0.0
 11
33326.54149895
 21
-24849.41732255
 31
0.0
  0
LINE
  5
29D
100
AcDbEntity
  8
Ech.1_5
 62
     7
  6
CONTINUOUS
370
    -3
100
AcDbLine
 10
33326.54149895
 20
-24849.41732255
 30
0.0
 11
33331.64433812
 21
-24863.43725795
 31
0.0
  0
CIRCLE
  5
29E
100
AcDbEntity
  8
Ech.1_5
 62
     7
  6
CONTINUOUS
370
    -3
100
AcDbCircle
 10
33272.0497642
 20
-24772.38979857
 30
0.0
 40
2.51802373
  0
LINE
  5
29F
100
AcDbEntity
  8
Ech.1_5
 62
     7
  6
CONTINUOUS
370
    -3
100
AcDbLine
 10
33249.96452436
 20
-24751.1824602
 30
0.0
 11
33286.36270021
 21
-24851.18562646
 31
0.0
  0
CIRCLE
  5
2A0
100
AcDbEntity
  8
Ech.1_5
 62
     7
  6
CONTINUOUS
370
    -3
100
AcDbCircle
 10
33266.91946205
 20
-24758.29440926
 30
0.0
 40
2.51802373
  0
LINE
  5
2A1
100
AcDbEntity
  8
Ech.1_5
 62
     7
  6
CONTINUOUS
370
    -3
100
AcDbLine
 10
33249.96452436
 20
-24751.1824602
 30
0.0
 11
33275.33622512
 21
-24741.94791633
 31
0.0
  0
LINE
  5
2A2
100
AcDbEntity
  8
Ech.1_5
 62
     7
  6
CONTINUOUS
370
    -3
100
AcDbLine
 10
33329.08091259
 20
-24862.241913
 30
0.0
 11
33286.11719575
 21
-24877.87942708
 31
0.0
  0
LINE
  5
2A3
100
AcDbEntity
  8
Ech.1_5
 62
     7
  6
CONTINUOUS
370
    -3
100
AcDbLine
 10
33284.92185079
 20
-24880.44285261
 30
0.0
 11
33331.64433812
 21
-24863.43725795
 31
0.0
  0
ARC
  5
2A4
100
AcDbEntity
  8
Ech.1_5
 62
     7
  6
CONTINUOUS
370
    -3
100
AcDbCircle
 10
33283.97259865
 20
-24864.67147294
 30
0.0
 40
3.80485997
100
AcDbArc
 50
255.7460992
 51
16.5032334
  0
LINE
  5
2A5
100
AcDbEntity
  8
Ech.1_5
 62
     7
  6
CONTINUOUS
370
    -3
100
AcDbLine
 10
33258.2290276
 20
-24739.95071081
 30
0.0
 11
33258.2290276
 21
-24739.95071081
 31
0.0
  0
CIRCLE
  5
2A6
100
AcDbEntity
  8
Ech.1_5
 62
     7
  6
CONTINUOUS
370
    -3
100
AcDbCircle
 10
33573.38477317
 20
-24828.77135581
 30
0.0
 40
2.51802373
  0
LINE
  5
2A7
100
AcDbEntity
  8
Ech.1_5
 62
     7
  6
CONTINUOUS
370
    -3
100
AcDbLine
 10
33590.61952085
 20
-24741.94791633
 30
0.0
 11
33554.221345
 21
-24841.95108259
 31
0.0
  0
CIRCLE
  5
2A8
100
AcDbEntity
  8
Ech.1_5
 62
     7
  6
CONTINUOUS
370
    -3
100
AcDbCircle
 10
33588.77567962
 20
-24786.48518788
 30
0.0
 40
2.51802373
  0
ARC
  5
2A9
100
AcDbEntity
  8
Ech.1_5
 62
     7
  6
CONTINUOUS
370
    -3
100
AcDbCircle
 10
33584.29150887
 20
-24852.89572717
 30
0.0
 40
5.0
100
AcDbArc
 50
160.0
 51
250.0
  0
LINE
  5
2AA
100
AcDbEntity
  8
Ech.1_5
 62
     7
  6
CONTINUOUS
370
    -3
100
AcDbLine
 10
33586.34017863
 20
-24858.96227085
 30
0.0
 11
33582.58140815
 21
-24857.59419028
 31
0.0
  0
ARC
  5
2AB
100
AcDbEntity
  8
Ech.1_5
 62
     7
  6
CONTINUOUS
370
    -3
100
AcDbCircle
 10
33575.28675553
 20
-24849.08139326
 30
0.0
 40
14.82598747
100
AcDbArc
 50
281.86484165
 51
318.20582892
  0
CIRCLE
  5
2AC
100
AcDbEntity
  8
Ech.1_5
 62
     7
  6
CONTINUOUS
370
    -3
100
AcDbCircle
 10
33578.51507532
 20
-24814.6759665
 30
0.0
 40
2.51802373
  0
CIRCLE
  5
2AD
100
AcDbEntity
  8
Ech.1_5
 62
     7
  6
CONTINUOUS
370
    -3
100
AcDbCircle
 10
33568.25447102
 20
-24842.86674513
 30
0.0
 40
2.51802373
  0
CIRCLE
  5
2AE
100
AcDbEntity
  8
Ech.1_5
 62
     7
  6
CONTINUOUS
370
    -3
100
AcDbCircle
 10
33583.64537747
 20
-24800.58057719
 30
0.0
 40
2.51802373
  0
ARC
  5
2AF
100
AcDbEntity
  8
Ech.1_5
 62
     7
  6
CONTINUOUS
370
    -3
100
AcDbCircle
 10
33558.87272974
 20
-24843.10717644
 30
0.0
 40
14.82598747
100
AcDbArc
 50
181.79417108
 51
218.13515835
  0
ARC
  5
2B0
100
AcDbEntity
  8
Ech.1_5
 62
     7
  6
CONTINUOUS
370
    -3
100
AcDbCircle
 10
33543.72188596
 20
-24850.74551268
 30
0.0
 40
3.80485997
100
AcDbArc
 50
215.7460992
 51
336.50323339
  0
ARC
  5
2B1
100
AcDbEntity
  8
Ech.1_5
 62
     7
  6
CONTINUOUS
370
    -3
100
AcDbCircle
 10
33552.89635835
 20
-24855.27152895
 30
0.0
 40
12.47697948
100
AcDbArc
 50
169.36224396
 51
234.61218104
  0
LINE
  5
2B2
100
AcDbEntity
  8
Ech.1_5
 62
     7
  6
CONTINUOUS
370
    -3
100
AcDbLine
 10
33544.0540107
 20
-24843.5713644
 30
0.0
 11
33547.81278118
 21
-24844.93944497
 31
0.0
  0
ARC
  5
2B3
100
AcDbEntity
  8
Ech.1_5
 62
     7
  6
CONTINUOUS
370
    -3
100
AcDbCircle
 10
33549.5228819
 20
-24840.24098187
 30
0.0
 40
5.0
100
AcDbArc
 50
250.0
 51
340.0
  0
LINE
  5
2B4
100
AcDbEntity
  8
Ech.1_5
 62
     7
  6
CONTINUOUS
370
    -3
100
AcDbLine
 10
33544.49091148
 20
-24853.39343284
 30
0.0
 11
33545.17495176
 21
-24851.5140476
 31
0.0
  0
LINE
  5
2B5
100
AcDbEntity
  8
Ech.1_5
 62
     7
  6
CONTINUOUS
370
    -3
100
AcDbLine
 10
33544.49091148
 20
-24853.39343284
 30
0.0
 11
33540.60959198
 21
-24851.98074807
 31
0.0
  0
LINE
  5
2B6
100
AcDbEntity
  8
Ech.1_5
 62
     7
  6
CONTINUOUS
370
    -3
100
AcDbLine
 10
33540.60959198
 20
-24851.98074807
 30
0.0
 11
33536.87483338
 21
-24862.241913
 31
0.0
  0
LINE
  5
2B7
100
AcDbEntity
  8
Ech.1_5
 62
     7
  6
CONTINUOUS
370
    -3
100
AcDbLine
 10
33545.17495176
 20
-24851.5140476
 30
0.0
 11
33539.41424702
 21
-24849.41732255
 31
0.0
  0
LINE
  5
2B8
100
AcDbEntity
  8
Ech.1_5
 62
     7
  6
CONTINUOUS
370
    -3
100
AcDbLine
 10
33539.41424702
 20
-24849.41732255
 30
0.0
 11
33534.31140785
 21
-24863.43725795
 31
0.0
  0
CIRCLE
  5
2B9
100
AcDbEntity
  8
Ech.1_5
 62
     7
  6
CONTINUOUS
370
    -3
100
AcDbCircle
 10
33593.90598177
 20
-24772.38979857
 30
0.0
 40
2.51802373
  0
LINE
  5
2BA
100
AcDbEntity
  8
Ech.1_5
 62
     7
  6
CONTINUOUS
370
    -3
100
AcDbLine
 10
33615.99122161
 20
-24751.1824602
 30
0.0
 11
33579.59304576
 21
-24851.18562646
 31
0.0
  0
CIRCLE
  5
2BB
100
AcDbEntity
  8
Ech.1_5
 62
     7
  6
CONTINUOUS
370
    -3
100
AcDbCircle
 10
33599.03628392
 20
-24758.29440926
 30
0.0
 40
2.51802373
  0
LINE
  5
2BC
100
AcDbEntity
  8
Ech.1_5
 62
     7
  6
CONTINUOUS
370
    -3
100
AcDbLine
 10
33615.99122161
 20
-24751.1824602
 30
0.0
 11
33590.61952085
 21
-24741.94791633
 31
0.0
  0
LINE
  5
2BD
100
AcDbEntity
  8
Ech.1_5
 62
     7
  6
CONTINUOUS
370
    -3
100
AcDbLine
 10
33536.87483338
 20
-24862.241913
 30
0.0
 11
33579.83855022
 21
-24877.87942708
 31
0.0
  0
LINE
  5
2BE
100
AcDbEntity
  8
Ech.1_5
 62
     7
  6
CONTINUOUS
370
    -3
100
AcDbLine
 10
33581.03389518
 20
-24880.44285261
 30
0.0
 11
33534.31140785
 21
-24863.43725795
 31
0.0
  0
ARC
  5
2BF
100
AcDbEntity
  8
Ech.1_5
 62
     7
  6
CONTINUOUS
370
    -3
100
AcDbCircle
 10
33581.98314732
 20
-24864.67147294
 30
0.0
 40
3.80485997
100
AcDbArc
 50
163.4967666
 51
284.2539008
  0
LINE
  5
2C0
100
AcDbEntity
  8
Ech.1_5
 62
     7
  6
CONTINUOUS
370
    -3
100
AcDbLine
 10
33607.72671837
 20
-24739.95071081
 30
0.0
 11
33607.72671837
 21
-24739.95071081
 31
0.0
  0
LWPOLYLINE
  5
2C1
100
AcDbEntity
  8
Ech.1_5
 62
   190
  6
CONTINUOUS
370
    -3
100
AcDbPolyline
 90
        4
 70
     0
 43
0.0
 10
33597.41359475
 20
-24928.3197559
 10
33684.05341203
 20
-24676.25185116
 10
33677.56797617
 20
-24682.51884746
 10
33771.9768594
 20
-24407.84054028
  0
LINE
  5
2C2
100
AcDbEntity
  8
Ech.1_5
 62
     9
  6
CADWORK_22
370
    35
100
AcDbLine
 10
33481.64642529
 20
-24370.69945159
 30
2500.0
 11
34000.8570338
 21
-24559.67650637
 31
2500.0
  0
LINE
  5
2C3
100
AcDbEntity
  8
Ech.1_5
 62
     9
  6
CADWORK_22
370
    35
100
AcDbLine
 10
32865.09871215
 20
-24559.67650637
 30
2500.0
 11
33384.30932066
 21
-24370.69945159
 31
2500.0
  0
LWPOLYLINE
  5
2C4
100
AcDbEntity
  8
Ech.1_5
 62
     7
  6
CONTINUOUS
370
    -3
100
AcDbPolyline
 90
       89
 70
     0
 43
0.0
 10
33542.50382883
 20
-24377.94262438
 10
33537.95982614
 20
-24376.37284337
 10
33533.39250063
 20
-24374.81665482
 10
33528.77852948
 20
-24373.28765116
 10
33524.09458987
 20
-24371.79942486
 10
33519.31735896
 20
-24370.36556835
 10
33514.42351395
 20
-24368.99967411
 10
33509.38973201
 20
-24367.71533456
 10
33504.19269032
 20
-24366.52614217
 10
33498.83060616
 20
-24365.42760676
 10
33493.40510549
 20
-24364.32842799
 10
33488.04880835
 20
-24363.11128643
 10
33482.89434055
 20
-24361.65885777
 10
33478.07432795
 20
-24359.8538177
 10
33473.72139637
 20
-24357.5788419
 10
33469.96817165
 20
-24354.71660607
 10
33466.94727963
 20
-24351.1497859
 10
33464.78263977
 20
-24346.79560376
 10
33463.52296456
 20
-24341.8697017
 10
33463.17848343
 20
-24336.74042163
 10
33463.72404435
 20
-24331.72686449
 10
33464.94385162
 20
-24326.87375053
 10
33466.55815063
 20
-24322.13305404
 10
33468.34950576
 20
-24317.4616953
 10
33470.22190826
 20
-24312.82636631
 10
33472.09376343
 20
-24308.19501841
 10
33473.92440877
 20
-24303.54855092
 10
33475.74776807
 20
-24298.89145685
 10
33477.60597869
 20
-24294.23156654
 10
33479.54826695
 20
-24289.59690853
 10
33481.63116416
 20
-24285.03632494
 10
33483.91153665
 20
-24280.59961245
 10
33486.4448478
 20
-24276.33524308
 10
33489.25067506
 20
-24272.25780406
 10
33492.31057672
 20
-24268.34598359
 10
33495.604281
 20
-24264.57674188
 10
33499.11151612
 20
-24260.92703915
 10
33502.81201033
 20
-24257.37383561
 10
33506.6886451
 20
-24253.91738694
 10
33510.73706125
 20
-24250.65221144
 10
33514.95612639
 20
-24247.69666631
 10
33519.34470815
 20
-24245.16910875
 10
33523.90167416
 20
-24243.18789596
 10
33528.62589204
 20
-24241.87138516
 10
33533.51081282
 20
-24241.32363654
 10
33538.49983873
 20
-24241.516607
 10
33543.50931691
 20
-24242.35084191
 10
33548.45532956
 20
-24243.72618734
 10
33553.25398816
 20
-24245.54248874
 10
33557.85314462
 20
-24247.69891814
 10
33562.29287458
 20
-24250.09269092
 10
33566.62990971
 20
-24252.62066908
 10
33570.92098167
 20
-24255.17971462
 10
33575.22282212
 20
-24257.66668954
 10
33579.59216272
 20
-24259.97845583
 10
33584.08471389
 20
-24262.01380037
 10
33588.72054475
 20
-24263.73868662
 10
33593.47564613
 20
-24265.2021568
 10
33598.32327625
 20
-24266.45840354
 10
33603.23669332
 20
-24267.56161946
 10
33608.18915555
 20
-24268.56599718
 10
33613.15392117
 20
-24269.52572932
 10
33618.10438273
 20
-24270.49475524
 10
33623.02537897
 20
-24271.50543343
 10
33627.92177261
 20
-24272.5523689
 10
33632.8004463
 20
-24273.6263582
 10
33637.66828271
 20
-24274.71819789
 10
33642.53216449
 20
-24275.81868453
 10
33647.39897429
 20
-24276.91861468
 10
33652.27559479
 20
-24278.00878489
 10
33657.16858659
 20
-24279.07942693
 10
33662.07954193
 20
-24280.1120591
 10
33667.00615038
 20
-24281.08135529
 10
33671.94599654
 20
-24281.96180525
 10
33676.89666497
 20
-24282.72789872
 10
33681.85574026
 20
-24283.35412546
 10
33686.82080698
 20
-24283.8149752
 10
33691.78946389
 20
-24284.0852261
 10
33696.76013972
 20
-24284.15654334
 10
33701.73253799
 20
-24284.04653033
 10
33706.70647057
 20
-24283.77499427
 10
33711.68174931
 20
-24283.36174236
 10
33716.65818605
 20
-24282.82658181
 10
33721.63559265
 20
-24282.18931982
 10
33726.61378096
 20
-24281.46976359
 10
33731.59256283
 20
-24280.68772032
 10
33736.57175012
 20
-24279.86299721
 10
33741.55115467
 20
-24279.01540147
 10
33742.32179207
 20
-24278.883452
  0
LWPOLYLINE
  5
2C5
102
{ACAD_REACTORS
330
2C6
102
}
100
AcDbEntity
  8
Ech.1_5
 62
     7
  6
CONTINUOUS
100
AcDbPolyline
 90
        3
 70
     1
 43
0.0
 10
33740.43375082
 20
-24276.54328794
 10
33755.63960414
 20
-24266.88589422
 10
33744.20983332
 20
-24281.22361606
  0
HATCH
  5
2C6
100
AcDbEntity
  8
Ech.1_5
 62
     7
  6
CONTINUOUS
100
AcDbHatch
 10
0.0
 20
0.0
 30
0.0
210
0.0
220
0.0
230
1.0
  2
SOLID
 70
     1
 71
     1
 91
        1
 92
        7
 72
     0
 73
     1
 93
        3
 10
33740.43375082
 20
-24276.54328794
 10
33755.63960414
 20
-24266.88589422
 10
33744.20983332
 20
-24281.22361606
 97
        1
330
2C5
 75
     0
 76
     2
 47
0.775229
 98
        1
 10
0.0
 20
0.0
  0
LWPOLYLINE
  5
2C7
100
AcDbEntity
  8
Ech.1_5
 62
     7
  6
CONTINUOUS
370
    -3
100
AcDbPolyline
 90
      188
 70
     0
 43
0.0
 10
33974.75629576
 20
-24596.73762486
 10
33970.34851027
 20
-24595.0842992
 10
33965.94042714
 20
-24593.43096521
 10
33961.53174871
 20
-24591.77761454
 10
33957.12217733
 20
-24590.12423886
 10
33952.71141535
 20
-24588.47082983
 10
33948.29916513
 20
-24586.81737911
 10
33943.88512901
 20
-24585.16387838
 10
33939.46900935
 20
-24583.51031928
 10
33935.05050849
 20
-24581.8566935
 10
33930.62932879
 20
-24580.20299267
 10
33926.20517259
 20
-24578.54920848
 10
33921.77774226
 20
-24576.89533258
 10
33917.34674013
 20
-24575.24135664
 10
33912.91186857
 20
-24573.58727231
 10
33908.47282991
 20
-24571.93307127
 10
33904.02932652
 20
-24570.27874518
 10
33899.58106074
 20
-24568.62428569
 10
33895.12773492
 20
-24566.96968447
 10
33890.66905141
 20
-24565.31493319
 10
33886.20471257
 20
-24563.6600235
 10
33881.73442075
 20
-24562.00494708
 10
33877.25787829
 20
-24560.34969558
 10
33872.77478755
 20
-24558.69426066
 10
33868.28485087
 20
-24557.038634
 10
33863.78777061
 20
-24555.38280725
 10
33859.28324912
 20
-24553.72677207
 10
33854.77098876
 20
-24552.07052013
 10
33850.25069186
 20
-24550.4140431
 10
33845.72206078
 20
-24548.75733262
 10
33841.18479788
 20
-24547.10038038
 10
33836.63860549
 20
-24545.44317803
 10
33832.08318598
 20
-24543.78571722
 10
33827.5182417
 20
-24542.12798964
 10
33822.94347499
 20
-24540.46998694
 10
33818.35858821
 20
-24538.81170078
 10
33813.7632837
 20
-24537.15312282
 10
33809.15726382
 20
-24535.49424473
 10
33804.54023092
 20
-24533.83505818
 10
33799.91188734
 20
-24532.17555482
 10
33795.27193545
 20
-24530.51572632
 10
33790.62007759
 20
-24528.85556434
 10
33785.9560161
 20
-24527.19506054
 10
33781.27945335
 20
-24525.53420659
 10
33776.59009168
 20
-24523.87299415
 10
33771.88763345
 20
-24522.21141488
 10
33767.171781
 20
-24520.54946045
 10
33762.44223668
 20
-24518.88712251
 10
33757.69870285
 20
-24517.22439274
 10
33752.94088186
 20
-24515.5612628
 10
33748.16847605
 20
-24513.89772434
 10
33743.38118778
 20
-24512.23376903
 10
33738.5787194
 20
-24510.56938854
 10
33733.76077326
 20
-24508.90457452
 10
33728.92705171
 20
-24507.23931865
 10
33724.0772571
 20
-24505.57361258
 10
33719.21109178
 20
-24503.90744797
 10
33714.32825811
 20
-24502.24081649
 10
33709.42845842
 20
-24500.57370981
 10
33704.51139509
 20
-24498.90611958
 10
33699.57677044
 20
-24497.23803747
 10
33694.62428684
 20
-24495.56945514
 10
33689.65364664
 20
-24493.90036425
 10
33684.66455219
 20
-24492.23075647
 10
33679.65670583
 20
-24490.56062346
 10
33674.62980992
 20
-24488.88995689
 10
33669.58356681
 20
-24487.21874841
 10
33664.51767885
 20
-24485.54698969
 10
33659.43184839
 20
-24483.87467239
 10
33654.32577778
 20
-24482.20178818
 10
33649.19916938
 20
-24480.52832872
 10
33644.05172552
 20
-24478.85428567
 10
33638.88314858
 20
-24477.17965069
 10
33633.69314088
 20
-24475.50441545
 10
33628.48140479
 20
-24473.82857161
 10
33623.24764266
 20
-24472.15211084
 10
33617.99155683
 20
-24470.47502479
 10
33612.71284967
 20
-24468.79730513
 10
33607.4112235
 20
-24467.11894352
 10
33602.08639273
 20
-24465.43992404
 10
33596.74037013
 20
-24463.75877955
 10
33591.3801785
 20
-24462.07087963
 10
33586.01350061
 20
-24460.37117717
 10
33580.64801922
 20
-24458.65462506
 10
33575.29141709
 20
-24456.91617619
 10
33569.95137698
 20
-24455.15078345
 10
33564.63558165
 20
-24453.35339973
 10
33559.35171387
 20
-24451.51897791
 10
33554.10745638
 20
-24449.64247088
 10
33548.91049196
 20
-24447.71883153
 10
33543.76850337
 20
-24445.74301276
 10
33538.68917336
 20
-24443.70996744
 10
33533.6801847
 20
-24441.61464847
 10
33528.74922015
 20
-24439.45200873
 10
33523.90396247
 20
-24437.21700112
 10
33519.15209442
 20
-24434.90457852
 10
33514.50129877
 20
-24432.50969383
 10
33509.95925826
 20
-24430.02729992
 10
33505.53365567
 20
-24427.45234969
 10
33501.23217376
 20
-24424.77979602
 10
33497.06249528
 20
-24422.00459182
 10
33493.032303
 20
-24419.12168995
 10
33489.14927968
 20
-24416.12604332
 10
33485.42110808
 20
-24413.01260481
 10
33481.85547096
 20
-24409.7763273
 10
33478.46005108
 20
-24406.4121637
 10
33475.2425312
 20
-24402.91506688
 10
33472.21059409
 20
-24399.27998974
 10
33469.3719225
 20
-24395.50188515
 10
33466.7341992
 20
-24391.57570603
 10
33464.30510694
 20
-24387.49640524
 10
33462.0923285
 20
-24383.25893568
 10
33460.10354662
 20
-24378.85825023
 10
33458.34644407
 20
-24374.2893018
 10
33456.83507136
 20
-24369.55095884
 10
33455.639746
 20
-24364.67668895
 10
33454.86011877
 20
-24359.71799701
 10
33454.5693183
 20
-24354.72282851
 10
33454.69186814
 20
-24349.71850934
 10
33455.10181627
 20
-24344.72506739
 10
33455.70806933
 20
-24339.75427607
 10
33456.46760562
 20
-24334.80655039
 10
33457.34090588
 20
-24329.88147781
 10
33458.2884508
 20
-24324.97864579
 10
33459.27418935
 20
-24320.09590877
 10
33460.28175606
 20
-24315.22128456
 10
33461.30172229
 20
-24310.33932479
 10
33462.32466716
 20
-24305.43457717
 10
33463.34117292
 20
-24300.49159213
 10
33464.35453837
 20
-24295.50596846
 10
33465.40973007
 20
-24290.50950648
 10
33466.56023563
 20
-24285.54140974
 10
33467.85954267
 20
-24280.64088181
 10
33469.3611388
 20
-24275.84712625
 10
33471.11851164
 20
-24271.1993466
 10
33473.18514882
 20
-24266.73674644
 10
33475.61414254
 20
-24262.49809676
 10
33478.41761133
 20
-24258.47734574
 10
33481.5315478
 20
-24254.58516419
 10
33484.88366135
 20
-24250.72316156
 10
33488.40620288
 20
-24246.80623868
 10
33492.07314763
 20
-24242.87140787
 10
33495.8809222
 20
-24239.02138829
 10
33499.82616964
 20
-24235.3595326
 10
33503.90553303
 20
-24231.98919346
 10
33508.11565542
 20
-24229.01372352
 10
33512.45317988
 20
-24226.53647545
 10
33516.91474948
 20
-24224.6608019
 10
33521.49700727
 20
-24223.49005552
 10
33526.19621548
 20
-24223.12652059
 10
33530.98359038
 20
-24223.60221859
 10
33535.79020918
 20
-24224.83656671
 10
33540.5435375
 20
-24226.73885036
 10
33545.17104097
 20
-24229.21835497
 10
33549.60018522
 20
-24232.18436595
 10
33553.75843587
 20
-24235.54616873
 10
33557.57325854
 20
-24239.21304872
 10
33561.01836942
 20
-24243.07310876
 10
33564.28758753
 20
-24246.91364538
 10
33567.64013651
 20
-24250.49200005
 10
33571.32863869
 20
-24253.57204819
 10
33575.44656607
 20
-24256.07505596
 10
33579.9242076
 20
-24258.08366837
 10
33584.68443355
 20
-24259.68786705
 10
33589.6501142
 20
-24260.97763368
 10
33594.74411981
 20
-24262.04294989
 10
33599.88932066
 20
-24262.97379735
 10
33605.00858702
 20
-24263.8601577
 10
33610.03241786
 20
-24264.78480214
 10
33614.95786182
 20
-24265.76760066
 10
33619.816298
 20
-24266.79597496
 10
33624.63939113
 20
-24267.85707674
 10
33629.45880593
 20
-24268.9380577
 10
33634.30620715
 20
-24270.02606954
 10
33639.21325952
 20
-24271.10826397
 10
33644.21139605
 20
-24272.1715718
 10
33649.30667143
 20
-24273.17873278
 10
33654.45722077
 20
-24274.04680888
 10
33659.6158599
 20
-24274.68779163
 10
33664.73540462
 20
-24275.01367254
 10
33669.76867078
 20
-24274.93644315
 10
33674.66847419
 20
-24274.36809497
 10
33679.38763067
 20
-24273.22061954
 10
33683.88206535
 20
-24271.41346547
 10
33688.16162367
 20
-24268.99539951
 10
33692.28180018
 20
-24266.12466951
 10
33696.29953006
 20
-24262.96297843
 10
33699.47565494
 20
-24260.33492883
  0
LWPOLYLINE
  5
2C8
100
AcDbEntity
  8
Ech.1_5
 62
   190
  6
CONTINUOUS
370
    -3
100
AcDbPolyline
 90
        4
 70
     0
 43
0.0
 10
33268.54215123
 20
-24928.3197559
 10
33181.90233394
 20
-24676.25185116
 10
33188.3877698
 20
-24682.51884746
 10
33093.97888657
 20
-24407.84054028
  0
LWPOLYLINE
  5
2C9
100
AcDbEntity
  8
Ech.1_5
 62
   190
  6
CONTINUOUS
370
    -3
100
AcDbPolyline
 90
        4
 70
     0
 43
0.0
 10
33270.97257443
 20
-24927.00269553
 10
33188.13447348
 20
-24685.99541744
 10
33194.61990934
 20
-24692.26241373
 10
33096.33697204
 20
-24406.31272425
  0
LWPOLYLINE
  5
2CA
100
AcDbEntity
  8
Ech.1_5
 62
   190
  6
CONTINUOUS
370
    -3
100
AcDbPolyline
 90
        4
 70
     0
 43
0.0
 10
33594.98317154
 20
-24927.00269553
 10
33677.82127249
 20
-24685.99541744
 10
33671.33583663
 20
-24692.26241373
 10
33769.61877393
 20
-24406.31272425
  0
LWPOLYLINE
  5
2CB
100
AcDbEntity
  8
Ech.1_5
 62
   190
  6
CONTINUOUS
370
    50
100
AcDbPolyline
 90
       54
 70
     0
 43
0.0
 10
33431.0685346
 20
-24185.30855493
 10
33426.12510933
 20
-24185.26976796
 10
33421.16979465
 20
-24185.23913223
 10
33416.19070115
 20
-24185.22479898
 10
33411.17593942
 20
-24185.23491945
 10
33406.11362006
 20
-24185.27764487
 10
33400.99449749
 20
-24185.36404956
 10
33395.8551352
 20
-24185.55585522
 10
33390.77085794
 20
-24185.95763877
 10
33385.81821239
 20
-24186.67532812
 10
33381.07374525
 20
-24187.81485116
 10
33376.61058247
 20
-24189.47707035
 10
33372.44291697
 20
-24191.67557909
 10
33368.53525326
 20
-24194.35039141
 10
33364.85054097
 20
-24197.4392188
 10
33361.35172973
 20
-24200.87977276
 10
33358.00176914
 20
-24204.6097648
 10
33354.76360885
 20
-24208.5669064
 10
33351.60019846
 20
-24212.68890907
 10
33348.4744876
 20
-24216.91348432
 10
33345.3494259
 20
-24221.17834363
 10
33342.18796297
 20
-24225.42119851
 10
33338.95304844
 20
-24229.57976046
 10
33335.60763192
 20
-24233.59174098
 10
33332.11466328
 20
-24237.39485189
 10
33328.44570165
 20
-24240.93906563
 10
33324.60370369
 20
-24244.21906834
 10
33320.59878155
 20
-24247.23973639
 10
33316.4410474
 20
-24250.00594616
 10
33312.14061339
 20
-24252.52257404
 10
33307.70763827
 20
-24254.79460902
 10
33303.15684175
 20
-24256.83806281
 10
33298.51127411
 20
-24258.68908002
 10
33293.794873
 20
-24260.38594989
 10
33289.03157609
 20
-24261.96696165
 10
33284.24432377
 20
-24263.46890452
 10
33279.44311285
 20
-24264.9090988
 10
33274.62890011
 20
-24266.29126736
 10
33269.80245741
 20
-24267.61885493
 10
33264.9645566
 20
-24268.89530623
 10
33260.11596955
 20
-24270.124066
 10
33255.25746812
 20
-24271.30857898
 10
33250.38982418
 20
-24272.4522899
 10
33245.51380957
 20
-24273.55864349
 10
33240.63019617
 20
-24274.63108448
 10
33235.73975583
 20
-24275.67305761
 10
33230.84326042
 20
-24276.68800761
 10
33225.9414818
 20
-24277.67937921
 10
33221.03519183
 20
-24278.65061715
 10
33216.12516237
 20
-24279.60516616
 10
33211.21216528
 20
-24280.54647097
 10
33206.29697242
 20
-24281.47797632
 10
33201.38035566
 20
-24282.40312694
 10
33197.22641939
 20
-24283.18225757
  0
LWPOLYLINE
  5
2CC
100
AcDbEntity
  8
Ech.1_5
 62
   190
  6
CONTINUOUS
370
    50
100
AcDbPolyline
 90
       52
 70
     0
 43
0.0
 10
33431.0685346
 20
-24185.30855493
 10
33436.01195592
 20
-24185.26978575
 10
33440.96726748
 20
-24185.23916406
 10
33445.94635952
 20
-24185.22483738
 10
33450.96112228
 20
-24185.2349532
 10
33456.02344599
 20
-24185.27765904
 10
33461.14257691
 20
-24185.3640262
 10
33466.28194935
 20
-24185.55578621
 10
33471.36623397
 20
-24185.9575367
 10
33476.31887939
 20
-24186.67522659
 10
33481.06333426
 20
-24187.81480482
 10
33485.52646824
 20
-24189.47715354
 10
33489.69408909
 20
-24191.67586309
 10
33493.60169724
 20
-24194.35092523
 10
33497.28634817
 20
-24197.44002857
 10
33500.78509733
 20
-24200.88086175
 10
33504.13500018
 20
-24204.61111339
 10
33507.3731122
 20
-24208.56847211
 10
33510.53648884
 20
-24212.69062654
 10
33513.66218558
 20
-24216.9152653
 10
33516.78725786
 20
-24221.18007703
 10
33519.94876117
 20
-24225.42275035
 10
33523.18375095
 20
-24229.58097388
 10
33526.52928268
 20
-24233.59243625
 10
33530.02241159
 20
-24237.39482642
 10
33533.6915719
 20
-24240.93814666
 10
33537.53375756
 20
-24244.21730528
 10
33541.53879726
 20
-24247.23744462
 10
33545.69651971
 20
-24250.00370702
 10
33549.99675361
 20
-24252.52123484
 10
33554.42928237
 20
-24254.79527713
 10
33558.97945697
 20
-24256.84152777
 10
33563.62453252
 20
-24258.69475796
 10
33568.34090178
 20
-24260.39177109
 10
33573.10495746
 20
-24261.96937055
 10
33577.89406746
 20
-24263.46295909
 10
33582.69825596
 20
-24264.88976028
 10
33587.5163866
 20
-24266.25430105
 10
33592.34750381
 20
-24267.5608486
 10
33597.19065202
 20
-24268.81367016
 10
33602.04487566
 20
-24270.01703292
 10
33606.90921917
 20
-24271.17520412
 10
33611.78272698
 20
-24272.29245096
 10
33616.66444351
 20
-24273.37304066
 10
33621.5534132
 20
-24274.42124044
 10
33626.44868048
 20
-24275.4413175
 10
33631.34928979
 20
-24276.43753907
 10
33636.25428555
 20
-24277.41417235
 10
33641.1627122
 20
-24278.37548457
 10
33646.07361416
 20
-24279.32574294
 10
33650.98603587
 20
-24280.26921466
 10
33653.88672441
 20
-24280.82479715
  0
LWPOLYLINE
  5
2CD
102
{ACAD_REACTORS
330
2CE
102
}
100
AcDbEntity
  8
Ech.1_5
 62
     7
  6
CONTINUOUS
100
AcDbPolyline
 90
        3
 70
     1
 43
0.0
 10
33698.00453413
 20
-24257.59994629
 10
33713.21038746
 20
-24247.94255257
 10
33701.78061663
 20
-24262.28027441
  0
HATCH
  5
2CE
100
AcDbEntity
  8
Ech.1_5
 62
     7
  6
CONTINUOUS
100
AcDbHatch
 10
0.0
 20
0.0
 30
0.0
210
0.0
220
0.0
230
1.0
  2
SOLID
 70
     1
 71
     1
 91
        1
 92
        7
 72
     0
 73
     1
 93
        3
 10
33698.00453413
 20
-24257.59994629
 10
33713.21038746
 20
-24247.94255257
 10
33701.78061663
 20
-24262.28027441
 97
        1
330
2CD
 75
     0
 76
     2
 47
0.775229
 98
        1
 10
0.0
 20
0.0
  0
LWPOLYLINE
  5
2CF
100
AcDbEntity
  8
Ech.1_5
 62
     7
  6
CONTINUOUS
370
    -3
100
AcDbPolyline
 90
       89
 70
     0
 43
0.0
 10
33323.45191712
 20
-24377.94262438
 10
33327.99591981
 20
-24376.37284337
 10
33332.56324531
 20
-24374.81665482
 10
33337.17721647
 20
-24373.28765116
 10
33341.86115608
 20
-24371.79942486
 10
33346.63838698
 20
-24370.36556835
 10
33351.53223199
 20
-24368.99967411
 10
33356.56601393
 20
-24367.71533456
 10
33361.76305563
 20
-24366.52614217
 10
33367.12513979
 20
-24365.42760676
 10
33372.55064045
 20
-24364.32842799
 10
33377.9069376
 20
-24363.11128643
 10
33383.06140539
 20
-24361.65885777
 10
33387.881418
 20
-24359.8538177
 10
33392.23434958
 20
-24357.5788419
 10
33395.98757429
 20
-24354.71660607
 10
33399.00846632
 20
-24351.1497859
 10
33401.17310617
 20
-24346.79560376
 10
33402.43278139
 20
-24341.8697017
 10
33402.77726252
 20
-24336.74042163
 10
33402.23170159
 20
-24331.72686449
 10
33401.01189433
 20
-24326.87375053
 10
33399.39759531
 20
-24322.13305404
 10
33397.60624019
 20
-24317.4616953
 10
33395.73383768
 20
-24312.82636631
 10
33393.86198252
 20
-24308.19501841
 10
33392.03133717
 20
-24303.54855092
 10
33390.20797787
 20
-24298.89145685
 10
33388.34976726
 20
-24294.23156654
 10
33386.40747899
 20
-24289.59690853
 10
33384.32458178
 20
-24285.03632494
 10
33382.0442093
 20
-24280.59961245
 10
33379.51089815
 20
-24276.33524308
 10
33376.70507089
 20
-24272.25780406
 10
33373.64516923
 20
-24268.34598359
 10
33370.35146495
 20
-24264.57674188
 10
33366.84422982
 20
-24260.92703915
 10
33363.14373562
 20
-24257.37383561
 10
33359.26710084
 20
-24253.91738694
 10
33355.2186847
 20
-24250.65221144
 10
33350.99961956
 20
-24247.69666631
 10
33346.61103779
 20
-24245.16910875
 10
33342.05407179
 20
-24243.18789596
 10
33337.32985391
 20
-24241.87138516
 10
33332.44493312
 20
-24241.32363654
 10
33327.45590722
 20
-24241.516607
 10
33322.44642904
 20
-24242.35084191
 10
33317.50041639
 20
-24243.72618734
 10
33312.70175779
 20
-24245.54248874
 10
33308.10260133
 20
-24247.69891814
 10
33303.66287137
 20
-24250.09269092
 10
33299.32583624
 20
-24252.62066908
 10
33295.03476428
 20
-24255.17971462
 10
33290.73292383
 20
-24257.66668954
 10
33286.36358322
 20
-24259.97845583
 10
33281.87103206
 20
-24262.01380037
 10
33277.2352012
 20
-24263.73868662
 10
33272.48009981
 20
-24265.2021568
 10
33267.6324697
 20
-24266.45840354
 10
33262.71905263
 20
-24267.56161946
 10
33257.7665904
 20
-24268.56599718
 10
33252.80182477
 20
-24269.52572932
 10
33247.85136322
 20
-24270.49475524
 10
33242.93036697
 20
-24271.50543343
 10
33238.03397334
 20
-24272.5523689
 10
33233.15529964
 20
-24273.6263582
 10
33228.28746324
 20
-24274.71819789
 10
33223.42358146
 20
-24275.81868453
 10
33218.55677165
 20
-24276.91861468
 10
33213.68015116
 20
-24278.00878489
 10
33208.78715936
 20
-24279.07942693
 10
33203.87620402
 20
-24280.1120591
 10
33198.94959556
 20
-24281.08135529
 10
33194.00974941
 20
-24281.96180525
 10
33189.05908098
 20
-24282.72789872
 10
33184.10000569
 20
-24283.35412546
 10
33179.13493897
 20
-24283.8149752
 10
33174.16628206
 20
-24284.0852261
 10
33169.19560623
 20
-24284.15654334
 10
33164.22320795
 20
-24284.04653033
 10
33159.24927538
 20
-24283.77499427
 10
33154.27399664
 20
-24283.36174236
 10
33149.2975599
 20
-24282.82658181
 10
33144.3201533
 20
-24282.18931982
 10
33139.34196499
 20
-24281.46976359
 10
33134.36318312
 20
-24280.68772032
 10
33129.38399583
 20
-24279.86299721
 10
33124.40459128
 20
-24279.01540147
 10
33123.63395388
 20
-24278.883452
  0
LWPOLYLINE
  5
2D0
102
{ACAD_REACTORS
330
2D1
102
}
100
AcDbEntity
  8
Ech.1_5
 62
     7
  6
CONTINUOUS
100
AcDbPolyline
 90
        3
 70
     1
 43
0.0
 10
33125.52199513
 20
-24276.54328794
 10
33110.3161418
 20
-24266.88589422
 10
33121.74591263
 20
-24281.22361606
  0
HATCH
  5
2D1
100
AcDbEntity
  8
Ech.1_5
 62
     7
  6
CONTINUOUS
100
AcDbHatch
 10
0.0
 20
0.0
 30
0.0
210
0.0
220
0.0
230
1.0
  2
SOLID
 70
     1
 71
     1
 91
        1
 92
        7
 72
     0
 73
     1
 93
        3
 10
33125.52199513
 20
-24276.54328794
 10
33110.3161418
 20
-24266.88589422
 10
33121.74591263
 20
-24281.22361606
 97
        1
330
2D0
 75
     0
 76
     2
 47
0.775229
 98
        1
 10
0.0
 20
0.0
  0
LWPOLYLINE
  5
2D2
100
AcDbEntity
  8
Ech.1_5
 62
     7
  6
CONTINUOUS
370
    -3
100
AcDbPolyline
 90
      188
 70
     0
 43
0.0
 10
32891.19945019
 20
-24596.73762486
 10
32895.60723567
 20
-24595.0842992
 10
32900.01531881
 20
-24593.43096521
 10
32904.42399724
 20
-24591.77761454
 10
32908.83356862
 20
-24590.12423886
 10
32913.2443306
 20
-24588.47082983
 10
32917.65658082
 20
-24586.81737911
 10
32922.07061694
 20
-24585.16387838
 10
32926.4867366
 20
-24583.51031928
 10
32930.90523746
 20
-24581.8566935
 10
32935.32641716
 20
-24580.20299267
 10
32939.75057335
 20
-24578.54920848
 10
32944.17800369
 20
-24576.89533258
 10
32948.60900581
 20
-24575.24135664
 10
32953.04387738
 20
-24573.58727231
 10
32957.48291603
 20
-24571.93307127
 10
32961.92641943
 20
-24570.27874518
 10
32966.37468521
 20
-24568.62428569
 10
32970.82801103
 20
-24566.96968447
 10
32975.28669453
 20
-24565.31493319
 10
32979.75103337
 20
-24563.6600235
 10
32984.2213252
 20
-24562.00494708
 10
32988.69786766
 20
-24560.34969558
 10
32993.1809584
 20
-24558.69426066
 10
32997.67089508
 20
-24557.038634
 10
33002.16797533
 20
-24555.38280725
 10
33006.67249682
 20
-24553.72677207
 10
33011.18475719
 20
-24552.07052013
 10
33015.70505409
 20
-24550.4140431
 10
33020.23368517
 20
-24548.75733262
 10
33024.77094807
 20
-24547.10038038
 10
33029.31714045
 20
-24545.44317803
 10
33033.87255996
 20
-24543.78571722
 10
33038.43750425
 20
-24542.12798964
 10
33043.01227096
 20
-24540.46998694
 10
33047.59715774
 20
-24538.81170078
 10
33052.19246225
 20
-24537.15312282
 10
33056.79848213
 20
-24535.49424473
 10
33061.41551503
 20
-24533.83505818
 10
33066.04385861
 20
-24532.17555482
 10
33070.6838105
 20
-24530.51572632
 10
33075.33566836
 20
-24528.85556434
 10
33079.99972984
 20
-24527.19506054
 10
33084.6762926
 20
-24525.53420659
 10
33089.36565426
 20
-24523.87299415
 10
33094.0681125
 20
-24522.21141488
 10
33098.78396495
 20
-24520.54946045
 10
33103.51350926
 20
-24518.88712251
 10
33108.2570431
 20
-24517.22439274
 10
33113.01486409
 20
-24515.5612628
 10
33117.7872699
 20
-24513.89772434
 10
33122.57455816
 20
-24512.23376903
 10
33127.37702655
 20
-24510.56938854
 10
33132.19497269
 20
-24508.90457452
 10
33137.02869424
 20
-24507.23931865
 10
33141.87848885
 20
-24505.57361258
 10
33146.74465416
 20
-24503.90744797
 10
33151.62748784
 20
-24502.24081649
 10
33156.52728752
 20
-24500.57370981
 10
33161.44435086
 20
-24498.90611958
 10
33166.37897551
 20
-24497.23803747
 10
33171.3314591
 20
-24495.56945514
 10
33176.30209931
 20
-24493.90036425
 10
33181.29119376
 20
-24492.23075647
 10
33186.29904012
 20
-24490.56062346
 10
33191.32593603
 20
-24488.88995689
 10
33196.37217914
 20
-24487.21874841
 10
33201.4380671
 20
-24485.54698969
 10
33206.52389756
 20
-24483.87467239
 10
33211.62996817
 20
-24482.20178818
 10
33216.75657657
 20
-24480.52832872
 10
33221.90402042
 20
-24478.85428567
 10
33227.07259737
 20
-24477.17965069
 10
33232.26260507
 20
-24475.50441545
 10
33237.47434116
 20
-24473.82857161
 10
33242.70810329
 20
-24472.15211084
 10
33247.96418911
 20
-24470.47502479
 10
33253.24289628
 20
-24468.79730513
 10
33258.54452244
 20
-24467.11894352
 10
33263.86935322
 20
-24465.43992404
 10
33269.21537582
 20
-24463.75877955
 10
33274.57556745
 20
-24462.07087963
 10
33279.94224533
 20
-24460.37117717
 10
33285.30772672
 20
-24458.65462506
 10
33290.66432885
 20
-24456.91617619
 10
33296.00436897
 20
-24455.15078345
 10
33301.32016429
 20
-24453.35339973
 10
33306.60403208
 20
-24451.51897791
 10
33311.84828957
 20
-24449.64247088
 10
33317.04525398
 20
-24447.71883153
 10
33322.18724258
 20
-24445.74301276
 10
33327.26657258
 20
-24443.70996744
 10
33332.27556124
 20
-24441.61464847
 10
33337.20652579
 20
-24439.45200873
 10
33342.05178347
 20
-24437.21700112
 10
33346.80365152
 20
-24434.90457852
 10
33351.45444718
 20
-24432.50969383
 10
33355.99648768
 20
-24430.02729992
 10
33360.42209027
 20
-24427.45234969
 10
33364.72357219
 20
-24424.77979602
 10
33368.89325067
 20
-24422.00459182
 10
33372.92344295
 20
-24419.12168995
 10
33376.80646627
 20
-24416.12604332
 10
33380.53463787
 20
-24413.01260481
 10
33384.10027499
 20
-24409.7763273
 10
33387.49569487
 20
-24406.4121637
 10
33390.71321475
 20
-24402.91506688
 10
33393.74515186
 20
-24399.27998974
 10
33396.58382345
 20
-24395.50188515
 10
33399.22154675
 20
-24391.57570603
 10
33401.650639
 20
-24387.49640524
 10
33403.86341745
 20
-24383.25893568
 10
33405.85219933
 20
-24378.85825023
 10
33407.60930187
 20
-24374.2893018
 10
33409.12067459
 20
-24369.55095884
 10
33410.31599995
 20
-24364.67668895
 10
33411.09562718
 20
-24359.71799701
 10
33411.38642764
 20
-24354.72282851
 10
33411.2638778
 20
-24349.71850934
 10
33410.85392967
 20
-24344.72506739
 10
33410.24767662
 20
-24339.75427607
 10
33409.48814032
 20
-24334.80655039
 10
33408.61484007
 20
-24329.88147781
 10
33407.66729514
 20
-24324.97864579
 10
33406.6815566
 20
-24320.09590877
 10
33405.67398989
 20
-24315.22128456
 10
33404.65402366
 20
-24310.33932479
 10
33403.63107879
 20
-24305.43457717
 10
33402.61457303
 20
-24300.49159213
 10
33401.60120758
 20
-24295.50596846
 10
33400.54601588
 20
-24290.50950648
 10
33399.39551032
 20
-24285.54140974
 10
33398.09620328
 20
-24280.64088181
 10
33396.59460715
 20
-24275.84712625
 10
33394.8372343
 20
-24271.1993466
 10
33392.77059713
 20
-24266.73674644
 10
33390.34160341
 20
-24262.49809676
 10
33387.53813462
 20
-24258.47734574
 10
33384.42419815
 20
-24254.58516419
 10
33381.0720846
 20
-24250.72316156
 10
33377.54954306
 20
-24246.80623868
 10
33373.88259831
 20
-24242.87140787
 10
33370.07482375
 20
-24239.02138829
 10
33366.1295763
 20
-24235.3595326
 10
33362.05021292
 20
-24231.98919346
 10
33357.84009053
 20
-24229.01372352
 10
33353.50256607
 20
-24226.53647545
 10
33349.04099647
 20
-24224.6608019
 10
33344.45873868
 20
-24223.49005552
 10
33339.75953047
 20
-24223.12652059
 10
33334.97215557
 20
-24223.60221859
 10
33330.16553677
 20
-24224.83656671
 10
33325.41220845
 20
-24226.73885036
 10
33320.78470497
 20
-24229.21835497
 10
33316.35556073
 20
-24232.18436595
 10
33312.19731008
 20
-24235.54616873
 10
33308.38248741
 20
-24239.21304872
 10
33304.93737653
 20
-24243.07310876
 10
33301.66815842
 20
-24246.91364538
 10
33298.31560944
 20
-24250.49200005
 10
33294.62710726
 20
-24253.57204819
 10
33290.50917988
 20
-24256.07505596
 10
33286.03153835
 20
-24258.08366837
 10
33281.27131239
 20
-24259.68786705
 10
33276.30563175
 20
-24260.97763368
 10
33271.21162613
 20
-24262.04294989
 10
33266.06642528
 20
-24262.97379735
 10
33260.94715893
 20
-24263.8601577
 10
33255.92332809
 20
-24264.78480214
 10
33250.99788412
 20
-24265.76760066
 10
33246.13944794
 20
-24266.79597496
 10
33241.31635482
 20
-24267.85707674
 10
33236.49694002
 20
-24268.9380577
 10
33231.6495388
 20
-24270.02606954
 10
33226.74248643
 20
-24271.10826397
 10
33221.7443499
 20
-24272.1715718
 10
33216.64907451
 20
-24273.17873278
 10
33211.49852517
 20
-24274.04680888
 10
33206.33988605
 20
-24274.68779163
 10
33201.22034132
 20
-24275.01367254
 10
33196.18707517
 20
-24274.93644315
 10
33191.28727176
 20
-24274.36809497
 10
33186.56811528
 20
-24273.22061954
 10
33182.0736806
 20
-24271.41346547
 10
33177.79412228
 20
-24268.99539951
 10
33173.67394577
 20
-24266.12466951
 10
33169.65621588
 20
-24262.96297843
 10
33166.480091
 20
-24260.33492883
  0
LWPOLYLINE
  5
2D3
102
{ACAD_REACTORS
330
2D4
102
}
100
AcDbEntity
  8
Ech.1_5
 62
     7
  6
CONTINUOUS
100
AcDbPolyline
 90
        3
 70
     1
 43
0.0
 10
33167.95121181
 20
-24257.59994629
 10
33152.74535849
 20
-24247.94255257
 10
33164.17512932
 20
-24262.28027441
  0
HATCH
  5
2D4
100
AcDbEntity
  8
Ech.1_5
 62
     7
  6
CONTINUOUS
100
AcDbHatch
 10
0.0
 20
0.0
 30
0.0
210
0.0
220
0.0
230
1.0
  2
SOLID
 70
     1
 71
     1
 91
        1
 92
        7
 72
     0
 73
     1
 93
        3
 10
33167.95121181
 20
-24257.59994629
 10
33152.74535849
 20
-24247.94255257
 10
33164.17512932
 20
-24262.28027441
 97
        1
330
2D3
 75
     0
 76
     2
 47
0.775229
 98
        1
 10
0.0
 20
0.0
  0
LWPOLYLINE
  5
2D5
100
AcDbEntity
  8
Ech.1_5
 62
   190
  6
CONTINUOUS
370
    -3
100
AcDbPolyline
 90
        3
 70
     0
 43
0.0
 10
33446.95153368
 20
-24589.10739084
 10
33540.39647684
 20
-24549.22246839
 10
33560.39647684
 20
-24549.22246839
  0
INSERT
  5
2D6
100
AcDbEntity
  8
Ech.1_5
 62
   190
  6
CONTINUOUS
370
    -3
100
AcDbBlockReference
  2
CDWK_EXTR_4
 10
33446.95153368
 20
-24589.10739084
 30
0.0
 41
5.0
 42
5.0
 43
5.0
 50
23.11414872
  0
LWPOLYLINE
  5
2D7
100
AcDbEntity
  8
Ech.1_5
 62
   190
100
AcDbPolyline
 90
        5
 70
     0
 43
0.0
 10
32823.36760412
 20
-25038.92283317
 10
32957.79638311
 20
-25038.92283317
 10
32957.79638311
 20
-25095.64579198
 10
32823.36760412
 20
-25095.64579198
 10
32823.36760412
 20
-25038.92283317
  0
LWPOLYLINE
  5
2D8
100
AcDbEntity
  8
Ech.1_5
 62
   190
100
AcDbPolyline
 90
        5
 70
     0
 43
0.0
 10
32841.64764991
 20
-25072.5796443
 10
32891.64764991
 20
-25072.5796443
 10
32891.64764991
 20
-25065.16450676
 10
32841.64764991
 20
-25065.16450676
 10
32841.64764991
 20
-25072.5796443
  0
HATCH
  5
2D9
100
AcDbEntity
  8
Ech.1_5
 62
   190
100
AcDbHatch
 10
0.0
 20
0.0
 30
0.0
210
0.0
220
0.0
230
1.0
  2
SOLID
 70
     1
 71
     0
 91
        1
 92
        7
 72
     0
 73
     1
 93
        4
 10
32841.64764991
 20
-25072.5796443
 10
32891.64764991
 20
-25072.5796443
 10
32891.64764991
 20
-25065.16450676
 10
32841.64764991
 20
-25065.16450676
 97
        0
 75
     0
 76
     2
 47
0.775229
 98
        1
 10
0.0
 20
0.0
  0
LWPOLYLINE
  5
2DA
100
AcDbEntity
  8
Ech.1_5
 62
   190
100
AcDbPolyline
 90
        5
 70
     0
 43
0.0
 10
32891.64764991
 20
-25072.5796443
 10
32941.64764991
 20
-25072.5796443
 10
32941.64764991
 20
-25065.16450676
 10
32891.64764991
 20
-25065.16450676
 10
32891.64764991
 20
-25072.5796443
  0
LWPOLYLINE
  5
2DB
100
AcDbEntity
  8
Ech.1_5
 62
   190
  6
CONTINUOUS
370
    -3
100
AcDbPolyline
 90
        5
 70
     0
 43
0.0
 10
32753.89425522
 20
-25127.9515032
 10
34108.89425522
 20
-25127.9515032
 10
34108.89425522
 20
-24142.9515032
 10
32753.89425522
 20
-24142.9515032
 10
32753.89425522
 20
-25127.9515032
  0
LWPOLYLINE
  5
2DC
100
AcDbEntity
  8
Ech.1_5
 62
   190
  6
CONTINUOUS
370
    -3
100
AcDbPolyline
 90
       11
 70
     1
 43
0.0
 10
33018.64469427
 20
-24590.52086801
 10
32990.45391565
 20
-24600.78147231
 10
32990.45391565
 20
-24653.51690793
 10
32990.4539516
 20
-24690.19866077
 10
32990.45391565
 20
-24699.18461005
 10
32990.45391565
 20
-24699.19860403
 10
32990.45391565
 20
-24707.56493724
 10
32990.45391565
 20
-24816.04356781
 10
33042.26313703
 20
-24816.04356781
 10
33070.45391565
 20
-24805.78296351
 10
33070.45391565
 20
-24590.52086801
  0
LWPOLYLINE
  5
2DD
100
AcDbEntity
  8
Ech.1_5
 62
     5
  6
CONTINUOUS
370
    -3
100
AcDbPolyline
 90
        7
 70
     0
 43
0.0
 10
33070.45391565
 20
-24590.52086801
 10
33018.64469427
 20
-24590.52086801
 10
32990.45391565
 20
-24600.78147231
 10
32990.45391565
 20
-24816.04356781
 10
33042.26313703
 20
-24816.04356781
 10
33070.45391565
 20
-24805.78296351
 10
33070.45391565
 20
-24590.52086801
  0
LINE
  5
2DE
100
AcDbEntity
  8
Ech.1_5
 62
   190
  6
CONTINUOUS
370
    -3
100
AcDbLine
 10
32990.45391565
 20
-24816.04356781
 30
0.0
 11
33070.45391565
 21
-24590.52086801
 31
0.0
  0
LINE
  5
2DF
100
AcDbEntity
  8
Ech.1_5
 62
   190
  6
CONTINUOUS
370
    -3
100
AcDbLine
 10
32990.45391565
 20
-24600.78147231
 30
0.0
 11
33070.45391565
 21
-24805.78296351
 31
0.0
  0
LWPOLYLINE
  5
2E0
100
AcDbEntity
  8
Ech.1_5
 62
   190
  6
CONTINUOUS
370
    -3
100
AcDbPolyline
 90
       11
 70
     1
 43
0.0
 10
33847.31105167
 20
-24590.52086801
 10
33875.5018303
 20
-24600.78147231
 10
33875.5018303
 20
-24653.51690793
 10
33875.50179435
 20
-24690.19866077
 10
33875.5018303
 20
-24699.18461005
 10
33875.5018303
 20
-24699.19860403
 10
33875.5018303
 20
-24707.56493724
 10
33875.5018303
 20
-24816.04356781
 10
33823.69260892
 20
-24816.04356781
 10
33795.5018303
 20
-24805.78296351
 10
33795.5018303
 20
-24590.52086801
  0
LWPOLYLINE
  5
2E1
100
AcDbEntity
  8
Ech.1_5
 62
     5
  6
CONTINUOUS
370
    -3
100
AcDbPolyline
 90
        7
 70
     0
 43
0.0
 10
33795.5018303
 20
-24590.52086801
 10
33847.31105167
 20
-24590.52086801
 10
33875.5018303
 20
-24600.78147231
 10
33875.5018303
 20
-24816.04356781
 10
33823.69260892
 20
-24816.04356781
 10
33795.5018303
 20
-24805.78296351
 10
33795.5018303
 20
-24590.52086801
  0
LINE
  5
2E2
100
AcDbEntity
  8
Ech.1_5
 62
   190
  6
CONTINUOUS
370
    -3
100
AcDbLine
 10
33875.5018303
 20
-24816.04356781
 30
0.0
 11
33795.5018303
 21
-24590.52086801
 31
0.0
  0
LINE
  5
2E3
100
AcDbEntity
  8
Ech.1_5
 62
   190
  6
CONTINUOUS
370
    -3
100
AcDbLine
 10
33875.5018303
 20
-24600.78147231
 30
0.0
 11
33795.5018303
 21
-24805.78296351
 31
0.0
  0
LWPOLYLINE
  5
2E4
100
AcDbEntity
  8
Ech.1_5
 62
     1
  6
CADWORK_22
 48
-5.0
370
    35
100
AcDbPolyline
 90
        4
 70
     0
 43
0.0
 10
33897.22495852
 20
-24844.4032932
 10
33449.13555919
 20
-24679.71604182
 10
33416.82018678
 20
-24679.71604182
 10
32968.73078746
 20
-24844.4032932
  0
LWPOLYLINE
  5
2E5
100
AcDbEntity
  8
Ech.1_5
 62
   190
  6
CONTINUOUS
370
    -3
100
AcDbPolyline
 90
        3
 70
     0
 43
0.0
 10
33198.71326394
 20
-24585.42355653
 10
33105.26832078
 20
-24545.53863408
 10
33085.26832078
 20
-24545.53863408
  0
INSERT
  5
2E6
100
AcDbEntity
  8
Ech.1_5
 62
   190
  6
CONTINUOUS
370
    -3
100
AcDbBlockReference
  2
CDWK_EXTR_4
 10
33198.71326394
 20
-24585.42355653
 30
0.0
 41
5.0
 42
5.0
 43
5.0
 50
156.88585128
  0
LWPOLYLINE
  5
2E7
100
AcDbEntity
  8
Ech.1_5
 62
   190
  6
CONTINUOUS
370
    -3
100
AcDbPolyline
 90
        5
 70
     0
 43
0.0
 10
34108.89425522
 20
-25127.9515032
 10
34108.89425522
 20
-24142.9515032
 10
32753.89425522
 20
-24142.9515032
 10
32753.89425522
 20
-25127.9515032
 10
34108.89425522
 20
-25127.9515032
  0
TEXT
  5
2E8
100
AcDbEntity
  8
Ech.1_5
 62
   190
100
AcDbText
 10
32852.94194253
 20
-25055.57850368
 30
0.0
 40
8.00000012
  1
Echelle en mm
  7
ARIAL
 50
0.0
 41
1.0
 51
0.0
100
AcDbText
  0
TEXT
  5
2E9
100
AcDbEntity
  8
Ech.1_5
 62
   190
100
AcDbText
 10
32838.96135778
 20
-25083.78833921
 30
0.0
 40
8.00000012
  1
0
  7
ARIAL
 50
0.0
 41
1.0
 51
0.0
100
AcDbText
  0
TEXT
  5
2EA
100
AcDbEntity
  8
Ech.1_5
 62
   190
100
AcDbText
 10
32925.55841568
 20
-25083.78833921
 30
0.0
 40
8.00000012
  1
100
  7
ARIAL
 50
0.0
 41
1.0
 51
0.0
100
AcDbText
  0
TEXT
  5
2EB
100
AcDbEntity
  8
Ech.1_5
 62
   190
100
AcDbText
 10
32886.81798411
 20
-25083.78833921
 30
0.0
 40
8.00000012
  1
50
  7
ARIAL
 50
0.0
 41
1.0
 51
0.0
100
AcDbText
  0
INSERT
  5
2EC
100
AcDbEntity
  8
Ech.1_5
 62
     0
370
    -3
100
AcDbBlockReference
  2
*D7
 10
0.0
 20
0.0
 30
0.0
  0
INSERT
  5
2ED
100
AcDbEntity
  8
Ech.1_5
 62
     0
370
    -3
100
AcDbBlockReference
  2
*D8
 10
0.0
 20
0.0
 30
0.0
  0
ENDSEC
  0
SECTION
  2
OBJECTS
  0
DICTIONARY
  5
1
100
AcDbDictionary
  3
ACAD_GROUP
350
2
  3
ACAD_MLINESTYLE
350
3
  0
DICTIONARY
  5
2
102
{CDWK_REACTORS
330
1
102
}
100
AcDbDictionary
  0
DICTIONARY
  5
3
102
{CDWK_REACTORS
330
1
102
}
100
AcDbDictionary
  3
STANDARD
350
4
  0
MLINESTYLE
  5
4
102
{CDWK_REACTORS
330
3
102
}
100
AcDbMlineStyle
  2
STANDARD
 70
     0
  3

 62
     0
 51
90.0
 52
90.0
 71
     2
 49
0.5
 62
   256
  6
BYLAYER
 49
-0.5
 62
   256
  6
BYLAYER
  0
ENDSEC
  0
EOF
