  0
SECTION
  2
HEADER
  9
$ACADVER
  1
AC1014
  9
$DWGCODEPAGE
  3
ANSI_1252
  9
$INSBASE
 10
0.0
 20
0.0
 30
0.0
  9
$EXTMIN
 10
16.95292807
 20
-25179.16347409
  9
$EXTMAX
 10
32618.67149751
 20
784.39574146
  9
$LIMMIN
 10
16.95292807
 20
-25179.16347409
  9
$LIMMAX
 10
32618.67149751
 20
784.39574146
  9
$ORTHOMODE
 70
     0
  9
$REGENMODE
 70
     1
  9
$FILLMODE
 70
     1
  9
$QTEXTMODE
 70
     0
  9
$MIRRTEXT
 70
     1
  9
$DRAGMODE
 70
     2
  9
$LTSCALE
 40
5.0
  9
$OSMODE
 70
     0
  9
$ATTMODE
 70
     1
  9
$TEXTSIZE
 40
3.5
  9
$TRACEWID
 40
1.0
  9
$TEXTSTYLE
  7
STANDARD
  9
$CLAYER
  8
0
  9
$CELTYPE
  6
BYLAYER
  9
$CECOLOR
 62
   256
  9
$DIMSCALE
 40
1.0
  9
$DIMASZ
 40
2.0
  9
$DIMEXO
 40
5.0
  9
$DIMDLI
 40
10.0
  9
$DIMRND
 40
0.0
  9
$DIMDLE
 40
2.0
  9
$DIMEXE
 40
2.0
  9
$DIMTP
 40
0.0
  9
$DIMTM
 40
0.0
  9
$DIMTXT
 40
2.5
  9
$DIMCEN
 40
1.5
  9
$DIMTSZ
 40
0.0
  9
$DIMTOL
 70
     0
  9
$DIMLIM
 70
     0
  9
$DIMTIH
 70
     1
  9
$DIMTOH
 70
     0
  9
$DIMSE1
 70
     0
  9
$DIMSE2
 70
     0
  9
$DIMTAD
 70
     1
  9
$DIMZIN
 70
     8
  9
$DIMBLK
  1

  9
$DIMASO
 70
     1
  9
$DIMSHO
 70
     1
  9
$DIMPOST
  1

  9
$DIMAPOST
  1

  9
$DIMALT
 70
     0
  9
$DIMALTD
 70
     2
  9
$DIMALTF
 40
25.4
  9
$DIMLFAC
 40
1.0
  9
$DIMTOFL
 70
     0
  9
$DIMTVP
 40
0.0
  9
$DIMTIX
 70
     0
  9
$DIMSOXD
 70
     0
  9
$DIMSAH
 70
     0
  9
$DIMBLK1
  1

  9
$DIMBLK2
  1

  9
$DIMSTYLE
  2
*UNNAMED
  9
$DIMCLRD
 70
   190
  9
$DIMCLRE
 70
   190
  9
$DIMCLRT
 70
   190
  9
$DIMTFAC
 40
1.0
  9
$DIMGAP
 40
0.09
  9
$DIMUNIT
 70
     2
  9
$LUNITS
 70
     2
  9
$LUPREC
 70
     6
  9
$AXISMODE
 70
     0
  9
$AXISUNIT
 10
0.0
 20
0.0
  9
$SKETCHINC
 40
0.1
  9
$FILLETRAD
 40
0.0
  9
$AUNITS
 70
     0
  9
$AUPREC
 70
     0
  9
$MENU
  1
ACAD
  9
$ELEVATION
 40
0.0
  9
$PELEVATION
 40
0.0
  9
$THICKNESS
 40
0.0
  9
$LIMCHECK
 70
     0
  9
$BLIPMODE
 70
     1
  9
$CHAMFERA
 40
0.0
  9
$CHAMFERB
 40
0.0
  9
$SKPOLY
 70
     1
  9
$TDCREATE
 40
2457811.0000000000
  9
$TDUPDATE
 40
2457811.0000000000
  9
$TDINDWG
 40
0.0
  9
$TDUSRTIMER
 40
0.0
  9
$USRTIMER
 70
     1
  9
$ANGBASE
 50
0.0
  9
$ANGDIR
 70
     0
  9
$PDMODE
 70
     0
  9
$PDSIZE
 40
0.0
  9
$PLINEWID
 40
0.0
  9
$COORDS
 70
     2
  9
$SPLFRAME
 70
     0
  9
$SPLINETYPE
 70
     6
  9
$SPLINESEGS
 70
     8
  9
$ATTDIA
 70
     1
  9
$ATTREQ
 70
     1
  9
$HANDLING
 70
     1
  9
$HANDSEED
  5
     2D1
  9
$SURFTAB1
 70
     6
  9
$SURFTAB2
 70
     6
  9
$SURFTYPE
 70
     6
  9
$SURFU
 70
     6
  9
$SURFV
 70
     6
  9
$UCSNAME
  2

  9
$UCSORG
 10
0.0
 20
0.0
 30
0.0
  9
$UCSXDIR
 10
1.0
 20
0.0
 30
0.0
  9
$UCSYDIR
 10
0.0
 20
1.0
 30
0.0
  9
$PUCSNAME
  2

  9
$PUCSORG
 10
0.0
 20
0.0
 30
0.0
  9
$PUCSXDIR
 10
1.0
 20
0.0
 30
0.0
  9
$PUCSYDIR
 10
0.0
 20
1.0
 30
0.0
  9
$USERI1
 70
     0
  9
$USERI2
 70
     0
  9
$USERI3
 70
     0
  9
$USERI4
 70
     0
  9
$USERI5
 70
     0
  9
$USERR1
 40
0.0
  9
$USERR2
 40
0.0
  9
$USERR3
 40
0.0
  9
$USERR4
 40
0.0
  9
$USERR5
 40
0.0
  9
$WORLDVIEW
 70
     1
  9
$SHADEDGE
 70
     3
  9
$SHADEDIF
 70
    70
  9
$TILEMODE
 70
     1
  9
$MAXACTVP
 70
    16
  9
$PINSBASE
 10
0.0
 20
0.0
 30
0.0
  9
$PLIMCHECK
 70
     0
  9
$PEXTMIN
 10
1.0000000000000E+20
 20
1.0000000000000E+20
 30
1.0000000000000E+20
  9
$PEXTMAX
 10
-1.0000000000000E+20
 20
-1.0000000000000E+20
 30
-1.0000000000000E+20
  9
$PLIMMIN
 10
0.0
 20
0.0
  9
$UNITMODE
 70
     0
  9
$VISRETAIN
 70
     0
  9
$MEASUREMENT
 70
     1
  0
ENDSEC
  0
SECTION
  2
TABLES
  0
TABLE
  2
VPORT
  5
E9
100
AcDbSymbolTable
 70
     1
  0
ENDTAB
  0
TABLE
  2
STYLE
  5
EA
100
AcDbSymbolTable
 70
     2
  0
STYLE
  5
EB
100
AcDbSymbolTableRecord
100
AcDbTextStyleTableRecord
  2
STANDARD
 70
     0
 40
0.0
 41
1.0
 50
0.0
 71
     0
 42
3.5
  3
MONOTXT
  4

  0
STYLE
  5
EC
100
AcDbSymbolTableRecord
100
AcDbTextStyleTableRecord
  2
SYMAP
 70
     0
 40
0.0
 41
1.0
 50
0.0
 71
     0
 42
3.5
  3
SYMAP
  4

  0
STYLE
  5
ED
100
AcDbSymbolTableRecord
100
AcDbTextStyleTableRecord
  2
CADWORK1
 70
     0
 40
0.0
 41
1.0
 50
0.0
 71
     0
 42
3.5
  3
MONOTXT
  4

  0
STYLE
  5
EE
100
AcDbSymbolTableRecord
100
AcDbTextStyleTableRecord
  2
MONOTXT
 70
     0
 40
0.0
 41
1.0
 50
0.0
 71
     0
 42
3.5
  3
MONOTXT
  4

  0
ENDTAB
  0
TABLE
  2
LTYPE
  5
EF
100
AcDbSymbolTable
 70
    13
  0
LTYPE
  5
F0
100
AcDbSymbolTableRecord
100
AcDbLinetypeTableRecord
  2
BYBLOCK
 70
    64
  3

 72
    65
 73
     0
 40
0.0
  0
LTYPE
  5
F1
100
AcDbSymbolTableRecord
100
AcDbLinetypeTableRecord
  2
BYLAYER
 70
    64
  3

 72
    65
 73
     0
 40
0.0
  0
LTYPE
  5
F2
100
AcDbSymbolTableRecord
100
AcDbLinetypeTableRecord
  2
CONTINUOUS
 70
    64
  3
Solid line
 72
    65
 73
     0
 40
0.0
  0
LTYPE
  5
F3
100
AcDbSymbolTableRecord
100
AcDbLinetypeTableRecord
  2
DOT2
 70
    64
  3
...............................................
 72
    65
 73
     2
 40
1.25
 49
0.0
 74
     0
 49
-1.25
 74
     0
  0
LTYPE
  5
F4
100
AcDbSymbolTableRecord
100
AcDbLinetypeTableRecord
  2
DASHDOT
 70
    64
  3
 __ . __ . __ . __ . __ . __ . __ . __ . __ . __
 72
    65
 73
     4
 40
10.0
 49
5.0
 74
     0
 49
-2.5
 74
     0
 49
0.0
 74
     0
 49
-2.5
 74
     0
  0
LTYPE
  5
F5
100
AcDbSymbolTableRecord
100
AcDbLinetypeTableRecord
  2
DASHEDX2
 70
    64
  3
____  ____  ____  ____  ____  ____  ____  ____
 72
    65
 73
     2
 40
3.75
 49
2.5
 74
     0
 49
-1.25
 74
     0
  0
LTYPE
  5
F6
100
AcDbSymbolTableRecord
100
AcDbLinetypeTableRecord
  2
CADWORK_22
 70
    64
  3
22 =======================================
 72
    65
 73
     0
 40
0.0
  0
LTYPE
  5
F7
100
AcDbSymbolTableRecord
100
AcDbLinetypeTableRecord
  2
DAL
 70
    64
  3
Solid line (for MAPS)
 72
    65
 73
     0
 40
0.0
  0
LTYPE
  5
F8
100
AcDbSymbolTableRecord
100
AcDbLinetypeTableRecord
  2
MUR
 70
    64
  3
Solid line (for MAPS)
 72
    65
 73
     0
 40
0.0
  0
LTYPE
  5
F9
100
AcDbSymbolTableRecord
100
AcDbLinetypeTableRecord
  2
SOM
 70
    64
  3
Solid line (for MAPS)
 72
    65
 73
     0
 40
0.0
  0
LTYPE
  5
FA
100
AcDbSymbolTableRecord
100
AcDbLinetypeTableRecord
  2
COL
 70
    64
  3
Solid line (for MAPS)
 72
    65
 73
     0
 40
0.0
  0
LTYPE
  5
FB
100
AcDbSymbolTableRecord
100
AcDbLinetypeTableRecord
  2
LGN
 70
    64
  3
Solid line (for MAPS)
 72
    65
 73
     0
 40
0.0
  0
LTYPE
  5
FC
100
AcDbSymbolTableRecord
100
AcDbLinetypeTableRecord
  2
PNT
 70
    64
  3
Solid line (for MAPS)
 72
    65
 73
     0
 40
0.0
  0
ENDTAB
  0
TABLE
  2
LAYER
  5
FD
100
AcDbSymbolTable
 70
    32
  0
LAYER
  5
FE
100
AcDbSymbolTableRecord
100
AcDbLayerTableRecord
  2
Standard
 70
     0
 62
     7
  6
CONTINUOUS
370
    -3
  0
LAYER
  5
FF
100
AcDbSymbolTableRecord
100
AcDbLayerTableRecord
  2
Ech.1_1
 70
     0
 62
     7
  6
CONTINUOUS
370
    -3
  0
LAYER
  5
100
100
AcDbSymbolTableRecord
100
AcDbLayerTableRecord
  2
Ech.1_2
 70
     0
 62
     7
  6
CONTINUOUS
370
    -3
  0
LAYER
  5
101
100
AcDbSymbolTableRecord
100
AcDbLayerTableRecord
  2
Ech.1_5
 70
     0
 62
     7
  6
CONTINUOUS
370
    -3
  0
LAYER
  5
102
100
AcDbSymbolTableRecord
100
AcDbLayerTableRecord
  2
Ech.1_10
 70
     0
 62
     7
  6
CONTINUOUS
370
    -3
  0
LAYER
  5
103
100
AcDbSymbolTableRecord
100
AcDbLayerTableRecord
  2
Ech.1_20
 70
     0
 62
     7
  6
CONTINUOUS
370
    -3
  0
LAYER
  5
104
100
AcDbSymbolTableRecord
100
AcDbLayerTableRecord
  2
Ech.1_25
 70
     0
 62
     7
  6
CONTINUOUS
370
    -3
  0
LAYER
  5
105
100
AcDbSymbolTableRecord
100
AcDbLayerTableRecord
  2
Ech.1_33
 70
     0
 62
     7
  6
CONTINUOUS
370
    -3
  0
LAYER
  5
106
100
AcDbSymbolTableRecord
100
AcDbLayerTableRecord
  2
Ech.1_50
 70
     0
 62
     7
  6
CONTINUOUS
370
    -3
  0
LAYER
  5
107
100
AcDbSymbolTableRecord
100
AcDbLayerTableRecord
  2
Ech.1_75
 70
     0
 62
     7
  6
CONTINUOUS
370
    -3
  0
LAYER
  5
108
100
AcDbSymbolTableRecord
100
AcDbLayerTableRecord
  2
Ech.1_100
 70
     0
 62
     7
  6
CONTINUOUS
370
    -3
  0
LAYER
  5
109
100
AcDbSymbolTableRecord
100
AcDbLayerTableRecord
  2
Ech.1_200
 70
     0
 62
     7
  6
CONTINUOUS
370
    -3
  0
LAYER
  5
10A
100
AcDbSymbolTableRecord
100
AcDbLayerTableRecord
  2
Ech.1_500
 70
     0
 62
     7
  6
CONTINUOUS
370
    -3
  0
LAYER
  5
10B
100
AcDbSymbolTableRecord
100
AcDbLayerTableRecord
  2
Ech.1_1000
 70
     0
 62
     7
  6
CONTINUOUS
370
    -3
  0
LAYER
  5
10C
100
AcDbSymbolTableRecord
100
AcDbLayerTableRecord
  2
Cadres traceur
 70
     0
 62
     7
  6
CONTINUOUS
370
    18
  0
LAYER
  5
10D
100
AcDbSymbolTableRecord
100
AcDbLayerTableRecord
  2
Cadres laser
 70
     0
 62
     7
  6
CONTINUOUS
370
    18
  0
LAYER
  5
10E
100
AcDbSymbolTableRecord
100
AcDbLayerTableRecord
  2
Légende d_aide
 70
     0
 62
     7
  6
CONTINUOUS
370
    18
  0
LAYER
  5
10F
100
AcDbSymbolTableRecord
100
AcDbLayerTableRecord
  2
hachures ok
 70
     0
 62
     7
  6
CONTINUOUS
370
    18
  0
LAYER
  5
110
100
AcDbSymbolTableRecord
100
AcDbLayerTableRecord
  2
ossature bois
 70
     0
 62
     7
  6
CONTINUOUS
370
    18
  0
LAYER
  5
111
100
AcDbSymbolTableRecord
100
AcDbLayerTableRecord
  2
VR
 70
     0
 62
     7
  6
CONTINUOUS
370
    25
  0
LAYER
  5
112
100
AcDbSymbolTableRecord
100
AcDbLayerTableRecord
  2
Calque1
 70
     0
 62
     7
  6
CONTINUOUS
370
     9
  0
LAYER
  5
113
100
AcDbSymbolTableRecord
100
AcDbLayerTableRecord
  2
0
 70
     0
 62
     7
  6
CONTINUOUS
370
    -3
  0
LAYER
  5
114
100
AcDbSymbolTableRecord
100
AcDbLayerTableRecord
  2
menuiserie
 70
     0
 62
     7
  6
CONTINUOUS
370
    -3
  0
LAYER
  5
115
100
AcDbSymbolTableRecord
100
AcDbLayerTableRecord
  2
cotation
 70
     0
 62
   250
  6
CONTINUOUS
370
     9
  0
LAYER
  5
116
100
AcDbSymbolTableRecord
100
AcDbLayerTableRecord
  2
Defpoints
 70
     0
 62
    10
  6
CONTINUOUS
370
    -3
  0
LAYER
  5
117
100
AcDbSymbolTableRecord
100
AcDbLayerTableRecord
  2
HACHURE
 70
     0
 62
   254
  6
CONTINUOUS
370
    25
  0
LAYER
  5
118
100
AcDbSymbolTableRecord
100
AcDbLayerTableRecord
  2
mat1
 70
     0
 62
     7
  6
CONTINUOUS
370
    30
  0
LAYER
  5
119
100
AcDbSymbolTableRecord
100
AcDbLayerTableRecord
  2
mat2
 70
     0
 62
     7
  6
CONTINUOUS
370
     5
  0
LAYER
  5
11A
100
AcDbSymbolTableRecord
100
AcDbLayerTableRecord
  2
hach
 70
     0
 62
     8
  6
CONTINUOUS
370
     5
  0
LAYER
  5
11B
100
AcDbSymbolTableRecord
100
AcDbLayerTableRecord
  2
menuiseries
 70
     0
 62
     7
  6
CONTINUOUS
370
     9
  0
LAYER
  5
11C
100
AcDbSymbolTableRecord
100
AcDbLayerTableRecord
  2
BétonMétal
 70
     0
 62
     7
  6
CONTINUOUS
370
    80
  0
LAYER
  5
11D
100
AcDbSymbolTableRecord
100
AcDbLayerTableRecord
  2
bois
 70
     0
 62
     7
  6
CONTINUOUS
370
    60
  0
ENDTAB
  0
TABLE
  2
VIEW
  5
11E
100
AcDbSymbolTable
 70
     0
  0
ENDTAB
  0
TABLE
  2
UCS
  5
11F
100
AcDbSymbolTable
 70
     0
  0
ENDTAB
  0
TABLE
  2
APPID
  5
120
100
AcDbSymbolTable
 70
     1
  0
APPID
  5
121
100
AcDbSymbolTableRecord
100
AcDbRegAppTableRecord
  2
ACAD
 70
     0
  0
ENDTAB
  0
TABLE
  2
DIMSTYLE
  5
122
100
AcDbSymbolTable
 70
     0
  0
ENDTAB
  0
TABLE
  2
BLOCK_RECORD
  5
123
100
AcDbSymbolTable
 70
     0
  0
BLOCK_RECORD
  5
124
100
AcDbSymbolTableRecord
100
AcDbBlockTableRecord
  2
*MODEL_SPACE
  0
BLOCK_RECORD
  5
125
100
AcDbSymbolTableRecord
100
AcDbBlockTableRecord
  2
*PAPER_SPACE
  0
BLOCK_RECORD
  5
126
100
AcDbSymbolTableRecord
100
AcDbBlockTableRecord
  2
CDWK_EXTR_0
  0
BLOCK_RECORD
  5
127
100
AcDbSymbolTableRecord
100
AcDbBlockTableRecord
  2
CDWK_EXTR_1D
  0
BLOCK_RECORD
  5
128
100
AcDbSymbolTableRecord
100
AcDbBlockTableRecord
  2
CDWK_EXTR_1G
  0
BLOCK_RECORD
  5
129
100
AcDbSymbolTableRecord
100
AcDbBlockTableRecord
  2
CDWK_EXTR_2
  0
BLOCK_RECORD
  5
12A
100
AcDbSymbolTableRecord
100
AcDbBlockTableRecord
  2
CDWK_EXTR_3
  0
BLOCK_RECORD
  5
12B
100
AcDbSymbolTableRecord
100
AcDbBlockTableRecord
  2
CDWK_EXTR_4
  0
BLOCK_RECORD
  5
12C
100
AcDbSymbolTableRecord
100
AcDbBlockTableRecord
  2
CDWK_PTTYP0
  0
BLOCK_RECORD
  5
12D
100
AcDbSymbolTableRecord
100
AcDbBlockTableRecord
  2
CDWK_PTTYP1
  0
BLOCK_RECORD
  5
12E
100
AcDbSymbolTableRecord
100
AcDbBlockTableRecord
  2
CDWK_PTTYP2
  0
BLOCK_RECORD
  5
12F
100
AcDbSymbolTableRecord
100
AcDbBlockTableRecord
  2
CDWK_PTTYP3
  0
BLOCK_RECORD
  5
130
100
AcDbSymbolTableRecord
100
AcDbBlockTableRecord
  2
CDWK_PTTYP4
  0
BLOCK_RECORD
  5
131
100
AcDbSymbolTableRecord
100
AcDbBlockTableRecord
  2
CDWK_PTTYP5
  0
BLOCK_RECORD
  5
132
100
AcDbSymbolTableRecord
100
AcDbBlockTableRecord
  2
CDWK_PTTYP6
  0
BLOCK_RECORD
  5
133
100
AcDbSymbolTableRecord
100
AcDbBlockTableRecord
  2
CDWK_PTTYP7
  0
BLOCK_RECORD
  5
134
100
AcDbSymbolTableRecord
100
AcDbBlockTableRecord
  2
CDWK_PTTYP8
  0
BLOCK_RECORD
  5
135
100
AcDbSymbolTableRecord
100
AcDbBlockTableRecord
  2
CDWK_PTTYP9
  0
BLOCK_RECORD
  5
136
100
AcDbSymbolTableRecord
100
AcDbBlockTableRecord
  2
CDWK_PTTYP10
  0
BLOCK_RECORD
  5
137
100
AcDbSymbolTableRecord
100
AcDbBlockTableRecord
  2
CDWK_PTTYP11
  0
BLOCK_RECORD
  5
138
100
AcDbSymbolTableRecord
100
AcDbBlockTableRecord
  2
CDWK_PTTYP12
  0
BLOCK_RECORD
  5
139
100
AcDbSymbolTableRecord
100
AcDbBlockTableRecord
  2
CDWK_PTTYP13
  0
BLOCK_RECORD
  5
13A
100
AcDbSymbolTableRecord
100
AcDbBlockTableRecord
  2
CDWK_PTTYP14
  0
BLOCK_RECORD
  5
13B
100
AcDbSymbolTableRecord
100
AcDbBlockTableRecord
  2
CDWK_PTTYP15
  0
BLOCK_RECORD
  5
13C
100
AcDbSymbolTableRecord
100
AcDbBlockTableRecord
  2
CDWK_PTTYP16
  0
BLOCK_RECORD
  5
13D
100
AcDbSymbolTableRecord
100
AcDbBlockTableRecord
  2
CDWK_PTTYP17
  0
BLOCK_RECORD
  5
13E
100
AcDbSymbolTableRecord
100
AcDbBlockTableRecord
  2
CDWK_PTTYP18
  0
BLOCK_RECORD
  5
13F
100
AcDbSymbolTableRecord
100
AcDbBlockTableRecord
  2
CDWK_PTTYP19
  0
BLOCK_RECORD
  5
140
100
AcDbSymbolTableRecord
100
AcDbBlockTableRecord
  2
CDWK_PTTYP20
  0
BLOCK_RECORD
  5
141
100
AcDbSymbolTableRecord
100
AcDbBlockTableRecord
  2
CDWK_PTTYP21
  0
BLOCK_RECORD
  5
142
100
AcDbSymbolTableRecord
100
AcDbBlockTableRecord
  2
CDWK_PTTYP22
  0
BLOCK_RECORD
  5
143
100
AcDbSymbolTableRecord
100
AcDbBlockTableRecord
  2
CDWK_PTTYP23
  0
BLOCK_RECORD
  5
144
100
AcDbSymbolTableRecord
100
AcDbBlockTableRecord
  2
CDWK_PTTYP24
  0
BLOCK_RECORD
  5
145
100
AcDbSymbolTableRecord
100
AcDbBlockTableRecord
  2
CDWK_PTTYP25
  0
BLOCK_RECORD
  5
146
100
AcDbSymbolTableRecord
100
AcDbBlockTableRecord
  2
CDWK_PTTYP26
  0
BLOCK_RECORD
  5
147
100
AcDbSymbolTableRecord
100
AcDbBlockTableRecord
  2
CDWK_PTTYP27
  0
BLOCK_RECORD
  5
148
100
AcDbSymbolTableRecord
100
AcDbBlockTableRecord
  2
CDWK_PTTYP28
  0
BLOCK_RECORD
  5
149
100
AcDbSymbolTableRecord
100
AcDbBlockTableRecord
  2
CDWK_PTTYP29
  0
BLOCK_RECORD
  5
14A
100
AcDbSymbolTableRecord
100
AcDbBlockTableRecord
  2
CDWK_PTTYP30
  0
BLOCK_RECORD
  5
14B
100
AcDbSymbolTableRecord
100
AcDbBlockTableRecord
  2
CDWK_PTTYP31
  0
BLOCK_RECORD
  5
14C
100
AcDbSymbolTableRecord
100
AcDbBlockTableRecord
  2
CDWK_PTTYP32
  0
BLOCK_RECORD
  5
14D
100
AcDbSymbolTableRecord
100
AcDbBlockTableRecord
  2
CDWK_PTTYP33
  0
BLOCK_RECORD
  5
14E
100
AcDbSymbolTableRecord
100
AcDbBlockTableRecord
  2
CDWK_PTTYP34
  0
BLOCK_RECORD
  5
14F
100
AcDbSymbolTableRecord
100
AcDbBlockTableRecord
  2
CDWK_PTTYP35
  0
BLOCK_RECORD
  5
150
100
AcDbSymbolTableRecord
100
AcDbBlockTableRecord
  2
CDWK_PTTYP36
  0
BLOCK_RECORD
  5
151
100
AcDbSymbolTableRecord
100
AcDbBlockTableRecord
  2
CDWK_PTTYP37
  0
BLOCK_RECORD
  5
152
100
AcDbSymbolTableRecord
100
AcDbBlockTableRecord
  2
CDWK_PTTYP38
  0
ENDTAB
  0
ENDSEC
  0
SECTION
  2
BLOCKS
  0
BLOCK
  5
153
100
AcDbEntity
  8
0
100
AcDbBlockBegin
  2
*MODEL_SPACE
 70
     0
 10
0.0
 20
0.0
 30
0.0
  3
*MODEL_SPACE
  1

  0
ENDBLK
  5
154
100
AcDbEntity
100
AcDbBlockEnd
  0
BLOCK
  5
155
100
AcDbEntity
  8
0
100
AcDbBlockBegin
  2
*PAPER_SPACE
 70
     0
 10
0.0
 20
0.0
 30
0.0
  3
*PAPER_SPACE
  1

  0
ENDBLK
  5
156
100
AcDbEntity
100
AcDbBlockEnd
  0
BLOCK
  5
157
100
AcDbEntity
  8
0
100
AcDbBlockBegin
  2
CDWK_EXTR_0
 70
     0
 10
0.0
 20
0.0
 30
0.0
  3
CDWK_EXTR_0
  1

  4
Cadwork line-extremity
  0
LINE
  5
158
100
AcDbEntity
  8
0
 62
     0
370
    -2
100
AcDbLine
 10
0.0
 20
0.0
 30
0.0
 11
2.0
 21
0.5
 31
0.0
  0
LINE
  5
159
100
AcDbEntity
  8
0
 62
     0
370
    -2
100
AcDbLine
 10
0.0
 20
0.0
 30
0.0
 11
2.0
 21
-0.5
 31
0.0
  0
LINE
  5
15A
100
AcDbEntity
  8
0
 62
     0
370
    -2
100
AcDbLine
 10
2.0
 20
0.5
 30
0.0
 11
2.0
 21
-0.5
 31
0.0
  0
ENDBLK
  5
15B
100
AcDbEntity
100
AcDbBlockEnd
  0
BLOCK
  5
15C
100
AcDbEntity
  8
0
100
AcDbBlockBegin
  2
CDWK_EXTR_1D
 70
     0
 10
0.0
 20
0.0
 30
0.0
  3
CDWK_EXTR_1D
  1

  4
Cadwork line-extremity
  0
LINE
  5
15D
100
AcDbEntity
  8
0
 62
     0
370
    -2
100
AcDbLine
 10
0.0
 20
0.0
 30
0.0
 11
0.0
 21
1.0
 31
0.0
  0
LINE
  5
15E
100
AcDbEntity
  8
0
 62
     0
370
    -2
100
AcDbLine
 10
0.0
 20
1.0
 30
0.0
 11
0.5
 21
1.5
 31
0.0
  0
LINE
  5
15F
100
AcDbEntity
  8
0
 62
     0
370
    -2
100
AcDbLine
 10
0.5
 20
1.5
 30
0.0
 11
1.5
 21
1.5
 31
0.0
  0
ENDBLK
  5
160
100
AcDbEntity
100
AcDbBlockEnd
  0
BLOCK
  5
161
100
AcDbEntity
  8
0
100
AcDbBlockBegin
  2
CDWK_EXTR_1G
 70
     0
 10
0.0
 20
0.0
 30
0.0
  3
CDWK_EXTR_1G
  1

  4
Cadwork line-extremity
  0
LINE
  5
162
100
AcDbEntity
  8
0
 62
     0
370
    -2
100
AcDbLine
 10
0.0
 20
0.0
 30
0.0
 11
0.0
 21
-1.0
 31
0.0
  0
LINE
  5
163
100
AcDbEntity
  8
0
 62
     0
370
    -2
100
AcDbLine
 10
0.0
 20
-1.0
 30
0.0
 11
0.5
 21
-1.5
 31
0.0
  0
LINE
  5
164
100
AcDbEntity
  8
0
 62
     0
370
    -2
100
AcDbLine
 10
0.5
 20
-1.5
 30
0.0
 11
1.5
 21
-1.5
 31
0.0
  0
ENDBLK
  5
165
100
AcDbEntity
100
AcDbBlockEnd
  0
BLOCK
  5
166
100
AcDbEntity
  8
0
100
AcDbBlockBegin
  2
CDWK_EXTR_2
 70
     0
 10
0.0
 20
0.0
 30
0.0
  3
CDWK_EXTR_2
  1

  4
Cadwork line-extremity
  0
SOLID
  5
167
100
AcDbEntity
  8
0
 62
     0
100
AcDbTrace
 10
0.0
 20
0.0
 11
2.0
 21
0.5
 12
2.0
 22
-0.5
 13
2.0
 23
-0.5
  0
ENDBLK
  5
168
100
AcDbEntity
100
AcDbBlockEnd
  0
BLOCK
  5
169
100
AcDbEntity
  8
0
100
AcDbBlockBegin
  2
CDWK_EXTR_3
 70
     0
 10
0.0
 20
0.0
 30
0.0
  3
CDWK_EXTR_3
  1

  4
Cadwork line-extremity
  0
SOLID
  5
16A
100
AcDbEntity
  8
0
 62
     0
100
AcDbTrace
 10
0.0
 20
0.0
 11
2.0
 21
0.5
 12
2.0
 22
-0.5
 13
2.0
 23
-0.5
  0
LINE
  5
16B
100
AcDbEntity
  8
0
 62
     0
370
    -2
100
AcDbLine
 10
0.0
 20
1.0
 30
0.0
 11
0.0
 21
-1.0
 31
0.0
  0
ENDBLK
  5
16C
100
AcDbEntity
100
AcDbBlockEnd
  0
BLOCK
  5
16D
100
AcDbEntity
  8
0
100
AcDbBlockBegin
  2
CDWK_EXTR_4
 70
     0
 10
0.0
 20
0.0
 30
0.0
  3
CDWK_EXTR_4
  1

  4
Cadwork line-extremity
  0
HATCH
  5
16E
100
AcDbEntity
  8
0
 62
     0
370
    -2
100
AcDbHatch
 10
0.0
 20
0.0
 30
0.0
210
0.0
220
0.0
230
1.0
  2
SOLID
 70
     1
 71
     0
 91
        1
 92
        1
 93
        1
 72
     2
 10
0.0
 20
0.0
 40
0.5
 50
0.0
 51
360.0
 73
     1
 97
        0
 75
     0
 76
     1
 98
        1
 10
0.0
 20
0.0
  0
ENDBLK
  5
16F
100
AcDbEntity
100
AcDbBlockEnd
  0
BLOCK
  5
170
100
AcDbEntity
  8
0
100
AcDbBlockBegin
  2
CDWK_PTTYP0
 70
     0
 10
0.0
 20
0.0
 30
0.0
  3
CDWK_PTTYP0
  1

  4
Cadwork point
  0
POINT
  5
171
100
AcDbEntity
  8
0
 62
     0
100
AcDbPoint
 10
0.0
 20
0.0
 30
0.0
  0
ENDBLK
  5
172
100
AcDbEntity
100
AcDbBlockEnd
  0
BLOCK
  5
173
100
AcDbEntity
  8
0
100
AcDbBlockBegin
  2
CDWK_PTTYP1
 70
     0
 10
0.0
 20
0.0
 30
0.0
  3
CDWK_PTTYP1
  1

  4
Cadwork node
  0
LINE
  5
174
100
AcDbEntity
  8
0
 62
     0
370
    -2
100
AcDbLine
 10
-0.5
 20
0.5
 30
0.0
 11
0.5
 21
0.5
 31
0.0
  0
LINE
  5
175
100
AcDbEntity
  8
0
 62
     0
370
    -2
100
AcDbLine
 10
0.5
 20
0.5
 30
0.0
 11
0.5
 21
-0.5
 31
0.0
  0
LINE
  5
176
100
AcDbEntity
  8
0
 62
     0
370
    -2
100
AcDbLine
 10
0.5
 20
-0.5
 30
0.0
 11
-0.5
 21
-0.5
 31
0.0
  0
LINE
  5
177
100
AcDbEntity
  8
0
 62
     0
370
    -2
100
AcDbLine
 10
-0.5
 20
-0.5
 30
0.0
 11
-0.5
 21
0.5
 31
0.0
  0
ENDBLK
  5
178
100
AcDbEntity
100
AcDbBlockEnd
  0
BLOCK
  5
179
100
AcDbEntity
  8
0
100
AcDbBlockBegin
  2
CDWK_PTTYP2
 70
     0
 10
0.0
 20
0.0
 30
0.0
  3
CDWK_PTTYP2
  1

  4
Cadwork node
  0
LINE
  5
17A
100
AcDbEntity
  8
0
 62
     0
370
    -2
100
AcDbLine
 10
0.0
 20
0.5
 30
0.0
 11
0.0
 21
-0.5
 31
0.0
  0
LINE
  5
17B
100
AcDbEntity
  8
0
 62
     0
370
    -2
100
AcDbLine
 10
-0.5
 20
0.0
 30
0.0
 11
0.5
 21
0.0
 31
0.0
  0
ENDBLK
  5
17C
100
AcDbEntity
100
AcDbBlockEnd
  0
BLOCK
  5
17D
100
AcDbEntity
  8
0
100
AcDbBlockBegin
  2
CDWK_PTTYP3
 70
     0
 10
0.0
 20
0.0
 30
0.0
  3
CDWK_PTTYP3
  1

  4
Cadwork node
  0
CIRCLE
  5
17E
100
AcDbEntity
  8
0
 62
     0
370
    -2
100
AcDbCircle
 10
0.0
 20
0.0
 30
0.0
 40
0.5
  0
ENDBLK
  5
17F
100
AcDbEntity
100
AcDbBlockEnd
  0
BLOCK
  5
180
100
AcDbEntity
  8
0
100
AcDbBlockBegin
  2
CDWK_PTTYP4
 70
     0
 10
0.0
 20
0.0
 30
0.0
  3
CDWK_PTTYP4
  1

  4
Cadwork node
  0
HATCH
  5
181
100
AcDbEntity
  8
0
 62
     0
370
    -2
100
AcDbHatch
 10
0.0
 20
0.0
 30
0.0
210
0.0
220
0.0
230
1.0
  2
SOLID
 70
     1
 71
     0
 91
        1
 92
        1
 93
        1
 72
     2
 10
0.0
 20
0.0
 40
0.5
 50
0.0
 51
360.0
 73
     1
 97
        0
 75
     0
 76
     1
 98
        1
 10
0.0
 20
0.0
  0
ENDBLK
  5
182
100
AcDbEntity
100
AcDbBlockEnd
  0
BLOCK
  5
183
100
AcDbEntity
  8
0
100
AcDbBlockBegin
  2
CDWK_PTTYP5
 70
     0
 10
0.0
 20
0.0
 30
0.0
  3
CDWK_PTTYP5
  1

  4
Cadwork node
  0
LINE
  5
184
100
AcDbEntity
  8
0
 62
     0
370
    -2
100
AcDbLine
 10
-0.5
 20
0.5
 30
0.0
 11
0.5
 21
0.5
 31
0.0
  0
LINE
  5
185
100
AcDbEntity
  8
0
 62
     0
370
    -2
100
AcDbLine
 10
0.5
 20
0.5
 30
0.0
 11
0.5
 21
-0.5
 31
0.0
  0
LINE
  5
186
100
AcDbEntity
  8
0
 62
     0
370
    -2
100
AcDbLine
 10
0.5
 20
-0.5
 30
0.0
 11
-0.5
 21
-0.5
 31
0.0
  0
LINE
  5
187
100
AcDbEntity
  8
0
 62
     0
370
    -2
100
AcDbLine
 10
-0.5
 20
-0.5
 30
0.0
 11
-0.5
 21
0.5
 31
0.0
  0
SOLID
  5
188
100
AcDbEntity
  8
0
 62
     0
100
AcDbTrace
 10
-0.5
 20
-0.5
 11
-0.5
 21
0.0
 12
0.0
 22
-0.5
 13
0.0
 23
0.0
  0
SOLID
  5
189
100
AcDbEntity
  8
0
 62
     0
100
AcDbTrace
 10
0.0
 20
0.0
 11
0.0
 21
0.5
 12
0.5
 22
0.0
 13
0.5
 23
0.5
  0
ENDBLK
  5
18A
100
AcDbEntity
100
AcDbBlockEnd
  0
BLOCK
  5
18B
100
AcDbEntity
  8
0
100
AcDbBlockBegin
  2
CDWK_PTTYP6
 70
     0
 10
0.0
 20
0.0
 30
0.0
  3
CDWK_PTTYP6
  1

  4
Cadwork node
  0
LINE
  5
18C
100
AcDbEntity
  8
0
 62
     0
370
    -2
100
AcDbLine
 10
-0.5
 20
0.5
 30
0.0
 11
0.5
 21
0.5
 31
0.0
  0
LINE
  5
18D
100
AcDbEntity
  8
0
 62
     0
370
    -2
100
AcDbLine
 10
0.5
 20
0.5
 30
0.0
 11
0.5
 21
-0.5
 31
0.0
  0
LINE
  5
18E
100
AcDbEntity
  8
0
 62
     0
370
    -2
100
AcDbLine
 10
0.5
 20
-0.5
 30
0.0
 11
-0.5
 21
-0.5
 31
0.0
  0
LINE
  5
18F
100
AcDbEntity
  8
0
 62
     0
370
    -2
100
AcDbLine
 10
-0.5
 20
-0.5
 30
0.0
 11
-0.5
 21
0.5
 31
0.0
  0
SOLID
  5
190
100
AcDbEntity
  8
0
 62
     0
100
AcDbTrace
 10
-0.5
 20
-0.5
 11
-0.5
 21
0.5
 12
0.5
 22
0.5
 13
0.5
 23
0.5
  0
ENDBLK
  5
191
100
AcDbEntity
100
AcDbBlockEnd
  0
BLOCK
  5
192
100
AcDbEntity
  8
0
100
AcDbBlockBegin
  2
CDWK_PTTYP7
 70
     0
 10
0.0
 20
0.0
 30
0.0
  3
CDWK_PTTYP7
  1

  4
Cadwork node
  0
LINE
  5
193
100
AcDbEntity
  8
0
 62
     0
370
    -2
100
AcDbLine
 10
-0.5
 20
0.5
 30
0.0
 11
0.5
 21
0.5
 31
0.0
  0
LINE
  5
194
100
AcDbEntity
  8
0
 62
     0
370
    -2
100
AcDbLine
 10
0.5
 20
0.5
 30
0.0
 11
0.5
 21
-0.5
 31
0.0
  0
LINE
  5
195
100
AcDbEntity
  8
0
 62
     0
370
    -2
100
AcDbLine
 10
0.5
 20
-0.5
 30
0.0
 11
-0.5
 21
-0.5
 31
0.0
  0
LINE
  5
196
100
AcDbEntity
  8
0
 62
     0
370
    -2
100
AcDbLine
 10
-0.5
 20
-0.5
 30
0.0
 11
-0.5
 21
0.5
 31
0.0
  0
LINE
  5
197
100
AcDbEntity
  8
0
 62
     0
370
    -2
100
AcDbLine
 10
0.0
 20
0.5
 30
0.0
 11
0.0
 21
-0.5
 31
0.0
  0
LINE
  5
198
100
AcDbEntity
  8
0
 62
     0
370
    -2
100
AcDbLine
 10
-0.5
 20
0.0
 30
0.0
 11
0.5
 21
0.0
 31
0.0
  0
ENDBLK
  5
199
100
AcDbEntity
100
AcDbBlockEnd
  0
BLOCK
  5
19A
100
AcDbEntity
  8
0
100
AcDbBlockBegin
  2
CDWK_PTTYP8
 70
     0
 10
0.0
 20
0.0
 30
0.0
  3
CDWK_PTTYP8
  1

  4
Cadwork node
  0
SOLID
  5
19B
100
AcDbEntity
  8
0
 62
     0
100
AcDbTrace
 10
-0.5
 20
0.5
 11
0.5
 21
0.5
 12
-0.5
 22
-0.5
 13
0.5
 23
-0.5
  0
ENDBLK
  5
19C
100
AcDbEntity
100
AcDbBlockEnd
  0
BLOCK
  5
19D
100
AcDbEntity
  8
0
100
AcDbBlockBegin
  2
CDWK_PTTYP9
 70
     0
 10
0.0
 20
0.0
 30
0.0
  3
CDWK_PTTYP9
  1

  4
Cadwork node
  0
CIRCLE
  5
19E
100
AcDbEntity
  8
0
 62
     0
370
    -2
100
AcDbCircle
 10
0.0
 20
0.0
 30
0.0
 40
0.5
  0
CIRCLE
  5
19F
100
AcDbEntity
  8
0
 62
     0
370
    -2
100
AcDbCircle
 10
0.0
 20
0.0
 30
0.0
 40
0.16666667
  0
ENDBLK
  5
1A0
100
AcDbEntity
100
AcDbBlockEnd
  0
BLOCK
  5
1A1
100
AcDbEntity
  8
0
100
AcDbBlockBegin
  2
CDWK_PTTYP10
 70
     0
 10
0.0
 20
0.0
 30
0.0
  3
CDWK_PTTYP10
  1

  4
Cadwork node
  0
CIRCLE
  5
1A2
100
AcDbEntity
  8
0
 62
     0
370
    -2
100
AcDbCircle
 10
0.0
 20
0.0
 30
0.0
 40
0.5
  0
ENDBLK
  5
1A3
100
AcDbEntity
100
AcDbBlockEnd
  0
BLOCK
  5
1A4
100
AcDbEntity
  8
0
100
AcDbBlockBegin
  2
CDWK_PTTYP11
 70
     0
 10
0.0
 20
0.0
 30
0.0
  3
CDWK_PTTYP11
  1

  4
Cadwork node
  0
CIRCLE
  5
1A5
100
AcDbEntity
  8
0
 62
     0
370
    -2
100
AcDbCircle
 10
0.0
 20
0.0
 30
0.0
 40
0.5
  0
CIRCLE
  5
1A6
100
AcDbEntity
  8
0
 62
     0
370
    -2
100
AcDbCircle
 10
0.0
 20
0.0
 30
0.0
 40
0.25
  0
ENDBLK
  5
1A7
100
AcDbEntity
100
AcDbBlockEnd
  0
BLOCK
  5
1A8
100
AcDbEntity
  8
0
100
AcDbBlockBegin
  2
CDWK_PTTYP12
 70
     0
 10
0.0
 20
0.0
 30
0.0
  3
CDWK_PTTYP12
  1

  4
Cadwork node
  0
CIRCLE
  5
1A9
100
AcDbEntity
  8
0
 62
     0
370
    -2
100
AcDbCircle
 10
0.0
 20
0.0
 30
0.0
 40
0.5
  0
CIRCLE
  5
1AA
100
AcDbEntity
  8
0
 62
     0
370
    -2
100
AcDbCircle
 10
0.25
 20
0.0
 30
0.0
 40
0.25
  0
ENDBLK
  5
1AB
100
AcDbEntity
100
AcDbBlockEnd
  0
BLOCK
  5
1AC
100
AcDbEntity
  8
0
100
AcDbBlockBegin
  2
CDWK_PTTYP13
 70
     0
 10
0.0
 20
0.0
 30
0.0
  3
CDWK_PTTYP13
  1

  4
Cadwork node
  0
CIRCLE
  5
1AD
100
AcDbEntity
  8
0
 62
     0
370
    -2
100
AcDbCircle
 10
0.0
 20
0.0
 30
0.0
 40
0.5
  0
CIRCLE
  5
1AE
100
AcDbEntity
  8
0
 62
     0
370
    -2
100
AcDbCircle
 10
0.25
 20
0.0
 30
0.0
 40
0.25
  0
CIRCLE
  5
1AF
100
AcDbEntity
  8
0
 62
     0
370
    -2
100
AcDbCircle
 10
-0.25
 20
0.0
 30
0.0
 40
0.25
  0
ENDBLK
  5
1B0
100
AcDbEntity
100
AcDbBlockEnd
  0
BLOCK
  5
1B1
100
AcDbEntity
  8
0
100
AcDbBlockBegin
  2
CDWK_PTTYP14
 70
     0
 10
0.0
 20
0.0
 30
0.0
  3
CDWK_PTTYP14
  1

  4
Cadwork node
  0
POINT
  5
1B2
100
AcDbEntity
  8
0
 62
     0
100
AcDbPoint
 10
0.0
 20
0.0
 30
0.0
  0
ENDBLK
  5
1B3
100
AcDbEntity
100
AcDbBlockEnd
  0
BLOCK
  5
1B4
100
AcDbEntity
  8
0
100
AcDbBlockBegin
  2
CDWK_PTTYP15
 70
     0
 10
0.0
 20
0.0
 30
0.0
  3
CDWK_PTTYP15
  1

  4
Cadwork node
  0
POINT
  5
1B5
100
AcDbEntity
  8
0
 62
     0
100
AcDbPoint
 10
0.0
 20
0.0
 30
0.0
  0
ENDBLK
  5
1B6
100
AcDbEntity
100
AcDbBlockEnd
  0
BLOCK
  5
1B7
100
AcDbEntity
  8
0
100
AcDbBlockBegin
  2
CDWK_PTTYP16
 70
     0
 10
0.0
 20
0.0
 30
0.0
  3
CDWK_PTTYP16
  1

  4
Cadwork node
  0
LINE
  5
1B8
100
AcDbEntity
  8
0
 62
     0
370
    -2
100
AcDbLine
 10
-0.5
 20
-0.28867513
 30
0.0
 11
0.5
 21
-0.28867513
 31
0.0
  0
LINE
  5
1B9
100
AcDbEntity
  8
0
 62
     0
370
    -2
100
AcDbLine
 10
0.5
 20
-0.28867513
 30
0.0
 11
0.0
 21
0.57735027
 31
0.0
  0
LINE
  5
1BA
100
AcDbEntity
  8
0
 62
     0
370
    -2
100
AcDbLine
 10
0.0
 20
0.57735027
 30
0.0
 11
-0.5
 21
-0.28867513
 31
0.0
  0
CIRCLE
  5
1BB
100
AcDbEntity
  8
0
 62
     0
370
    -2
100
AcDbCircle
 10
0.0
 20
0.0
 30
0.0
 40
0.28867513
  0
ENDBLK
  5
1BC
100
AcDbEntity
100
AcDbBlockEnd
  0
BLOCK
  5
1BD
100
AcDbEntity
  8
0
100
AcDbBlockBegin
  2
CDWK_PTTYP17
 70
     0
 10
0.0
 20
0.0
 30
0.0
  3
CDWK_PTTYP17
  1

  4
Cadwork node
  0
CIRCLE
  5
1BE
100
AcDbEntity
  8
0
 62
     0
370
    -2
100
AcDbCircle
 10
0.0
 20
0.0
 30
0.0
 40
0.5
  0
HATCH
  5
1BF
100
AcDbEntity
  8
0
 62
     0
370
    -2
100
AcDbHatch
 10
0.0
 20
0.0
 30
0.0
210
0.0
220
0.0
230
1.0
  2
SOLID
 70
     1
 71
     0
 91
        1
 92
        1
 93
        1
 72
     2
 10
0.0
 20
0.0
 40
0.25
 50
0.0
 51
360.0
 73
     1
 97
        0
 75
     0
 76
     1
 98
        1
 10
0.0
 20
0.0
  0
ENDBLK
  5
1C0
100
AcDbEntity
100
AcDbBlockEnd
  0
BLOCK
  5
1C1
100
AcDbEntity
  8
0
100
AcDbBlockBegin
  2
CDWK_PTTYP18
 70
     0
 10
0.0
 20
0.0
 30
0.0
  3
CDWK_PTTYP18
  1

  4
Cadwork node
  0
CIRCLE
  5
1C2
100
AcDbEntity
  8
0
 62
     0
370
    -2
100
AcDbCircle
 10
0.0
 20
0.0
 30
0.0
 40
0.5
  0
CIRCLE
  5
1C3
100
AcDbEntity
  8
0
 62
     0
370
    -2
100
AcDbCircle
 10
0.0
 20
0.0
 30
0.0
 40
0.2
  0
ENDBLK
  5
1C4
100
AcDbEntity
100
AcDbBlockEnd
  0
BLOCK
  5
1C5
100
AcDbEntity
  8
0
100
AcDbBlockBegin
  2
CDWK_PTTYP19
 70
     0
 10
0.0
 20
0.0
 30
0.0
  3
CDWK_PTTYP19
  1

  4
Cadwork node
  0
CIRCLE
  5
1C6
100
AcDbEntity
  8
0
 62
     0
370
    -2
100
AcDbCircle
 10
0.0
 20
0.0
 30
0.0
 40
0.4
  0
CIRCLE
  5
1C7
100
AcDbEntity
  8
0
 62
     0
370
    -2
100
AcDbCircle
 10
0.0
 20
0.0
 30
0.0
 40
0.25
  0
LINE
  5
1C8
100
AcDbEntity
  8
0
 62
     0
370
    -2
100
AcDbLine
 10
-0.25
 20
0.0
 30
0.0
 11
0.25
 21
0.0
 31
0.0
  0
ENDBLK
  5
1C9
100
AcDbEntity
100
AcDbBlockEnd
  0
BLOCK
  5
1CA
100
AcDbEntity
  8
0
100
AcDbBlockBegin
  2
CDWK_PTTYP20
 70
     0
 10
0.0
 20
0.0
 30
0.0
  3
CDWK_PTTYP20
  1

  4
Cadwork node
  0
CIRCLE
  5
1CB
100
AcDbEntity
  8
0
 62
     0
370
    -2
100
AcDbCircle
 10
0.0
 20
0.0
 30
0.0
 40
0.5
  0
CIRCLE
  5
1CC
100
AcDbEntity
  8
0
 62
     0
370
    -2
100
AcDbCircle
 10
0.0
 20
0.0
 30
0.0
 40
0.3
  0
ENDBLK
  5
1CD
100
AcDbEntity
100
AcDbBlockEnd
  0
BLOCK
  5
1CE
100
AcDbEntity
  8
0
100
AcDbBlockBegin
  2
CDWK_PTTYP21
 70
     0
 10
0.0
 20
0.0
 30
0.0
  3
CDWK_PTTYP21
  1

  4
Cadwork node
  0
CIRCLE
  5
1CF
100
AcDbEntity
  8
0
 62
     0
370
    -2
100
AcDbCircle
 10
0.0
 20
0.0
 30
0.0
 40
0.5
  0
LINE
  5
1D0
100
AcDbEntity
  8
0
 62
     0
370
    -2
100
AcDbLine
 10
-0.5
 20
0.0
 30
0.0
 11
0.5
 21
0.0
 31
0.0
  0
ENDBLK
  5
1D1
100
AcDbEntity
100
AcDbBlockEnd
  0
BLOCK
  5
1D2
100
AcDbEntity
  8
0
100
AcDbBlockBegin
  2
CDWK_PTTYP22
 70
     0
 10
0.0
 20
0.0
 30
0.0
  3
CDWK_PTTYP22
  1

  4
Cadwork node
  0
POINT
  5
1D3
100
AcDbEntity
  8
0
 62
     0
100
AcDbPoint
 10
0.0
 20
0.0
 30
0.0
  0
ENDBLK
  5
1D4
100
AcDbEntity
100
AcDbBlockEnd
  0
BLOCK
  5
1D5
100
AcDbEntity
  8
0
100
AcDbBlockBegin
  2
CDWK_PTTYP23
 70
     0
 10
0.0
 20
0.0
 30
0.0
  3
CDWK_PTTYP23
  1

  4
Cadwork node
  0
POINT
  5
1D6
100
AcDbEntity
  8
0
 62
     0
100
AcDbPoint
 10
0.0
 20
0.0
 30
0.0
  0
ENDBLK
  5
1D7
100
AcDbEntity
100
AcDbBlockEnd
  0
BLOCK
  5
1D8
100
AcDbEntity
  8
0
100
AcDbBlockBegin
  2
CDWK_PTTYP24
 70
     0
 10
0.0
 20
0.0
 30
0.0
  3
CDWK_PTTYP24
  1

  4
Cadwork node
  0
POINT
  5
1D9
100
AcDbEntity
  8
0
 62
     0
100
AcDbPoint
 10
0.0
 20
0.0
 30
0.0
  0
ENDBLK
  5
1DA
100
AcDbEntity
100
AcDbBlockEnd
  0
BLOCK
  5
1DB
100
AcDbEntity
  8
0
100
AcDbBlockBegin
  2
CDWK_PTTYP25
 70
     0
 10
0.0
 20
0.0
 30
0.0
  3
CDWK_PTTYP25
  1

  4
Cadwork node
  0
LINE
  5
1DC
100
AcDbEntity
  8
0
 62
     0
370
    -2
100
AcDbLine
 10
-0.43290044
 20
-0.25
 30
0.0
 11
0.43290044
 21
-0.25
 31
0.0
  0
LINE
  5
1DD
100
AcDbEntity
  8
0
 62
     0
370
    -2
100
AcDbLine
 10
-0.43290044
 20
-0.25
 30
0.0
 11
0.0
 21
0.5
 31
0.0
  0
LINE
  5
1DE
100
AcDbEntity
  8
0
 62
     0
370
    -2
100
AcDbLine
 10
0.43290044
 20
-0.25
 30
0.0
 11
0.0
 21
0.5
 31
0.0
  0
CIRCLE
  5
1DF
100
AcDbEntity
  8
0
 62
     0
370
    -2
100
AcDbCircle
 10
0.0
 20
0.0
 30
0.0
 40
0.5
  0
ENDBLK
  5
1E0
100
AcDbEntity
100
AcDbBlockEnd
  0
BLOCK
  5
1E1
100
AcDbEntity
  8
0
100
AcDbBlockBegin
  2
CDWK_PTTYP26
 70
     0
 10
0.0
 20
0.0
 30
0.0
  3
CDWK_PTTYP26
  1

  4
Cadwork node
  0
LINE
  5
1E2
100
AcDbEntity
  8
0
 62
     0
370
    -2
100
AcDbLine
 10
-0.5
 20
-0.28850001
 30
0.0
 11
0.5
 21
-0.28850001
 31
0.0
  0
LINE
  5
1E3
100
AcDbEntity
  8
0
 62
     0
370
    -2
100
AcDbLine
 10
-0.5
 20
-0.28850001
 30
0.0
 11
0.0
 21
0.57736721
 31
0.0
  0
LINE
  5
1E4
100
AcDbEntity
  8
0
 62
     0
370
    -2
100
AcDbLine
 10
0.5
 20
-0.28850001
 30
0.0
 11
0.0
 21
0.57736721
 31
0.0
  0
CIRCLE
  5
1E5
100
AcDbEntity
  8
0
 62
     0
370
    -2
100
AcDbCircle
 10
0.0
 20
0.0
 30
0.0
 40
0.1312336
  0
ENDBLK
  5
1E6
100
AcDbEntity
100
AcDbBlockEnd
  0
BLOCK
  5
1E7
100
AcDbEntity
  8
0
100
AcDbBlockBegin
  2
CDWK_PTTYP27
 70
     0
 10
0.0
 20
0.0
 30
0.0
  3
CDWK_PTTYP27
  1

  4
Cadwork node
  0
LINE
  5
1E8
100
AcDbEntity
  8
0
 62
     0
370
    -2
100
AcDbLine
 10
-0.43290044
 20
-0.25
 30
0.0
 11
0.43290044
 21
-0.25
 31
0.0
  0
LINE
  5
1E9
100
AcDbEntity
  8
0
 62
     0
370
    -2
100
AcDbLine
 10
-0.43290044
 20
-0.25
 30
0.0
 11
0.0
 21
0.5
 31
0.0
  0
LINE
  5
1EA
100
AcDbEntity
  8
0
 62
     0
370
    -2
100
AcDbLine
 10
0.43290044
 20
-0.25
 30
0.0
 11
0.0
 21
0.5
 31
0.0
  0
CIRCLE
  5
1EB
100
AcDbEntity
  8
0
 62
     0
370
    -2
100
AcDbCircle
 10
0.0
 20
0.0
 30
0.0
 40
0.5
  0
CIRCLE
  5
1EC
100
AcDbEntity
  8
0
 62
     0
370
    -2
100
AcDbCircle
 10
0.0
 20
0.0
 30
0.0
 40
0.1312336
  0
ENDBLK
  5
1ED
100
AcDbEntity
100
AcDbBlockEnd
  0
BLOCK
  5
1EE
100
AcDbEntity
  8
0
100
AcDbBlockBegin
  2
CDWK_PTTYP28
 70
     0
 10
0.0
 20
0.0
 30
0.0
  3
CDWK_PTTYP28
  1

  4
Cadwork node
  0
POINT
  5
1EF
100
AcDbEntity
  8
0
 62
     0
100
AcDbPoint
 10
0.0
 20
0.0
 30
0.0
  0
ENDBLK
  5
1F0
100
AcDbEntity
100
AcDbBlockEnd
  0
BLOCK
  5
1F1
100
AcDbEntity
  8
0
100
AcDbBlockBegin
  2
CDWK_PTTYP29
 70
     0
 10
0.0
 20
0.0
 30
0.0
  3
CDWK_PTTYP29
  1

  4
Cadwork node
  0
CIRCLE
  5
1F2
100
AcDbEntity
  8
0
 62
     0
370
    -2
100
AcDbCircle
 10
0.0
 20
0.0
 30
0.0
 40
0.5
  0
CIRCLE
  5
1F3
100
AcDbEntity
  8
0
 62
     0
370
    -2
100
AcDbCircle
 10
0.0
 20
0.0
 30
0.0
 40
0.375
  0
CIRCLE
  5
1F4
100
AcDbEntity
  8
0
 62
     0
370
    -2
100
AcDbCircle
 10
0.0
 20
0.0
 30
0.0
 40
0.21875
  0
ENDBLK
  5
1F5
100
AcDbEntity
100
AcDbBlockEnd
  0
BLOCK
  5
1F6
100
AcDbEntity
  8
0
100
AcDbBlockBegin
  2
CDWK_PTTYP30
 70
     0
 10
0.0
 20
0.0
 30
0.0
  3
CDWK_PTTYP30
  1

  4
Cadwork node
  0
LINE
  5
1F7
100
AcDbEntity
  8
0
 62
     0
370
    -2
100
AcDbLine
 10
0.17680339
 20
0.17680339
 30
0.0
 11
0.5
 21
0.5
 31
0.0
  0
LINE
  5
1F8
100
AcDbEntity
  8
0
 62
     0
370
    -2
100
AcDbLine
 10
-0.17680339
 20
0.17680339
 30
0.0
 11
-0.5
 21
0.5
 31
0.0
  0
LINE
  5
1F9
100
AcDbEntity
  8
0
 62
     0
370
    -2
100
AcDbLine
 10
0.17680339
 20
-0.17680339
 30
0.0
 11
0.5
 21
-0.5
 31
0.0
  0
LINE
  5
1FA
100
AcDbEntity
  8
0
 62
     0
370
    -2
100
AcDbLine
 10
-0.17680339
 20
-0.17680339
 30
0.0
 11
-0.5
 21
-0.5
 31
0.0
  0
ENDBLK
  5
1FB
100
AcDbEntity
100
AcDbBlockEnd
  0
BLOCK
  5
1FC
100
AcDbEntity
  8
0
100
AcDbBlockBegin
  2
CDWK_PTTYP31
 70
     0
 10
0.0
 20
0.0
 30
0.0
  3
CDWK_PTTYP31
  1

  4
Cadwork node
  0
CIRCLE
  5
1FD
100
AcDbEntity
  8
0
 62
     0
370
    -2
100
AcDbCircle
 10
0.0
 20
0.0
 30
0.0
 40
0.075
  0
LINE
  5
1FE
100
AcDbEntity
  8
0
 62
     0
370
    -2
100
AcDbLine
 10
0.075
 20
0.0
 30
0.0
 11
0.5
 21
0.0
 31
0.0
  0
LINE
  5
1FF
100
AcDbEntity
  8
0
 62
     0
370
    -2
100
AcDbLine
 10
-0.075
 20
0.0
 30
0.0
 11
-0.5
 21
0.0
 31
0.0
  0
LINE
  5
200
100
AcDbEntity
  8
0
 62
     0
370
    -2
100
AcDbLine
 10
0.0
 20
0.075
 30
0.0
 11
0.0
 21
0.5
 31
0.0
  0
LINE
  5
201
100
AcDbEntity
  8
0
 62
     0
370
    -2
100
AcDbLine
 10
0.0
 20
-0.075
 30
0.0
 11
0.0
 21
-0.5
 31
0.0
  0
ENDBLK
  5
202
100
AcDbEntity
100
AcDbBlockEnd
  0
BLOCK
  5
203
100
AcDbEntity
  8
0
100
AcDbBlockBegin
  2
CDWK_PTTYP32
 70
     0
 10
0.0
 20
0.0
 30
0.0
  3
CDWK_PTTYP32
  1

  4
Cadwork node
  0
CIRCLE
  5
204
100
AcDbEntity
  8
0
 62
     0
370
    -2
100
AcDbCircle
 10
0.0
 20
0.0
 30
0.0
 40
0.5
  0
CIRCLE
  5
205
100
AcDbEntity
  8
0
 62
     0
370
    -2
100
AcDbCircle
 10
0.0
 20
0.0
 30
0.0
 40
0.16666667
  0
LINE
  5
206
100
AcDbEntity
  8
0
 62
     0
370
    -2
100
AcDbLine
 10
0.11786893
 20
0.11786893
 30
0.0
 11
0.35360678
 21
0.35360678
 31
0.0
  0
LINE
  5
207
100
AcDbEntity
  8
0
 62
     0
370
    -2
100
AcDbLine
 10
-0.11786893
 20
0.11786893
 30
0.0
 11
-0.35360678
 21
0.35360678
 31
0.0
  0
LINE
  5
208
100
AcDbEntity
  8
0
 62
     0
370
    -2
100
AcDbLine
 10
0.11786893
 20
-0.11786893
 30
0.0
 11
0.35360678
 21
-0.35360678
 31
0.0
  0
LINE
  5
209
100
AcDbEntity
  8
0
 62
     0
370
    -2
100
AcDbLine
 10
-0.11786893
 20
-0.11786893
 30
0.0
 11
-0.35360678
 21
-0.35360678
 31
0.0
  0
ENDBLK
  5
20A
100
AcDbEntity
100
AcDbBlockEnd
  0
BLOCK
  5
20B
100
AcDbEntity
  8
0
100
AcDbBlockBegin
  2
CDWK_PTTYP33
 70
     0
 10
0.0
 20
0.0
 30
0.0
  3
CDWK_PTTYP33
  1

  4
Cadwork node
  0
CIRCLE
  5
20C
100
AcDbEntity
  8
0
 62
     0
370
    -2
100
AcDbCircle
 10
0.0
 20
0.0
 30
0.0
 40
0.5
  0
LINE
  5
20D
100
AcDbEntity
  8
0
 62
     0
370
    -2
100
AcDbLine
 10
0.0
 20
0.5
 30
0.0
 11
0.0
 21
-0.5
 31
0.0
  0
LINE
  5
20E
100
AcDbEntity
  8
0
 62
     0
370
    -2
100
AcDbLine
 10
-0.5
 20
0.0
 30
0.0
 11
0.5
 21
0.0
 31
0.0
  0
ENDBLK
  5
20F
100
AcDbEntity
100
AcDbBlockEnd
  0
BLOCK
  5
210
100
AcDbEntity
  8
0
100
AcDbBlockBegin
  2
CDWK_PTTYP34
 70
     0
 10
0.0
 20
0.0
 30
0.0
  3
CDWK_PTTYP34
  1

  4
Cadwork node
  0
CIRCLE
  5
211
100
AcDbEntity
  8
0
 62
     0
370
    -2
100
AcDbCircle
 10
0.0
 20
0.0
 30
0.0
 40
0.5
  0
LINE
  5
212
100
AcDbEntity
  8
0
 62
     0
370
    -2
100
AcDbLine
 10
-0.30360678
 20
-0.40360678
 30
0.0
 11
0.40360678
 21
0.30360678
 31
0.0
  0
LINE
  5
213
100
AcDbEntity
  8
0
 62
     0
370
    -2
100
AcDbLine
 10
-0.40360678
 20
-0.30360678
 30
0.0
 11
0.30360678
 21
0.40360678
 31
0.0
  0
ENDBLK
  5
214
100
AcDbEntity
100
AcDbBlockEnd
  0
BLOCK
  5
215
100
AcDbEntity
  8
0
100
AcDbBlockBegin
  2
CDWK_PTTYP35
 70
     0
 10
0.0
 20
0.0
 30
0.0
  3
CDWK_PTTYP35
  1

  4
Cadwork node
  0
CIRCLE
  5
216
100
AcDbEntity
  8
0
 62
     0
370
    -2
100
AcDbCircle
 10
0.0
 20
0.0
 30
0.0
 40
0.21431634
  0
LINE
  5
217
100
AcDbEntity
  8
0
 62
     0
370
    -2
100
AcDbLine
 10
0.0
 20
0.21431634
 30
0.0
 11
0.0
 21
0.5
 31
0.0
  0
LINE
  5
218
100
AcDbEntity
  8
0
 62
     0
370
    -2
100
AcDbLine
 10
0.0
 20
-0.21431634
 30
0.0
 11
0.0
 21
-0.5
 31
0.0
  0
ENDBLK
  5
219
100
AcDbEntity
100
AcDbBlockEnd
  0
BLOCK
  5
21A
100
AcDbEntity
  8
0
100
AcDbBlockBegin
  2
CDWK_PTTYP36
 70
     0
 10
0.0
 20
0.0
 30
0.0
  3
CDWK_PTTYP36
  1

  4
Cadwork node
  0
LINE
  5
21B
100
AcDbEntity
  8
0
 62
     0
370
    -2
100
AcDbLine
 10
-0.5
 20
-0.16666667
 30
0.0
 11
0.5
 21
-0.16666667
 31
0.0
  0
LINE
  5
21C
100
AcDbEntity
  8
0
 62
     0
370
    -2
100
AcDbLine
 10
0.5
 20
-0.16666667
 30
0.0
 11
0.5
 21
0.16666667
 31
0.0
  0
LINE
  5
21D
100
AcDbEntity
  8
0
 62
     0
370
    -2
100
AcDbLine
 10
0.5
 20
0.16666667
 30
0.0
 11
-0.5
 21
0.16666667
 31
0.0
  0
LINE
  5
21E
100
AcDbEntity
  8
0
 62
     0
370
    -2
100
AcDbLine
 10
-0.5
 20
0.16666667
 30
0.0
 11
-0.5
 21
-0.16666667
 31
0.0
  0
SOLID
  5
21F
100
AcDbEntity
  8
0
 62
     0
100
AcDbTrace
 10
-0.5
 20
-0.16666667
 11
0.5
 21
0.16666667
 12
0.5
 22
-0.16666667
 13
0.5
 23
-0.16666667
  0
ENDBLK
  5
220
100
AcDbEntity
100
AcDbBlockEnd
  0
BLOCK
  5
221
100
AcDbEntity
  8
0
100
AcDbBlockBegin
  2
CDWK_PTTYP37
 70
     0
 10
0.0
 20
0.0
 30
0.0
  3
CDWK_PTTYP37
  1

  4
Cadwork node
  0
CIRCLE
  5
222
100
AcDbEntity
  8
0
 62
     0
370
    -2
100
AcDbCircle
 10
0.0
 20
0.0
 30
0.0
 40
0.5
  0
SOLID
  5
223
100
AcDbEntity
  8
0
 62
     0
100
AcDbTrace
 10
0.0
 20
0.0
 11
0.35350001
 21
0.35350001
 12
0.5
 22
0.0
 13
0.46200001
 23
0.19149999
  0
SOLID
  5
224
100
AcDbEntity
  8
0
 62
     0
100
AcDbTrace
 10
0.0
 20
0.0
 11
0.35350001
 21
-0.35350001
 12
0.5
 22
0.0
 13
0.46200001
 23
-0.19149999
  0
SOLID
  5
225
100
AcDbEntity
  8
0
 62
     0
100
AcDbTrace
 10
0.0
 20
0.0
 11
0.0
 21
-0.5
 12
0.35350001
 22
-0.35350001
 13
0.19149999
 23
-0.46200001
  0
SOLID
  5
226
100
AcDbEntity
  8
0
 62
     0
100
AcDbTrace
 10
0.0
 20
0.0
 11
0.0
 21
-0.5
 12
-0.35350001
 22
-0.35350001
 13
-0.19149999
 23
-0.46200001
  0
ENDBLK
  5
227
100
AcDbEntity
100
AcDbBlockEnd
  0
BLOCK
  5
228
100
AcDbEntity
  8
0
100
AcDbBlockBegin
  2
CDWK_PTTYP38
 70
     0
 10
0.0
 20
0.0
 30
0.0
  3
CDWK_PTTYP38
  1

  4
Cadwork node
  0
CIRCLE
  5
229
100
AcDbEntity
  8
0
 62
     0
370
    -2
100
AcDbCircle
 10
0.0
 20
0.0
 30
0.0
 40
0.5
  0
SOLID
  5
22A
100
AcDbEntity
  8
0
 62
     0
100
AcDbTrace
 10
0.0
 20
0.0
 11
0.35350001
 21
0.35350001
 12
0.0
 22
0.5
 13
0.19149999
 23
0.46200001
  0
SOLID
  5
22B
100
AcDbEntity
  8
0
 62
     0
100
AcDbTrace
 10
0.0
 20
0.0
 11
0.5
 21
0.0
 12
0.35350001
 22
0.35350001
 13
0.46200001
 23
0.19149999
  0
SOLID
  5
22C
100
AcDbEntity
  8
0
 62
     0
100
AcDbTrace
 10
0.0
 20
0.0
 11
0.0
 21
-0.5
 12
-0.35350001
 22
-0.35350001
 13
-0.19149999
 23
-0.46200001
  0
SOLID
  5
22D
100
AcDbEntity
  8
0
 62
     0
100
AcDbTrace
 10
0.0
 20
0.0
 11
-0.5
 21
0.0
 12
-0.35350001
 22
-0.35350001
 13
-0.46200001
 23
-0.19149999
  0
ENDBLK
  5
22E
100
AcDbEntity
100
AcDbBlockEnd
  0
ENDSEC
  0
SECTION
  2
ENTITIES
  0
LWPOLYLINE
  5
22F
100
AcDbEntity
  8
Ech.1_5
 62
   190
  6
CONTINUOUS
370
    -3
100
AcDbPolyline
 90
        4
 70
     1
 43
0.0
 10
31709.2876866
 20
-24910.97522929
 10
31709.2876866
 20
-24768.06525696
 10
31659.2876866
 20
-24786.26377883
 10
31659.2876866
 20
-24910.97522929
  0
LWPOLYLINE
  5
230
102
{ACAD_REACTORS
330
231
102
}
100
AcDbEntity
  8
Ech.1_5
 62
     9
  6
CONTINUOUS
370
    -3
100
AcDbPolyline
 90
        8
 70
     1
 43
0.0
 38
2500.0
 39
-2500.0
 10
31649.2876866
 20
-24479.23517016
 10
31470.79179944
 20
-24479.23517016
 10
31470.79191755
 20
-24910.97522929
 10
31575.99529186
 20
-24910.97522929
 10
31592.48079501
 20
-24892.99788088
 10
31578.370855
 20
-24928.95358089
 10
31594.85720908
 20
-24910.97522929
 10
31649.2876866
 20
-24910.97522929
  0
HATCH
  5
231
100
AcDbEntity
  8
Ech.1_5
 62
     9
  6
CONTINUOUS
100
AcDbHatch
 10
0.0
 20
0.0
 30
0.0
210
0.0
220
0.0
230
1.0
  2
ANSI31
 70
     0
 71
     1
 91
        1
 92
        7
 72
     0
 73
     1
 93
        8
 10
31649.2876866
 20
-24479.23517016
 10
31470.79179944
 20
-24479.23517016
 10
31470.79191755
 20
-24910.97522929
 10
31575.99529186
 20
-24910.97522929
 10
31592.48079501
 20
-24892.99788088
 10
31578.370855
 20
-24928.95358089
 10
31594.85720908
 20
-24910.97522929
 10
31649.2876866
 20
-24910.97522929
 97
        1
330
230
 75
     0
 76
     2
 52
0.0
 41
4.72443907
 77
     0
 78
     1
 53
45.0
 43
0.0
 44
0.0
 45
10.60660172
 46
-10.60660172
 79
     0
 47
0.775229
 98
        1
 10
0.0
 20
0.0
  0
LWPOLYLINE
  5
232
100
AcDbEntity
  8
Ech.1_5
 62
   190
  6
CONTINUOUS
370
    -3
100
AcDbPolyline
 90
        4
 70
     1
 43
0.0
 10
31828.34333925
 20
-24710.89820706
 10
32150.24457493
 20
-24593.73567354
 10
32150.24457493
 20
-24508.06928111
 10
31845.65478816
 20
-24618.93089716
  0
LWPOLYLINE
  5
233
100
AcDbEntity
  8
Ech.1_5
 62
   190
  6
CONTINUOUS
370
    -3
100
AcDbPolyline
 90
        4
 70
     1
 43
0.0
 10
31662.43177723
 20
-24515.34857481
 10
32150.24457493
 20
-24337.80074281
 10
32150.24457493
 20
-24210.09786719
 10
31621.38936003
 20
-24402.58546032
  0
LWPOLYLINE
  5
234
100
AcDbEntity
  8
Ech.1_5
 62
   190
  6
CONTINUOUS
370
    -3
100
AcDbPolyline
 90
        4
 70
     1
 43
0.0
 10
31684.99022725
 20
-24613.55734868
 10
32150.24457493
 20
-24444.21779647
 10
32150.24457493
 20
-24337.80077263
 10
31650.7876866
 20
-24519.58664054
  0
LWPOLYLINE
  5
235
100
AcDbEntity
  8
Ech.1_5
 62
   190
  6
CONTINUOUS
370
    -3
100
AcDbPolyline
 90
        5
 70
     1
 43
0.0
 10
32618.67149751
 20
-24039.60441045
 10
32618.67149751
 20
-23954.47018865
 10
30970.79179944
 20
-24554.2493484
 10
30970.79179944
 20
-24554.2493484
 10
30970.79179944
 20
-24639.38357019
  0
LWPOLYLINE
  5
236
100
AcDbEntity
  8
Ech.1_5
 62
   190
  6
CONTINUOUS
370
    -3
100
AcDbPolyline
 90
       23
 70
     1
 43
0.0
 10
31286.22083458
 20
-24381.73824096
 10
31292.32974934
 20
-24404.51342424
 10
31316.06241364
 20
-24398.1476874
 10
31303.45815498
 20
-24345.95188045
 10
31294.01373651
 20
-24348.23252137
 10
31296.59143604
 20
-24358.90709658
 10
31279.63891571
 20
-24363.00079612
 10
31277.06121618
 20
-24352.32622092
 10
31267.61679772
 20
-24354.60686184
 10
31270.19449725
 20
-24365.28143704
 10
31247.08019886
 20
-24370.86308455
 10
31237.61641088
 20
-24331.6723583
 10
31233.94969903
 20
-24316.48804724
 10
30907.5622646
 20
-24395.30417993
 42
0.41421356
 10
30891.1144417
 20
-24422.22457202
 10
30899.00865695
 20
-24454.91550183
 10
30908.05098966
 20
-24492.36092924
 10
30928.353543
 20
-24487.45826275
 10
30925.82029033
 20
-24476.96774752
 10
30941.6049474
 20
-24472.79692945
 10
30944.10036452
 20
-24483.13076294
 10
30954.55956235
 20
-24480.32532567
 10
30952.37632983
 20
-24471.28428756
  0
LWPOLYLINE
  5
237
100
AcDbEntity
  8
Ech.1_5
 62
   190
  6
CONTINUOUS
370
    -3
100
AcDbPolyline
 90
       25
 70
     1
 43
0.0
 10
31624.82858851
 20
-24258.49509744
 10
31630.93750328
 20
-24281.27028072
 10
31654.67016757
 20
-24274.90454388
 10
31642.06590891
 20
-24222.70873693
 10
31632.62149045
 20
-24224.98937785
 10
31635.19918998
 20
-24235.66395305
 10
31618.24666964
 20
-24239.7576526
 10
31615.66897012
 20
-24229.08307739
 10
31606.22455165
 20
-24231.36371831
 10
31608.80225118
 20
-24242.03829352
 10
31585.7359024
 20
-24247.60836214
 10
31585.29905862
 20
-24245.79933756
 10
31585.24393389
 20
-24245.8126491
 10
31576.20160117
 20
-24208.36722168
 10
31572.55027783
 20
-24193.24663637
 10
31246.17001854
 20
-24272.06103641
 42
0.41421356
 10
31229.72219563
 20
-24298.9814285
 10
31233.94969903
 20
-24316.48804724
 10
31246.6587436
 20
-24369.11778572
 10
31266.96129694
 20
-24364.21511923
 10
31264.42804426
 20
-24353.724604
 10
31280.21270134
 20
-24349.55378592
 10
31282.70811846
 20
-24359.88761942
 10
31293.16731628
 20
-24357.08218215
 10
31290.98408377
 20
-24348.04114403
  0
LINE
  5
238
100
AcDbEntity
  8
Ech.1_5
 62
   190
  6
CONTINUOUS
370
    -3
100
AcDbLine
 10
31576.20160117
 20
-24208.36722168
 30
0.0
 11
31635.02109127
 21
-24194.16347409
 31
0.0
  0
LWPOLYLINE
  5
239
100
AcDbEntity
  8
Ech.1_5
 62
   190
  6
CONTINUOUS
370
    -3
100
AcDbPolyline
 90
        9
 70
     1
 43
0.0
 10
31605.54648723
 20
-24240.90998261
 10
31603.01323456
 20
-24230.41946738
 10
31618.79789163
 20
-24226.2486493
 10
31621.29330875
 20
-24236.58248279
 10
31631.75250657
 20
-24233.77704553
 10
31629.56927406
 20
-24224.73600741
 10
31743.54942879
 20
-24194.16347409
 10
31572.83001527
 20
-24194.16347409
 10
31585.29905862
 20
-24245.79933756
  0
LWPOLYLINE
  5
23A
100
AcDbEntity
  8
Ech.1_5
 62
   190
  6
CONTINUOUS
370
    -3
100
AcDbPolyline
 90
       48
 70
     0
 43
0.0
 10
31840.80497879
 20
-24629.95584105
 42
-0.15649244
 10
31843.98017458
 20
-24637.51361174
 10
31848.21158151
 20
-24685.69367908
 42
1.30322619
 10
31872.5674805
 20
-24676.82885187
 10
31844.83936174
 20
-24637.20089301
 42
-1.30322619
 10
31869.19526073
 20
-24628.33606581
 10
31873.42666766
 20
-24676.51613314
 42
1.30322619
 10
31897.78256666
 20
-24667.65130593
 10
31870.0544479
 20
-24628.02334708
 42
-1.30322619
 10
31894.41034689
 20
-24619.15851987
 10
31898.64175382
 20
-24667.33858721
 42
1.30322619
 10
31922.99765281
 20
-24658.47376
 10
31895.26953405
 20
-24618.84580114
 42
-1.30322619
 10
31919.62543304
 20
-24609.98097394
 10
31923.85683997
 20
-24658.16104127
 42
1.30322619
 10
31948.21273897
 20
-24649.29621407
 10
31920.48462021
 20
-24609.66825521
 42
-1.30322619
 10
31944.8405192
 20
-24600.803428
 10
31949.07192613
 20
-24648.98349534
 42
1.30322619
 10
31973.42782512
 20
-24640.11866813
 10
31945.69970636
 20
-24600.49070928
 42
-1.30322619
 10
31970.05560535
 20
-24591.62588207
 10
31974.28701229
 20
-24639.8059494
 42
1.30322619
 10
31998.64291128
 20
-24630.9411222
 10
31970.91479252
 20
-24591.31316334
 42
-1.30322619
 10
31995.27069151
 20
-24582.44833613
 10
31999.50209844
 20
-24630.62840347
 42
1.30322619
 10
32023.85799743
 20
-24621.76357626
 10
31996.12987867
 20
-24582.13561741
 42
-1.30322619
 10
32020.48577767
 20
-24573.2707902
 10
32024.7171846
 20
-24621.45085753
 42
1.30322619
 10
32049.07308359
 20
-24612.58603033
 10
32021.34496483
 20
-24572.95807147
 42
-1.30322619
 10
32045.70086382
 20
-24564.09324426
 10
32049.93227075
 20
-24612.2733116
 42
1.30322619
 10
32074.28816975
 20
-24603.40848439
 10
32046.56005099
 20
-24563.78052554
 42
-1.30322619
 10
32070.91594998
 20
-24554.91569833
 10
32075.14735691
 20
-24603.09576567
 42
1.30322619
 10
32099.5032559
 20
-24594.23093846
 10
32071.77513714
 20
-24554.6029796
 42
-1.30322619
 10
32096.13103613
 20
-24545.7381524
 10
32100.36244306
 20
-24593.91821973
 42
1.30322619
 10
32124.71834206
 20
-24585.05339252
 10
32096.9902233
 20
-24545.42543367
 42
-1.30322619
 10
32121.34612229
 20
-24536.56060646
 10
32125.57752922
 20
-24584.7406738
 42
0.71585283
 10
32150.24457493
 20
-24590.80215035
  0
LWPOLYLINE
  5
23B
100
AcDbEntity
  8
Ech.1_5
 62
   190
  6
CONTINUOUS
370
    -3
100
AcDbPolyline
 90
        5
 70
     0
 43
0.0
 10
32150.24457493
 20
-24576.34052925
 42
0.01042163
 10
32149.93342821
 20
-24575.87584659
 10
32122.20530945
 20
-24536.24788773
 42
-1.30322619
 10
32146.56120844
 20
-24527.38306053
 10
32150.24457493
 20
-24569.32297516
  0
LWPOLYLINE
  5
23C
100
AcDbEntity
  8
Ech.1_5
 62
   190
  6
CONTINUOUS
370
    -3
100
AcDbPolyline
 90
        3
 70
     0
 43
0.0
 10
32150.24457493
 20
-24531.10655006
 10
32147.42039561
 20
-24527.0703418
 42
-0.40153028
 10
32150.24457493
 20
-24508.72958212
  0
LWPOLYLINE
  5
23D
100
AcDbEntity
  8
Ech.1_5
 62
   190
  6
CONTINUOUS
370
    -3
100
AcDbPolyline
 90
        4
 70
     0
 43
0.0
 10
32150.24457493
 20
-24362.01907236
 10
32150.08355073
 20
-24360.18554021
 42
1.30322619
 10
32119.82857954
 20
-24371.19735389
 10
32150.24457493
 20
-24414.66699637
  0
LWPOLYLINE
  5
23E
100
AcDbEntity
  8
Ech.1_5
 62
   190
  6
CONTINUOUS
370
    -3
100
AcDbPolyline
 90
       60
 70
     0
 43
0.0
 10
32150.24457493
 20
-24443.5890574
 42
-0.57894368
 10
32124.0173783
 20
-24431.4351865
 10
32118.76129465
 20
-24371.58581046
 42
1.30322619
 10
32088.50632346
 20
-24382.59762414
 10
32122.95009341
 20
-24431.82364307
 42
-1.30322619
 10
32092.69512222
 20
-24442.83545675
 10
32087.43903858
 20
-24382.98608071
 42
1.30322619
 10
32057.18406739
 20
-24393.99789439
 10
32091.62783734
 20
-24443.22391332
 42
-1.30322619
 10
32061.37286615
 20
-24454.235727
 10
32056.11678251
 20
-24394.38635096
 42
1.30322619
 10
32025.86181132
 20
-24405.39816464
 10
32060.30558127
 20
-24454.62418357
 42
-1.30322619
 10
32030.05061008
 20
-24465.63599725
 10
32024.79452643
 20
-24405.78662121
 42
1.30322619
 10
31994.53955524
 20
-24416.79843489
 10
32028.98332519
 20
-24466.02445382
 42
-1.30322619
 10
31998.728354
 20
-24477.0362675
 10
31993.47227036
 20
-24417.18689146
 42
1.30322619
 10
31963.21729917
 20
-24428.19870514
 10
31997.66106912
 20
-24477.42472407
 42
-1.30322619
 10
31967.40609793
 20
-24488.43653775
 10
31962.15001428
 20
-24428.58716171
 42
1.30322619
 10
31931.8950431
 20
-24439.59897539
 10
31966.33881304
 20
-24488.82499432
 42
-1.30322619
 10
31936.08384186
 20
-24499.836808
 10
31930.82775821
 20
-24439.98743196
 42
1.30322619
 10
31900.57278702
 20
-24450.99924564
 10
31935.01655697
 20
-24500.22526457
 42
-1.30322619
 10
31904.76158578
 20
-24511.23707825
 10
31899.50550214
 20
-24451.38770221
 42
1.30322619
 10
31869.25053095
 20
-24462.39951589
 10
31903.6943009
 20
-24511.62553482
 42
-1.30322619
 10
31873.43932971
 20
-24522.6373485
 10
31868.18324606
 20
-24462.78797246
 42
1.30322619
 10
31837.92827488
 20
-24473.79978614
 10
31872.37204482
 20
-24523.02580507
 42
-1.30322619
 10
31842.11707364
 20
-24534.03761875
 10
31836.86098999
 20
-24474.18824271
 42
1.30322619
 10
31806.6060188
 20
-24485.20005639
 10
31841.04978875
 20
-24534.42607532
 42
-1.30322619
 10
31810.79481756
 20
-24545.437889
 10
31805.53873392
 20
-24485.58851296
 42
1.30322619
 10
31775.28376273
 20
-24496.60032664
 10
31809.72753268
 20
-24545.82634557
 42
-1.30322619
 10
31779.47256149
 20
-24556.83815925
 10
31774.21647784
 20
-24496.98878321
 42
1.30322619
 10
31743.96150666
 20
-24508.00059689
 10
31778.4052766
 20
-24557.22661582
 42
-1.30322619
 10
31748.15030542
 20
-24568.2384295
 10
31742.89422177
 20
-24508.38905346
 42
1.30322619
 10
31712.63925058
 20
-24519.40086714
 10
31747.08302053
 20
-24568.62688607
 42
-1.30322619
 10
31716.82804934
 20
-24579.63869975
 10
31711.5719657
 20
-24519.78932371
 42
1.30322619
 10
31681.31699451
 20
-24530.80113739
 10
31715.76076446
 20
-24580.02715632
 42
-1.30322619
 10
31685.50579327
 20
-24591.03897
 10
31680.24970962
 20
-24531.18959396
 42
0.6506601
 10
31651.41810795
 20
-24521.31872397
  0
ARC
  5
23F
100
AcDbEntity
  8
Ech.1_5
 62
   190
  6
CONTINUOUS
370
    -3
100
AcDbCircle
 10
32164.80301435
 20
-24350.23776947
 30
0.0
 40
16.66620748
100
AcDbArc
 50
150.87152699
 51
209.12847301
  0
LWPOLYLINE
  5
240
100
AcDbEntity
  8
Ech.1_5
 62
   190
  6
CONTINUOUS
370
    -3
100
AcDbPolyline
 90
       54
 70
     0
 43
0.0
 10
32150.24457493
 20
-24328.88228732
 42
-0.22405289
 10
32141.64433343
 20
-24314.13959142
 10
32135.33651474
 20
-24242.31672988
 42
1.30322619
 10
32099.02875212
 20
-24255.53167474
 10
32140.36352817
 20
-24314.60576642
 42
-1.30322619
 10
32104.05576555
 20
-24327.82071128
 10
32097.74794686
 20
-24255.99784973
 42
1.30322619
 10
32061.44018424
 20
-24269.2127946
 10
32102.77496029
 20
-24328.28688627
 42
-1.30322619
 10
32066.46719767
 20
-24341.50183114
 10
32060.15937898
 20
-24269.67896959
 42
1.30322619
 10
32023.85161636
 20
-24282.89391446
 10
32065.18639241
 20
-24341.96800613
 42
-1.30322619
 10
32028.87862979
 20
-24355.182951
 10
32022.5708111
 20
-24283.36008945
 42
1.30322619
 10
31986.26304848
 20
-24296.57503431
 10
32027.59782452
 20
-24355.64912599
 42
-1.30322619
 10
31991.2900619
 20
-24368.86407085
 10
31984.98224322
 20
-24297.04120931
 42
1.30322619
 10
31948.6744806
 20
-24310.25615417
 10
31990.00925664
 20
-24369.33024585
 42
-1.30322619
 10
31953.70149402
 20
-24382.54519071
 10
31947.39367534
 20
-24310.72232916
 42
1.30322619
 10
31911.08591272
 20
-24323.93727403
 10
31952.42068876
 20
-24383.0113657
 42
-1.30322619
 10
31916.11292614
 20
-24396.22631057
 10
31909.80510746
 20
-24324.40344902
 42
1.30322619
 10
31873.49734484
 20
-24337.61839389
 10
31914.83212088
 20
-24396.69248556
 42
-1.30322619
 10
31878.52435826
 20
-24409.90743043
 10
31872.21653958
 20
-24338.08456888
 42
1.30322619
 10
31835.90877696
 20
-24351.29951374
 10
31877.243553
 20
-24410.37360542
 42
-1.30322619
 10
31840.93579038
 20
-24423.58855028
 10
31834.62797169
 20
-24351.76568874
 42
1.30322619
 10
31798.32020907
 20
-24364.9806336
 10
31839.65498512
 20
-24424.05472528
 42
-1.30322619
 10
31803.3472225
 20
-24437.26967014
 10
31797.03940381
 20
-24365.44680859
 42
1.30322619
 10
31760.73164119
 20
-24378.66175346
 10
31802.06641724
 20
-24437.73584513
 42
-1.30322619
 10
31765.75865462
 20
-24450.95079
 10
31759.45083593
 20
-24379.12792845
 42
1.30322619
 10
31723.14307331
 20
-24392.34287332
 10
31764.47784936
 20
-24451.41696499
 42
-1.30322619
 10
31728.17008674
 20
-24464.63190986
 10
31721.86226805
 20
-24392.80904831
 42
1.30322619
 10
31685.55450543
 20
-24406.02399317
 10
31726.88928147
 20
-24465.09808485
 42
-1.30322619
 10
31690.58151885
 20
-24478.31302971
 10
31684.27370017
 20
-24406.49016817
 42
1.30322619
 10
31647.96593755
 20
-24419.70511303
 10
31689.30071359
 20
-24478.77920471
 42
-0.65906725
 10
31669.94370403
 20
-24510.0291784
  0
LWPOLYLINE
  5
241
100
AcDbEntity
  8
Ech.1_5
 62
   190
  6
CONTINUOUS
370
    -3
100
AcDbPolyline
 90
        3
 70
     0
 43
0.0
 10
32150.24457493
 20
-24210.56910933
 42
0.56048099
 10
32136.61732001
 20
-24241.85055489
 10
32150.24457493
 20
-24261.32610995
  0
LWPOLYLINE
  5
242
100
AcDbEntity
  8
Ech.1_5
 62
   190
  6
CONTINUOUS
370
    -3
100
AcDbPolyline
 90
        4
 70
     1
 43
0.0
 10
30985.84737124
 20
-24548.7695684
 10
31960.11960817
 20
-24194.16347409
 10
31881.17680416
 20
-24194.16347409
 10
30976.61282737
 20
-24523.39786764
  0
LWPOLYLINE
  5
243
100
AcDbEntity
  8
Ech.1_5
 62
     7
100
AcDbPolyline
 90
       57
 70
     0
 43
0.0
 10
30882.48429175
 20
-24644.23043548
 10
30883.87937891
 20
-24644.02770926
 10
30885.27557347
 20
-24643.82306917
 10
30886.67398285
 20
-24643.61460135
 10
30888.07571444
 20
-24643.40039192
 10
30889.48187565
 20
-24643.17852701
 10
30890.89357388
 20
-24642.94709276
 10
30892.31191655
 20
-24642.70417529
 10
30893.73801104
 20
-24642.44786074
 10
30895.17296478
 20
-24642.17623525
 10
30896.61788516
 20
-24641.88738493
 10
30898.07387958
 20
-24641.57939592
 10
30899.54205546
 20
-24641.25035436
 10
30901.0235202
 20
-24640.89834637
 10
30902.5193812
 20
-24640.52145809
 10
30904.03072644
 20
-24640.1178203
 10
30905.55679015
 20
-24639.68982435
 10
30907.09344695
 20
-24639.2475832
 10
30908.63621702
 20
-24638.80202441
 10
30910.18062056
 20
-24638.36407553
 10
30911.72217777
 20
-24637.9446641
 10
30913.25640883
 20
-24637.55471768
 10
30914.77883393
 20
-24637.20516382
 10
30916.28497328
 20
-24636.90693005
 10
30917.77034706
 20
-24636.67094394
 10
30919.23047547
 20
-24636.50813303
 10
30920.66087869
 20
-24636.42942486
 10
30922.05707693
 20
-24636.445747
 10
30923.41459037
 20
-24636.56802698
 10
30924.7289392
 20
-24636.80719235
 10
30925.99564363
 20
-24637.17417067
 10
30927.21022471
 20
-24637.67988576
 10
30928.36939887
 20
-24638.33013751
 10
30929.4734473
 20
-24639.11544548
 10
30930.52331278
 20
-24640.02349334
 10
30931.51993808
 20
-24641.04196483
 10
30932.46426596
 20
-24642.15854362
 10
30933.35723921
 20
-24643.36091344
 10
30934.19980058
 20
-24644.63675798
 10
30934.99289286
 20
-24645.97376094
 10
30935.73745881
 20
-24647.35960604
 10
30936.43444121
 20
-24648.78197697
 10
30937.08478282
 20
-24650.22855744
 10
30937.68942641
 20
-24651.68703115
 10
30938.24931477
 20
-24653.1450818
 10
30938.7654269
 20
-24654.59065992
 10
30939.23975594
 20
-24656.01918094
 10
30939.67542087
 20
-24657.43434749
 10
30940.0755993
 20
-24658.84029403
 10
30940.44346888
 20
-24660.24115501
 10
30940.78220723
 20
-24661.64106487
 10
30941.09499198
 20
-24663.04415806
 10
30941.38500076
 20
-24664.45456904
 10
30941.65542986
 20
-24665.87635645
 10
30941.91029375
 20
-24667.310254
 10
30942.15472693
 20
-24668.75244412
 10
30942.39394474
 20
-24670.19878052
  0
ARC
  5
244
100
AcDbEntity
  8
Ech.1_5
 62
     7
100
AcDbCircle
 10
30873.78345692
 20
-24577.00124173
 30
0.0
 40
67.78988877
100
AcDbArc
 50
176.81519387
 51
17.9333216
  0
LINE
  5
245
100
AcDbEntity
  8
Ech.1_5
 62
     7
100
AcDbLine
 10
31015.29164668
 20
-24538.05272857
 30
0.0
 11
31815.39426572
 21
-24246.83919088
 31
0.0
  0
LINE
  5
246
100
AcDbEntity
  8
Ech.1_5
 62
     7
100
AcDbLine
 10
30936.98529856
 20
-24556.12805802
 30
0.0
 11
30948.79179944
 21
-24556.12805802
 31
0.0
  0
LINE
  5
247
100
AcDbEntity
  8
Ech.1_5
 62
     7
100
AcDbLine
 10
30970.79179944
 20
-24685.12187227
 30
0.0
 11
30970.79179944
 21
-24685.12187227
 31
0.0
  0
ARC
  5
248
100
AcDbEntity
  8
Ech.1_5
 62
     7
100
AcDbCircle
 10
30945.7722704
 20
-24669.58440307
 30
0.0
 40
3.43373615
100
AcDbArc
 50
190.3070861
 51
331.56661712
  0
LINE
  5
249
100
AcDbEntity
  8
Ech.1_5
 62
     7
100
AcDbLine
 10
31649.2876866
 20
-24609.93024073
 30
0.0
 11
31649.2876866
 21
-24635.98994951
 31
0.0
  0
LWPOLYLINE
  5
24A
102
{ACAD_REACTORS
330
24B
102
}
100
AcDbEntity
  8
Ech.1_5
 62
     7
  6
CONTINUOUS
100
AcDbPolyline
 90
        3
 70
     1
 43
0.0
 10
31046.43662462
 20
-24501.21274729
 10
31068.21210014
 20
-24496.38852608
 10
31049.17828964
 20
-24508.01429496
  0
HATCH
  5
24B
100
AcDbEntity
  8
Ech.1_5
 62
     7
  6
CONTINUOUS
100
AcDbHatch
 10
0.0
 20
0.0
 30
0.0
210
0.0
220
0.0
230
1.0
  2
SOLID
 70
     1
 71
     1
 91
        1
 92
        7
 72
     0
 73
     1
 93
        3
 10
31046.43662462
 20
-24501.21274729
 10
31068.21210014
 20
-24496.38852608
 10
31049.17828964
 20
-24508.01429496
 97
        1
330
24A
 75
     0
 76
     2
 47
0.775229
 98
        1
 10
0.0
 20
0.0
  0
ARC
  5
24C
100
AcDbEntity
  8
Ech.1_5
 62
     7
100
AcDbCircle
 10
31416.185186
 20
-25327.64226378
 30
0.0
 40
901.70863496
100
AcDbArc
 50
114.11271308
 51
118.22750414
  0
ARC
  5
24D
100
AcDbEntity
  8
Ech.1_5
 62
     7
100
AcDbCircle
 10
30941.5886913
 20
-24439.54786982
 30
0.0
 40
105.25912681
100
AcDbArc
 50
263.48671375
 51
297.1989192
  0
LWPOLYLINE
  5
24E
100
AcDbEntity
  8
Ech.1_5
 62
   190
  6
CONTINUOUS
370
    -3
100
AcDbPolyline
 90
        9
 70
     1
 43
0.0
 10
30961.65582454
 20
-24704.72250321
 10
30970.79179944
 20
-24704.72250321
 10
30970.79179944
 20
-24682.19361095
 10
30970.79179944
 20
-24682.19361095
 10
30970.79179944
 20
-24668.11232511
 10
30970.79179944
 20
-24668.11232511
 10
30970.79179944
 20
-24554.2493484
 10
30948.79179944
 20
-24554.2493484
 10
30948.79179944
 20
-24691.85847811
 42
0.47612089
  0
LWPOLYLINE
  5
24F
100
AcDbEntity
  8
Ech.1_5
100
AcDbPolyline
 90
       10
 70
     0
 43
0.0
 10
31036.54797978
 20
-24530.31605603
 10
31035.86393949
 20
-24528.43667079
 10
30984.77506673
 20
-24547.03149978
 10
30927.51135769
 20
-24554.56053224
 10
30927.51135769
 20
-24583.16835184
 10
30932.22808374
 20
-24577.90725503
 10
30929.51135769
 20
-24577.90725503
 10
30929.51135769
 20
-24556.31478515
 10
30985.25311961
 20
-24548.98585831
 10
31036.54797978
 20
-24530.31605603
  0
LWPOLYLINE
  5
250
102
{ACAD_REACTORS
330
251
102
}
100
AcDbEntity
  8
Ech.1_5
 62
   190
  6
CONTINUOUS
370
    -3
100
AcDbPolyline
 90
        9
 70
     1
 43
0.0
 10
31036.54797978
 20
-24530.31605603
 10
31035.86393949
 20
-24528.43667079
 10
30984.77506673
 20
-24547.03149978
 10
30927.51135769
 20
-24554.56053224
 10
30927.51135769
 20
-24583.16835184
 10
30932.22808374
 20
-24577.90725503
 10
30929.51135769
 20
-24577.90725503
 10
30929.51135769
 20
-24556.31478515
 10
30985.25311961
 20
-24548.98585831
  0
HATCH
  5
251
100
AcDbEntity
  8
Ech.1_5
 62
   177
  6
CONTINUOUS
100
AcDbHatch
 10
0.0
 20
0.0
 30
0.0
210
0.0
220
0.0
230
1.0
  2
SOLID
 70
     1
 71
     1
 91
        1
 92
        7
 72
     0
 73
     1
 93
        9
 10
31036.54797978
 20
-24530.31605603
 10
31035.86393949
 20
-24528.43667079
 10
30984.77506673
 20
-24547.03149978
 10
30927.51135769
 20
-24554.56053224
 10
30927.51135769
 20
-24583.16835184
 10
30932.22808374
 20
-24577.90725503
 10
30929.51135769
 20
-24577.90725503
 10
30929.51135769
 20
-24556.31478515
 10
30985.25311961
 20
-24548.98585831
 97
        1
330
250
 75
     0
 76
     2
 47
0.775229
 98
        1
 10
0.0
 20
0.0
  0
LWPOLYLINE
  5
252
100
AcDbEntity
  8
Ech.1_5
 62
   190
  6
CONTINUOUS
370
    -3
100
AcDbPolyline
 90
        4
 70
     1
 43
0.0
 10
31324.75719434
 20
-24510.55070249
 10
31362.34489917
 20
-24496.86989676
 10
31371.57944304
 20
-24522.24159752
 10
31333.99173821
 20
-24535.92240325
  0
LWPOLYLINE
  5
253
100
AcDbEntity
  8
Ech.1_5
 62
   190
  6
CONTINUOUS
370
    -3
100
AcDbPolyline
 90
        4
 70
     0
 43
0.0
 10
31362.34489917
 20
-24496.86989676
 10
31333.99173821
 20
-24535.92240325
 10
31371.57944304
 20
-24522.24159752
 10
31324.75719434
 20
-24510.55070249
  0
ARC
  5
254
100
AcDbEntity
  8
Ech.1_5
 62
     7
100
AcDbCircle
 10
30872.97728168
 20
-24569.14187866
 30
0.0
 40
65.31757614
100
AcDbArc
 50
182.93511954
 51
11.68289665
  0
ARC
  5
255
100
AcDbEntity
  8
Ech.1_5
 62
     7
100
AcDbCircle
 10
30872.97728168
 20
-24569.14187866
 30
0.0
 40
62.81757614
100
AcDbArc
 50
180.12287567
 51
11.68289665
  0
CIRCLE
  5
256
100
AcDbEntity
  8
Ech.1_5
 62
     7
100
AcDbCircle
 10
30804.50021549
 20
-24567.53244843
 30
0.0
 40
5.9222896
  0
LINE
  5
257
100
AcDbEntity
  8
Ech.1_5
 62
     7
100
AcDbLine
 10
30934.493485
 20
-24556.42163491
 30
0.0
 11
30936.94169325
 21
-24555.91539747
 31
0.0
  0
LINE
  5
258
100
AcDbEntity
  8
Ech.1_5
 62
   190
  6
CONTINUOUS
370
    -3
100
AcDbLine
 10
30899.00865695
 20
-24454.91550183
 30
0.0
 11
31247.08019886
 21
-24370.86308455
 31
0.0
  0
LWPOLYLINE
  5
259
100
AcDbEntity
  8
Ech.1_5
 62
   190
  6
CONTINUOUS
370
    -3
100
AcDbPolyline
 90
       23
 70
     0
 43
0.0
 10
31294.01373651
 20
-24348.23252137
 10
31303.45815498
 20
-24345.95188045
 10
31316.06241364
 20
-24398.1476874
 10
31292.32974934
 20
-24404.51342424
 10
31286.22083458
 20
-24381.73824096
 10
30952.37632983
 20
-24471.28428756
 10
30954.55956235
 20
-24480.32532567
 10
30944.10036452
 20
-24483.13076294
 10
30941.6049474
 20
-24472.79692945
 10
30925.82029033
 20
-24476.96774752
 10
30928.353543
 20
-24487.45826275
 10
30908.05098966
 20
-24492.36092924
 10
30899.00865695
 20
-24454.91550183
 10
30891.1144417
 20
-24422.22457202
 42
-0.41421356
 10
30907.5622646
 20
-24395.30417993
 10
31233.94969903
 20
-24316.48804724
 10
31247.08019886
 20
-24370.86308455
 10
31270.19449725
 20
-24365.28143704
 10
31267.61679772
 20
-24354.60686184
 10
31277.06121618
 20
-24352.32622092
 10
31279.63891571
 20
-24363.00079612
 10
31296.59143604
 20
-24358.90709658
 10
31294.01373651
 20
-24348.23252137
  0
LINE
  5
25A
100
AcDbEntity
  8
Ech.1_5
 62
   190
  6
CONTINUOUS
370
    -3
100
AcDbLine
 10
31237.61641088
 20
-24331.6723583
 30
0.0
 11
31585.6879528
 21
-24247.61994102
 31
0.0
  0
LWPOLYLINE
  5
25B
100
AcDbEntity
  8
Ech.1_5
 62
   190
  6
CONTINUOUS
370
    -3
100
AcDbPolyline
 90
       23
 70
     0
 43
0.0
 10
31632.62149045
 20
-24224.98937785
 10
31642.06590891
 20
-24222.70873693
 10
31654.67016757
 20
-24274.90454388
 10
31630.93750328
 20
-24281.27028072
 10
31624.82858851
 20
-24258.49509744
 10
31290.98408377
 20
-24348.04114403
 10
31293.16731628
 20
-24357.08218215
 10
31282.70811846
 20
-24359.88761942
 10
31280.21270134
 20
-24349.55378592
 10
31264.42804426
 20
-24353.724604
 10
31266.96129694
 20
-24364.21511923
 10
31246.6587436
 20
-24369.11778572
 10
31237.61641088
 20
-24331.6723583
 10
31229.72219563
 20
-24298.9814285
 42
-0.41421356
 10
31246.17001854
 20
-24272.06103641
 10
31572.60540256
 20
-24193.23332483
 10
31585.7359024
 20
-24247.60836214
 10
31608.80225118
 20
-24242.03829352
 10
31606.22455165
 20
-24231.36371831
 10
31615.66897012
 20
-24229.08307739
 10
31618.24666964
 20
-24239.7576526
 10
31635.19918998
 20
-24235.66395305
 10
31632.62149045
 20
-24224.98937785
  0
LWPOLYLINE
  5
25C
100
AcDbEntity
  8
Ech.1_5
 62
   190
  6
CONTINUOUS
370
    -3
100
AcDbPolyline
 90
       10
 70
     0
 43
0.0
 10
31743.54942879
 20
-24194.16347409
 10
31629.56927406
 20
-24224.73600741
 10
31631.75250657
 20
-24233.77704553
 10
31621.29330875
 20
-24236.58248279
 10
31618.79789163
 20
-24226.2486493
 10
31603.01323456
 20
-24230.41946738
 10
31605.54648723
 20
-24240.90998261
 10
31585.24393389
 20
-24245.8126491
 10
31576.20160117
 20
-24208.36722168
 10
31572.77167607
 20
-24194.16347409
  0
LWPOLYLINE
  5
25D
100
AcDbEntity
  8
Ech.1_5
 62
     7
  6
CONTINUOUS
370
    -3
100
AcDbPolyline
 90
        5
 70
     0
 43
0.0
 10
31583.52798314
 20
-24273.72742643
 10
31621.11568797
 20
-24260.0466207
 10
31630.35023184
 20
-24285.41832146
 10
31592.76252701
 20
-24299.09912719
 10
31583.52798314
 20
-24273.72742643
  0
LINE
  5
25E
100
AcDbEntity
  8
Ech.1_5
 62
     7
100
AcDbLine
 10
31023.09863737
 20
-24577.62441647
 30
0.0
 11
31022.96145954
 21
-24577.64796957
 31
0.0
  0
LWPOLYLINE
  5
25F
100
AcDbEntity
  8
Ech.1_5
 62
   190
  6
CONTINUOUS
370
    -3
100
AcDbPolyline
 90
        4
 70
     1
 43
0.0
 10
31621.07760792
 20
-24260.09907063
 10
31583.5403857
 20
-24273.7615022
 10
31592.75236408
 20
-24299.07120478
 10
31630.28821159
 20
-24285.40499622
  0
LWPOLYLINE
  5
260
100
AcDbEntity
  8
Ech.1_5
 62
   190
  6
CONTINUOUS
370
    -3
100
AcDbPolyline
 90
        4
 70
     1
 43
0.0
 10
31282.46985398
 20
-24383.34221415
 10
31244.88214915
 20
-24397.02301989
 10
31254.1065301
 20
-24422.36679823
 10
31291.69285837
 20
-24408.68221043
  0
LWPOLYLINE
  5
261
100
AcDbEntity
  8
Ech.1_5
 62
   190
  6
CONTINUOUS
370
    -3
100
AcDbPolyline
 90
        4
 70
     1
 43
0.0
 10
31013.46285725
 20
-24456.76822608
 10
30977.38632058
 20
-24466.44492044
 10
30977.40344498
 20
-24523.11001627
 10
31030.1344128
 20
-24503.91150467
  0
LWPOLYLINE
  5
262
100
AcDbEntity
  8
Ech.1_5
 62
   190
  6
CONTINUOUS
370
    -3
100
AcDbPolyline
 90
        4
 70
     0
 43
0.0
 10
31013.46285725
 20
-24456.76822608
 10
30977.40344501
 20
-24523.11010635
 10
31030.13190345
 20
-24503.91851698
 10
30977.38632058
 20
-24466.44492044
  0
LWPOLYLINE
  5
263
100
AcDbEntity
  8
Ech.1_5
 62
   190
  6
CONTINUOUS
370
    -3
100
AcDbPolyline
 90
        4
 70
     0
 43
0.0
 10
31282.46985398
 20
-24383.34221415
 10
31254.11669302
 20
-24422.39472065
 10
31291.70439785
 20
-24408.71391492
 10
31244.88214915
 20
-24397.02301989
  0
LWPOLYLINE
  5
264
100
AcDbEntity
  8
Ech.1_5
 62
   190
  6
CONTINUOUS
370
    -3
100
AcDbPolyline
 90
        4
 70
     0
 43
0.0
 10
31621.07760792
 20
-24260.09907063
 10
31592.72444696
 20
-24299.15157712
 10
31630.31215179
 20
-24285.47077139
 10
31583.48990309
 20
-24273.77987636
  0
LWPOLYLINE
  5
265
100
AcDbEntity
  8
Ech.1_5
 62
   190
  6
CONTINUOUS
370
    -3
100
AcDbPolyline
 90
        4
 70
     1
 43
0.0
 10
30989.27503543
 20
-24672.02056363
 10
31461.79185915
 20
-24499.88051216
 10
31461.7918357
 20
-24489.23759844
 10
30985.79179944
 20
-24662.64657787
  0
LWPOLYLINE
  5
266
102
{ACAD_REACTORS
330
267
102
}
100
AcDbEntity
  8
Ech.1_5
 62
     7
  6
CONTINUOUS
370
    -3
100
AcDbPolyline
 90
        4
 70
     1
 43
0.0
 10
30989.27503543
 20
-24672.02056363
 10
31461.79185915
 20
-24499.88051216
 10
31461.7918357
 20
-24489.23759844
 10
30985.79179944
 20
-24662.64657787
  0
HATCH
  5
267
100
AcDbEntity
  8
Ech.1_5
 62
   190
  6
CONTINUOUS
100
AcDbHatch
 10
0.0
 20
0.0
 30
0.0
210
0.0
220
0.0
230
1.0
  2
ANSI37
 70
     0
 71
     1
 91
        1
 92
        7
 72
     0
 73
     1
 93
        4
 10
30989.27503543
 20
-24672.02056363
 10
31461.79185915
 20
-24499.88051216
 10
31461.7918357
 20
-24489.23759844
 10
30985.79179944
 20
-24662.64657787
 97
        1
330
266
 75
     0
 76
     2
 52
0.0
 41
1.88976388
 77
     0
 78
     2
 53
45.0
 43
0.0
 44
0.0
 45
4.24264086
 46
-4.24264086
 79
     0
 53
-45.0
 43
0.0
 44
0.0
 45
4.24264086
 46
4.24264086
 79
     0
 47
0.775229
 98
        1
 10
0.0
 20
0.0
  0
LWPOLYLINE
  5
268
100
AcDbEntity
  8
Ech.1_5
 62
   190
  6
CONTINUOUS
370
    -3
100
AcDbPolyline
 90
        6
 70
     0
 43
0.0
 10
31370.28725616
 20
-24910.97522929
 10
31575.99529186
 20
-24910.97522929
 10
31592.48079501
 20
-24892.99788088
 10
31578.370855
 20
-24928.95358089
 10
31594.85720908
 20
-24910.97522929
 10
32150.24457493
 20
-24910.97522929
  0
LWPOLYLINE
  5
269
100
AcDbEntity
  8
Ech.1_5
 62
     5
  6
CONTINUOUS
370
    -3
100
AcDbPolyline
 90
        5
 70
     0
 43
0.0
 10
31244.88214915
 20
-24397.02301989
 10
31282.46985398
 20
-24383.34221415
 10
31291.70439785
 20
-24408.71391492
 10
31254.11669302
 20
-24422.39472065
 10
31244.88214915
 20
-24397.02301989
  0
LWPOLYLINE
  5
26A
100
AcDbEntity
  8
Ech.1_5
 62
     5
  6
CONTINUOUS
370
    -3
100
AcDbPolyline
 90
        5
 70
     0
 43
0.0
 10
30977.38632058
 20
-24466.44492044
 10
31013.46285725
 20
-24456.76822608
 10
31030.13632366
 20
-24503.91690816
 10
30977.40344501
 20
-24523.11010635
 10
30977.38632058
 20
-24466.44492044
  0
LWPOLYLINE
  5
26B
100
AcDbEntity
  8
Ech.1_5
 62
     5
  6
CONTINUOUS
370
    -3
100
AcDbPolyline
 90
        5
 70
     0
 43
0.0
 10
31583.48990309
 20
-24273.77987636
 10
31621.07760792
 20
-24260.09907063
 10
31630.31215179
 20
-24285.47077139
 10
31592.72444696
 20
-24299.15157712
 10
31583.48990309
 20
-24273.77987636
  0
LWPOLYLINE
  5
26C
100
AcDbEntity
  8
Ech.1_5
 62
   254
  6
CONTINUOUS
370
    -3
100
AcDbPolyline
 90
        5
 70
     0
 43
0.0
 10
31324.75719434
 20
-24510.55070249
 10
31362.34489917
 20
-24496.86989676
 10
31371.57944304
 20
-24522.24159752
 10
31333.99173821
 20
-24535.92240325
 10
31324.75719434
 20
-24510.55070249
  0
LWPOLYLINE
  5
26D
100
AcDbEntity
  8
Ech.1_5
 62
   190
  6
CONTINUOUS
370
    -3
100
AcDbPolyline
 90
        4
 70
     0
 43
0.0
 10
31962.63859909
 20
-24193.24663637
 10
30985.84737124
 20
-24548.7695684
 10
30976.61282737
 20
-24523.39786764
 10
31883.69579486
 20
-24193.24663637
  0
LINE
  5
26E
100
AcDbEntity
  8
Ech.1_5
 62
   190
  6
CONTINUOUS
370
    -3
100
AcDbLine
 10
32150.24457493
 20
-24193.24663637
 30
0.0
 11
32150.24457493
 21
-24593.73567354
 31
0.0
  0
LWPOLYLINE
  5
26F
100
AcDbEntity
  8
Ech.1_5
 62
     9
  6
CADWORK_22
370
    35
100
AcDbPolyline
 90
        4
 70
     0
 43
0.0
 38
2500.0
 10
30984.05536425
 20
-24545.19499384
 10
31035.100824
 20
-24526.3400282
 10
31042.02913184
 20
-24526.72481317
 10
31958.25289249
 20
-24193.24663637
  0
LWPOLYLINE
  5
270
100
AcDbEntity
  8
Ech.1_5
 62
   190
  6
CONTINUOUS
370
    -3
100
AcDbPolyline
 90
        5
 70
     0
 43
0.0
 10
31962.6385991
 20
-24193.24663637
 10
31470.79179944
 20
-24372.26423126
 10
30970.79179944
 20
-24554.2493484
 10
30970.79179944
 20
-24639.38357019
 10
32150.24457493
 20
-24210.09786719
  0
LINE
  5
271
100
AcDbEntity
  8
Ech.1_5
 62
   190
  6
CONTINUOUS
370
    -3
100
AcDbLine
 10
32150.24457493
 20
-24193.24663637
 30
0.0
 11
32150.24457493
 21
-24210.09786719
 31
0.0
  0
ARC
  5
272
100
AcDbEntity
  8
Ech.1_5
 62
   190
  6
CONTINUOUS
370
    -3
100
AcDbCircle
 10
31777.07598502
 20
-24367.09003083
 30
0.0
 40
20.00045761
100
AcDbArc
 50
124.66518872
 51
125.79100959
  0
LWPOLYLINE
  5
273
100
AcDbEntity
  8
Ech.1_5
 62
   190
  6
CONTINUOUS
370
    -3
100
AcDbPolyline
 90
        4
 70
     1
 43
0.0
 10
31663.29964886
 20
-24784.80354317
 10
32150.24460317
 20
-24607.56997521
 10
32150.24457493
 20
-24593.73567354
 10
31658.85338595
 20
-24772.58753948
  0
ARC
  5
274
100
AcDbEntity
  8
Ech.1_5
 62
   190
  6
CONTINUOUS
370
    -3
100
AcDbCircle
 10
31882.90247658
 20
-24452.8396043
 30
0.0
 40
16.66620749
100
AcDbArc
 50
128.40061582
 51
138.4089803
  0
LWPOLYLINE
  5
275
102
{ACAD_REACTORS
330
276
102
}
100
AcDbEntity
  8
Ech.1_5
 62
     7
  6
CONTINUOUS
370
    -3
100
AcDbPolyline
 90
        4
 70
     1
 43
0.0
 10
31663.29959328
 20
-24784.80339047
 10
32150.24457493
 20
-24607.56989762
 10
32150.24457493
 20
-24593.73558645
 10
31658.85333037
 20
-24772.58738678
  0
HATCH
  5
276
100
AcDbEntity
  8
Ech.1_5
 62
   190
  6
CONTINUOUS
100
AcDbHatch
 10
0.0
 20
0.0
 30
0.0
210
0.0
220
0.0
230
1.0
  2
DOTS2
 70
     0
 71
     1
 91
        1
 92
        7
 72
     0
 73
     1
 93
        4
 10
31663.29959328
 20
-24784.80339047
 10
32150.24457493
 20
-24607.56989762
 10
32150.24457493
 20
-24593.73558645
 10
31658.85333037
 20
-24772.58738678
 97
        1
330
275
 75
     0
 76
     2
 52
0.0
 41
4.72440952
 77
     0
 78
     1
 53
0.0
 43
0.0
 44
0.0
 45
3.75
 46
3.535
 79
     2
 49
0.0
 49
-3.535
 47
0.775229
 98
        1
 10
0.0
 20
0.0
  0
LWPOLYLINE
  5
277
100
AcDbEntity
  8
Ech.1_5
 62
     7
  6
CONTINUOUS
370
    -3
100
AcDbPolyline
 90
        4
 70
     1
 43
0.0
 10
31680.86739613
 20
-24678.90860284
 10
32150.24457493
 20
-24508.06928111
 10
32150.24457493
 20
-24444.21861476
 10
31660.34618753
 20
-24622.5270456
  0
LWPOLYLINE
  5
278
100
AcDbEntity
  8
Ech.1_5
370
    50
100
AcDbPolyline
 90
        3
 70
     0
 43
0.0
 10
31652.01029358
 20
-24750.31725654
 10
31652.01029358
 20
-24774.87690202
 10
31676.31279678
 20
-24766.03151188
  0
LWPOLYLINE
  5
279
100
AcDbEntity
  8
Ech.1_5
 62
   190
  6
CONTINUOUS
370
    -3
100
AcDbPolyline
 90
        4
 70
     1
 43
0.0
 10
31722.28763863
 20
-24768.06525696
 10
31709.28763863
 20
-24768.06525696
 10
31709.2876866
 20
-24910.97522929
 10
31722.2876866
 20
-24910.97522929
  0
LWPOLYLINE
  5
27A
102
{ACAD_REACTORS
330
27B
102
}
100
AcDbEntity
  8
Ech.1_5
 62
     7
  6
CONTINUOUS
370
    -3
100
AcDbPolyline
 90
        4
 70
     1
 43
0.0
 10
31709.28763863
 20
-24768.06541375
 10
31709.2876866
 20
-24910.97522929
 10
31722.2876866
 20
-24910.97522929
 10
31722.28763863
 20
-24768.06525696
  0
HATCH
  5
27B
100
AcDbEntity
  8
Ech.1_5
 62
   190
  6
CONTINUOUS
100
AcDbHatch
 10
0.0
 20
0.0
 30
0.0
210
0.0
220
0.0
230
1.0
  2
DOTS2
 70
     0
 71
     1
 91
        1
 92
        7
 72
     0
 73
     1
 93
        4
 10
31709.28763863
 20
-24768.06541375
 10
31709.2876866
 20
-24910.97522929
 10
31722.2876866
 20
-24910.97522929
 10
31722.28763863
 20
-24768.06525696
 97
        1
330
27A
 75
     0
 76
     2
 52
0.0
 41
4.72440952
 77
     0
 78
     1
 53
0.0
 43
0.0
 44
0.0
 45
3.75
 46
3.535
 79
     2
 49
0.0
 49
-3.535
 47
0.775229
 98
        1
 10
0.0
 20
0.0
  0
CIRCLE
  5
27C
100
AcDbEntity
  8
Ech.1_5
 62
     7
  6
CONTINUOUS
370
    -3
100
AcDbCircle
 10
31741.93953012
 20
-24693.45936903
 30
0.0
 40
2.51802373
  0
LINE
  5
27D
100
AcDbEntity
  8
Ech.1_5
 62
     7
  6
CONTINUOUS
370
    -3
100
AcDbLine
 10
31724.70478243
 20
-24606.63592954
 30
0.0
 11
31761.10295829
 21
-24706.6390958
 31
0.0
  0
CIRCLE
  5
27E
100
AcDbEntity
  8
Ech.1_5
 62
     7
  6
CONTINUOUS
370
    -3
100
AcDbCircle
 10
31726.54862367
 20
-24651.17320109
 30
0.0
 40
2.51802373
  0
ARC
  5
27F
100
AcDbEntity
  8
Ech.1_5
 62
     7
  6
CONTINUOUS
370
    -3
100
AcDbCircle
 10
31731.03279442
 20
-24717.58374039
 30
0.0
 40
5.0
100
AcDbArc
 50
290.0
 51
20.0
  0
LINE
  5
280
100
AcDbEntity
  8
Ech.1_5
 62
     7
  6
CONTINUOUS
370
    -3
100
AcDbLine
 10
31735.63231396
 20
-24730.89359061
 30
0.0
 11
31734.94827368
 21
-24729.01420537
 31
0.0
  0
LINE
  5
281
100
AcDbEntity
  8
Ech.1_5
 62
     7
  6
CONTINUOUS
370
    -3
100
AcDbLine
 10
31728.98412465
 20
-24723.65028406
 30
0.0
 11
31732.74289514
 21
-24722.28220349
 31
0.0
  0
ARC
  5
282
100
AcDbEntity
  8
Ech.1_5
 62
     7
  6
CONTINUOUS
370
    -3
100
AcDbCircle
 10
31740.03754776
 20
-24713.76940647
 30
0.0
 40
14.82598747
100
AcDbArc
 50
221.79417108
 51
258.13515835
  0
ARC
  5
283
100
AcDbEntity
  8
Ech.1_5
 62
     7
  6
CONTINUOUS
370
    -3
100
AcDbCircle
 10
31743.27847675
 20
-24726.92937859
 30
0.0
 40
12.47697948
100
AcDbArc
 50
209.36224396
 51
274.61218104
  0
LINE
  5
284
100
AcDbEntity
  8
Ech.1_5
 62
     7
  6
CONTINUOUS
370
    -3
100
AcDbLine
 10
31735.63231396
 20
-24730.89359061
 30
0.0
 11
31731.75099446
 21
-24732.30627537
 31
0.0
  0
LINE
  5
285
100
AcDbEntity
  8
Ech.1_5
 62
     7
  6
CONTINUOUS
370
    -3
100
AcDbLine
 10
31731.75099446
 20
-24732.30627537
 30
0.0
 11
31735.48575307
 21
-24742.5674403
 31
0.0
  0
LINE
  5
286
100
AcDbEntity
  8
Ech.1_5
 62
     7
  6
CONTINUOUS
370
    -3
100
AcDbLine
 10
31734.94827368
 20
-24729.01420537
 30
0.0
 11
31729.18756894
 21
-24731.11093042
 31
0.0
  0
LINE
  5
287
100
AcDbEntity
  8
Ech.1_5
 62
     7
  6
CONTINUOUS
370
    -3
100
AcDbLine
 10
31729.18756894
 20
-24731.11093042
 30
0.0
 11
31734.29040811
 21
-24745.13086583
 31
0.0
  0
CIRCLE
  5
288
100
AcDbEntity
  8
Ech.1_5
 62
     7
  6
CONTINUOUS
370
    -3
100
AcDbCircle
 10
31736.80922797
 20
-24679.36397972
 30
0.0
 40
2.51802373
  0
CIRCLE
  5
289
100
AcDbEntity
  8
Ech.1_5
 62
     7
  6
CONTINUOUS
370
    -3
100
AcDbCircle
 10
31747.06983227
 20
-24707.55475834
 30
0.0
 40
2.51802373
  0
CIRCLE
  5
28A
100
AcDbEntity
  8
Ech.1_5
 62
     7
  6
CONTINUOUS
370
    -3
100
AcDbCircle
 10
31731.67892582
 20
-24665.26859041
 30
0.0
 40
2.51802373
  0
ARC
  5
28B
100
AcDbEntity
  8
Ech.1_5
 62
     7
  6
CONTINUOUS
370
    -3
100
AcDbCircle
 10
31756.45157355
 20
-24707.79518966
 30
0.0
 40
14.82598747
100
AcDbArc
 50
321.86484165
 51
358.20582892
  0
ARC
  5
28C
100
AcDbEntity
  8
Ech.1_5
 62
     7
  6
CONTINUOUS
370
    -3
100
AcDbCircle
 10
31771.60241733
 20
-24715.43352589
 30
0.0
 40
3.80485997
100
AcDbArc
 50
203.4967666
 51
324.2539008
  0
ARC
  5
28D
100
AcDbEntity
  8
Ech.1_5
 62
     7
  6
CONTINUOUS
370
    -3
100
AcDbCircle
 10
31762.42794493
 20
-24719.95954217
 30
0.0
 40
12.47697948
100
AcDbArc
 50
305.38781896
 51
10.63775604
  0
LINE
  5
28E
100
AcDbEntity
  8
Ech.1_5
 62
     7
  6
CONTINUOUS
370
    -3
100
AcDbLine
 10
31771.27029259
 20
-24708.25937761
 30
0.0
 11
31767.51152211
 21
-24709.62745819
 31
0.0
  0
ARC
  5
28F
100
AcDbEntity
  8
Ech.1_5
 62
     7
  6
CONTINUOUS
370
    -3
100
AcDbCircle
 10
31765.80142139
 20
-24704.92899508
 30
0.0
 40
5.0
100
AcDbArc
 50
200.0
 51
290.0
  0
LINE
  5
290
100
AcDbEntity
  8
Ech.1_5
 62
     7
  6
CONTINUOUS
370
    -3
100
AcDbLine
 10
31770.83339181
 20
-24718.08144606
 30
0.0
 11
31770.14935153
 21
-24716.20206081
 31
0.0
  0
LINE
  5
291
100
AcDbEntity
  8
Ech.1_5
 62
     7
  6
CONTINUOUS
370
    -3
100
AcDbLine
 10
31770.83339181
 20
-24718.08144606
 30
0.0
 11
31774.71471131
 21
-24716.66876129
 31
0.0
  0
LINE
  5
292
100
AcDbEntity
  8
Ech.1_5
 62
     7
  6
CONTINUOUS
370
    -3
100
AcDbLine
 10
31774.71471131
 20
-24716.66876129
 30
0.0
 11
31778.44946991
 21
-24726.92992621
 31
0.0
  0
LINE
  5
293
100
AcDbEntity
  8
Ech.1_5
 62
     7
  6
CONTINUOUS
370
    -3
100
AcDbLine
 10
31770.14935153
 20
-24716.20206081
 30
0.0
 11
31775.91005626
 21
-24714.10533576
 31
0.0
  0
LINE
  5
294
100
AcDbEntity
  8
Ech.1_5
 62
     7
  6
CONTINUOUS
370
    -3
100
AcDbLine
 10
31775.91005626
 20
-24714.10533576
 30
0.0
 11
31781.01289544
 21
-24728.12527117
 31
0.0
  0
CIRCLE
  5
295
100
AcDbEntity
  8
Ech.1_5
 62
     7
  6
CONTINUOUS
370
    -3
100
AcDbCircle
 10
31721.41832152
 20
-24637.07781178
 30
0.0
 40
2.51802373
  0
LINE
  5
296
100
AcDbEntity
  8
Ech.1_5
 62
     7
  6
CONTINUOUS
370
    -3
100
AcDbLine
 10
31699.33308167
 20
-24615.87047341
 30
0.0
 11
31735.73125752
 21
-24715.87363967
 31
0.0
  0
CIRCLE
  5
297
100
AcDbEntity
  8
Ech.1_5
 62
     7
  6
CONTINUOUS
370
    -3
100
AcDbCircle
 10
31716.28801937
 20
-24622.98242247
 30
0.0
 40
2.51802373
  0
LINE
  5
298
100
AcDbEntity
  8
Ech.1_5
 62
     7
  6
CONTINUOUS
370
    -3
100
AcDbLine
 10
31699.33308167
 20
-24615.87047341
 30
0.0
 11
31724.70478243
 21
-24606.63592954
 31
0.0
  0
LINE
  5
299
100
AcDbEntity
  8
Ech.1_5
 62
     7
  6
CONTINUOUS
370
    -3
100
AcDbLine
 10
31778.44946991
 20
-24726.92992621
 30
0.0
 11
31735.48575307
 21
-24742.5674403
 31
0.0
  0
LINE
  5
29A
100
AcDbEntity
  8
Ech.1_5
 62
     7
  6
CONTINUOUS
370
    -3
100
AcDbLine
 10
31734.29040811
 20
-24745.13086583
 30
0.0
 11
31781.01289544
 21
-24728.12527117
 31
0.0
  0
ARC
  5
29B
100
AcDbEntity
  8
Ech.1_5
 62
     7
  6
CONTINUOUS
370
    -3
100
AcDbCircle
 10
31733.34115597
 20
-24729.35948616
 30
0.0
 40
3.80485997
100
AcDbArc
 50
255.7460992
 51
16.50323339
  0
LINE
  5
29C
100
AcDbEntity
  8
Ech.1_5
 62
     7
  6
CONTINUOUS
370
    -3
100
AcDbLine
 10
31707.59758492
 20
-24604.63872402
 30
0.0
 11
31707.59758492
 21
-24604.63872402
 31
0.0
  0
LWPOLYLINE
  5
29D
100
AcDbEntity
  8
Ech.1_5
 62
     7
  6
CONTINUOUS
370
    -3
100
AcDbPolyline
 90
        8
 70
     1
 43
0.0
 10
31871.43988946
 20
-24467.20745791
 10
31816.75115325
 20
-24757.74211931
 10
31819.72975392
 20
-24756.65799732
 10
31876.1987568
 20
-24456.66564456
 10
31870.68691322
 20
-24463.80397078
 10
31921.44264051
 20
-24194.16347409
 10
31918.66810931
 20
-24194.16347409
 10
31865.92804582
 20
-24474.3457842
  0
LWPOLYLINE
  5
29E
100
AcDbEntity
  8
Ech.1_5
 62
   190
  6
CONTINUOUS
370
    -3
100
AcDbPolyline
 90
        3
 70
     0
 43
0.0
 10
31826.67468926
 20
-24705.02319803
 42
0.9104636
 10
31847.02982132
 20
-24687.72007144
 10
31833.55634637
 20
-24668.46430023
  0
LWPOLYLINE
  5
29F
100
AcDbEntity
  8
Ech.1_5
 62
   190
  6
CONTINUOUS
370
    -3
100
AcDbPolyline
 90
        4
 70
     1
 43
0.0
 10
30984.88718875
 20
-24634.25326804
 10
31022.47489358
 20
-24620.57246231
 10
31031.70943745
 20
-24645.94416307
 10
30994.12173262
 20
-24659.62496881
  0
LWPOLYLINE
  5
2A0
100
AcDbEntity
  8
Ech.1_5
 62
   190
  6
CONTINUOUS
370
    -3
100
AcDbPolyline
 90
        4
 70
     0
 43
0.0
 10
31022.47489358
 20
-24620.57246231
 10
30994.12173262
 20
-24659.62496881
 10
31031.70943745
 20
-24645.94416307
 10
30984.88718875
 20
-24634.25326804
  0
LWPOLYLINE
  5
2A1
100
AcDbEntity
  8
Ech.1_5
 62
     5
  6
CONTINUOUS
370
    -3
100
AcDbPolyline
 90
        5
 70
     0
 43
0.0
 10
30984.88718875
 20
-24634.25326804
 10
31022.47489358
 20
-24620.57246231
 10
31031.70943745
 20
-24645.94416307
 10
30994.12173262
 20
-24659.62496881
 10
30984.88718875
 20
-24634.25326804
  0
LWPOLYLINE
  5
2A2
100
AcDbEntity
  8
Ech.1_5
 62
     7
  6
CONTINUOUS
370
    -3
100
AcDbPolyline
 90
      228
 70
     0
 43
0.0
 10
30978.97053602
 20
-24706.91512677
 10
30978.34516017
 20
-24701.32753916
 10
30977.73886538
 20
-24695.75157161
 10
30977.17073272
 20
-24690.19884415
 10
30976.65984324
 20
-24684.68097684
 10
30976.22527802
 20
-24679.20958974
 10
30975.88611812
 20
-24673.79630288
 10
30975.6614446
 20
-24668.45273632
 10
30975.57033853
 20
-24663.19051011
 10
30975.63188096
 20
-24658.0212443
 10
30975.86515296
 20
-24652.95655894
 10
30976.2892356
 20
-24648.00807408
 10
30976.92320993
 20
-24643.18740976
 10
30977.78615703
 20
-24638.50618605
 10
30978.89715795
 20
-24633.97602298
 10
30980.27529376
 20
-24629.60854062
 10
30981.93964552
 20
-24625.415359
 10
30983.9092943
 20
-24621.40809818
 10
30986.20301773
 20
-24617.59819707
 10
30988.82454647
 20
-24613.98811231
 10
30991.75594342
 20
-24610.5673659
 10
30994.97758842
 20
-24607.32447518
 10
30998.4698613
 20
-24604.24795747
 10
31002.2131419
 20
-24601.32633009
 10
31006.18781007
 20
-24598.54811038
 10
31010.37424564
 20
-24595.90181565
 10
31014.75282845
 20
-24593.37596324
 10
31019.30393835
 20
-24590.95907047
 10
31024.00795516
 20
-24588.63965467
 10
31028.84525874
 20
-24586.40623316
 10
31033.79622891
 20
-24584.24732326
 10
31038.84124552
 20
-24582.15144231
 10
31043.96068842
 20
-24580.10710763
 10
31049.13493743
 20
-24578.10283655
 10
31054.3443724
 20
-24576.12714639
 10
31059.56937316
 20
-24574.16855447
 10
31064.79182585
 20
-24572.21645649
 10
31070.00581852
 20
-24570.26736344
 10
31075.21135668
 20
-24568.32123697
 10
31080.40848485
 20
-24566.37806147
 10
31085.59724753
 20
-24564.43782131
 10
31090.77768923
 20
-24562.50050089
 10
31095.94985445
 20
-24560.56608458
 10
31101.1137877
 20
-24558.63455677
 10
31106.26953348
 20
-24556.70590184
 10
31111.41713631
 20
-24554.78010418
 10
31116.55664068
 20
-24552.85714817
 10
31121.68809111
 20
-24550.93701818
 10
31126.81153209
 20
-24549.01969861
 10
31131.92700814
 20
-24547.10517384
 10
31137.03456376
 20
-24545.19342825
 10
31142.13424347
 20
-24543.28444623
 10
31147.22609175
 20
-24541.37821215
 10
31152.31015312
 20
-24539.47471041
 10
31157.3864721
 20
-24537.57392538
 10
31162.45509317
 20
-24535.67584145
 10
31167.51606085
 20
-24533.780443
 10
31172.56941965
 20
-24531.88771442
 10
31177.61521407
 20
-24529.99764008
 10
31182.65348861
 20
-24528.11020438
 10
31187.68428779
 20
-24526.22539169
 10
31192.70765611
 20
-24524.3431864
 10
31197.72363807
 20
-24522.46357289
 10
31202.73227818
 20
-24520.58653555
 10
31207.73362096
 20
-24518.71205875
 10
31212.72771089
 20
-24516.84012689
 10
31217.7145925
 20
-24514.97072434
 10
31222.69431028
 20
-24513.10383549
 10
31227.66690874
 20
-24511.23944472
 10
31232.63243239
 20
-24509.37753642
 10
31237.59092574
 20
-24507.51809496
 10
31242.54243329
 20
-24505.66110474
 10
31247.48699954
 20
-24503.80655013
 10
31252.42466901
 20
-24501.95441552
 10
31257.35548619
 20
-24500.10468529
 10
31262.2794956
 20
-24498.25734383
 10
31267.19674175
 20
-24496.41237551
 10
31272.10726913
 20
-24494.56976473
 10
31277.01112225
 20
-24492.72949587
 10
31281.90834562
 20
-24490.8915533
 10
31286.79898375
 20
-24489.05592141
 10
31291.68308114
 20
-24487.22258459
 10
31296.5606823
 20
-24485.39152721
 10
31301.43183173
 20
-24483.56273367
 10
31306.29657394
 20
-24481.73618835
 10
31311.15495344
 20
-24479.91187562
 10
31316.00701473
 20
-24478.08977987
 10
31320.85280232
 20
-24476.26988549
 10
31325.69236071
 20
-24474.45217686
 10
31330.52573442
 20
-24472.63663836
 10
31335.35296794
 20
-24470.82325438
 10
31340.17410579
 20
-24469.01200929
 10
31344.98919246
 20
-24467.20288749
 10
31349.79827247
 20
-24465.39587335
 10
31354.60139033
 20
-24463.59095126
 10
31359.39859053
 20
-24461.7881056
 10
31364.18991758
 20
-24459.98732076
 10
31368.97541599
 20
-24458.18858111
 10
31373.75513027
 20
-24456.39187105
 10
31378.52910493
 20
-24454.59717496
 10
31383.29738446
 20
-24452.80447721
 10
31388.06001337
 20
-24451.01376219
 10
31392.81703618
 20
-24449.22501429
 10
31397.56849738
 20
-24447.43821789
 10
31402.31444148
 20
-24445.65335737
 10
31407.054913
 20
-24443.87041711
 10
31411.78995643
 20
-24442.08938151
 10
31416.51961628
 20
-24440.31023494
 10
31421.24393706
 20
-24438.53296178
 10
31425.96296327
 20
-24436.75754642
 10
31430.67673942
 20
-24434.98397324
 10
31435.38531002
 20
-24433.21222663
 10
31440.08871957
 20
-24431.44229096
 10
31444.78701257
 20
-24429.67415063
 10
31449.48023355
 20
-24427.90779002
 10
31454.16842699
 20
-24426.1431935
 10
31458.85163741
 20
-24424.38034547
 10
31463.52990931
 20
-24422.6192303
 10
31468.2032872
 20
-24420.85983238
 10
31472.87181558
 20
-24419.10213609
 10
31477.53553897
 20
-24417.34612582
 10
31482.19450186
 20
-24415.59178594
 10
31486.84874876
 20
-24413.83910085
 10
31491.49832419
 20
-24412.08805493
 10
31496.14327264
 20
-24410.33863255
 10
31500.78363862
 20
-24408.5908181
 10
31505.41946664
 20
-24406.84459597
 10
31510.05080121
 20
-24405.09995054
 10
31514.67768682
 20
-24403.3568662
 10
31519.30016799
 20
-24401.61532731
 10
31523.91828923
 20
-24399.87531828
 10
31528.53209503
 20
-24398.13682348
 10
31533.1416299
 20
-24396.39982729
 10
31537.74693836
 20
-24394.6643141
 10
31542.3480649
 20
-24392.9302683
 10
31546.94505404
 20
-24391.19767426
 10
31551.53795027
 20
-24389.46651637
 10
31556.12679811
 20
-24387.73677901
 10
31560.71164207
 20
-24386.00844657
 10
31565.29252664
 20
-24384.28150343
 10
31569.86949633
 20
-24382.55593397
 10
31574.44259565
 20
-24380.83172257
 10
31579.01186911
 20
-24379.10885363
 10
31583.57736121
 20
-24377.38731151
 10
31588.13911646
 20
-24375.66708062
 10
31592.69717936
 20
-24373.94814532
 10
31597.25159443
 20
-24372.23049
 10
31601.80240616
 20
-24370.51409905
 10
31606.34965906
 20
-24368.79895685
 10
31610.89339764
 20
-24367.08504778
 10
31615.43366641
 20
-24365.37235623
 10
31619.97050987
 20
-24363.66086657
 10
31624.50397252
 20
-24361.9505632
 10
31629.03409888
 20
-24360.2414305
 10
31633.56093345
 20
-24358.53345284
 10
31638.08452073
 20
-24356.82661461
 10
31642.60490523
 20
-24355.12090021
 10
31647.12213147
 20
-24353.416294
 10
31651.63624393
 20
-24351.71278037
 10
31656.14728714
 20
-24350.01034371
 10
31660.65530559
 20
-24348.3089684
 10
31665.1603438
 20
-24346.60863882
 10
31669.66244626
 20
-24344.90933935
 10
31674.16165749
 20
-24343.21105439
 10
31678.65802199
 20
-24341.51376831
 10
31683.15158427
 20
-24339.81746549
 10
31687.64238883
 20
-24338.12213033
 10
31692.13048018
 20
-24336.42774719
 10
31696.61590282
 20
-24334.73430047
 10
31701.09870127
 20
-24333.04177455
 10
31705.57892002
 20
-24331.35015382
 10
31710.05660359
 20
-24329.65942265
 10
31714.53179647
 20
-24327.96956543
 10
31719.00454318
 20
-24326.28056654
 10
31723.47488823
 20
-24324.59241037
 10
31727.94287611
 20
-24322.90508129
 10
31732.40855134
 20
-24321.2185637
 10
31736.87195842
 20
-24319.53284198
 10
31741.33314185
 20
-24317.8479005
 10
31745.79214615
 20
-24316.16372366
 10
31750.24901581
 20
-24314.48029583
 10
31754.70379535
 20
-24312.79760141
 10
31759.15652928
 20
-24311.11562476
 10
31763.60726209
 20
-24309.43435028
 10
31768.05603829
 20
-24307.75376235
 10
31772.50290239
 20
-24306.07384536
 10
31776.9478989
 20
-24304.39458368
 10
31781.39107232
 20
-24302.7159617
 10
31785.83246716
 20
-24301.0379638
 10
31790.27212792
 20
-24299.36057437
 10
31794.71009911
 20
-24297.68377778
 10
31799.14642524
 20
-24296.00755843
 10
31803.58115081
 20
-24294.3319007
 10
31808.01432033
 20
-24292.65678897
 10
31812.4459783
 20
-24290.98220761
 10
31816.87616924
 20
-24289.30814103
 10
31821.30493764
 20
-24287.63457359
 10
31825.73232801
 20
-24285.96148969
 10
31830.15838487
 20
-24284.2888737
 10
31834.58315271
 20
-24282.61671002
 10
31839.00667604
 20
-24280.94498301
 10
31843.42899937
 20
-24279.27367707
 10
31847.8501672
 20
-24277.60277658
 10
31852.27022404
 20
-24275.93226593
 10
31856.6892144
 20
-24274.26212949
 10
31861.10718278
 20
-24272.59235165
 10
31865.52417369
 20
-24270.92291679
 10
31869.94023163
 20
-24269.2538093
 10
31874.35540111
 20
-24267.58501356
 10
31878.76972665
 20
-24265.91651395
 10
31883.18325273
 20
-24264.24829486
 10
31887.59602387
 20
-24262.58034067
 10
31892.00808458
 20
-24260.91263576
 10
31896.41947936
 20
-24259.24516451
 10
31900.83025271
 20
-24257.57791132
 10
31905.24044915
 20
-24255.91086056
 10
31909.65011318
 20
-24254.24399661
 10
31914.05928931
 20
-24252.57730387
 10
31918.46802203
 20
-24250.91076671
 10
31922.87635587
 20
-24249.24436951
 10
31927.28433532
 20
-24247.57809666
 10
31931.69200488
 20
-24245.91193255
 10
31936.09940908
 20
-24244.24586155
 10
31940.50659241
 20
-24242.57986806
 10
31944.91359937
 20
-24240.91393644
 10
31949.32047449
 20
-24239.2480511
 10
31953.72726225
 20
-24237.5821964
 10
31957.9693283
 20
-24235.97860872
  0
LWPOLYLINE
  5
2A3
102
{ACAD_REACTORS
330
2A4
102
}
100
AcDbEntity
  8
Ech.1_5
 62
     7
  6
CONTINUOUS
370
    -3
100
AcDbPolyline
 90
        4
 70
     1
 43
0.0
 10
31959.80684268
 20
-24240.71746067
 10
31956.13181393
 20
-24231.23975677
 10
31976.44118271
 20
-24227.75814938
 10
31960.00026403
 20
-24240.71746067
  0
HATCH
  5
2A4
100
AcDbEntity
  8
Ech.1_5
 62
     7
  6
CONTINUOUS
100
AcDbHatch
 10
0.0
 20
0.0
 30
0.0
210
0.0
220
0.0
230
1.0
  2
SOLID
 70
     1
 71
     1
 91
        1
 92
        7
 72
     0
 73
     1
 93
        4
 10
31959.80684268
 20
-24240.71746067
 10
31956.13181393
 20
-24231.23975677
 10
31976.44118271
 20
-24227.75814938
 10
31960.00026403
 20
-24240.71746067
 97
        1
330
2A3
 75
     0
 76
     2
 47
0.775229
 98
        1
 10
0.0
 20
0.0
  0
CIRCLE
  5
2A5
100
AcDbEntity
  8
Ech.1_5
 62
     7
  6
CONTINUOUS
370
    -3
100
AcDbCircle
 10
32099.48589028
 20
-24563.32279306
 30
0.0
 40
2.51802373
  0
LINE
  5
2A6
100
AcDbEntity
  8
Ech.1_5
 62
     7
  6
CONTINUOUS
370
    -3
100
AcDbLine
 10
32082.2511426
 20
-24476.49935357
 30
0.0
 11
32118.64931845
 21
-24576.50251983
 31
0.0
  0
CIRCLE
  5
2A7
100
AcDbEntity
  8
Ech.1_5
 62
     7
  6
CONTINUOUS
370
    -3
100
AcDbCircle
 10
32084.09498383
 20
-24521.03662513
 30
0.0
 40
2.51802373
  0
ARC
  5
2A8
100
AcDbEntity
  8
Ech.1_5
 62
     7
  6
CONTINUOUS
370
    -3
100
AcDbCircle
 10
32088.57915458
 20
-24587.44716442
 30
0.0
 40
5.0
100
AcDbArc
 50
290.0
 51
20.0
  0
LINE
  5
2A9
100
AcDbEntity
  8
Ech.1_5
 62
     7
  6
CONTINUOUS
370
    -3
100
AcDbLine
 10
32093.17867413
 20
-24600.75701464
 30
0.0
 11
32092.49463384
 21
-24598.8776294
 31
0.0
  0
LINE
  5
2AA
100
AcDbEntity
  8
Ech.1_5
 62
     7
  6
CONTINUOUS
370
    -3
100
AcDbLine
 10
32086.53048482
 20
-24593.5137081
 30
0.0
 11
32090.2892553
 21
-24592.14562752
 31
0.0
  0
ARC
  5
2AB
100
AcDbEntity
  8
Ech.1_5
 62
     7
  6
CONTINUOUS
370
    -3
100
AcDbCircle
 10
32097.58390792
 20
-24583.6328305
 30
0.0
 40
14.82598747
100
AcDbArc
 50
221.79417108
 51
258.13515836
  0
ARC
  5
2AC
100
AcDbEntity
  8
Ech.1_5
 62
     7
  6
CONTINUOUS
370
    -3
100
AcDbCircle
 10
32100.82483691
 20
-24596.79280262
 30
0.0
 40
12.47697948
100
AcDbArc
 50
209.36224396
 51
274.61218104
  0
LINE
  5
2AD
100
AcDbEntity
  8
Ech.1_5
 62
     7
  6
CONTINUOUS
370
    -3
100
AcDbLine
 10
32093.17867413
 20
-24600.75701464
 30
0.0
 11
32089.29735463
 21
-24602.16969941
 31
0.0
  0
LINE
  5
2AE
100
AcDbEntity
  8
Ech.1_5
 62
     7
  6
CONTINUOUS
370
    -3
100
AcDbLine
 10
32089.29735463
 20
-24602.16969941
 30
0.0
 11
32093.03211323
 21
-24612.43086433
 31
0.0
  0
LINE
  5
2AF
100
AcDbEntity
  8
Ech.1_5
 62
     7
  6
CONTINUOUS
370
    -3
100
AcDbLine
 10
32092.49463384
 20
-24598.8776294
 30
0.0
 11
32086.7339291
 21
-24600.97435445
 31
0.0
  0
LINE
  5
2B0
100
AcDbEntity
  8
Ech.1_5
 62
     7
  6
CONTINUOUS
370
    -3
100
AcDbLine
 10
32086.7339291
 20
-24600.97435445
 30
0.0
 11
32091.83676827
 21
-24614.99428986
 31
0.0
  0
CIRCLE
  5
2B1
100
AcDbEntity
  8
Ech.1_5
 62
     7
  6
CONTINUOUS
370
    -3
100
AcDbCircle
 10
32094.35558813
 20
-24549.22740375
 30
0.0
 40
2.51802373
  0
CIRCLE
  5
2B2
100
AcDbEntity
  8
Ech.1_5
 62
     7
  6
CONTINUOUS
370
    -3
100
AcDbCircle
 10
32104.61619243
 20
-24577.41818237
 30
0.0
 40
2.51802373
  0
CIRCLE
  5
2B3
100
AcDbEntity
  8
Ech.1_5
 62
     7
  6
CONTINUOUS
370
    -3
100
AcDbCircle
 10
32089.22528598
 20
-24535.13201444
 30
0.0
 40
2.51802373
  0
ARC
  5
2B4
100
AcDbEntity
  8
Ech.1_5
 62
     7
  6
CONTINUOUS
370
    -3
100
AcDbCircle
 10
32113.99793372
 20
-24577.65861369
 30
0.0
 40
14.82598747
100
AcDbArc
 50
321.86484165
 51
358.20582892
  0
ARC
  5
2B5
100
AcDbEntity
  8
Ech.1_5
 62
     7
  6
CONTINUOUS
370
    -3
100
AcDbCircle
 10
32129.14877749
 20
-24585.29694993
 30
0.0
 40
3.80485997
100
AcDbArc
 50
203.49676661
 51
324.2539008
  0
ARC
  5
2B6
100
AcDbEntity
  8
Ech.1_5
 62
     7
  6
CONTINUOUS
370
    -3
100
AcDbCircle
 10
32119.9743051
 20
-24589.8229662
 30
0.0
 40
12.47697948
100
AcDbArc
 50
305.38781896
 51
10.63775604
  0
LINE
  5
2B7
100
AcDbEntity
  8
Ech.1_5
 62
     7
  6
CONTINUOUS
370
    -3
100
AcDbLine
 10
32128.81665275
 20
-24578.12280165
 30
0.0
 11
32125.05788227
 21
-24579.49088222
 31
0.0
  0
ARC
  5
2B8
100
AcDbEntity
  8
Ech.1_5
 62
     7
  6
CONTINUOUS
370
    -3
100
AcDbCircle
 10
32123.34778155
 20
-24574.79241912
 30
0.0
 40
5.0
100
AcDbArc
 50
200.0
 51
290.0
  0
LINE
  5
2B9
100
AcDbEntity
  8
Ech.1_5
 62
     7
  6
CONTINUOUS
370
    -3
100
AcDbLine
 10
32128.37975198
 20
-24587.94487009
 30
0.0
 11
32127.69571169
 21
-24586.06548485
 31
0.0
  0
LINE
  5
2BA
100
AcDbEntity
  8
Ech.1_5
 62
     7
  6
CONTINUOUS
370
    -3
100
AcDbLine
 10
32128.37975198
 20
-24587.94487009
 30
0.0
 11
32132.26107147
 21
-24586.53218532
 31
0.0
  0
LINE
  5
2BB
100
AcDbEntity
  8
Ech.1_5
 62
     7
  6
CONTINUOUS
370
    -3
100
AcDbLine
 10
32132.26107147
 20
-24586.53218532
 30
0.0
 11
32135.99583007
 21
-24596.79335025
 31
0.0
  0
LINE
  5
2BC
100
AcDbEntity
  8
Ech.1_5
 62
     7
  6
CONTINUOUS
370
    -3
100
AcDbLine
 10
32127.69571169
 20
-24586.06548485
 30
0.0
 11
32133.45641643
 21
-24583.96875979
 31
0.0
  0
LINE
  5
2BD
100
AcDbEntity
  8
Ech.1_5
 62
     7
  6
CONTINUOUS
370
    -3
100
AcDbLine
 10
32133.45641643
 20
-24583.96875979
 30
0.0
 11
32138.5592556
 21
-24597.9886952
 31
0.0
  0
CIRCLE
  5
2BE
100
AcDbEntity
  8
Ech.1_5
 62
     7
  6
CONTINUOUS
370
    -3
100
AcDbCircle
 10
32078.96468168
 20
-24506.94123581
 30
0.0
 40
2.51802373
  0
LINE
  5
2BF
100
AcDbEntity
  8
Ech.1_5
 62
     7
  6
CONTINUOUS
370
    -3
100
AcDbLine
 10
32056.87944184
 20
-24485.73389744
 30
0.0
 11
32093.27761769
 21
-24585.7370637
 31
0.0
  0
LINE
  5
2C0
100
AcDbEntity
  8
Ech.1_5
 62
     7
  6
CONTINUOUS
370
    -3
100
AcDbLine
 10
32135.99583007
 20
-24596.79335025
 30
0.0
 11
32093.03211323
 21
-24612.43086433
 31
0.0
  0
LINE
  5
2C1
100
AcDbEntity
  8
Ech.1_5
 62
     7
  6
CONTINUOUS
370
    -3
100
AcDbLine
 10
32091.83676827
 20
-24614.99428986
 30
0.0
 11
32138.5592556
 21
-24597.9886952
 31
0.0
  0
ARC
  5
2C2
100
AcDbEntity
  8
Ech.1_5
 62
     7
  6
CONTINUOUS
370
    -3
100
AcDbCircle
 10
32090.88751613
 20
-24599.22291019
 30
0.0
 40
3.80485997
100
AcDbArc
 50
255.7460992
 51
16.50323339
  0
LWPOLYLINE
  5
2C3
100
AcDbEntity
  8
Ech.1_5
 62
   190
  6
CONTINUOUS
370
    -3
100
AcDbPolyline
 90
        6
 70
     1
 43
0.0
 10
31534.43239616
 20
-24434.23517016
 10
31470.79179944
 20
-24457.39845306
 10
31470.79179944
 20
-24479.23517016
 10
31590.79179944
 20
-24479.23517016
 10
31590.79179944
 20
-24454.23517016
 10
31590.79179944
 20
-24434.23517016
  0
LWPOLYLINE
  5
2C4
100
AcDbEntity
  8
Ech.1_5
 62
   190
  6
CONTINUOUS
370
    -3
100
AcDbPolyline
 90
        3
 70
     0
 43
0.0
 10
31502.1371525
 20
-24445.98967756
 10
31530.79179944
 20
-24456.73517016
 10
31470.79179944
 20
-24479.23517016
  0
LWPOLYLINE
  5
2C5
100
AcDbEntity
  8
Ech.1_5
 62
   190
  6
CONTINUOUS
370
    -3
100
AcDbPolyline
 90
        3
 70
     0
 43
0.0
 10
31590.79179944
 20
-24479.23517016
 10
31590.79179944
 20
-24434.23517016
 10
31530.79179944
 20
-24456.73517016
  0
LINE
  5
2C6
100
AcDbEntity
  8
Ech.1_5
 62
   190
  6
CONTINUOUS
370
    -3
100
AcDbLine
 10
31530.79179944
 20
-24456.73517016
 30
0.0
 11
31590.79179944
 21
-24479.23517016
 31
0.0
  0
LWPOLYLINE
  5
2C7
100
AcDbEntity
  8
Ech.1_5
 62
     5
  6
CONTINUOUS
370
    -3
100
AcDbPolyline
 90
        6
 70
     0
 43
0.0
 10
31534.43239616
 20
-24434.23517016
 10
31590.79179944
 20
-24434.23517016
 10
31590.79179944
 20
-24479.23517016
 10
31470.79179944
 20
-24479.23517016
 10
31470.79179944
 20
-24457.39845306
 10
31534.43239616
 20
-24434.23517016
  0
LWPOLYLINE
  5
2C8
100
AcDbEntity
  8
Ech.1_5
 62
   190
  6
CONTINUOUS
370
    -3
100
AcDbPolyline
 90
       11
 70
     1
 43
0.0
 10
32062.79331559
 20
-24241.92752254
 10
32034.60253696
 20
-24252.18812684
 10
32034.60253696
 20
-24304.92356246
 10
32034.60257291
 20
-24341.60531531
 10
32034.60253696
 20
-24350.59126458
 10
32034.60253696
 20
-24350.60525856
 10
32034.60253696
 20
-24358.97159177
 10
32034.60253696
 20
-24467.45022235
 10
32086.41175834
 20
-24467.45022235
 10
32114.60253696
 20
-24457.18961805
 10
32114.60253696
 20
-24241.92752254
  0
LWPOLYLINE
  5
2C9
100
AcDbEntity
  8
Ech.1_5
 62
     5
  6
CONTINUOUS
370
    -3
100
AcDbPolyline
 90
        7
 70
     0
 43
0.0
 10
32114.60253696
 20
-24241.92752254
 10
32062.79331559
 20
-24241.92752254
 10
32034.60253696
 20
-24252.18812684
 10
32034.60253696
 20
-24467.45022235
 10
32086.41175834
 20
-24467.45022235
 10
32114.60253696
 20
-24457.18961805
 10
32114.60253696
 20
-24241.92752254
  0
LINE
  5
2CA
100
AcDbEntity
  8
Ech.1_5
 62
   190
  6
CONTINUOUS
370
    -3
100
AcDbLine
 10
32034.60253696
 20
-24467.45022235
 30
0.0
 11
32114.60253696
 21
-24241.92752254
 31
0.0
  0
LINE
  5
2CB
100
AcDbEntity
  8
Ech.1_5
 62
   190
  6
CONTINUOUS
370
    -3
100
AcDbLine
 10
32034.60253696
 20
-24252.18812684
 30
0.0
 11
32114.60253696
 21
-24457.18961805
 31
0.0
  0
LWPOLYLINE
  5
2CC
100
AcDbEntity
  8
Ech.1_5
 62
     1
  6
CADWORK_22
 48
-5.0
370
    35
100
AcDbPolyline
 90
        3
 70
     0
 43
0.0
 10
31655.17461904
 20
-24723.82493869
 10
31655.17461904
 20
-24626.00560925
 10
32150.24457493
 20
-24444.21861476
  0
LWPOLYLINE
  5
2CD
100
AcDbEntity
  8
Ech.1_5
 62
     3
370
    70
100
AcDbPolyline
 90
        4
 70
     0
 43
0.0
 10
31653.62849758
 20
-24742.87181988
 10
31653.62849758
 20
-24729.88268646
 10
31659.30911054
 20
-24725.94795432
 10
31659.30911054
 20
-24712.46952432
  0
LWPOLYLINE
  5
2CE
100
AcDbEntity
  8
Ech.1_5
 62
     5
  6
CONTINUOUS
370
    -3
100
AcDbPolyline
 90
        5
 70
     0
 43
0.0
 10
31324.75719434
 20
-24510.55070249
 10
31362.34489917
 20
-24496.86989676
 10
31371.57944304
 20
-24522.24159752
 10
31333.99173821
 20
-24535.92240325
 10
31324.75719434
 20
-24510.55070249
  0
LWPOLYLINE
  5
2CF
100
AcDbEntity
  8
Ech.1_5
 62
   190
  6
CONTINUOUS
370
    -3
100
AcDbPolyline
 90
        5
 70
     0
 43
0.0
 10
32150.24460317
 20
-25179.16347409
 10
32150.24460317
 20
-24194.16347409
 10
30795.24460317
 20
-24194.16347409
 10
30795.24460317
 20
-25179.16347409
 10
32150.24460317
 20
-25179.16347409
  0
LWPOLYLINE
  5
2D0
100
AcDbEntity
  8
Ech.1_5
 62
   190
  6
CONTINUOUS
370
    -3
100
AcDbPolyline
 90
       28
 70
     0
 43
0.0
 10
31667.62101993
 20
-24786.26377883
 42
1.14028181
 10
31669.77785016
 20
-24802.64649275
 10
31698.79752303
 20
-24794.88106491
 42
-1.30322619
 10
31698.79752303
 20
-24810.97982608
 10
31669.77785016
 20
-24803.21439824
 42
1.30322619
 10
31669.77785016
 20
-24819.31315941
 10
31698.79752303
 20
-24811.54773158
 42
-1.30322619
 10
31698.79752303
 20
-24827.64649275
 10
31669.77785016
 20
-24819.88106491
 42
1.30322619
 10
31669.77785016
 20
-24835.97982608
 10
31698.79752303
 20
-24828.21439824
 42
-1.30322619
 10
31698.79752303
 20
-24844.31315941
 10
31669.77785016
 20
-24836.54773158
 42
1.30322619
 10
31669.77785016
 20
-24852.64649275
 10
31698.79752303
 20
-24844.88106491
 42
-1.30322619
 10
31698.79752303
 20
-24860.97982608
 10
31669.77785016
 20
-24853.21439824
 42
1.30322619
 10
31669.77785016
 20
-24869.31315941
 10
31698.79752303
 20
-24861.54773158
 42
-1.30322619
 10
31698.79752303
 20
-24877.64649275
 10
31669.77785016
 20
-24869.88106491
 42
1.30322619
 10
31669.77785016
 20
-24885.97982608
 10
31698.79752303
 20
-24878.21439824
 42
-1.30322619
 10
31698.79752303
 20
-24894.31315941
 10
31669.77785016
 20
-24886.54773158
 42
1.30322619
 10
31669.77785016
 20
-24902.64649275
 10
31698.79752303
 20
-24894.88106491
 42
-0.99893913
 10
31703.12826637
 20
-24910.97522929
  0
ENDSEC
  0
SECTION
  2
OBJECTS
  0
DICTIONARY
  5
1
100
AcDbDictionary
  3
ACAD_GROUP
350
2
  3
ACAD_MLINESTYLE
350
3
  0
DICTIONARY
  5
2
102
{CDWK_REACTORS
330
1
102
}
100
AcDbDictionary
  0
DICTIONARY
  5
3
102
{CDWK_REACTORS
330
1
102
}
100
AcDbDictionary
  3
STANDARD
350
4
  0
MLINESTYLE
  5
4
102
{CDWK_REACTORS
330
3
102
}
100
AcDbMlineStyle
  2
STANDARD
 70
     0
  3

 62
     0
 51
90.0
 52
90.0
 71
     2
 49
0.5
 62
   256
  6
BYLAYER
 49
-0.5
 62
   256
  6
BYLAYER
  0
ENDSEC
  0
EOF
