  0
SECTION
  2
HEADER
  9
$ACADVER
  1
AC1014
  9
$DWGCODEPAGE
  3
ANSI_1252
  9
$INSBASE
 10
0.0
 20
0.0
 30
0.0
  9
$EXTMIN
 10
16.95292807
 20
-25188.46645306
  9
$EXTMAX
 10
30152.57418561
 20
784.39574146
  9
$LIMMIN
 10
16.95292807
 20
-25188.46645306
  9
$LIMMAX
 10
30152.57418561
 20
784.39574146
  9
$ORTHOMODE
 70
     0
  9
$REGENMODE
 70
     1
  9
$FILLMODE
 70
     1
  9
$QTEXTMODE
 70
     0
  9
$MIRRTEXT
 70
     1
  9
$DRAGMODE
 70
     2
  9
$LTSCALE
 40
5.0
  9
$OSMODE
 70
     0
  9
$ATTMODE
 70
     1
  9
$TEXTSIZE
 40
3.5
  9
$TRACEWID
 40
1.0
  9
$TEXTSTYLE
  7
STANDARD
  9
$CLAYER
  8
0
  9
$CELTYPE
  6
BYLAYER
  9
$CECOLOR
 62
   256
  9
$DIMSCALE
 40
1.0
  9
$DIMASZ
 40
2.0
  9
$DIMEXO
 40
5.0
  9
$DIMDLI
 40
10.0
  9
$DIMRND
 40
0.0
  9
$DIMDLE
 40
2.0
  9
$DIMEXE
 40
2.0
  9
$DIMTP
 40
0.0
  9
$DIMTM
 40
0.0
  9
$DIMTXT
 40
2.5
  9
$DIMCEN
 40
1.5
  9
$DIMTSZ
 40
0.0
  9
$DIMTOL
 70
     0
  9
$DIMLIM
 70
     0
  9
$DIMTIH
 70
     1
  9
$DIMTOH
 70
     0
  9
$DIMSE1
 70
     0
  9
$DIMSE2
 70
     0
  9
$DIMTAD
 70
     1
  9
$DIMZIN
 70
     8
  9
$DIMBLK
  1

  9
$DIMASO
 70
     1
  9
$DIMSHO
 70
     1
  9
$DIMPOST
  1

  9
$DIMAPOST
  1

  9
$DIMALT
 70
     0
  9
$DIMALTD
 70
     2
  9
$DIMALTF
 40
25.4
  9
$DIMLFAC
 40
1.0
  9
$DIMTOFL
 70
     0
  9
$DIMTVP
 40
0.0
  9
$DIMTIX
 70
     0
  9
$DIMSOXD
 70
     0
  9
$DIMSAH
 70
     0
  9
$DIMBLK1
  1

  9
$DIMBLK2
  1

  9
$DIMSTYLE
  2
*UNNAMED
  9
$DIMCLRD
 70
   190
  9
$DIMCLRE
 70
   190
  9
$DIMCLRT
 70
   190
  9
$DIMTFAC
 40
1.0
  9
$DIMGAP
 40
0.09
  9
$DIMUNIT
 70
     2
  9
$LUNITS
 70
     2
  9
$LUPREC
 70
     6
  9
$AXISMODE
 70
     0
  9
$AXISUNIT
 10
0.0
 20
0.0
  9
$SKETCHINC
 40
0.1
  9
$FILLETRAD
 40
0.0
  9
$AUNITS
 70
     0
  9
$AUPREC
 70
     0
  9
$MENU
  1
ACAD
  9
$ELEVATION
 40
0.0
  9
$PELEVATION
 40
0.0
  9
$THICKNESS
 40
0.0
  9
$LIMCHECK
 70
     0
  9
$BLIPMODE
 70
     1
  9
$CHAMFERA
 40
0.0
  9
$CHAMFERB
 40
0.0
  9
$SKPOLY
 70
     1
  9
$TDCREATE
 40
2457811.0000000000
  9
$TDUPDATE
 40
2457811.0000000000
  9
$TDINDWG
 40
0.0
  9
$TDUSRTIMER
 40
0.0
  9
$USRTIMER
 70
     1
  9
$ANGBASE
 50
0.0
  9
$ANGDIR
 70
     0
  9
$PDMODE
 70
     0
  9
$PDSIZE
 40
0.0
  9
$PLINEWID
 40
0.0
  9
$COORDS
 70
     2
  9
$SPLFRAME
 70
     0
  9
$SPLINETYPE
 70
     6
  9
$SPLINESEGS
 70
     8
  9
$ATTDIA
 70
     1
  9
$ATTREQ
 70
     1
  9
$HANDLING
 70
     1
  9
$HANDSEED
  5
     29D
  9
$SURFTAB1
 70
     6
  9
$SURFTAB2
 70
     6
  9
$SURFTYPE
 70
     6
  9
$SURFU
 70
     6
  9
$SURFV
 70
     6
  9
$UCSNAME
  2

  9
$UCSORG
 10
0.0
 20
0.0
 30
0.0
  9
$UCSXDIR
 10
1.0
 20
0.0
 30
0.0
  9
$UCSYDIR
 10
0.0
 20
1.0
 30
0.0
  9
$PUCSNAME
  2

  9
$PUCSORG
 10
0.0
 20
0.0
 30
0.0
  9
$PUCSXDIR
 10
1.0
 20
0.0
 30
0.0
  9
$PUCSYDIR
 10
0.0
 20
1.0
 30
0.0
  9
$USERI1
 70
     0
  9
$USERI2
 70
     0
  9
$USERI3
 70
     0
  9
$USERI4
 70
     0
  9
$USERI5
 70
     0
  9
$USERR1
 40
0.0
  9
$USERR2
 40
0.0
  9
$USERR3
 40
0.0
  9
$USERR4
 40
0.0
  9
$USERR5
 40
0.0
  9
$WORLDVIEW
 70
     1
  9
$SHADEDGE
 70
     3
  9
$SHADEDIF
 70
    70
  9
$TILEMODE
 70
     1
  9
$MAXACTVP
 70
    16
  9
$PINSBASE
 10
0.0
 20
0.0
 30
0.0
  9
$PLIMCHECK
 70
     0
  9
$PEXTMIN
 10
1.0000000000000E+20
 20
1.0000000000000E+20
 30
1.0000000000000E+20
  9
$PEXTMAX
 10
-1.0000000000000E+20
 20
-1.0000000000000E+20
 30
-1.0000000000000E+20
  9
$PLIMMIN
 10
0.0
 20
0.0
  9
$UNITMODE
 70
     0
  9
$VISRETAIN
 70
     0
  9
$MEASUREMENT
 70
     1
  0
ENDSEC
  0
SECTION
  2
TABLES
  0
TABLE
  2
VPORT
  5
E9
100
AcDbSymbolTable
 70
     1
  0
ENDTAB
  0
TABLE
  2
STYLE
  5
EA
100
AcDbSymbolTable
 70
     3
  0
STYLE
  5
EB
100
AcDbSymbolTableRecord
100
AcDbTextStyleTableRecord
  2
STANDARD
 70
     0
 40
0.0
 41
1.0
 50
0.0
 71
     0
 42
3.5
  3
MONOTXT
  4

  0
STYLE
  5
EC
100
AcDbSymbolTableRecord
100
AcDbTextStyleTableRecord
  2
SYMAP
 70
     0
 40
0.0
 41
1.0
 50
0.0
 71
     0
 42
3.5
  3
SYMAP
  4

  0
STYLE
  5
ED
100
AcDbSymbolTableRecord
100
AcDbTextStyleTableRecord
  2
CADWORK1
 70
     0
 40
0.0
 41
1.0
 50
0.0
 71
     0
 42
3.5
  3
MONOTXT
  4

  0
STYLE
  5
EE
100
AcDbSymbolTableRecord
100
AcDbTextStyleTableRecord
  2
MONOTXT
 70
     0
 40
0.0
 41
1.0
 50
0.0
 71
     0
 42
3.5
  3
MONOTXT
  4

  0
STYLE
  5
EF
100
AcDbSymbolTableRecord
100
AcDbTextStyleTableRecord
  2
ARIAL
 70
     0
 40
0.0
 41
1.0
 50
0.0
 71
     0
 42
3.5
  3

  4

1001
ACAD
1000
Arial
1071
        0
  0
ENDTAB
  0
TABLE
  2
LTYPE
  5
F0
100
AcDbSymbolTable
 70
    13
  0
LTYPE
  5
F1
100
AcDbSymbolTableRecord
100
AcDbLinetypeTableRecord
  2
BYBLOCK
 70
    64
  3

 72
    65
 73
     0
 40
0.0
  0
LTYPE
  5
F2
100
AcDbSymbolTableRecord
100
AcDbLinetypeTableRecord
  2
BYLAYER
 70
    64
  3

 72
    65
 73
     0
 40
0.0
  0
LTYPE
  5
F3
100
AcDbSymbolTableRecord
100
AcDbLinetypeTableRecord
  2
CONTINUOUS
 70
    64
  3
Solid line
 72
    65
 73
     0
 40
0.0
  0
LTYPE
  5
F4
100
AcDbSymbolTableRecord
100
AcDbLinetypeTableRecord
  2
DOT2
 70
    64
  3
...............................................
 72
    65
 73
     2
 40
1.25
 49
0.0
 74
     0
 49
-1.25
 74
     0
  0
LTYPE
  5
F5
100
AcDbSymbolTableRecord
100
AcDbLinetypeTableRecord
  2
DASHDOT
 70
    64
  3
 __ . __ . __ . __ . __ . __ . __ . __ . __ . __
 72
    65
 73
     4
 40
10.0
 49
5.0
 74
     0
 49
-2.5
 74
     0
 49
0.0
 74
     0
 49
-2.5
 74
     0
  0
LTYPE
  5
F6
100
AcDbSymbolTableRecord
100
AcDbLinetypeTableRecord
  2
DASHEDX2
 70
    64
  3
____  ____  ____  ____  ____  ____  ____  ____
 72
    65
 73
     2
 40
3.75
 49
2.5
 74
     0
 49
-1.25
 74
     0
  0
LTYPE
  5
F7
100
AcDbSymbolTableRecord
100
AcDbLinetypeTableRecord
  2
CADWORK_22
 70
    64
  3
22 =======================================
 72
    65
 73
     0
 40
0.0
  0
LTYPE
  5
F8
100
AcDbSymbolTableRecord
100
AcDbLinetypeTableRecord
  2
DAL
 70
    64
  3
Solid line (for MAPS)
 72
    65
 73
     0
 40
0.0
  0
LTYPE
  5
F9
100
AcDbSymbolTableRecord
100
AcDbLinetypeTableRecord
  2
MUR
 70
    64
  3
Solid line (for MAPS)
 72
    65
 73
     0
 40
0.0
  0
LTYPE
  5
FA
100
AcDbSymbolTableRecord
100
AcDbLinetypeTableRecord
  2
SOM
 70
    64
  3
Solid line (for MAPS)
 72
    65
 73
     0
 40
0.0
  0
LTYPE
  5
FB
100
AcDbSymbolTableRecord
100
AcDbLinetypeTableRecord
  2
COL
 70
    64
  3
Solid line (for MAPS)
 72
    65
 73
     0
 40
0.0
  0
LTYPE
  5
FC
100
AcDbSymbolTableRecord
100
AcDbLinetypeTableRecord
  2
LGN
 70
    64
  3
Solid line (for MAPS)
 72
    65
 73
     0
 40
0.0
  0
LTYPE
  5
FD
100
AcDbSymbolTableRecord
100
AcDbLinetypeTableRecord
  2
PNT
 70
    64
  3
Solid line (for MAPS)
 72
    65
 73
     0
 40
0.0
  0
ENDTAB
  0
TABLE
  2
LAYER
  5
FE
100
AcDbSymbolTable
 70
    32
  0
LAYER
  5
FF
100
AcDbSymbolTableRecord
100
AcDbLayerTableRecord
  2
Standard
 70
     0
 62
     7
  6
CONTINUOUS
370
    -3
  0
LAYER
  5
100
100
AcDbSymbolTableRecord
100
AcDbLayerTableRecord
  2
Ech.1_1
 70
     0
 62
     7
  6
CONTINUOUS
370
    -3
  0
LAYER
  5
101
100
AcDbSymbolTableRecord
100
AcDbLayerTableRecord
  2
Ech.1_2
 70
     0
 62
     7
  6
CONTINUOUS
370
    -3
  0
LAYER
  5
102
100
AcDbSymbolTableRecord
100
AcDbLayerTableRecord
  2
Ech.1_5
 70
     0
 62
     7
  6
CONTINUOUS
370
    -3
  0
LAYER
  5
103
100
AcDbSymbolTableRecord
100
AcDbLayerTableRecord
  2
Ech.1_10
 70
     0
 62
     7
  6
CONTINUOUS
370
    -3
  0
LAYER
  5
104
100
AcDbSymbolTableRecord
100
AcDbLayerTableRecord
  2
Ech.1_20
 70
     0
 62
     7
  6
CONTINUOUS
370
    -3
  0
LAYER
  5
105
100
AcDbSymbolTableRecord
100
AcDbLayerTableRecord
  2
Ech.1_25
 70
     0
 62
     7
  6
CONTINUOUS
370
    -3
  0
LAYER
  5
106
100
AcDbSymbolTableRecord
100
AcDbLayerTableRecord
  2
Ech.1_33
 70
     0
 62
     7
  6
CONTINUOUS
370
    -3
  0
LAYER
  5
107
100
AcDbSymbolTableRecord
100
AcDbLayerTableRecord
  2
Ech.1_50
 70
     0
 62
     7
  6
CONTINUOUS
370
    -3
  0
LAYER
  5
108
100
AcDbSymbolTableRecord
100
AcDbLayerTableRecord
  2
Ech.1_75
 70
     0
 62
     7
  6
CONTINUOUS
370
    -3
  0
LAYER
  5
109
100
AcDbSymbolTableRecord
100
AcDbLayerTableRecord
  2
Ech.1_100
 70
     0
 62
     7
  6
CONTINUOUS
370
    -3
  0
LAYER
  5
10A
100
AcDbSymbolTableRecord
100
AcDbLayerTableRecord
  2
Ech.1_200
 70
     0
 62
     7
  6
CONTINUOUS
370
    -3
  0
LAYER
  5
10B
100
AcDbSymbolTableRecord
100
AcDbLayerTableRecord
  2
Ech.1_500
 70
     0
 62
     7
  6
CONTINUOUS
370
    -3
  0
LAYER
  5
10C
100
AcDbSymbolTableRecord
100
AcDbLayerTableRecord
  2
Ech.1_1000
 70
     0
 62
     7
  6
CONTINUOUS
370
    -3
  0
LAYER
  5
10D
100
AcDbSymbolTableRecord
100
AcDbLayerTableRecord
  2
Cadres traceur
 70
     0
 62
     7
  6
CONTINUOUS
370
    18
  0
LAYER
  5
10E
100
AcDbSymbolTableRecord
100
AcDbLayerTableRecord
  2
Cadres laser
 70
     0
 62
     7
  6
CONTINUOUS
370
    18
  0
LAYER
  5
10F
100
AcDbSymbolTableRecord
100
AcDbLayerTableRecord
  2
Légende d_aide
 70
     0
 62
     7
  6
CONTINUOUS
370
    18
  0
LAYER
  5
110
100
AcDbSymbolTableRecord
100
AcDbLayerTableRecord
  2
hachures ok
 70
     0
 62
     7
  6
CONTINUOUS
370
    18
  0
LAYER
  5
111
100
AcDbSymbolTableRecord
100
AcDbLayerTableRecord
  2
ossature bois
 70
     0
 62
     7
  6
CONTINUOUS
370
    18
  0
LAYER
  5
112
100
AcDbSymbolTableRecord
100
AcDbLayerTableRecord
  2
VR
 70
     0
 62
     7
  6
CONTINUOUS
370
    25
  0
LAYER
  5
113
100
AcDbSymbolTableRecord
100
AcDbLayerTableRecord
  2
Calque1
 70
     0
 62
     7
  6
CONTINUOUS
370
     9
  0
LAYER
  5
114
100
AcDbSymbolTableRecord
100
AcDbLayerTableRecord
  2
0
 70
     0
 62
     7
  6
CONTINUOUS
370
    -3
  0
LAYER
  5
115
100
AcDbSymbolTableRecord
100
AcDbLayerTableRecord
  2
menuiserie
 70
     0
 62
     7
  6
CONTINUOUS
370
    -3
  0
LAYER
  5
116
100
AcDbSymbolTableRecord
100
AcDbLayerTableRecord
  2
cotation
 70
     0
 62
   250
  6
CONTINUOUS
370
     9
  0
LAYER
  5
117
100
AcDbSymbolTableRecord
100
AcDbLayerTableRecord
  2
Defpoints
 70
     0
 62
    10
  6
CONTINUOUS
370
    -3
  0
LAYER
  5
118
100
AcDbSymbolTableRecord
100
AcDbLayerTableRecord
  2
HACHURE
 70
     0
 62
   254
  6
CONTINUOUS
370
    25
  0
LAYER
  5
119
100
AcDbSymbolTableRecord
100
AcDbLayerTableRecord
  2
mat1
 70
     0
 62
     7
  6
CONTINUOUS
370
    30
  0
LAYER
  5
11A
100
AcDbSymbolTableRecord
100
AcDbLayerTableRecord
  2
mat2
 70
     0
 62
     7
  6
CONTINUOUS
370
     5
  0
LAYER
  5
11B
100
AcDbSymbolTableRecord
100
AcDbLayerTableRecord
  2
hach
 70
     0
 62
     8
  6
CONTINUOUS
370
     5
  0
LAYER
  5
11C
100
AcDbSymbolTableRecord
100
AcDbLayerTableRecord
  2
menuiseries
 70
     0
 62
     7
  6
CONTINUOUS
370
     9
  0
LAYER
  5
11D
100
AcDbSymbolTableRecord
100
AcDbLayerTableRecord
  2
BétonMétal
 70
     0
 62
     7
  6
CONTINUOUS
370
    80
  0
LAYER
  5
11E
100
AcDbSymbolTableRecord
100
AcDbLayerTableRecord
  2
bois
 70
     0
 62
     7
  6
CONTINUOUS
370
    60
  0
ENDTAB
  0
TABLE
  2
VIEW
  5
11F
100
AcDbSymbolTable
 70
     0
  0
ENDTAB
  0
TABLE
  2
UCS
  5
120
100
AcDbSymbolTable
 70
     0
  0
ENDTAB
  0
TABLE
  2
APPID
  5
121
100
AcDbSymbolTable
 70
     1
  0
APPID
  5
122
100
AcDbSymbolTableRecord
100
AcDbRegAppTableRecord
  2
ACAD
 70
     0
  0
ENDTAB
  0
TABLE
  2
DIMSTYLE
  5
123
100
AcDbSymbolTable
 70
     0
  0
ENDTAB
  0
TABLE
  2
BLOCK_RECORD
  5
124
100
AcDbSymbolTable
 70
     0
  0
BLOCK_RECORD
  5
125
100
AcDbSymbolTableRecord
100
AcDbBlockTableRecord
  2
*MODEL_SPACE
  0
BLOCK_RECORD
  5
126
100
AcDbSymbolTableRecord
100
AcDbBlockTableRecord
  2
*PAPER_SPACE
  0
BLOCK_RECORD
  5
127
100
AcDbSymbolTableRecord
100
AcDbBlockTableRecord
  2
CDWK_EXTR_0
  0
BLOCK_RECORD
  5
128
100
AcDbSymbolTableRecord
100
AcDbBlockTableRecord
  2
CDWK_EXTR_1D
  0
BLOCK_RECORD
  5
129
100
AcDbSymbolTableRecord
100
AcDbBlockTableRecord
  2
CDWK_EXTR_1G
  0
BLOCK_RECORD
  5
12A
100
AcDbSymbolTableRecord
100
AcDbBlockTableRecord
  2
CDWK_EXTR_2
  0
BLOCK_RECORD
  5
12B
100
AcDbSymbolTableRecord
100
AcDbBlockTableRecord
  2
CDWK_EXTR_3
  0
BLOCK_RECORD
  5
12C
100
AcDbSymbolTableRecord
100
AcDbBlockTableRecord
  2
CDWK_EXTR_4
  0
BLOCK_RECORD
  5
12D
100
AcDbSymbolTableRecord
100
AcDbBlockTableRecord
  2
CDWK_PTTYP0
  0
BLOCK_RECORD
  5
12E
100
AcDbSymbolTableRecord
100
AcDbBlockTableRecord
  2
CDWK_PTTYP1
  0
BLOCK_RECORD
  5
12F
100
AcDbSymbolTableRecord
100
AcDbBlockTableRecord
  2
CDWK_PTTYP2
  0
BLOCK_RECORD
  5
130
100
AcDbSymbolTableRecord
100
AcDbBlockTableRecord
  2
CDWK_PTTYP3
  0
BLOCK_RECORD
  5
131
100
AcDbSymbolTableRecord
100
AcDbBlockTableRecord
  2
CDWK_PTTYP4
  0
BLOCK_RECORD
  5
132
100
AcDbSymbolTableRecord
100
AcDbBlockTableRecord
  2
CDWK_PTTYP5
  0
BLOCK_RECORD
  5
133
100
AcDbSymbolTableRecord
100
AcDbBlockTableRecord
  2
CDWK_PTTYP6
  0
BLOCK_RECORD
  5
134
100
AcDbSymbolTableRecord
100
AcDbBlockTableRecord
  2
CDWK_PTTYP7
  0
BLOCK_RECORD
  5
135
100
AcDbSymbolTableRecord
100
AcDbBlockTableRecord
  2
CDWK_PTTYP8
  0
BLOCK_RECORD
  5
136
100
AcDbSymbolTableRecord
100
AcDbBlockTableRecord
  2
CDWK_PTTYP9
  0
BLOCK_RECORD
  5
137
100
AcDbSymbolTableRecord
100
AcDbBlockTableRecord
  2
CDWK_PTTYP10
  0
BLOCK_RECORD
  5
138
100
AcDbSymbolTableRecord
100
AcDbBlockTableRecord
  2
CDWK_PTTYP11
  0
BLOCK_RECORD
  5
139
100
AcDbSymbolTableRecord
100
AcDbBlockTableRecord
  2
CDWK_PTTYP12
  0
BLOCK_RECORD
  5
13A
100
AcDbSymbolTableRecord
100
AcDbBlockTableRecord
  2
CDWK_PTTYP13
  0
BLOCK_RECORD
  5
13B
100
AcDbSymbolTableRecord
100
AcDbBlockTableRecord
  2
CDWK_PTTYP14
  0
BLOCK_RECORD
  5
13C
100
AcDbSymbolTableRecord
100
AcDbBlockTableRecord
  2
CDWK_PTTYP15
  0
BLOCK_RECORD
  5
13D
100
AcDbSymbolTableRecord
100
AcDbBlockTableRecord
  2
CDWK_PTTYP16
  0
BLOCK_RECORD
  5
13E
100
AcDbSymbolTableRecord
100
AcDbBlockTableRecord
  2
CDWK_PTTYP17
  0
BLOCK_RECORD
  5
13F
100
AcDbSymbolTableRecord
100
AcDbBlockTableRecord
  2
CDWK_PTTYP18
  0
BLOCK_RECORD
  5
140
100
AcDbSymbolTableRecord
100
AcDbBlockTableRecord
  2
CDWK_PTTYP19
  0
BLOCK_RECORD
  5
141
100
AcDbSymbolTableRecord
100
AcDbBlockTableRecord
  2
CDWK_PTTYP20
  0
BLOCK_RECORD
  5
142
100
AcDbSymbolTableRecord
100
AcDbBlockTableRecord
  2
CDWK_PTTYP21
  0
BLOCK_RECORD
  5
143
100
AcDbSymbolTableRecord
100
AcDbBlockTableRecord
  2
CDWK_PTTYP22
  0
BLOCK_RECORD
  5
144
100
AcDbSymbolTableRecord
100
AcDbBlockTableRecord
  2
CDWK_PTTYP23
  0
BLOCK_RECORD
  5
145
100
AcDbSymbolTableRecord
100
AcDbBlockTableRecord
  2
CDWK_PTTYP24
  0
BLOCK_RECORD
  5
146
100
AcDbSymbolTableRecord
100
AcDbBlockTableRecord
  2
CDWK_PTTYP25
  0
BLOCK_RECORD
  5
147
100
AcDbSymbolTableRecord
100
AcDbBlockTableRecord
  2
CDWK_PTTYP26
  0
BLOCK_RECORD
  5
148
100
AcDbSymbolTableRecord
100
AcDbBlockTableRecord
  2
CDWK_PTTYP27
  0
BLOCK_RECORD
  5
149
100
AcDbSymbolTableRecord
100
AcDbBlockTableRecord
  2
CDWK_PTTYP28
  0
BLOCK_RECORD
  5
14A
100
AcDbSymbolTableRecord
100
AcDbBlockTableRecord
  2
CDWK_PTTYP29
  0
BLOCK_RECORD
  5
14B
100
AcDbSymbolTableRecord
100
AcDbBlockTableRecord
  2
CDWK_PTTYP30
  0
BLOCK_RECORD
  5
14C
100
AcDbSymbolTableRecord
100
AcDbBlockTableRecord
  2
CDWK_PTTYP31
  0
BLOCK_RECORD
  5
14D
100
AcDbSymbolTableRecord
100
AcDbBlockTableRecord
  2
CDWK_PTTYP32
  0
BLOCK_RECORD
  5
14E
100
AcDbSymbolTableRecord
100
AcDbBlockTableRecord
  2
CDWK_PTTYP33
  0
BLOCK_RECORD
  5
14F
100
AcDbSymbolTableRecord
100
AcDbBlockTableRecord
  2
CDWK_PTTYP34
  0
BLOCK_RECORD
  5
150
100
AcDbSymbolTableRecord
100
AcDbBlockTableRecord
  2
CDWK_PTTYP35
  0
BLOCK_RECORD
  5
151
100
AcDbSymbolTableRecord
100
AcDbBlockTableRecord
  2
CDWK_PTTYP36
  0
BLOCK_RECORD
  5
152
100
AcDbSymbolTableRecord
100
AcDbBlockTableRecord
  2
CDWK_PTTYP37
  0
BLOCK_RECORD
  5
153
100
AcDbSymbolTableRecord
100
AcDbBlockTableRecord
  2
CDWK_PTTYP38
  0
BLOCK_RECORD
  5
154
100
AcDbSymbolTableRecord
100
AcDbBlockTableRecord
  2
*D5
  0
BLOCK_RECORD
  5
155
100
AcDbSymbolTableRecord
100
AcDbBlockTableRecord
  2
*D6
  0
ENDTAB
  0
ENDSEC
  0
SECTION
  2
BLOCKS
  0
BLOCK
  5
156
100
AcDbEntity
  8
0
100
AcDbBlockBegin
  2
*MODEL_SPACE
 70
     0
 10
0.0
 20
0.0
 30
0.0
  3
*MODEL_SPACE
  1

  0
ENDBLK
  5
157
100
AcDbEntity
100
AcDbBlockEnd
  0
BLOCK
  5
158
100
AcDbEntity
  8
0
100
AcDbBlockBegin
  2
*PAPER_SPACE
 70
     0
 10
0.0
 20
0.0
 30
0.0
  3
*PAPER_SPACE
  1

  0
ENDBLK
  5
159
100
AcDbEntity
100
AcDbBlockEnd
  0
BLOCK
  5
15A
100
AcDbEntity
  8
0
100
AcDbBlockBegin
  2
CDWK_EXTR_0
 70
     0
 10
0.0
 20
0.0
 30
0.0
  3
CDWK_EXTR_0
  1

  4
Cadwork line-extremity
  0
LINE
  5
15B
100
AcDbEntity
  8
0
 62
     0
370
    -2
100
AcDbLine
 10
0.0
 20
0.0
 30
0.0
 11
2.0
 21
0.5
 31
0.0
  0
LINE
  5
15C
100
AcDbEntity
  8
0
 62
     0
370
    -2
100
AcDbLine
 10
0.0
 20
0.0
 30
0.0
 11
2.0
 21
-0.5
 31
0.0
  0
LINE
  5
15D
100
AcDbEntity
  8
0
 62
     0
370
    -2
100
AcDbLine
 10
2.0
 20
0.5
 30
0.0
 11
2.0
 21
-0.5
 31
0.0
  0
ENDBLK
  5
15E
100
AcDbEntity
100
AcDbBlockEnd
  0
BLOCK
  5
15F
100
AcDbEntity
  8
0
100
AcDbBlockBegin
  2
CDWK_EXTR_1D
 70
     0
 10
0.0
 20
0.0
 30
0.0
  3
CDWK_EXTR_1D
  1

  4
Cadwork line-extremity
  0
LINE
  5
160
100
AcDbEntity
  8
0
 62
     0
370
    -2
100
AcDbLine
 10
0.0
 20
0.0
 30
0.0
 11
0.0
 21
1.0
 31
0.0
  0
LINE
  5
161
100
AcDbEntity
  8
0
 62
     0
370
    -2
100
AcDbLine
 10
0.0
 20
1.0
 30
0.0
 11
0.5
 21
1.5
 31
0.0
  0
LINE
  5
162
100
AcDbEntity
  8
0
 62
     0
370
    -2
100
AcDbLine
 10
0.5
 20
1.5
 30
0.0
 11
1.5
 21
1.5
 31
0.0
  0
ENDBLK
  5
163
100
AcDbEntity
100
AcDbBlockEnd
  0
BLOCK
  5
164
100
AcDbEntity
  8
0
100
AcDbBlockBegin
  2
CDWK_EXTR_1G
 70
     0
 10
0.0
 20
0.0
 30
0.0
  3
CDWK_EXTR_1G
  1

  4
Cadwork line-extremity
  0
LINE
  5
165
100
AcDbEntity
  8
0
 62
     0
370
    -2
100
AcDbLine
 10
0.0
 20
0.0
 30
0.0
 11
0.0
 21
-1.0
 31
0.0
  0
LINE
  5
166
100
AcDbEntity
  8
0
 62
     0
370
    -2
100
AcDbLine
 10
0.0
 20
-1.0
 30
0.0
 11
0.5
 21
-1.5
 31
0.0
  0
LINE
  5
167
100
AcDbEntity
  8
0
 62
     0
370
    -2
100
AcDbLine
 10
0.5
 20
-1.5
 30
0.0
 11
1.5
 21
-1.5
 31
0.0
  0
ENDBLK
  5
168
100
AcDbEntity
100
AcDbBlockEnd
  0
BLOCK
  5
169
100
AcDbEntity
  8
0
100
AcDbBlockBegin
  2
CDWK_EXTR_2
 70
     0
 10
0.0
 20
0.0
 30
0.0
  3
CDWK_EXTR_2
  1

  4
Cadwork line-extremity
  0
SOLID
  5
16A
100
AcDbEntity
  8
0
 62
     0
100
AcDbTrace
 10
0.0
 20
0.0
 11
2.0
 21
0.5
 12
2.0
 22
-0.5
 13
2.0
 23
-0.5
  0
ENDBLK
  5
16B
100
AcDbEntity
100
AcDbBlockEnd
  0
BLOCK
  5
16C
100
AcDbEntity
  8
0
100
AcDbBlockBegin
  2
CDWK_EXTR_3
 70
     0
 10
0.0
 20
0.0
 30
0.0
  3
CDWK_EXTR_3
  1

  4
Cadwork line-extremity
  0
SOLID
  5
16D
100
AcDbEntity
  8
0
 62
     0
100
AcDbTrace
 10
0.0
 20
0.0
 11
2.0
 21
0.5
 12
2.0
 22
-0.5
 13
2.0
 23
-0.5
  0
LINE
  5
16E
100
AcDbEntity
  8
0
 62
     0
370
    -2
100
AcDbLine
 10
0.0
 20
1.0
 30
0.0
 11
0.0
 21
-1.0
 31
0.0
  0
ENDBLK
  5
16F
100
AcDbEntity
100
AcDbBlockEnd
  0
BLOCK
  5
170
100
AcDbEntity
  8
0
100
AcDbBlockBegin
  2
CDWK_EXTR_4
 70
     0
 10
0.0
 20
0.0
 30
0.0
  3
CDWK_EXTR_4
  1

  4
Cadwork line-extremity
  0
HATCH
  5
171
100
AcDbEntity
  8
0
 62
     0
370
    -2
100
AcDbHatch
 10
0.0
 20
0.0
 30
0.0
210
0.0
220
0.0
230
1.0
  2
SOLID
 70
     1
 71
     0
 91
        1
 92
        1
 93
        1
 72
     2
 10
0.0
 20
0.0
 40
0.5
 50
0.0
 51
360.0
 73
     1
 97
        0
 75
     0
 76
     1
 98
        1
 10
0.0
 20
0.0
  0
ENDBLK
  5
172
100
AcDbEntity
100
AcDbBlockEnd
  0
BLOCK
  5
173
100
AcDbEntity
  8
0
100
AcDbBlockBegin
  2
CDWK_PTTYP0
 70
     0
 10
0.0
 20
0.0
 30
0.0
  3
CDWK_PTTYP0
  1

  4
Cadwork point
  0
POINT
  5
174
100
AcDbEntity
  8
0
 62
     0
100
AcDbPoint
 10
0.0
 20
0.0
 30
0.0
  0
ENDBLK
  5
175
100
AcDbEntity
100
AcDbBlockEnd
  0
BLOCK
  5
176
100
AcDbEntity
  8
0
100
AcDbBlockBegin
  2
CDWK_PTTYP1
 70
     0
 10
0.0
 20
0.0
 30
0.0
  3
CDWK_PTTYP1
  1

  4
Cadwork node
  0
LINE
  5
177
100
AcDbEntity
  8
0
 62
     0
370
    -2
100
AcDbLine
 10
-0.5
 20
0.5
 30
0.0
 11
0.5
 21
0.5
 31
0.0
  0
LINE
  5
178
100
AcDbEntity
  8
0
 62
     0
370
    -2
100
AcDbLine
 10
0.5
 20
0.5
 30
0.0
 11
0.5
 21
-0.5
 31
0.0
  0
LINE
  5
179
100
AcDbEntity
  8
0
 62
     0
370
    -2
100
AcDbLine
 10
0.5
 20
-0.5
 30
0.0
 11
-0.5
 21
-0.5
 31
0.0
  0
LINE
  5
17A
100
AcDbEntity
  8
0
 62
     0
370
    -2
100
AcDbLine
 10
-0.5
 20
-0.5
 30
0.0
 11
-0.5
 21
0.5
 31
0.0
  0
ENDBLK
  5
17B
100
AcDbEntity
100
AcDbBlockEnd
  0
BLOCK
  5
17C
100
AcDbEntity
  8
0
100
AcDbBlockBegin
  2
CDWK_PTTYP2
 70
     0
 10
0.0
 20
0.0
 30
0.0
  3
CDWK_PTTYP2
  1

  4
Cadwork node
  0
LINE
  5
17D
100
AcDbEntity
  8
0
 62
     0
370
    -2
100
AcDbLine
 10
0.0
 20
0.5
 30
0.0
 11
0.0
 21
-0.5
 31
0.0
  0
LINE
  5
17E
100
AcDbEntity
  8
0
 62
     0
370
    -2
100
AcDbLine
 10
-0.5
 20
0.0
 30
0.0
 11
0.5
 21
0.0
 31
0.0
  0
ENDBLK
  5
17F
100
AcDbEntity
100
AcDbBlockEnd
  0
BLOCK
  5
180
100
AcDbEntity
  8
0
100
AcDbBlockBegin
  2
CDWK_PTTYP3
 70
     0
 10
0.0
 20
0.0
 30
0.0
  3
CDWK_PTTYP3
  1

  4
Cadwork node
  0
CIRCLE
  5
181
100
AcDbEntity
  8
0
 62
     0
370
    -2
100
AcDbCircle
 10
0.0
 20
0.0
 30
0.0
 40
0.5
  0
ENDBLK
  5
182
100
AcDbEntity
100
AcDbBlockEnd
  0
BLOCK
  5
183
100
AcDbEntity
  8
0
100
AcDbBlockBegin
  2
CDWK_PTTYP4
 70
     0
 10
0.0
 20
0.0
 30
0.0
  3
CDWK_PTTYP4
  1

  4
Cadwork node
  0
HATCH
  5
184
100
AcDbEntity
  8
0
 62
     0
370
    -2
100
AcDbHatch
 10
0.0
 20
0.0
 30
0.0
210
0.0
220
0.0
230
1.0
  2
SOLID
 70
     1
 71
     0
 91
        1
 92
        1
 93
        1
 72
     2
 10
0.0
 20
0.0
 40
0.5
 50
0.0
 51
360.0
 73
     1
 97
        0
 75
     0
 76
     1
 98
        1
 10
0.0
 20
0.0
  0
ENDBLK
  5
185
100
AcDbEntity
100
AcDbBlockEnd
  0
BLOCK
  5
186
100
AcDbEntity
  8
0
100
AcDbBlockBegin
  2
CDWK_PTTYP5
 70
     0
 10
0.0
 20
0.0
 30
0.0
  3
CDWK_PTTYP5
  1

  4
Cadwork node
  0
LINE
  5
187
100
AcDbEntity
  8
0
 62
     0
370
    -2
100
AcDbLine
 10
-0.5
 20
0.5
 30
0.0
 11
0.5
 21
0.5
 31
0.0
  0
LINE
  5
188
100
AcDbEntity
  8
0
 62
     0
370
    -2
100
AcDbLine
 10
0.5
 20
0.5
 30
0.0
 11
0.5
 21
-0.5
 31
0.0
  0
LINE
  5
189
100
AcDbEntity
  8
0
 62
     0
370
    -2
100
AcDbLine
 10
0.5
 20
-0.5
 30
0.0
 11
-0.5
 21
-0.5
 31
0.0
  0
LINE
  5
18A
100
AcDbEntity
  8
0
 62
     0
370
    -2
100
AcDbLine
 10
-0.5
 20
-0.5
 30
0.0
 11
-0.5
 21
0.5
 31
0.0
  0
SOLID
  5
18B
100
AcDbEntity
  8
0
 62
     0
100
AcDbTrace
 10
-0.5
 20
-0.5
 11
-0.5
 21
0.0
 12
0.0
 22
-0.5
 13
0.0
 23
0.0
  0
SOLID
  5
18C
100
AcDbEntity
  8
0
 62
     0
100
AcDbTrace
 10
0.0
 20
0.0
 11
0.0
 21
0.5
 12
0.5
 22
0.0
 13
0.5
 23
0.5
  0
ENDBLK
  5
18D
100
AcDbEntity
100
AcDbBlockEnd
  0
BLOCK
  5
18E
100
AcDbEntity
  8
0
100
AcDbBlockBegin
  2
CDWK_PTTYP6
 70
     0
 10
0.0
 20
0.0
 30
0.0
  3
CDWK_PTTYP6
  1

  4
Cadwork node
  0
LINE
  5
18F
100
AcDbEntity
  8
0
 62
     0
370
    -2
100
AcDbLine
 10
-0.5
 20
0.5
 30
0.0
 11
0.5
 21
0.5
 31
0.0
  0
LINE
  5
190
100
AcDbEntity
  8
0
 62
     0
370
    -2
100
AcDbLine
 10
0.5
 20
0.5
 30
0.0
 11
0.5
 21
-0.5
 31
0.0
  0
LINE
  5
191
100
AcDbEntity
  8
0
 62
     0
370
    -2
100
AcDbLine
 10
0.5
 20
-0.5
 30
0.0
 11
-0.5
 21
-0.5
 31
0.0
  0
LINE
  5
192
100
AcDbEntity
  8
0
 62
     0
370
    -2
100
AcDbLine
 10
-0.5
 20
-0.5
 30
0.0
 11
-0.5
 21
0.5
 31
0.0
  0
SOLID
  5
193
100
AcDbEntity
  8
0
 62
     0
100
AcDbTrace
 10
-0.5
 20
-0.5
 11
-0.5
 21
0.5
 12
0.5
 22
0.5
 13
0.5
 23
0.5
  0
ENDBLK
  5
194
100
AcDbEntity
100
AcDbBlockEnd
  0
BLOCK
  5
195
100
AcDbEntity
  8
0
100
AcDbBlockBegin
  2
CDWK_PTTYP7
 70
     0
 10
0.0
 20
0.0
 30
0.0
  3
CDWK_PTTYP7
  1

  4
Cadwork node
  0
LINE
  5
196
100
AcDbEntity
  8
0
 62
     0
370
    -2
100
AcDbLine
 10
-0.5
 20
0.5
 30
0.0
 11
0.5
 21
0.5
 31
0.0
  0
LINE
  5
197
100
AcDbEntity
  8
0
 62
     0
370
    -2
100
AcDbLine
 10
0.5
 20
0.5
 30
0.0
 11
0.5
 21
-0.5
 31
0.0
  0
LINE
  5
198
100
AcDbEntity
  8
0
 62
     0
370
    -2
100
AcDbLine
 10
0.5
 20
-0.5
 30
0.0
 11
-0.5
 21
-0.5
 31
0.0
  0
LINE
  5
199
100
AcDbEntity
  8
0
 62
     0
370
    -2
100
AcDbLine
 10
-0.5
 20
-0.5
 30
0.0
 11
-0.5
 21
0.5
 31
0.0
  0
LINE
  5
19A
100
AcDbEntity
  8
0
 62
     0
370
    -2
100
AcDbLine
 10
0.0
 20
0.5
 30
0.0
 11
0.0
 21
-0.5
 31
0.0
  0
LINE
  5
19B
100
AcDbEntity
  8
0
 62
     0
370
    -2
100
AcDbLine
 10
-0.5
 20
0.0
 30
0.0
 11
0.5
 21
0.0
 31
0.0
  0
ENDBLK
  5
19C
100
AcDbEntity
100
AcDbBlockEnd
  0
BLOCK
  5
19D
100
AcDbEntity
  8
0
100
AcDbBlockBegin
  2
CDWK_PTTYP8
 70
     0
 10
0.0
 20
0.0
 30
0.0
  3
CDWK_PTTYP8
  1

  4
Cadwork node
  0
SOLID
  5
19E
100
AcDbEntity
  8
0
 62
     0
100
AcDbTrace
 10
-0.5
 20
0.5
 11
0.5
 21
0.5
 12
-0.5
 22
-0.5
 13
0.5
 23
-0.5
  0
ENDBLK
  5
19F
100
AcDbEntity
100
AcDbBlockEnd
  0
BLOCK
  5
1A0
100
AcDbEntity
  8
0
100
AcDbBlockBegin
  2
CDWK_PTTYP9
 70
     0
 10
0.0
 20
0.0
 30
0.0
  3
CDWK_PTTYP9
  1

  4
Cadwork node
  0
CIRCLE
  5
1A1
100
AcDbEntity
  8
0
 62
     0
370
    -2
100
AcDbCircle
 10
0.0
 20
0.0
 30
0.0
 40
0.5
  0
CIRCLE
  5
1A2
100
AcDbEntity
  8
0
 62
     0
370
    -2
100
AcDbCircle
 10
0.0
 20
0.0
 30
0.0
 40
0.16666667
  0
ENDBLK
  5
1A3
100
AcDbEntity
100
AcDbBlockEnd
  0
BLOCK
  5
1A4
100
AcDbEntity
  8
0
100
AcDbBlockBegin
  2
CDWK_PTTYP10
 70
     0
 10
0.0
 20
0.0
 30
0.0
  3
CDWK_PTTYP10
  1

  4
Cadwork node
  0
CIRCLE
  5
1A5
100
AcDbEntity
  8
0
 62
     0
370
    -2
100
AcDbCircle
 10
0.0
 20
0.0
 30
0.0
 40
0.5
  0
ENDBLK
  5
1A6
100
AcDbEntity
100
AcDbBlockEnd
  0
BLOCK
  5
1A7
100
AcDbEntity
  8
0
100
AcDbBlockBegin
  2
CDWK_PTTYP11
 70
     0
 10
0.0
 20
0.0
 30
0.0
  3
CDWK_PTTYP11
  1

  4
Cadwork node
  0
CIRCLE
  5
1A8
100
AcDbEntity
  8
0
 62
     0
370
    -2
100
AcDbCircle
 10
0.0
 20
0.0
 30
0.0
 40
0.5
  0
CIRCLE
  5
1A9
100
AcDbEntity
  8
0
 62
     0
370
    -2
100
AcDbCircle
 10
0.0
 20
0.0
 30
0.0
 40
0.25
  0
ENDBLK
  5
1AA
100
AcDbEntity
100
AcDbBlockEnd
  0
BLOCK
  5
1AB
100
AcDbEntity
  8
0
100
AcDbBlockBegin
  2
CDWK_PTTYP12
 70
     0
 10
0.0
 20
0.0
 30
0.0
  3
CDWK_PTTYP12
  1

  4
Cadwork node
  0
CIRCLE
  5
1AC
100
AcDbEntity
  8
0
 62
     0
370
    -2
100
AcDbCircle
 10
0.0
 20
0.0
 30
0.0
 40
0.5
  0
CIRCLE
  5
1AD
100
AcDbEntity
  8
0
 62
     0
370
    -2
100
AcDbCircle
 10
0.25
 20
0.0
 30
0.0
 40
0.25
  0
ENDBLK
  5
1AE
100
AcDbEntity
100
AcDbBlockEnd
  0
BLOCK
  5
1AF
100
AcDbEntity
  8
0
100
AcDbBlockBegin
  2
CDWK_PTTYP13
 70
     0
 10
0.0
 20
0.0
 30
0.0
  3
CDWK_PTTYP13
  1

  4
Cadwork node
  0
CIRCLE
  5
1B0
100
AcDbEntity
  8
0
 62
     0
370
    -2
100
AcDbCircle
 10
0.0
 20
0.0
 30
0.0
 40
0.5
  0
CIRCLE
  5
1B1
100
AcDbEntity
  8
0
 62
     0
370
    -2
100
AcDbCircle
 10
0.25
 20
0.0
 30
0.0
 40
0.25
  0
CIRCLE
  5
1B2
100
AcDbEntity
  8
0
 62
     0
370
    -2
100
AcDbCircle
 10
-0.25
 20
0.0
 30
0.0
 40
0.25
  0
ENDBLK
  5
1B3
100
AcDbEntity
100
AcDbBlockEnd
  0
BLOCK
  5
1B4
100
AcDbEntity
  8
0
100
AcDbBlockBegin
  2
CDWK_PTTYP14
 70
     0
 10
0.0
 20
0.0
 30
0.0
  3
CDWK_PTTYP14
  1

  4
Cadwork node
  0
POINT
  5
1B5
100
AcDbEntity
  8
0
 62
     0
100
AcDbPoint
 10
0.0
 20
0.0
 30
0.0
  0
ENDBLK
  5
1B6
100
AcDbEntity
100
AcDbBlockEnd
  0
BLOCK
  5
1B7
100
AcDbEntity
  8
0
100
AcDbBlockBegin
  2
CDWK_PTTYP15
 70
     0
 10
0.0
 20
0.0
 30
0.0
  3
CDWK_PTTYP15
  1

  4
Cadwork node
  0
POINT
  5
1B8
100
AcDbEntity
  8
0
 62
     0
100
AcDbPoint
 10
0.0
 20
0.0
 30
0.0
  0
ENDBLK
  5
1B9
100
AcDbEntity
100
AcDbBlockEnd
  0
BLOCK
  5
1BA
100
AcDbEntity
  8
0
100
AcDbBlockBegin
  2
CDWK_PTTYP16
 70
     0
 10
0.0
 20
0.0
 30
0.0
  3
CDWK_PTTYP16
  1

  4
Cadwork node
  0
LINE
  5
1BB
100
AcDbEntity
  8
0
 62
     0
370
    -2
100
AcDbLine
 10
-0.5
 20
-0.28867513
 30
0.0
 11
0.5
 21
-0.28867513
 31
0.0
  0
LINE
  5
1BC
100
AcDbEntity
  8
0
 62
     0
370
    -2
100
AcDbLine
 10
0.5
 20
-0.28867513
 30
0.0
 11
0.0
 21
0.57735027
 31
0.0
  0
LINE
  5
1BD
100
AcDbEntity
  8
0
 62
     0
370
    -2
100
AcDbLine
 10
0.0
 20
0.57735027
 30
0.0
 11
-0.5
 21
-0.28867513
 31
0.0
  0
CIRCLE
  5
1BE
100
AcDbEntity
  8
0
 62
     0
370
    -2
100
AcDbCircle
 10
0.0
 20
0.0
 30
0.0
 40
0.28867513
  0
ENDBLK
  5
1BF
100
AcDbEntity
100
AcDbBlockEnd
  0
BLOCK
  5
1C0
100
AcDbEntity
  8
0
100
AcDbBlockBegin
  2
CDWK_PTTYP17
 70
     0
 10
0.0
 20
0.0
 30
0.0
  3
CDWK_PTTYP17
  1

  4
Cadwork node
  0
CIRCLE
  5
1C1
100
AcDbEntity
  8
0
 62
     0
370
    -2
100
AcDbCircle
 10
0.0
 20
0.0
 30
0.0
 40
0.5
  0
HATCH
  5
1C2
100
AcDbEntity
  8
0
 62
     0
370
    -2
100
AcDbHatch
 10
0.0
 20
0.0
 30
0.0
210
0.0
220
0.0
230
1.0
  2
SOLID
 70
     1
 71
     0
 91
        1
 92
        1
 93
        1
 72
     2
 10
0.0
 20
0.0
 40
0.25
 50
0.0
 51
360.0
 73
     1
 97
        0
 75
     0
 76
     1
 98
        1
 10
0.0
 20
0.0
  0
ENDBLK
  5
1C3
100
AcDbEntity
100
AcDbBlockEnd
  0
BLOCK
  5
1C4
100
AcDbEntity
  8
0
100
AcDbBlockBegin
  2
CDWK_PTTYP18
 70
     0
 10
0.0
 20
0.0
 30
0.0
  3
CDWK_PTTYP18
  1

  4
Cadwork node
  0
CIRCLE
  5
1C5
100
AcDbEntity
  8
0
 62
     0
370
    -2
100
AcDbCircle
 10
0.0
 20
0.0
 30
0.0
 40
0.5
  0
CIRCLE
  5
1C6
100
AcDbEntity
  8
0
 62
     0
370
    -2
100
AcDbCircle
 10
0.0
 20
0.0
 30
0.0
 40
0.2
  0
ENDBLK
  5
1C7
100
AcDbEntity
100
AcDbBlockEnd
  0
BLOCK
  5
1C8
100
AcDbEntity
  8
0
100
AcDbBlockBegin
  2
CDWK_PTTYP19
 70
     0
 10
0.0
 20
0.0
 30
0.0
  3
CDWK_PTTYP19
  1

  4
Cadwork node
  0
CIRCLE
  5
1C9
100
AcDbEntity
  8
0
 62
     0
370
    -2
100
AcDbCircle
 10
0.0
 20
0.0
 30
0.0
 40
0.4
  0
CIRCLE
  5
1CA
100
AcDbEntity
  8
0
 62
     0
370
    -2
100
AcDbCircle
 10
0.0
 20
0.0
 30
0.0
 40
0.25
  0
LINE
  5
1CB
100
AcDbEntity
  8
0
 62
     0
370
    -2
100
AcDbLine
 10
-0.25
 20
0.0
 30
0.0
 11
0.25
 21
0.0
 31
0.0
  0
ENDBLK
  5
1CC
100
AcDbEntity
100
AcDbBlockEnd
  0
BLOCK
  5
1CD
100
AcDbEntity
  8
0
100
AcDbBlockBegin
  2
CDWK_PTTYP20
 70
     0
 10
0.0
 20
0.0
 30
0.0
  3
CDWK_PTTYP20
  1

  4
Cadwork node
  0
CIRCLE
  5
1CE
100
AcDbEntity
  8
0
 62
     0
370
    -2
100
AcDbCircle
 10
0.0
 20
0.0
 30
0.0
 40
0.5
  0
CIRCLE
  5
1CF
100
AcDbEntity
  8
0
 62
     0
370
    -2
100
AcDbCircle
 10
0.0
 20
0.0
 30
0.0
 40
0.3
  0
ENDBLK
  5
1D0
100
AcDbEntity
100
AcDbBlockEnd
  0
BLOCK
  5
1D1
100
AcDbEntity
  8
0
100
AcDbBlockBegin
  2
CDWK_PTTYP21
 70
     0
 10
0.0
 20
0.0
 30
0.0
  3
CDWK_PTTYP21
  1

  4
Cadwork node
  0
CIRCLE
  5
1D2
100
AcDbEntity
  8
0
 62
     0
370
    -2
100
AcDbCircle
 10
0.0
 20
0.0
 30
0.0
 40
0.5
  0
LINE
  5
1D3
100
AcDbEntity
  8
0
 62
     0
370
    -2
100
AcDbLine
 10
-0.5
 20
0.0
 30
0.0
 11
0.5
 21
0.0
 31
0.0
  0
ENDBLK
  5
1D4
100
AcDbEntity
100
AcDbBlockEnd
  0
BLOCK
  5
1D5
100
AcDbEntity
  8
0
100
AcDbBlockBegin
  2
CDWK_PTTYP22
 70
     0
 10
0.0
 20
0.0
 30
0.0
  3
CDWK_PTTYP22
  1

  4
Cadwork node
  0
POINT
  5
1D6
100
AcDbEntity
  8
0
 62
     0
100
AcDbPoint
 10
0.0
 20
0.0
 30
0.0
  0
ENDBLK
  5
1D7
100
AcDbEntity
100
AcDbBlockEnd
  0
BLOCK
  5
1D8
100
AcDbEntity
  8
0
100
AcDbBlockBegin
  2
CDWK_PTTYP23
 70
     0
 10
0.0
 20
0.0
 30
0.0
  3
CDWK_PTTYP23
  1

  4
Cadwork node
  0
POINT
  5
1D9
100
AcDbEntity
  8
0
 62
     0
100
AcDbPoint
 10
0.0
 20
0.0
 30
0.0
  0
ENDBLK
  5
1DA
100
AcDbEntity
100
AcDbBlockEnd
  0
BLOCK
  5
1DB
100
AcDbEntity
  8
0
100
AcDbBlockBegin
  2
CDWK_PTTYP24
 70
     0
 10
0.0
 20
0.0
 30
0.0
  3
CDWK_PTTYP24
  1

  4
Cadwork node
  0
POINT
  5
1DC
100
AcDbEntity
  8
0
 62
     0
100
AcDbPoint
 10
0.0
 20
0.0
 30
0.0
  0
ENDBLK
  5
1DD
100
AcDbEntity
100
AcDbBlockEnd
  0
BLOCK
  5
1DE
100
AcDbEntity
  8
0
100
AcDbBlockBegin
  2
CDWK_PTTYP25
 70
     0
 10
0.0
 20
0.0
 30
0.0
  3
CDWK_PTTYP25
  1

  4
Cadwork node
  0
LINE
  5
1DF
100
AcDbEntity
  8
0
 62
     0
370
    -2
100
AcDbLine
 10
-0.43290044
 20
-0.25
 30
0.0
 11
0.43290044
 21
-0.25
 31
0.0
  0
LINE
  5
1E0
100
AcDbEntity
  8
0
 62
     0
370
    -2
100
AcDbLine
 10
-0.43290044
 20
-0.25
 30
0.0
 11
0.0
 21
0.5
 31
0.0
  0
LINE
  5
1E1
100
AcDbEntity
  8
0
 62
     0
370
    -2
100
AcDbLine
 10
0.43290044
 20
-0.25
 30
0.0
 11
0.0
 21
0.5
 31
0.0
  0
CIRCLE
  5
1E2
100
AcDbEntity
  8
0
 62
     0
370
    -2
100
AcDbCircle
 10
0.0
 20
0.0
 30
0.0
 40
0.5
  0
ENDBLK
  5
1E3
100
AcDbEntity
100
AcDbBlockEnd
  0
BLOCK
  5
1E4
100
AcDbEntity
  8
0
100
AcDbBlockBegin
  2
CDWK_PTTYP26
 70
     0
 10
0.0
 20
0.0
 30
0.0
  3
CDWK_PTTYP26
  1

  4
Cadwork node
  0
LINE
  5
1E5
100
AcDbEntity
  8
0
 62
     0
370
    -2
100
AcDbLine
 10
-0.5
 20
-0.28850001
 30
0.0
 11
0.5
 21
-0.28850001
 31
0.0
  0
LINE
  5
1E6
100
AcDbEntity
  8
0
 62
     0
370
    -2
100
AcDbLine
 10
-0.5
 20
-0.28850001
 30
0.0
 11
0.0
 21
0.57736721
 31
0.0
  0
LINE
  5
1E7
100
AcDbEntity
  8
0
 62
     0
370
    -2
100
AcDbLine
 10
0.5
 20
-0.28850001
 30
0.0
 11
0.0
 21
0.57736721
 31
0.0
  0
CIRCLE
  5
1E8
100
AcDbEntity
  8
0
 62
     0
370
    -2
100
AcDbCircle
 10
0.0
 20
0.0
 30
0.0
 40
0.1312336
  0
ENDBLK
  5
1E9
100
AcDbEntity
100
AcDbBlockEnd
  0
BLOCK
  5
1EA
100
AcDbEntity
  8
0
100
AcDbBlockBegin
  2
CDWK_PTTYP27
 70
     0
 10
0.0
 20
0.0
 30
0.0
  3
CDWK_PTTYP27
  1

  4
Cadwork node
  0
LINE
  5
1EB
100
AcDbEntity
  8
0
 62
     0
370
    -2
100
AcDbLine
 10
-0.43290044
 20
-0.25
 30
0.0
 11
0.43290044
 21
-0.25
 31
0.0
  0
LINE
  5
1EC
100
AcDbEntity
  8
0
 62
     0
370
    -2
100
AcDbLine
 10
-0.43290044
 20
-0.25
 30
0.0
 11
0.0
 21
0.5
 31
0.0
  0
LINE
  5
1ED
100
AcDbEntity
  8
0
 62
     0
370
    -2
100
AcDbLine
 10
0.43290044
 20
-0.25
 30
0.0
 11
0.0
 21
0.5
 31
0.0
  0
CIRCLE
  5
1EE
100
AcDbEntity
  8
0
 62
     0
370
    -2
100
AcDbCircle
 10
0.0
 20
0.0
 30
0.0
 40
0.5
  0
CIRCLE
  5
1EF
100
AcDbEntity
  8
0
 62
     0
370
    -2
100
AcDbCircle
 10
0.0
 20
0.0
 30
0.0
 40
0.1312336
  0
ENDBLK
  5
1F0
100
AcDbEntity
100
AcDbBlockEnd
  0
BLOCK
  5
1F1
100
AcDbEntity
  8
0
100
AcDbBlockBegin
  2
CDWK_PTTYP28
 70
     0
 10
0.0
 20
0.0
 30
0.0
  3
CDWK_PTTYP28
  1

  4
Cadwork node
  0
POINT
  5
1F2
100
AcDbEntity
  8
0
 62
     0
100
AcDbPoint
 10
0.0
 20
0.0
 30
0.0
  0
ENDBLK
  5
1F3
100
AcDbEntity
100
AcDbBlockEnd
  0
BLOCK
  5
1F4
100
AcDbEntity
  8
0
100
AcDbBlockBegin
  2
CDWK_PTTYP29
 70
     0
 10
0.0
 20
0.0
 30
0.0
  3
CDWK_PTTYP29
  1

  4
Cadwork node
  0
CIRCLE
  5
1F5
100
AcDbEntity
  8
0
 62
     0
370
    -2
100
AcDbCircle
 10
0.0
 20
0.0
 30
0.0
 40
0.5
  0
CIRCLE
  5
1F6
100
AcDbEntity
  8
0
 62
     0
370
    -2
100
AcDbCircle
 10
0.0
 20
0.0
 30
0.0
 40
0.375
  0
CIRCLE
  5
1F7
100
AcDbEntity
  8
0
 62
     0
370
    -2
100
AcDbCircle
 10
0.0
 20
0.0
 30
0.0
 40
0.21875
  0
ENDBLK
  5
1F8
100
AcDbEntity
100
AcDbBlockEnd
  0
BLOCK
  5
1F9
100
AcDbEntity
  8
0
100
AcDbBlockBegin
  2
CDWK_PTTYP30
 70
     0
 10
0.0
 20
0.0
 30
0.0
  3
CDWK_PTTYP30
  1

  4
Cadwork node
  0
LINE
  5
1FA
100
AcDbEntity
  8
0
 62
     0
370
    -2
100
AcDbLine
 10
0.17680339
 20
0.17680339
 30
0.0
 11
0.5
 21
0.5
 31
0.0
  0
LINE
  5
1FB
100
AcDbEntity
  8
0
 62
     0
370
    -2
100
AcDbLine
 10
-0.17680339
 20
0.17680339
 30
0.0
 11
-0.5
 21
0.5
 31
0.0
  0
LINE
  5
1FC
100
AcDbEntity
  8
0
 62
     0
370
    -2
100
AcDbLine
 10
0.17680339
 20
-0.17680339
 30
0.0
 11
0.5
 21
-0.5
 31
0.0
  0
LINE
  5
1FD
100
AcDbEntity
  8
0
 62
     0
370
    -2
100
AcDbLine
 10
-0.17680339
 20
-0.17680339
 30
0.0
 11
-0.5
 21
-0.5
 31
0.0
  0
ENDBLK
  5
1FE
100
AcDbEntity
100
AcDbBlockEnd
  0
BLOCK
  5
1FF
100
AcDbEntity
  8
0
100
AcDbBlockBegin
  2
CDWK_PTTYP31
 70
     0
 10
0.0
 20
0.0
 30
0.0
  3
CDWK_PTTYP31
  1

  4
Cadwork node
  0
CIRCLE
  5
200
100
AcDbEntity
  8
0
 62
     0
370
    -2
100
AcDbCircle
 10
0.0
 20
0.0
 30
0.0
 40
0.075
  0
LINE
  5
201
100
AcDbEntity
  8
0
 62
     0
370
    -2
100
AcDbLine
 10
0.075
 20
0.0
 30
0.0
 11
0.5
 21
0.0
 31
0.0
  0
LINE
  5
202
100
AcDbEntity
  8
0
 62
     0
370
    -2
100
AcDbLine
 10
-0.075
 20
0.0
 30
0.0
 11
-0.5
 21
0.0
 31
0.0
  0
LINE
  5
203
100
AcDbEntity
  8
0
 62
     0
370
    -2
100
AcDbLine
 10
0.0
 20
0.075
 30
0.0
 11
0.0
 21
0.5
 31
0.0
  0
LINE
  5
204
100
AcDbEntity
  8
0
 62
     0
370
    -2
100
AcDbLine
 10
0.0
 20
-0.075
 30
0.0
 11
0.0
 21
-0.5
 31
0.0
  0
ENDBLK
  5
205
100
AcDbEntity
100
AcDbBlockEnd
  0
BLOCK
  5
206
100
AcDbEntity
  8
0
100
AcDbBlockBegin
  2
CDWK_PTTYP32
 70
     0
 10
0.0
 20
0.0
 30
0.0
  3
CDWK_PTTYP32
  1

  4
Cadwork node
  0
CIRCLE
  5
207
100
AcDbEntity
  8
0
 62
     0
370
    -2
100
AcDbCircle
 10
0.0
 20
0.0
 30
0.0
 40
0.5
  0
CIRCLE
  5
208
100
AcDbEntity
  8
0
 62
     0
370
    -2
100
AcDbCircle
 10
0.0
 20
0.0
 30
0.0
 40
0.16666667
  0
LINE
  5
209
100
AcDbEntity
  8
0
 62
     0
370
    -2
100
AcDbLine
 10
0.11786893
 20
0.11786893
 30
0.0
 11
0.35360678
 21
0.35360678
 31
0.0
  0
LINE
  5
20A
100
AcDbEntity
  8
0
 62
     0
370
    -2
100
AcDbLine
 10
-0.11786893
 20
0.11786893
 30
0.0
 11
-0.35360678
 21
0.35360678
 31
0.0
  0
LINE
  5
20B
100
AcDbEntity
  8
0
 62
     0
370
    -2
100
AcDbLine
 10
0.11786893
 20
-0.11786893
 30
0.0
 11
0.35360678
 21
-0.35360678
 31
0.0
  0
LINE
  5
20C
100
AcDbEntity
  8
0
 62
     0
370
    -2
100
AcDbLine
 10
-0.11786893
 20
-0.11786893
 30
0.0
 11
-0.35360678
 21
-0.35360678
 31
0.0
  0
ENDBLK
  5
20D
100
AcDbEntity
100
AcDbBlockEnd
  0
BLOCK
  5
20E
100
AcDbEntity
  8
0
100
AcDbBlockBegin
  2
CDWK_PTTYP33
 70
     0
 10
0.0
 20
0.0
 30
0.0
  3
CDWK_PTTYP33
  1

  4
Cadwork node
  0
CIRCLE
  5
20F
100
AcDbEntity
  8
0
 62
     0
370
    -2
100
AcDbCircle
 10
0.0
 20
0.0
 30
0.0
 40
0.5
  0
LINE
  5
210
100
AcDbEntity
  8
0
 62
     0
370
    -2
100
AcDbLine
 10
0.0
 20
0.5
 30
0.0
 11
0.0
 21
-0.5
 31
0.0
  0
LINE
  5
211
100
AcDbEntity
  8
0
 62
     0
370
    -2
100
AcDbLine
 10
-0.5
 20
0.0
 30
0.0
 11
0.5
 21
0.0
 31
0.0
  0
ENDBLK
  5
212
100
AcDbEntity
100
AcDbBlockEnd
  0
BLOCK
  5
213
100
AcDbEntity
  8
0
100
AcDbBlockBegin
  2
CDWK_PTTYP34
 70
     0
 10
0.0
 20
0.0
 30
0.0
  3
CDWK_PTTYP34
  1

  4
Cadwork node
  0
CIRCLE
  5
214
100
AcDbEntity
  8
0
 62
     0
370
    -2
100
AcDbCircle
 10
0.0
 20
0.0
 30
0.0
 40
0.5
  0
LINE
  5
215
100
AcDbEntity
  8
0
 62
     0
370
    -2
100
AcDbLine
 10
-0.30360678
 20
-0.40360678
 30
0.0
 11
0.40360678
 21
0.30360678
 31
0.0
  0
LINE
  5
216
100
AcDbEntity
  8
0
 62
     0
370
    -2
100
AcDbLine
 10
-0.40360678
 20
-0.30360678
 30
0.0
 11
0.30360678
 21
0.40360678
 31
0.0
  0
ENDBLK
  5
217
100
AcDbEntity
100
AcDbBlockEnd
  0
BLOCK
  5
218
100
AcDbEntity
  8
0
100
AcDbBlockBegin
  2
CDWK_PTTYP35
 70
     0
 10
0.0
 20
0.0
 30
0.0
  3
CDWK_PTTYP35
  1

  4
Cadwork node
  0
CIRCLE
  5
219
100
AcDbEntity
  8
0
 62
     0
370
    -2
100
AcDbCircle
 10
0.0
 20
0.0
 30
0.0
 40
0.21431634
  0
LINE
  5
21A
100
AcDbEntity
  8
0
 62
     0
370
    -2
100
AcDbLine
 10
0.0
 20
0.21431634
 30
0.0
 11
0.0
 21
0.5
 31
0.0
  0
LINE
  5
21B
100
AcDbEntity
  8
0
 62
     0
370
    -2
100
AcDbLine
 10
0.0
 20
-0.21431634
 30
0.0
 11
0.0
 21
-0.5
 31
0.0
  0
ENDBLK
  5
21C
100
AcDbEntity
100
AcDbBlockEnd
  0
BLOCK
  5
21D
100
AcDbEntity
  8
0
100
AcDbBlockBegin
  2
CDWK_PTTYP36
 70
     0
 10
0.0
 20
0.0
 30
0.0
  3
CDWK_PTTYP36
  1

  4
Cadwork node
  0
LINE
  5
21E
100
AcDbEntity
  8
0
 62
     0
370
    -2
100
AcDbLine
 10
-0.5
 20
-0.16666667
 30
0.0
 11
0.5
 21
-0.16666667
 31
0.0
  0
LINE
  5
21F
100
AcDbEntity
  8
0
 62
     0
370
    -2
100
AcDbLine
 10
0.5
 20
-0.16666667
 30
0.0
 11
0.5
 21
0.16666667
 31
0.0
  0
LINE
  5
220
100
AcDbEntity
  8
0
 62
     0
370
    -2
100
AcDbLine
 10
0.5
 20
0.16666667
 30
0.0
 11
-0.5
 21
0.16666667
 31
0.0
  0
LINE
  5
221
100
AcDbEntity
  8
0
 62
     0
370
    -2
100
AcDbLine
 10
-0.5
 20
0.16666667
 30
0.0
 11
-0.5
 21
-0.16666667
 31
0.0
  0
SOLID
  5
222
100
AcDbEntity
  8
0
 62
     0
100
AcDbTrace
 10
-0.5
 20
-0.16666667
 11
0.5
 21
0.16666667
 12
0.5
 22
-0.16666667
 13
0.5
 23
-0.16666667
  0
ENDBLK
  5
223
100
AcDbEntity
100
AcDbBlockEnd
  0
BLOCK
  5
224
100
AcDbEntity
  8
0
100
AcDbBlockBegin
  2
CDWK_PTTYP37
 70
     0
 10
0.0
 20
0.0
 30
0.0
  3
CDWK_PTTYP37
  1

  4
Cadwork node
  0
CIRCLE
  5
225
100
AcDbEntity
  8
0
 62
     0
370
    -2
100
AcDbCircle
 10
0.0
 20
0.0
 30
0.0
 40
0.5
  0
SOLID
  5
226
100
AcDbEntity
  8
0
 62
     0
100
AcDbTrace
 10
0.0
 20
0.0
 11
0.35350001
 21
0.35350001
 12
0.5
 22
0.0
 13
0.46200001
 23
0.19149999
  0
SOLID
  5
227
100
AcDbEntity
  8
0
 62
     0
100
AcDbTrace
 10
0.0
 20
0.0
 11
0.35350001
 21
-0.35350001
 12
0.5
 22
0.0
 13
0.46200001
 23
-0.19149999
  0
SOLID
  5
228
100
AcDbEntity
  8
0
 62
     0
100
AcDbTrace
 10
0.0
 20
0.0
 11
0.0
 21
-0.5
 12
0.35350001
 22
-0.35350001
 13
0.19149999
 23
-0.46200001
  0
SOLID
  5
229
100
AcDbEntity
  8
0
 62
     0
100
AcDbTrace
 10
0.0
 20
0.0
 11
0.0
 21
-0.5
 12
-0.35350001
 22
-0.35350001
 13
-0.19149999
 23
-0.46200001
  0
ENDBLK
  5
22A
100
AcDbEntity
100
AcDbBlockEnd
  0
BLOCK
  5
22B
100
AcDbEntity
  8
0
100
AcDbBlockBegin
  2
CDWK_PTTYP38
 70
     0
 10
0.0
 20
0.0
 30
0.0
  3
CDWK_PTTYP38
  1

  4
Cadwork node
  0
CIRCLE
  5
22C
100
AcDbEntity
  8
0
 62
     0
370
    -2
100
AcDbCircle
 10
0.0
 20
0.0
 30
0.0
 40
0.5
  0
SOLID
  5
22D
100
AcDbEntity
  8
0
 62
     0
100
AcDbTrace
 10
0.0
 20
0.0
 11
0.35350001
 21
0.35350001
 12
0.0
 22
0.5
 13
0.19149999
 23
0.46200001
  0
SOLID
  5
22E
100
AcDbEntity
  8
0
 62
     0
100
AcDbTrace
 10
0.0
 20
0.0
 11
0.5
 21
0.0
 12
0.35350001
 22
0.35350001
 13
0.46200001
 23
0.19149999
  0
SOLID
  5
22F
100
AcDbEntity
  8
0
 62
     0
100
AcDbTrace
 10
0.0
 20
0.0
 11
0.0
 21
-0.5
 12
-0.35350001
 22
-0.35350001
 13
-0.19149999
 23
-0.46200001
  0
SOLID
  5
230
100
AcDbEntity
  8
0
 62
     0
100
AcDbTrace
 10
0.0
 20
0.0
 11
-0.5
 21
0.0
 12
-0.35350001
 22
-0.35350001
 13
-0.46200001
 23
-0.19149999
  0
ENDBLK
  5
231
100
AcDbEntity
100
AcDbBlockEnd
  0
BLOCK
  5
232
100
AcDbEntity
  8
Ech.1_5
100
AcDbBlockBegin
  2
*D5
 70
     1
 10
0.0
 20
0.0
 30
0.0
  3
*D5
  1

  4
Cadwork dimension
  0
TEXT
  5
233
100
AcDbEntity
  8
Ech.1_5
 62
   190
370
    18
100
AcDbText
 10
29815.22159872
 20
-24402.71182148
 30
0.0
 40
25.0
  1
2/3*
  7
ARIAL
 50
289.99999193
 41
1.0
 51
0.0
100
AcDbText
  0
LINE
  5
234
100
AcDbEntity
  8
Ech.1_5
 62
   190
370
    -2
100
AcDbLine
 10
29782.4749271
 20
-24312.74108066
 30
0.0
 11
29493.86190865
 21
-24417.78762859
 31
0.0
  0
LINE
  5
235
100
AcDbEntity
  8
Ech.1_5
 62
   190
370
    -2
100
AcDbLine
 10
29857.71935863
 20
-24519.47345723
 30
0.0
 11
29569.10634018
 21
-24624.52000517
 31
0.0
  0
LINE
  5
236
100
AcDbEntity
  8
Ech.1_5
 62
   190
370
    -2
100
AcDbLine
 10
29776.06636328
 20
-24309.75271827
 30
0.0
 11
29854.73099625
 21
-24525.88202105
 31
0.0
  0
LINE
  5
237
100
AcDbEntity
  8
Ech.1_5
 62
   190
370
    -2
100
AcDbLine
 10
29774.57218209
 20
-24312.95700018
 30
0.0
 11
29780.98074591
 21
-24315.94536257
 31
0.0
  0
LINE
  5
238
100
AcDbEntity
  8
Ech.1_5
 62
   190
370
    -2
100
AcDbLine
 10
29849.81661362
 20
-24519.68937675
 30
0.0
 11
29856.22517744
 21
-24522.67773914
 31
0.0
  0
ENDBLK
  5
239
100
AcDbEntity
100
AcDbBlockEnd
  0
BLOCK
  5
23A
100
AcDbEntity
  8
Ech.1_5
100
AcDbBlockBegin
  2
*D6
 70
     1
 10
0.0
 20
0.0
 30
0.0
  3
*D6
  1

  4
Cadwork dimension
  0
TEXT
  5
23B
100
AcDbEntity
  8
Ech.1_5
 62
   190
370
    18
100
AcDbText
 10
29879.00836705
 20
-24577.9645277
 30
0.0
 40
25.0
  1
1/3*
  7
ARIAL
 50
289.99999193
 41
1.0
 51
0.0
100
AcDbText
  0
LINE
  5
23C
100
AcDbEntity
  8
Ech.1_5
 62
   190
370
    -2
100
AcDbLine
 10
29857.71935863
 20
-24519.47345723
 30
0.0
 11
29569.10634018
 21
-24624.52000517
 31
0.0
  0
LINE
  5
23D
100
AcDbEntity
  8
Ech.1_5
 62
   190
370
    -2
100
AcDbLine
 10
29910.04846377
 20
-24663.24649309
 30
0.0
 11
29874.87012424
 21
-24676.0503621
 31
0.0
  0
LINE
  5
23E
100
AcDbEntity
  8
Ech.1_5
 62
   190
370
    -2
100
AcDbLine
 10
29851.31079482
 20
-24516.48509484
 30
0.0
 11
29907.06010137
 21
-24669.65505692
 31
0.0
  0
LINE
  5
23F
100
AcDbEntity
  8
Ech.1_5
 62
   190
370
    -2
100
AcDbLine
 10
29849.81661362
 20
-24519.68937675
 30
0.0
 11
29856.22517744
 21
-24522.67773915
 31
0.0
  0
LINE
  5
240
100
AcDbEntity
  8
Ech.1_5
 62
   190
370
    -2
100
AcDbLine
 10
29902.14571876
 20
-24663.46241261
 30
0.0
 11
29908.55428257
 21
-24666.45077501
 31
0.0
  0
ENDBLK
  5
241
100
AcDbEntity
100
AcDbBlockEnd
  0
ENDSEC
  0
SECTION
  2
ENTITIES
  0
LWPOLYLINE
  5
242
100
AcDbEntity
  8
Ech.1_5
 62
   190
  6
CONTINUOUS
370
    -3
100
AcDbPolyline
 90
        4
 70
     1
 43
0.0
 10
29704.52040447
 20
-24255.97998472
 10
28980.21543688
 20
-24519.60543346
 10
29009.07443853
 20
-24594.23583766
 10
29733.37940613
 20
-24330.61038893
  0
LWPOLYLINE
  5
243
100
AcDbEntity
  8
Ech.1_5
 62
   190
  6
CONTINUOUS
370
    -3
100
AcDbPolyline
 90
       17
 70
     1
 43
0.0
 10
29190.36333905
 20
-24410.34196548
 10
29214.09600335
 20
-24403.97622864
 10
29201.49174469
 20
-24351.78042169
 10
29192.04732622
 20
-24354.06106261
 10
29194.62502575
 20
-24364.73563781
 10
29177.67250542
 20
-24368.82933736
 10
29175.09480589
 20
-24358.15476215
 10
29165.65038743
 20
-24360.43540307
 10
29168.22808696
 20
-24371.10997828
 10
29145.16173817
 20
-24376.6800469
 10
29144.74028291
 20
-24374.93474807
 10
29144.69233331
 20
-24374.94632695
 10
29135.65000059
 20
-24337.50089954
 10
29131.98328874
 20
-24322.31658848
 10
28923.40235112
 20
-24372.68477402
 10
28953.12965611
 20
-24449.56064151
 10
29184.25442429
 20
-24387.5667822
  0
LWPOLYLINE
  5
244
100
AcDbEntity
  8
Ech.1_5
 62
   190
  6
CONTINUOUS
370
    -3
100
AcDbPolyline
 90
        4
 70
     1
 43
0.0
 10
29694.78047402
 20
-24230.7921783
 10
28970.47551483
 20
-24494.41764881
 10
28980.21543688
 20
-24519.60543346
 10
29703.97929819
 20
-24254.58066464
  0
LINE
  5
245
100
AcDbEntity
  8
Ech.1_5
 62
   190
  6
CONTINUOUS
370
    -3
100
AcDbLine
 10
28943.75441897
 20
-24425.31594498
 30
0.0
 11
29145.11378857
 21
-24376.69162578
 31
0.0
  0
LINE
  5
246
100
AcDbEntity
  8
Ech.1_5
 62
     7
100
AcDbLine
 10
29135.65000059
 20
-24337.50089954
 30
0.0
 11
29483.72154251
 21
-24253.44848226
 31
0.0
  0
LWPOLYLINE
  5
247
100
AcDbEntity
  8
Ech.1_5
 62
   190
  6
CONTINUOUS
370
    -3
100
AcDbPolyline
 90
       23
 70
     0
 43
0.0
 10
29530.65508016
 20
-24230.81791908
 10
29540.09949862
 20
-24228.53727816
 10
29552.70375728
 20
-24280.73308511
 10
29528.97109299
 20
-24287.09882196
 10
29522.86217823
 20
-24264.32363867
 10
29189.01767348
 20
-24353.86968527
 10
29191.20090599
 20
-24362.91072338
 10
29180.74170817
 20
-24365.71616065
 10
29178.24629105
 20
-24355.38232716
 10
29162.46163398
 20
-24359.55314523
 10
29164.99488665
 20
-24370.04366046
 10
29144.69233331
 20
-24374.94632695
 10
29135.65000059
 20
-24337.50089954
 10
29127.75578535
 20
-24304.80996973
 42
-0.41421356
 10
29144.20360825
 20
-24277.88957764
 10
29470.63899227
 20
-24199.06186607
 10
29483.76949211
 20
-24253.43690337
 10
29506.83584089
 20
-24247.86683475
 10
29504.25814136
 20
-24237.19225955
 10
29513.70255983
 20
-24234.91161863
 10
29516.28025936
 20
-24245.58619383
 10
29533.23277969
 20
-24241.49249429
 10
29530.65508016
 20
-24230.81791908
  0
LINE
  5
248
100
AcDbEntity
  8
Ech.1_5
 62
   190
  6
CONTINUOUS
370
    -3
100
AcDbLine
 10
29135.64282546
 20
-24337.50263219
 30
0.0
 11
29483.71436738
 21
-24253.45021491
 31
0.0
  0
LWPOLYLINE
  5
249
100
AcDbEntity
  8
Ech.1_5
 62
   190
  6
CONTINUOUS
370
    -3
100
AcDbPolyline
 90
        6
 70
     1
 43
0.0
 10
29519.14210255
 20
-24265.87689459
 10
29528.36315186
 20
-24291.21151936
 10
29490.77682359
 20
-24304.89610717
 10
29485.05031685
 20
-24289.16265921
 10
29481.55439772
 20
-24279.55770032
 10
29485.05031685
 20
-24278.28528981
  0
LWPOLYLINE
  5
24A
100
AcDbEntity
  8
Ech.1_5
 62
   190
  6
CONTINUOUS
370
    -3
100
AcDbPolyline
 90
       24
 70
     1
 43
0.0
 10
29528.97109299
 20
-24287.09882196
 10
29552.70375728
 20
-24280.73308511
 10
29540.09949862
 20
-24228.53727816
 10
29530.65508016
 20
-24230.81791908
 10
29533.23277969
 20
-24241.49249429
 10
29516.28025936
 20
-24245.58619383
 10
29513.70255983
 20
-24234.91161863
 10
29504.25814136
 20
-24237.19225955
 10
29506.83584089
 20
-24247.86683475
 10
29483.76949211
 20
-24253.43690337
 10
29471.70261322
 20
-24203.46645306
 10
29452.39904826
 20
-24203.46645306
 10
29144.20360825
 20
-24277.88957764
 42
0.41421356
 10
29127.75578535
 20
-24304.80996973
 10
29131.98328874
 20
-24322.31658848
 10
29132.03123834
 20
-24322.30500959
 10
29144.74028291
 20
-24374.93474807
 10
29164.99488665
 20
-24370.04366046
 10
29162.46163398
 20
-24359.55314523
 10
29178.24629105
 20
-24355.38232716
 10
29180.74170817
 20
-24365.71616065
 10
29191.20090599
 20
-24362.91072338
 10
29189.01767348
 20
-24353.86968527
 10
29522.86217823
 20
-24264.32363867
  0
LWPOLYLINE
  5
24B
100
AcDbEntity
  8
Ech.1_5
 62
   190
  6
CONTINUOUS
370
    -3
100
AcDbPolyline
 90
        9
 70
     1
 43
0.0
 10
29503.60264058
 20
-24246.80051694
 10
29501.06938791
 20
-24236.31000171
 10
29516.85404498
 20
-24232.13918364
 10
29519.3494621
 20
-24242.47301713
 10
29529.80865993
 20
-24239.66757986
 10
29527.62542741
 20
-24230.62654174
 10
29628.88334667
 20
-24203.46645306
 10
29471.70261322
 20
-24203.46645306
 10
29483.34803684
 20
-24251.69160455
  0
LWPOLYLINE
  5
24C
100
AcDbEntity
  8
Ech.1_5
 62
   190
  6
CONTINUOUS
370
    -3
100
AcDbPolyline
 90
        4
 70
     1
 43
0.0
 10
29180.54152374
 20
-24389.11830546
 10
29142.95381891
 20
-24402.79911119
 10
29152.18836278
 20
-24428.17081195
 10
29189.77469105
 20
-24414.48622415
  0
LWPOLYLINE
  5
24D
100
AcDbEntity
  8
Ech.1_5
 62
   190
  6
CONTINUOUS
370
    -3
100
AcDbPolyline
 90
        4
 70
     0
 43
0.0
 10
29180.50344369
 20
-24389.17075539
 10
29152.15028273
 20
-24428.22326188
 10
29189.73798756
 20
-24414.54245615
 10
29142.91573886
 20
-24402.85156112
  0
LWPOLYLINE
  5
24E
100
AcDbEntity
  8
Ech.1_5
 62
   190
  6
CONTINUOUS
370
    -3
100
AcDbPolyline
 90
        4
 70
     0
 43
0.0
 10
29519.1040225
 20
-24265.92934452
 10
29490.75086154
 20
-24304.98185101
 10
29528.33856637
 20
-24291.30104528
 10
29481.51631767
 20
-24279.61015025
  0
LWPOLYLINE
  5
24F
100
AcDbEntity
  8
Ech.1_5
 62
   190
  6
CONTINUOUS
370
    -3
100
AcDbPolyline
 90
        4
 70
     0
 43
0.0
 10
28970.47551483
 20
-24494.41764881
 10
29694.78047402
 20
-24230.7921783
 10
29703.97929819
 20
-24254.58066464
 10
28980.21543688
 20
-24519.60543346
  0
LWPOLYLINE
  5
250
100
AcDbEntity
  8
Ech.1_5
 62
   190
100
AcDbPolyline
 90
        5
 70
     0
 43
0.0
 10
28925.13509061
 20
-25095.49804193
 10
29059.5638696
 20
-25095.49804193
 10
29059.5638696
 20
-25152.22100074
 10
28925.13509061
 20
-25152.22100074
 10
28925.13509061
 20
-25095.49804193
  0
LWPOLYLINE
  5
251
100
AcDbEntity
  8
Ech.1_5
 62
   190
100
AcDbPolyline
 90
        5
 70
     0
 43
0.0
 10
28943.4151364
 20
-25129.15485305
 10
28993.4151364
 20
-25129.15485305
 10
28993.4151364
 20
-25121.73971552
 10
28943.4151364
 20
-25121.73971552
 10
28943.4151364
 20
-25129.15485305
  0
HATCH
  5
252
100
AcDbEntity
  8
Ech.1_5
 62
   190
100
AcDbHatch
 10
0.0
 20
0.0
 30
0.0
210
0.0
220
0.0
230
1.0
  2
SOLID
 70
     1
 71
     0
 91
        1
 92
        7
 72
     0
 73
     1
 93
        4
 10
28943.4151364
 20
-25129.15485305
 10
28993.4151364
 20
-25129.15485305
 10
28993.4151364
 20
-25121.73971552
 10
28943.4151364
 20
-25121.73971552
 97
        0
 75
     0
 76
     2
 47
0.775229
 98
        1
 10
0.0
 20
0.0
  0
LWPOLYLINE
  5
253
100
AcDbEntity
  8
Ech.1_5
 62
   190
100
AcDbPolyline
 90
        5
 70
     0
 43
0.0
 10
28993.4151364
 20
-25129.15485305
 10
29043.4151364
 20
-25129.15485305
 10
29043.4151364
 20
-25121.73971552
 10
28993.4151364
 20
-25121.73971552
 10
28993.4151364
 20
-25129.15485305
  0
LWPOLYLINE
  5
254
100
AcDbEntity
  8
Ech.1_5
 62
     5
  6
CONTINUOUS
370
    -3
100
AcDbPolyline
 90
        5
 70
     0
 43
0.0
 10
29142.95381891
 20
-24402.79911119
 10
29180.54152374
 20
-24389.11830546
 10
29189.77606761
 20
-24414.49000622
 10
29152.18836278
 20
-24428.17081195
 10
29142.95381891
 20
-24402.79911119
  0
LWPOLYLINE
  5
255
100
AcDbEntity
  8
Ech.1_5
 62
     5
  6
CONTINUOUS
370
    -3
100
AcDbPolyline
 90
        5
 70
     0
 43
0.0
 10
29481.55439772
 20
-24279.55770032
 10
29519.14210255
 20
-24265.87689459
 10
29528.37664642
 20
-24291.24859535
 10
29490.78894159
 20
-24304.92940108
 10
29481.55439772
 20
-24279.55770032
  0
LWPOLYLINE
  5
256
100
AcDbEntity
  8
Ech.1_5
 62
   190
  6
CONTINUOUS
370
    -3
100
AcDbPolyline
 90
        4
 70
     0
 43
0.0
 10
29009.07443853
 20
-24594.23583766
 10
29733.37940613
 20
-24330.61038893
 10
29704.52040447
 20
-24255.97998472
 10
28980.21543688
 20
-24519.60543346
  0
ARC
  5
257
100
AcDbEntity
  8
Ech.1_5
 62
   190
  6
CONTINUOUS
370
    -3
100
AcDbCircle
 10
28997.91663051
 20
-24619.46685221
 30
0.0
 40
20.00045761
100
AcDbArc
 50
124.66518872
 51
125.79100959
  0
ARC
  5
258
100
AcDbEntity
  8
Ech.1_5
 62
   190
  6
CONTINUOUS
370
    -3
100
AcDbCircle
 10
29103.74312207
 20
-24705.21642568
 30
0.0
 40
16.66620749
100
AcDbArc
 50
128.40061582
 51
138.4089803
  0
LWPOLYLINE
  5
259
100
AcDbEntity
  8
Ech.1_5
 62
     7
  6
CONTINUOUS
370
    -3
100
AcDbPolyline
 90
        4
 70
     1
 43
0.0
 10
29807.30102884
 20
-24537.82428058
 10
29084.4182748
 20
-24800.93332641
 10
29105.93941987
 20
-24856.95096577
 10
29828.31278694
 20
-24594.02729161
  0
LWPOLYLINE
  5
25A
100
AcDbEntity
  8
Ech.1_5
 62
   190
  6
CONTINUOUS
370
    -3
100
AcDbPolyline
 90
        4
 70
     1
 43
0.0
 10
29856.32847209
 20
-24668.96466077
 10
29135.05182347
 20
-24931.48839037
 10
29139.71473608
 20
-24943.62553997
 10
29860.774735
 20
-24681.18066446
  0
LWPOLYLINE
  5
25B
102
{ACAD_REACTORS
330
25C
102
}
100
AcDbEntity
  8
Ech.1_5
 62
     7
  6
CONTINUOUS
370
    -3
100
AcDbPolyline
 90
        4
 70
     1
 43
0.0
 10
29856.32846438
 20
-24668.96463958
 10
29135.05178025
 20
-24931.48827788
 10
29139.71469288
 20
-24943.62542752
 10
29860.77472729
 20
-24681.18064327
  0
HATCH
  5
25C
100
AcDbEntity
  8
Ech.1_5
 62
   190
  6
CONTINUOUS
100
AcDbHatch
 10
0.0
 20
0.0
 30
0.0
210
0.0
220
0.0
230
1.0
  2
DOTS2
 70
     0
 71
     1
 91
        1
 92
        7
 72
     0
 73
     1
 93
        4
 10
29856.32846438
 20
-24668.96463958
 10
29135.05178025
 20
-24931.48827788
 10
29139.71469288
 20
-24943.62542752
 10
29860.77472729
 20
-24681.18064327
 97
        1
330
25B
 75
     0
 76
     2
 52
0.0
 41
4.72440952
 77
     0
 78
     1
 53
0.0
 43
0.0
 44
0.0
 45
3.75
 46
3.535
 79
     2
 49
0.0
 49
-3.535
 47
0.775229
 98
        1
 10
0.0
 20
0.0
  0
LWPOLYLINE
  5
25D
100
AcDbEntity
  8
Ech.1_5
 62
   190
  6
CONTINUOUS
370
    -3
100
AcDbPolyline
 90
        4
 70
     1
 43
0.0
 10
29084.41828524
 20
-24800.93335359
 10
29807.30102884
 20
-24537.82428058
 10
29772.79332849
 20
-24443.96906267
 10
29048.54945066
 20
-24707.56994596
  0
LWPOLYLINE
  5
25E
100
AcDbEntity
  8
Ech.1_5
 62
   190
  6
CONTINUOUS
370
    -3
100
AcDbPolyline
 90
        8
 70
     1
 43
0.0
 10
29048.54945066
 20
-24707.56994596
 10
29772.79332849
 20
-24443.96906267
 10
29751.20442167
 20
-24387.77504545
 10
29757.84448958
 20
-24393.87796447
 10
29733.37940612
 20
-24330.61038893
 10
29009.07443853
 20
-24594.23583766
 10
29044.41742933
 20
-24685.6340683
 10
29037.77736141
 20
-24679.53114928
  0
LWPOLYLINE
  5
25F
100
AcDbEntity
  8
Ech.1_5
 62
   190
  6
CONTINUOUS
370
    -3
100
AcDbPolyline
 90
       78
 70
     0
 43
0.0
 10
29772.17573196
 20
-24442.36151347
 42
-0.63064329
 10
29738.37065773
 20
-24429.70521423
 10
29732.06283904
 20
-24357.88235268
 42
1.30322619
 10
29695.75507642
 20
-24371.09729755
 10
29737.08985246
 20
-24430.17138922
 42
-1.30322619
 10
29700.78208984
 20
-24443.38633409
 10
29694.47427116
 20
-24371.56347254
 42
1.30322619
 10
29658.16650854
 20
-24384.77841741
 10
29699.50128458
 20
-24443.85250908
 42
-1.30322619
 10
29663.19352196
 20
-24457.06745395
 10
29656.88570328
 20
-24385.2445924
 42
1.30322619
 10
29620.57794066
 20
-24398.45953726
 10
29661.9127167
 20
-24457.53362894
 42
-1.30322619
 10
29625.60495408
 20
-24470.7485738
 10
29619.2971354
 20
-24398.92571226
 42
1.30322619
 10
29582.98937278
 20
-24412.14065712
 10
29624.32414882
 20
-24471.2147488
 42
-1.30322619
 10
29588.0163862
 20
-24484.42969366
 10
29581.70856752
 20
-24412.60683211
 42
1.30322619
 10
29545.4008049
 20
-24425.82177698
 10
29586.73558094
 20
-24484.89586865
 42
-1.30322619
 10
29550.42781832
 20
-24498.11081352
 10
29544.11999963
 20
-24426.28795197
 42
1.30322619
 10
29507.81223701
 20
-24439.50289684
 10
29549.14701306
 20
-24498.57698851
 42
-1.30322619
 10
29512.83925044
 20
-24511.79193338
 10
29506.53143175
 20
-24439.96907183
 42
1.30322619
 10
29470.22366913
 20
-24453.18401669
 10
29511.55844518
 20
-24512.25810837
 42
-1.30322619
 10
29475.25068256
 20
-24525.47305323
 10
29468.94286387
 20
-24453.65019169
 42
1.30322619
 10
29432.63510125
 20
-24466.86513655
 10
29473.9698773
 20
-24525.93922823
 42
-1.30322619
 10
29437.66211468
 20
-24539.15417309
 10
29431.35429599
 20
-24467.33131154
 42
1.30322619
 10
29395.04653337
 20
-24480.54625641
 10
29436.38130941
 20
-24539.62034808
 42
-1.30322619
 10
29400.07354679
 20
-24552.83529295
 10
29393.76572811
 20
-24481.0124314
 42
1.30322619
 10
29357.45796549
 20
-24494.22737627
 10
29398.79274153
 20
-24553.30146794
 42
-1.30322619
 10
29362.48497891
 20
-24566.51641281
 10
29356.17716023
 20
-24494.69355126
 42
1.30322619
 10
29319.86939761
 20
-24507.90849612
 10
29361.20417365
 20
-24566.9825878
 42
-1.30322619
 10
29324.89641103
 20
-24580.19753266
 10
29318.58859235
 20
-24508.37467112
 42
1.30322619
 10
29282.28082973
 20
-24521.58961598
 10
29323.61560577
 20
-24580.66370765
 42
-1.30322619
 10
29287.30784315
 20
-24593.87865252
 10
29281.00002447
 20
-24522.05579097
 42
1.30322619
 10
29244.69226185
 20
-24535.27073584
 10
29286.02703789
 20
-24594.34482751
 42
-1.30322619
 10
29249.71927527
 20
-24607.55977238
 10
29243.41145658
 20
-24535.73691083
 42
1.30322619
 10
29207.10369396
 20
-24548.9518557
 10
29248.43847001
 20
-24608.02594737
 42
-1.30322619
 10
29212.13070739
 20
-24621.24089224
 10
29205.8228887
 20
-24549.41803069
 42
1.30322619
 10
29169.51512608
 20
-24562.63297555
 10
29210.84990213
 20
-24621.70706723
 42
-1.30322619
 10
29174.54213951
 20
-24634.92201209
 10
29168.23432082
 20
-24563.09915054
 42
1.30322619
 10
29131.9265582
 20
-24576.31409541
 10
29173.26133425
 20
-24635.38818708
 42
-1.30322619
 10
29136.95357163
 20
-24648.60313195
 10
29130.64575294
 20
-24576.7802704
 42
1.30322619
 10
29094.33799032
 20
-24589.99521527
 10
29135.67276636
 20
-24649.06930694
 42
-1.30322619
 10
29099.36500374
 20
-24662.28425181
 10
29093.05718506
 20
-24590.46139026
 42
1.30322619
 10
29056.74942244
 20
-24603.67633513
 10
29098.08419848
 20
-24662.7504268
 42
-1.30322619
 10
29061.77643586
 20
-24675.96537167
 10
29055.46861718
 20
-24604.14251012
 42
1.30322619
 10
29019.16085456
 20
-24617.35745498
 10
29060.4956306
 20
-24676.43154666
 42
-0.50136344
 10
29050.45514358
 20
-24706.87136636
  0
LWPOLYLINE
  5
260
100
AcDbEntity
  8
Ech.1_5
 62
   190
  6
CONTINUOUS
370
    -3
100
AcDbPolyline
 90
        3
 70
     0
 43
0.0
 10
29734.35917759
 20
-24333.14411278
 42
0.33844115
 10
29733.3436443
 20
-24357.41617769
 10
29756.59447442
 20
-24390.64538083
  0
LWPOLYLINE
  5
261
100
AcDbEntity
  8
Ech.1_5
 62
   190
  6
CONTINUOUS
370
    -3
100
AcDbPolyline
 90
        3
 70
     0
 43
0.0
 10
29018.13226144
 20
-24620.69539891
 10
29017.8800493
 20
-24617.82362997
 42
0.16703871
 10
29012.59923474
 20
-24605.94380818
  0
LWPOLYLINE
  5
262
100
AcDbEntity
  8
Ech.1_5
 62
   190
  6
CONTINUOUS
370
    -3
100
AcDbPolyline
 90
       94
 70
     0
 43
0.0
 10
29812.1007634
 20
-24534.18661738
 42
-0.64752296
 10
29783.36960881
 20
-24524.20822438
 10
29778.11352516
 20
-24464.35884834
 42
1.30322619
 10
29747.85855398
 20
-24475.37066202
 10
29782.30232392
 20
-24524.59668095
 42
-1.30322619
 10
29752.04735274
 20
-24535.60849463
 10
29746.79126909
 20
-24475.75911859
 42
1.30322619
 10
29716.5362979
 20
-24486.77093227
 10
29750.98006785
 20
-24535.9969512
 42
-1.30322619
 10
29720.72509666
 20
-24547.00876488
 10
29715.46901302
 20
-24487.15938884
 42
1.30322619
 10
29685.21404183
 20
-24498.17120252
 10
29719.65781178
 20
-24547.39722145
 42
-1.30322619
 10
29689.40284059
 20
-24558.40903513
 10
29684.14675694
 20
-24498.55965909
 42
1.30322619
 10
29653.89178576
 20
-24509.57147277
 10
29688.3355557
 20
-24558.7974917
 42
-1.30322619
 10
29658.08058452
 20
-24569.80930538
 10
29652.82450087
 20
-24509.95992934
 42
1.30322619
 10
29622.56952968
 20
-24520.97174302
 10
29657.01329963
 20
-24570.19776195
 42
-1.30322619
 10
29626.75832844
 20
-24581.20957563
 10
29621.5022448
 20
-24521.36019959
 42
1.30322619
 10
29591.24727361
 20
-24532.37201327
 10
29625.69104356
 20
-24581.5980322
 42
-1.30322619
 10
29595.43607237
 20
-24592.60984588
 10
29590.17998872
 20
-24532.76046984
 42
1.30322619
 10
29559.92501754
 20
-24543.77228352
 10
29594.36878748
 20
-24592.99830245
 42
-1.30322619
 10
29564.1138163
 20
-24604.01011613
 10
29558.85773265
 20
-24544.16074009
 42
1.30322619
 10
29528.60276146
 20
-24555.17255377
 10
29563.04653141
 20
-24604.3985727
 42
-1.30322619
 10
29532.79156022
 20
-24615.41038638
 10
29527.53547658
 20
-24555.56101034
 42
1.30322619
 10
29497.28050539
 20
-24566.57282402
 10
29531.72427534
 20
-24615.79884295
 42
-1.30322619
 10
29501.46930415
 20
-24626.81065663
 10
29496.2132205
 20
-24566.96128059
 42
1.30322619
 10
29465.95824932
 20
-24577.97309427
 10
29500.40201926
 20
-24627.1991132
 42
-1.30322619
 10
29470.14704808
 20
-24638.21092688
 10
29464.89096443
 20
-24578.36155084
 42
1.30322619
 10
29434.63599324
 20
-24589.37336452
 10
29469.07976319
 20
-24638.59938345
 42
-1.30322619
 10
29438.824792
 20
-24649.61119713
 10
29433.56870836
 20
-24589.76182109
 42
1.30322619
 10
29403.31373717
 20
-24600.77363477
 10
29437.75750712
 20
-24649.9996537
 42
-1.30322619
 10
29407.50253593
 20
-24661.01146738
 10
29402.24645228
 20
-24601.16209134
 42
1.30322619
 10
29371.99148109
 20
-24612.17390502
 10
29406.43525104
 20
-24661.39992395
 42
-1.30322619
 10
29376.18027985
 20
-24672.41173763
 10
29370.92419621
 20
-24612.56236159
 42
1.30322619
 10
29340.66922502
 20
-24623.57417527
 10
29375.11299497
 20
-24672.8001942
 42
-1.30322619
 10
29344.85802378
 20
-24683.81200788
 10
29339.60194014
 20
-24623.96263184
 42
1.30322619
 10
29309.34696895
 20
-24634.97444552
 10
29343.7907389
 20
-24684.20046445
 42
-1.30322619
 10
29313.53576771
 20
-24695.21227813
 10
29308.27968406
 20
-24635.36290209
 42
1.30322619
 10
29278.02471287
 20
-24646.37471577
 10
29312.46848282
 20
-24695.6007347
 42
-1.30322619
 10
29282.21351163
 20
-24706.61254838
 10
29276.95742799
 20
-24646.76317234
 42
1.30322619
 10
29246.7024568
 20
-24657.77498602
 10
29281.14622675
 20
-24707.00100495
 42
-1.30322619
 10
29250.89125556
 20
-24718.01281863
 10
29245.63517192
 20
-24658.16344259
 42
1.30322619
 10
29215.38020073
 20
-24669.17525627
 10
29249.82397068
 20
-24718.4012752
 42
-1.30322619
 10
29219.56899949
 20
-24729.41308888
 10
29214.31291584
 20
-24669.56371284
 42
1.30322619
 10
29184.05794465
 20
-24680.57552652
 10
29218.5017146
 20
-24729.80154545
 42
-1.30322619
 10
29188.24674341
 20
-24740.81335913
 10
29182.99065977
 20
-24680.96398309
 42
1.30322619
 10
29152.73568858
 20
-24691.97579677
 10
29187.17945853
 20
-24741.2018157
 42
-1.30322619
 10
29156.92448734
 20
-24752.21362938
 10
29151.66840369
 20
-24692.36425334
 42
1.30322619
 10
29121.41343251
 20
-24703.37606702
 10
29155.85720245
 20
-24752.60208595
 42
-1.30322619
 10
29125.60223127
 20
-24763.61389963
 10
29120.34614762
 20
-24703.76452359
 42
1.30322619
 10
29090.09117643
 20
-24714.77633727
 10
29124.53494638
 20
-24764.0023562
 42
-1.30322619
 10
29094.27997519
 20
-24775.01416988
 10
29089.02389155
 20
-24715.16479384
 42
1.30322619
 10
29058.76892036
 20
-24726.17660752
 10
29093.21269031
 20
-24775.40262645
 42
-0.48689464
 10
29085.57523383
 20
-24800.5049644
  0
ARC
  5
263
100
AcDbEntity
  8
Ech.1_5
 62
   190
  6
CONTINUOUS
370
    -3
100
AcDbCircle
 10
29041.09884303
 20
-24728.0175636
 30
0.0
 40
16.66620748
100
AcDbArc
 50
6.78221309
 51
34.33791456
  0
CIRCLE
  5
264
100
AcDbEntity
  8
Ech.1_5
 62
     7
  6
CONTINUOUS
370
    -3
100
AcDbCircle
 10
29320.83959609
 20
-24817.10923612
 30
0.0
 40
2.51802373
  0
LINE
  5
265
100
AcDbEntity
  8
Ech.1_5
 62
     7
  6
CONTINUOUS
370
    -3
100
AcDbLine
 10
29303.60484841
 20
-24730.28579663
 30
0.0
 11
29340.00302426
 21
-24830.28896289
 31
0.0
  0
CIRCLE
  5
266
100
AcDbEntity
  8
Ech.1_5
 62
     7
  6
CONTINUOUS
370
    -3
100
AcDbCircle
 10
29305.44868964
 20
-24774.82306818
 30
0.0
 40
2.51802373
  0
ARC
  5
267
100
AcDbEntity
  8
Ech.1_5
 62
     7
  6
CONTINUOUS
370
    -3
100
AcDbCircle
 10
29309.9328604
 20
-24841.23360747
 30
0.0
 40
5.0
100
AcDbArc
 50
290.0
 51
20.0
  0
LINE
  5
268
100
AcDbEntity
  8
Ech.1_5
 62
     7
  6
CONTINUOUS
370
    -3
100
AcDbLine
 10
29314.53237994
 20
-24854.5434577
 30
0.0
 11
29313.84833965
 21
-24852.66407245
 31
0.0
  0
LINE
  5
269
100
AcDbEntity
  8
Ech.1_5
 62
     7
  6
CONTINUOUS
370
    -3
100
AcDbLine
 10
29307.88419063
 20
-24847.30015115
 30
0.0
 11
29311.64296111
 21
-24845.93207058
 31
0.0
  0
ARC
  5
26A
100
AcDbEntity
  8
Ech.1_5
 62
     7
  6
CONTINUOUS
370
    -3
100
AcDbCircle
 10
29318.93761373
 20
-24837.41927356
 30
0.0
 40
14.82598747
100
AcDbArc
 50
221.79417108
 51
258.13515835
  0
ARC
  5
26B
100
AcDbEntity
  8
Ech.1_5
 62
     7
  6
CONTINUOUS
370
    -3
100
AcDbCircle
 10
29322.17854272
 20
-24850.57924568
 30
0.0
 40
12.47697948
100
AcDbArc
 50
209.36224396
 51
274.61218104
  0
LINE
  5
26C
100
AcDbEntity
  8
Ech.1_5
 62
     7
  6
CONTINUOUS
370
    -3
100
AcDbLine
 10
29314.53237994
 20
-24854.5434577
 30
0.0
 11
29310.65106044
 21
-24855.95614246
 31
0.0
  0
LINE
  5
26D
100
AcDbEntity
  8
Ech.1_5
 62
     7
  6
CONTINUOUS
370
    -3
100
AcDbLine
 10
29310.65106044
 20
-24855.95614246
 30
0.0
 11
29314.38581904
 21
-24866.21730738
 31
0.0
  0
LINE
  5
26E
100
AcDbEntity
  8
Ech.1_5
 62
     7
  6
CONTINUOUS
370
    -3
100
AcDbLine
 10
29313.84833965
 20
-24852.66407245
 30
0.0
 11
29308.08763491
 21
-24854.76079751
 31
0.0
  0
LINE
  5
26F
100
AcDbEntity
  8
Ech.1_5
 62
     7
  6
CONTINUOUS
370
    -3
100
AcDbLine
 10
29308.08763491
 20
-24854.76079751
 30
0.0
 11
29313.19047409
 21
-24868.78073291
 31
0.0
  0
CIRCLE
  5
270
100
AcDbEntity
  8
Ech.1_5
 62
     7
  6
CONTINUOUS
370
    -3
100
AcDbCircle
 10
29315.70929394
 20
-24803.0138468
 30
0.0
 40
2.51802373
  0
CIRCLE
  5
271
100
AcDbEntity
  8
Ech.1_5
 62
     7
  6
CONTINUOUS
370
    -3
100
AcDbCircle
 10
29325.96989824
 20
-24831.20462543
 30
0.0
 40
2.51802373
  0
CIRCLE
  5
272
100
AcDbEntity
  8
Ech.1_5
 62
     7
  6
CONTINUOUS
370
    -3
100
AcDbCircle
 10
29310.57899179
 20
-24788.91845749
 30
0.0
 40
2.51802373
  0
ARC
  5
273
100
AcDbEntity
  8
Ech.1_5
 62
     7
  6
CONTINUOUS
370
    -3
100
AcDbCircle
 10
29335.35163953
 20
-24831.44505674
 30
0.0
 40
14.82598747
100
AcDbArc
 50
321.86484165
 51
358.20582892
  0
ARC
  5
274
100
AcDbEntity
  8
Ech.1_5
 62
     7
  6
CONTINUOUS
370
    -3
100
AcDbCircle
 10
29350.50248331
 20
-24839.08339298
 30
0.0
 40
3.80485997
100
AcDbArc
 50
203.49676661
 51
324.2539008
  0
ARC
  5
275
100
AcDbEntity
  8
Ech.1_5
 62
     7
  6
CONTINUOUS
370
    -3
100
AcDbCircle
 10
29341.32801091
 20
-24843.60940926
 30
0.0
 40
12.47697948
100
AcDbArc
 50
305.38781896
 51
10.63775604
  0
LINE
  5
276
100
AcDbEntity
  8
Ech.1_5
 62
     7
  6
CONTINUOUS
370
    -3
100
AcDbLine
 10
29350.17035857
 20
-24831.9092447
 30
0.0
 11
29346.41158808
 21
-24833.27732528
 31
0.0
  0
ARC
  5
277
100
AcDbEntity
  8
Ech.1_5
 62
     7
  6
CONTINUOUS
370
    -3
100
AcDbCircle
 10
29344.70148737
 20
-24828.57886217
 30
0.0
 40
5.0
100
AcDbArc
 50
200.0
 51
290.0
  0
LINE
  5
278
100
AcDbEntity
  8
Ech.1_5
 62
     7
  6
CONTINUOUS
370
    -3
100
AcDbLine
 10
29349.73345779
 20
-24841.73131314
 30
0.0
 11
29349.0494175
 21
-24839.8519279
 31
0.0
  0
LINE
  5
279
100
AcDbEntity
  8
Ech.1_5
 62
     7
  6
CONTINUOUS
370
    -3
100
AcDbLine
 10
29349.73345779
 20
-24841.73131314
 30
0.0
 11
29353.61477729
 21
-24840.31862838
 31
0.0
  0
LINE
  5
27A
100
AcDbEntity
  8
Ech.1_5
 62
     7
  6
CONTINUOUS
370
    -3
100
AcDbLine
 10
29353.61477729
 20
-24840.31862838
 30
0.0
 11
29357.34953589
 21
-24850.5797933
 31
0.0
  0
LINE
  5
27B
100
AcDbEntity
  8
Ech.1_5
 62
     7
  6
CONTINUOUS
370
    -3
100
AcDbLine
 10
29349.0494175
 20
-24839.8519279
 30
0.0
 11
29354.81012224
 21
-24837.75520285
 31
0.0
  0
LINE
  5
27C
100
AcDbEntity
  8
Ech.1_5
 62
     7
  6
CONTINUOUS
370
    -3
100
AcDbLine
 10
29354.81012224
 20
-24837.75520285
 30
0.0
 11
29359.91296142
 21
-24851.77513825
 31
0.0
  0
CIRCLE
  5
27D
100
AcDbEntity
  8
Ech.1_5
 62
     7
  6
CONTINUOUS
370
    -3
100
AcDbCircle
 10
29300.31838749
 20
-24760.72767887
 30
0.0
 40
2.51802373
  0
LINE
  5
27E
100
AcDbEntity
  8
Ech.1_5
 62
     7
  6
CONTINUOUS
370
    -3
100
AcDbLine
 10
29278.23314765
 20
-24739.5203405
 30
0.0
 11
29314.6313235
 21
-24839.52350676
 31
0.0
  0
CIRCLE
  5
27F
100
AcDbEntity
  8
Ech.1_5
 62
     7
  6
CONTINUOUS
370
    -3
100
AcDbCircle
 10
29295.18808534
 20
-24746.63228956
 30
0.0
 40
2.51802373
  0
LINE
  5
280
100
AcDbEntity
  8
Ech.1_5
 62
     7
  6
CONTINUOUS
370
    -3
100
AcDbLine
 10
29278.23314765
 20
-24739.5203405
 30
0.0
 11
29303.60484841
 21
-24730.28579663
 31
0.0
  0
LINE
  5
281
100
AcDbEntity
  8
Ech.1_5
 62
     7
  6
CONTINUOUS
370
    -3
100
AcDbLine
 10
29357.34953589
 20
-24850.5797933
 30
0.0
 11
29314.38581904
 21
-24866.21730738
 31
0.0
  0
LINE
  5
282
100
AcDbEntity
  8
Ech.1_5
 62
     7
  6
CONTINUOUS
370
    -3
100
AcDbLine
 10
29313.19047409
 20
-24868.78073291
 30
0.0
 11
29359.91296142
 21
-24851.77513825
 31
0.0
  0
ARC
  5
283
100
AcDbEntity
  8
Ech.1_5
 62
     7
  6
CONTINUOUS
370
    -3
100
AcDbCircle
 10
29312.24122194
 20
-24853.00935324
 30
0.0
 40
3.80485997
100
AcDbArc
 50
255.7460992
 51
16.50323339
  0
LINE
  5
284
100
AcDbEntity
  8
Ech.1_5
 62
     7
  6
CONTINUOUS
370
    -3
100
AcDbLine
 10
29286.4976509
 20
-24728.28859111
 30
0.0
 11
29286.4976509
 21
-24728.28859111
 31
0.0
  0
LWPOLYLINE
  5
285
100
AcDbEntity
  8
Ech.1_5
 62
   190
  6
CONTINUOUS
370
    -3
100
AcDbPolyline
 90
        8
 70
     1
 43
0.0
 10
29684.21382684
 20
-24203.46645306
 10
29757.84448958
 20
-24393.87796447
 10
29751.20442167
 20
-24387.77504545
 10
29865.02025841
 20
-24692.54925806
 10
29861.58180478
 20
-24683.0164646
 10
29751.20442167
 20
-24387.77504545
 10
29757.84448958
 20
-24393.87796447
 10
29684.21382684
 20
-24203.46645306
  0
LWPOLYLINE
  5
286
100
AcDbEntity
  8
Ech.1_5
 62
   190
  6
CONTINUOUS
370
    -3
100
AcDbPolyline
 90
        4
 70
     0
 43
0.0
 10
29529.40630838
 20
-24683.66636112
 10
29571.62451638
 20
-24717.74957075
 10
29562.79972055
 20
-24715.88970487
 10
29615.76756578
 20
-24758.65121128
  0
LWPOLYLINE
  5
287
100
AcDbEntity
  8
Ech.1_5
 62
   190
  6
CONTINUOUS
370
    -3
100
AcDbPolyline
 90
        6
 70
     1
 43
0.0
 10
29580.71757184
 20
-24722.4008219
 10
29571.89277601
 20
-24720.54095601
 10
29616.2461245
 20
-24756.34788733
 10
29856.32846438
 20
-24668.96463958
 10
29828.31278694
 20
-24594.02729161
 10
29548.05610788
 20
-24696.03287366
  0
LWPOLYLINE
  5
288
100
AcDbEntity
  8
Ech.1_5
 62
   190
  6
CONTINUOUS
370
    -3
100
AcDbPolyline
 90
        4
 70
     0
 43
0.0
 10
29531.7026572
 20
-24682.8305585
 10
29580.71757184
 20
-24722.4008219
 10
29571.89277601
 20
-24720.54095601
 10
29618.06399743
 20
-24757.81547553
  0
LWPOLYLINE
  5
289
100
AcDbEntity
  8
Ech.1_5
 62
   190
  6
CONTINUOUS
370
    -3
100
AcDbPolyline
 90
       40
 70
     0
 43
0.0
 10
29833.57685429
 20
-24606.2871074
 42
1.14028181
 10
29809.97898334
 20
-24618.57139053
 10
29837.7071428
 20
-24658.19942268
 42
-1.30322619
 10
29813.35120023
 20
-24667.0642608
 10
29809.11979464
 20
-24618.88410964
 42
1.30322619
 10
29784.76385207
 20
-24627.74894777
 10
29812.49201153
 20
-24667.37697991
 42
-1.30322619
 10
29788.13606896
 20
-24676.24181804
 10
29783.90466337
 20
-24628.06166688
 42
1.30322619
 10
29759.5487208
 20
-24636.926505
 10
29787.27688026
 20
-24676.55453715
 42
-1.30322619
 10
29762.92093769
 20
-24685.41937527
 10
29758.6895321
 20
-24637.23922412
 42
1.30322619
 10
29734.33358952
 20
-24646.10406224
 10
29762.06174899
 20
-24685.73209439
 42
-1.30322619
 10
29737.70580641
 20
-24694.59693251
 10
29733.47440082
 20
-24646.41678135
 42
1.30322619
 10
29709.11845825
 20
-24655.28161948
 10
29736.84661771
 20
-24694.90965162
 42
-1.30322619
 10
29712.49067514
 20
-24703.77448975
 10
29708.25926955
 20
-24655.59433859
 42
1.30322619
 10
29683.90332698
 20
-24664.45917671
 10
29711.63148644
 20
-24704.08720886
 42
-1.30322619
 10
29687.27554387
 20
-24712.95204698
 10
29683.04413828
 20
-24664.77189583
 42
1.30322619
 10
29658.6881957
 20
-24673.63673395
 10
29686.41635517
 20
-24713.2647661
 42
-1.30322619
 10
29662.06041259
 20
-24722.12960422
 10
29657.829007
 20
-24673.94945306
 42
1.30322619
 10
29633.47306443
 20
-24682.81429119
 10
29661.20122389
 20
-24722.44232333
 42
-1.30322619
 10
29636.84528132
 20
-24731.30716146
 10
29632.61387573
 20
-24683.1270103
 42
1.30322619
 10
29608.25793316
 20
-24691.99184842
 10
29635.98609262
 20
-24731.61988057
 42
-1.30322619
 10
29611.63015005
 20
-24740.48471869
 10
29607.39874446
 20
-24692.30456753
 42
1.30322619
 10
29583.04280189
 20
-24701.16940566
 10
29610.77096135
 20
-24740.79743781
 42
-0.22783945
 10
29612.6554009
 20
-24752.26766682
  0
LWPOLYLINE
  5
28A
102
{ACAD_REACTORS
330
28B
102
}
100
AcDbEntity
  8
Ech.1_5
 62
     7
  6
CONTINUOUS
100
AcDbPolyline
 90
        3
 70
     1
 43
0.0
 10
29673.65136555
 20
-24306.81265028
 10
29695.42684107
 20
-24301.98842906
 10
29676.39303056
 20
-24313.61419795
  0
HATCH
  5
28B
100
AcDbEntity
  8
Ech.1_5
 62
     7
  6
CONTINUOUS
100
AcDbHatch
 10
0.0
 20
0.0
 30
0.0
210
0.0
220
0.0
230
1.0
  2
SOLID
 70
     1
 71
     1
 91
        1
 92
        7
 72
     0
 73
     1
 93
        3
 10
29673.65136555
 20
-24306.81265028
 10
29695.42684107
 20
-24301.98842906
 10
29676.39303056
 20
-24313.61419795
 97
        1
330
28A
 75
     0
 76
     2
 47
0.775229
 98
        1
 10
0.0
 20
0.0
  0
LINE
  5
28C
100
AcDbEntity
  8
Ech.1_5
 62
     7
  6
CONTINUOUS
370
    -3
100
AcDbLine
 10
29675.02219805
 20
-24310.21342411
 30
0.0
 11
29061.96517346
 21
-24533.43355097
 31
0.0
  0
LWPOLYLINE
  5
28D
100
AcDbEntity
  8
Ech.1_5
 62
   190
  6
CONTINUOUS
370
    -3
100
AcDbPolyline
 90
        5
 70
     0
 43
0.0
 10
28797.57418561
 20
-25188.46645306
 10
30152.57418561
 20
-25188.46645306
 10
30152.57418561
 20
-24203.46645306
 10
28797.57418561
 20
-24203.46645306
 10
28797.57418561
 20
-25188.46645306
  0
MTEXT
  5
28E
100
AcDbEntity
  8
Ech.1_5
 62
     4
100
AcDbMText
 10
29527.81618987
 20
-24498.39760543
 30
0.0
 11
1.0
 21
0.0
 31
0.0
 40
13.50000024
 41
215.93732637
 71
     1
 72
     1
  1
\fArial|b0|i0|c0|p18;\H13.75;\W1;\C190;* en résistance thermique
  0
LWPOLYLINE
  5
28F
100
AcDbEntity
  8
Ech.1_5
 62
   190
  6
CONTINUOUS
370
    -3
100
AcDbPolyline
 90
        8
 70
     1
 43
0.0
 10
28921.07476587
 20
-24366.6655558
 10
29044.41742933
 20
-24685.6340683
 10
29037.77736141
 20
-24679.53114928
 10
29143.51098971
 20
-24953.46068862
 10
29143.51098971
 20
-24953.46068862
 10
29037.77736141
 20
-24679.53114928
 10
29044.41742933
 20
-24685.6340683
 10
28921.07476587
 20
-24366.6655558
  0
LWPOLYLINE
  5
290
100
AcDbEntity
  8
Ech.1_5
 62
   190
  6
CONTINUOUS
370
    -3
100
AcDbPolyline
 90
       11
 70
     1
 43
0.0
 10
29392.77268975
 20
-24454.58109528
 10
29364.58191112
 20
-24464.84169958
 10
29364.58191112
 20
-24517.5771352
 10
29364.58194707
 20
-24554.25888805
 10
29364.58191112
 20
-24563.24483732
 10
29364.58191112
 20
-24563.2588313
 10
29364.58191112
 20
-24571.62516451
 10
29364.58191112
 20
-24680.10379508
 10
29416.3911325
 20
-24680.10379508
 10
29444.58191112
 20
-24669.84319078
 10
29444.58191112
 20
-24454.58109528
  0
LWPOLYLINE
  5
291
100
AcDbEntity
  8
Ech.1_5
 62
     5
  6
CONTINUOUS
370
    -3
100
AcDbPolyline
 90
        7
 70
     0
 43
0.0
 10
29444.58191112
 20
-24454.58109528
 10
29392.77268975
 20
-24454.58109528
 10
29364.58191112
 20
-24464.84169958
 10
29364.58191112
 20
-24680.10379508
 10
29416.3911325
 20
-24680.10379508
 10
29444.58191112
 20
-24669.84319078
 10
29444.58191112
 20
-24454.58109528
  0
LINE
  5
292
100
AcDbEntity
  8
Ech.1_5
 62
   190
  6
CONTINUOUS
370
    -3
100
AcDbLine
 10
29364.58191112
 20
-24680.10379508
 30
0.0
 11
29444.58191112
 21
-24454.58109528
 31
0.0
  0
LINE
  5
293
100
AcDbEntity
  8
Ech.1_5
 62
   190
  6
CONTINUOUS
370
    -3
100
AcDbLine
 10
29364.58191112
 20
-24464.84169958
 30
0.0
 11
29444.58191112
 21
-24669.84319078
 31
0.0
  0
LINE
  5
294
100
AcDbEntity
  8
Ech.1_5
 62
     1
  6
CADWORK_22
 48
-5.0
370
    35
100
AcDbLine
 10
29084.95641949
 20
-24802.33406951
 30
0.0
 11
29808.66094819
 21
-24537.32930808
 31
0.0
  0
LINE
  5
295
100
AcDbEntity
  8
Ech.1_5
 62
   150
  6
CADWORK_22
370
    35
100
AcDbLine
 10
28979.67433059
 20
-24518.20611338
 30
2500.0
 11
29703.97929819
 21
-24254.58066464
 31
2500.0
  0
LWPOLYLINE
  5
296
100
AcDbEntity
  8
Ech.1_5
 62
   190
  6
CONTINUOUS
370
    -3
100
AcDbPolyline
 90
        5
 70
     0
 43
0.0
 10
30152.57418561
 20
-25188.46645306
 10
30152.57418561
 20
-24203.46645306
 10
28797.57418561
 20
-24203.46645306
 10
28797.57418561
 20
-25188.46645306
 10
30152.57418561
 20
-25188.46645306
  0
TEXT
  5
297
100
AcDbEntity
  8
Ech.1_5
 62
   190
100
AcDbText
 10
28954.70942902
 20
-25112.15371244
 30
0.0
 40
8.00000012
  1
Echelle en mm
  7
ARIAL
 50
0.0
 41
1.0
 51
0.0
100
AcDbText
  0
TEXT
  5
298
100
AcDbEntity
  8
Ech.1_5
 62
   190
100
AcDbText
 10
28940.72884427
 20
-25140.36354797
 30
0.0
 40
8.00000012
  1
0
  7
ARIAL
 50
0.0
 41
1.0
 51
0.0
100
AcDbText
  0
TEXT
  5
299
100
AcDbEntity
  8
Ech.1_5
 62
   190
100
AcDbText
 10
29027.32590217
 20
-25140.36354797
 30
0.0
 40
8.00000012
  1
100
  7
ARIAL
 50
0.0
 41
1.0
 51
0.0
100
AcDbText
  0
TEXT
  5
29A
100
AcDbEntity
  8
Ech.1_5
 62
   190
100
AcDbText
 10
28988.5854706
 20
-25140.36354797
 30
0.0
 40
8.00000012
  1
50
  7
ARIAL
 50
0.0
 41
1.0
 51
0.0
100
AcDbText
  0
INSERT
  5
29B
100
AcDbEntity
  8
Ech.1_5
 62
     0
370
    -3
100
AcDbBlockReference
  2
*D5
 10
0.0
 20
0.0
 30
0.0
  0
INSERT
  5
29C
100
AcDbEntity
  8
Ech.1_5
 62
     0
370
    -3
100
AcDbBlockReference
  2
*D6
 10
0.0
 20
0.0
 30
0.0
  0
ENDSEC
  0
SECTION
  2
OBJECTS
  0
DICTIONARY
  5
1
100
AcDbDictionary
  3
ACAD_GROUP
350
2
  3
ACAD_MLINESTYLE
350
3
  0
DICTIONARY
  5
2
102
{CDWK_REACTORS
330
1
102
}
100
AcDbDictionary
  0
DICTIONARY
  5
3
102
{CDWK_REACTORS
330
1
102
}
100
AcDbDictionary
  3
STANDARD
350
4
  0
MLINESTYLE
  5
4
102
{CDWK_REACTORS
330
3
102
}
100
AcDbMlineStyle
  2
STANDARD
 70
     0
  3

 62
     0
 51
90.0
 52
90.0
 71
     2
 49
0.5
 62
   256
  6
BYLAYER
 49
-0.5
 62
   256
  6
BYLAYER
  0
ENDSEC
  0
EOF
