  0
SECTION
  2
HEADER
  9
$ACADVER
  1
AC1015
  9
$ACADMAINTVER
 70
    20
  9
$DWGCODEPAGE
  3
ANSI_1252
  9
$INSBASE
 10
0.0
 20
0.0
 30
0.0
  9
$EXTMIN
 10
34992.33654407124
 20
-4384.853771809365
 30
-0.0762881246355391
  9
$EXTMAX
 10
36828.75577648147
 20
-2956.06985148853
 30
2500.076299766167
  9
$LIMMIN
 10
564.5
 20
-14720.93576433
  9
$LIMMAX
 10
40482.10322407999
 20
165.67536904
  9
$ORTHOMODE
 70
     0
  9
$REGENMODE
 70
     1
  9
$FILLMODE
 70
     1
  9
$QTEXTMODE
 70
     0
  9
$MIRRTEXT
 70
     1
  9
$LTSCALE
 40
5.0
  9
$ATTMODE
 70
     1
  9
$TEXTSIZE
 40
3.5
  9
$TRACEWID
 40
1.0
  9
$TEXTSTYLE
  7
STANDARD
  9
$CLAYER
  8
0
  9
$CELTYPE
  6
BYLAYER
  9
$CECOLOR
 62
   256
  9
$CELTSCALE
 40
1.0
  9
$DISPSILH
 70
     0
  9
$DIMSCALE
 40
1.0
  9
$DIMASZ
 40
2.0
  9
$DIMEXO
 40
5.0
  9
$DIMDLI
 40
10.0
  9
$DIMRND
 40
0.0
  9
$DIMDLE
 40
2.0
  9
$DIMEXE
 40
2.0
  9
$DIMTP
 40
0.0
  9
$DIMTM
 40
0.0
  9
$DIMTXT
 40
2.5
  9
$DIMCEN
 40
1.5
  9
$DIMTSZ
 40
0.0
  9
$DIMTOL
 70
     0
  9
$DIMLIM
 70
     0
  9
$DIMTIH
 70
     1
  9
$DIMTOH
 70
     0
  9
$DIMSE1
 70
     0
  9
$DIMSE2
 70
     0
  9
$DIMTAD
 70
     1
  9
$DIMZIN
 70
     8
  9
$DIMBLK
  1

  9
$DIMASO
 70
     1
  9
$DIMSHO
 70
     1
  9
$DIMPOST
  1

  9
$DIMAPOST
  1

  9
$DIMALT
 70
     0
  9
$DIMALTD
 70
     2
  9
$DIMALTF
 40
25.4
  9
$DIMLFAC
 40
1.0
  9
$DIMTOFL
 70
     0
  9
$DIMTVP
 40
0.0
  9
$DIMTIX
 70
     0
  9
$DIMSOXD
 70
     0
  9
$DIMSAH
 70
     0
  9
$DIMBLK1
  1

  9
$DIMBLK2
  1

  9
$DIMSTYLE
  2
Standard
  9
$DIMCLRD
 70
   190
  9
$DIMCLRE
 70
   190
  9
$DIMCLRT
 70
   190
  9
$DIMTFAC
 40
1.0
  9
$DIMGAP
 40
0.09
  9
$DIMJUST
 70
     0
  9
$DIMSD1
 70
     0
  9
$DIMSD2
 70
     0
  9
$DIMTOLJ
 70
     1
  9
$DIMTZIN
 70
     0
  9
$DIMALTZ
 70
     0
  9
$DIMALTTZ
 70
     0
  9
$DIMUPT
 70
     0
  9
$DIMDEC
 70
     4
  9
$DIMTDEC
 70
     4
  9
$DIMALTU
 70
     2
  9
$DIMALTTD
 70
     2
  9
$DIMTXSTY
  7
STANDARD
  9
$DIMAUNIT
 70
     0
  9
$DIMADEC
 70
     0
  9
$DIMALTRND
 40
0.0
  9
$DIMAZIN
 70
     0
  9
$DIMDSEP
 70
    46
  9
$DIMATFIT
 70
     3
  9
$DIMFRAC
 70
     0
  9
$DIMLDRBLK
  1

  9
$DIMLUNIT
 70
     2
  9
$DIMLWD
 70
    -2
  9
$DIMLWE
 70
    -2
  9
$DIMTMOVE
 70
     0
  9
$LUNITS
 70
     2
  9
$LUPREC
 70
     6
  9
$SKETCHINC
 40
0.1
  9
$FILLETRAD
 40
0.0
  9
$AUNITS
 70
     0
  9
$AUPREC
 70
     0
  9
$MENU
  1
ACAD
  9
$ELEVATION
 40
0.0
  9
$PELEVATION
 40
0.0
  9
$THICKNESS
 40
0.0
  9
$LIMCHECK
 70
     0
  9
$CHAMFERA
 40
0.0
  9
$CHAMFERB
 40
0.0
  9
$CHAMFERC
 40
0.0
  9
$CHAMFERD
 40
0.0
  9
$SKPOLY
 70
     1
  9
$TDCREATE
 40
2456467.000000000
  9
$TDUCREATE
 40
2456466.916666667
  9
$TDUPDATE
 40
2456468.469296100
  9
$TDUUPDATE
 40
2456468.385962766
  9
$TDINDWG
 40
0.0043728588
  9
$TDUSRTIMER
 40
0.0043726736
  9
$USRTIMER
 70
     1
  9
$ANGBASE
 50
0.0
  9
$ANGDIR
 70
     0
  9
$PDMODE
 70
     0
  9
$PDSIZE
 40
0.0
  9
$PLINEWID
 40
0.0
  9
$SPLFRAME
 70
     0
  9
$SPLINETYPE
 70
     6
  9
$SPLINESEGS
 70
     8
  9
$HANDSEED
  5
30F
  9
$SURFTAB1
 70
     6
  9
$SURFTAB2
 70
     6
  9
$SURFTYPE
 70
     6
  9
$SURFU
 70
     6
  9
$SURFV
 70
     6
  9
$UCSBASE
  2

  9
$UCSNAME
  2

  9
$UCSORG
 10
0.0
 20
0.0
 30
0.0
  9
$UCSXDIR
 10
1.0
 20
0.0
 30
0.0
  9
$UCSYDIR
 10
0.0
 20
1.0
 30
0.0
  9
$UCSORTHOREF
  2

  9
$UCSORTHOVIEW
 70
     0
  9
$UCSORGTOP
 10
0.0
 20
0.0
 30
0.0
  9
$UCSORGBOTTOM
 10
0.0
 20
0.0
 30
0.0
  9
$UCSORGLEFT
 10
0.0
 20
0.0
 30
0.0
  9
$UCSORGRIGHT
 10
0.0
 20
0.0
 30
0.0
  9
$UCSORGFRONT
 10
0.0
 20
0.0
 30
0.0
  9
$UCSORGBACK
 10
0.0
 20
0.0
 30
0.0
  9
$PUCSBASE
  2

  9
$PUCSNAME
  2

  9
$PUCSORG
 10
0.0
 20
0.0
 30
0.0
  9
$PUCSXDIR
 10
1.0
 20
0.0
 30
0.0
  9
$PUCSYDIR
 10
0.0
 20
1.0
 30
0.0
  9
$PUCSORTHOREF
  2

  9
$PUCSORTHOVIEW
 70
     0
  9
$PUCSORGTOP
 10
0.0
 20
0.0
 30
0.0
  9
$PUCSORGBOTTOM
 10
0.0
 20
0.0
 30
0.0
  9
$PUCSORGLEFT
 10
0.0
 20
0.0
 30
0.0
  9
$PUCSORGRIGHT
 10
0.0
 20
0.0
 30
0.0
  9
$PUCSORGFRONT
 10
0.0
 20
0.0
 30
0.0
  9
$PUCSORGBACK
 10
0.0
 20
0.0
 30
0.0
  9
$USERI1
 70
     0
  9
$USERI2
 70
     0
  9
$USERI3
 70
     0
  9
$USERI4
 70
     0
  9
$USERI5
 70
     0
  9
$USERR1
 40
0.0
  9
$USERR2
 40
0.0
  9
$USERR3
 40
0.0
  9
$USERR4
 40
0.0
  9
$USERR5
 40
0.0
  9
$WORLDVIEW
 70
     1
  9
$SHADEDGE
 70
     3
  9
$SHADEDIF
 70
    70
  9
$TILEMODE
 70
     1
  9
$MAXACTVP
 70
    16
  9
$PINSBASE
 10
0.0
 20
0.0
 30
0.0
  9
$PLIMCHECK
 70
     0
  9
$PEXTMIN
 10
1.000000000000000E+20
 20
1.000000000000000E+20
 30
1.000000000000000E+20
  9
$PEXTMAX
 10
-1.000000000000000E+20
 20
-1.000000000000000E+20
 30
-1.000000000000000E+20
  9
$PLIMMIN
 10
0.0
 20
0.0
  9
$PLIMMAX
 10
12.0
 20
9.0
  9
$UNITMODE
 70
     0
  9
$VISRETAIN
 70
     0
  9
$PLINEGEN
 70
     0
  9
$PSLTSCALE
 70
     1
  9
$TREEDEPTH
 70
  3020
  9
$CMLSTYLE
  2
STANDARD
  9
$CMLJUST
 70
     0
  9
$CMLSCALE
 40
1.0
  9
$PROXYGRAPHICS
 70
     1
  9
$MEASUREMENT
 70
     1
  9
$CELWEIGHT
370
    -1
  9
$ENDCAPS
280
     0
  9
$JOINSTYLE
280
     0
  9
$LWDISPLAY
290
     0
  9
$INSUNITS
 70
     0
  9
$HYPERLINKBASE
  1

  9
$STYLESHEET
  1

  9
$XEDIT
290
     1
  9
$CEPSNTYPE
380
     0
  9
$PSTYLEMODE
290
     1
  9
$FINGERPRINTGUID
  2
{9CCF1104-2BE8-4A3C-8999-A54929699E5E}
  9
$VERSIONGUID
  2
{93A0C89C-11EB-4BF6-8028-8019FB6E522F}
  9
$EXTNAMES
290
     1
  9
$PSVPSCALE
 40
0.0
  9
$OLESTARTUP
290
     0
  0
ENDSEC
  0
SECTION
  2
CLASSES
  0
CLASS
  1
ACDBDICTIONARYWDFLT
  2
AcDbDictionaryWithDefault
  3
ObjectDBX Classes
 90
        0
280
     0
281
     0
  0
CLASS
  1
MATERIAL
  2
AcDbMaterial
  3
ObjectDBX Classes
 90
     1153
280
     0
281
     0
  0
CLASS
  1
VISUALSTYLE
  2
AcDbVisualStyle
  3
ObjectDBX Classes
 90
     4095
280
     0
281
     0
  0
CLASS
  1
TABLESTYLE
  2
AcDbTableStyle
  3
ObjectDBX Classes
 90
     4095
280
     0
281
     0
  0
CLASS
  1
SCALE
  2
AcDbScale
  3
ObjectDBX Classes
 90
     1153
280
     0
281
     0
  0
CLASS
  1
MLEADERSTYLE
  2
AcDbMLeaderStyle
  3
ACDB_MLEADERSTYLE_CLASS
 90
     4095
280
     0
281
     0
  0
CLASS
  1
SORTENTSTABLE
  2
AcDbSortentsTable
  3
ObjectDBX Classes
 90
        0
280
     0
281
     0
  0
CLASS
  1
DICTIONARYVAR
  2
AcDbDictionaryVar
  3
ObjectDBX Classes
 90
        0
280
     0
281
     0
  0
CLASS
  1
CELLSTYLEMAP
  2
AcDbCellStyleMap
  3
ObjectDBX Classes
 90
     1152
280
     0
281
     0
  0
CLASS
  1
ACDBPLACEHOLDER
  2
AcDbPlaceHolder
  3
ObjectDBX Classes
 90
        0
280
     0
281
     0
  0
CLASS
  1
LAYOUT
  2
AcDbLayout
  3
ObjectDBX Classes
 90
        0
280
     0
281
     0
  0
ENDSEC
  0
SECTION
  2
TABLES
  0
TABLE
  2
VPORT
  5
29
330
0
100
AcDbSymbolTable
 70
     1
  0
VPORT
  5
281
330
29
100
AcDbSymbolTableRecord
100
AcDbViewportTableRecord
  2
*Active
 70
     0
 10
0.0
 20
0.0
 11
1.0
 21
1.0
 12
35910.54616027635
 22
-3670.461811648948
 13
0.0
 23
0.0
 14
1.0
 24
1.0
 15
0.0
 25
0.0
 16
0.0
 26
0.0
 36
1.0
 17
0.0
 27
0.0
 37
0.0
 40
1439.732456108734
 41
2.015345268542199
 42
50.0
 43
0.0
 44
0.0
 50
0.0
 51
0.0
 71
     0
 72
  1000
 73
     1
 74
     3
 75
     0
 76
     0
 77
     0
 78
     0
281
     0
 65
     1
110
0.0
120
0.0
130
0.0
111
1.0
121
0.0
131
0.0
112
0.0
122
1.0
132
0.0
 79
     0
146
0.0
  0
ENDTAB
  0
TABLE
  2
LTYPE
  5
2F
330
0
100
AcDbSymbolTable
 70
    11
  0
LTYPE
  5
30
330
2F
100
AcDbSymbolTableRecord
100
AcDbLinetypeTableRecord
  2
BYBLOCK
 70
     0
  3

 72
    65
 73
     0
 40
0.0
  0
LTYPE
  5
31
330
2F
100
AcDbSymbolTableRecord
100
AcDbLinetypeTableRecord
  2
BYLAYER
 70
     0
  3

 72
    65
 73
     0
 40
0.0
  0
LTYPE
  5
32
330
2F
100
AcDbSymbolTableRecord
100
AcDbLinetypeTableRecord
  2
CONTINUOUS
 70
     0
  3
Solid line
 72
    65
 73
     0
 40
0.0
  0
LTYPE
  5
33
330
2F
100
AcDbSymbolTableRecord
100
AcDbLinetypeTableRecord
  2
DOT
 70
     0
  3
. . . . . . . . . . . . . . . . . . . . . . . .
 72
    65
 73
     2
 40
2.5
 49
0.0
 74
     0
 49
-2.5
 74
     0
  0
LTYPE
  5
34
330
2F
100
AcDbSymbolTableRecord
100
AcDbLinetypeTableRecord
  2
HIDDEN
 70
     0
  3
__ __ __ __ __ __ __ __ __ __ __ __ __ __ __ __
 72
    65
 73
     2
 40
1.875
 49
1.25
 74
     0
 49
-0.625
 74
     0
  0
LTYPE
  5
35
330
2F
100
AcDbSymbolTableRecord
100
AcDbLinetypeTableRecord
  2
DASHEDX2
 70
     0
  3
____  ____  ____  ____  ____  ____  ____  ____
 72
    65
 73
     2
 40
3.75
 49
2.5
 74
     0
 49
-1.25
 74
     0
  0
LTYPE
  5
36
330
2F
100
AcDbSymbolTableRecord
100
AcDbLinetypeTableRecord
  2
CADWORK_22
 70
     0
  3
22 =======================================
 72
    65
 73
     0
 40
0.0
  0
LTYPE
  5
37
330
2F
100
AcDbSymbolTableRecord
100
AcDbLinetypeTableRecord
  2
DAL
 70
     0
  3
Solid line (for MAPS)
 72
    65
 73
     0
 40
0.0
  0
LTYPE
  5
38
330
2F
100
AcDbSymbolTableRecord
100
AcDbLinetypeTableRecord
  2
MUR
 70
     0
  3
Solid line (for MAPS)
 72
    65
 73
     0
 40
0.0
  0
LTYPE
  5
39
330
2F
100
AcDbSymbolTableRecord
100
AcDbLinetypeTableRecord
  2
SOM
 70
     0
  3
Solid line (for MAPS)
 72
    65
 73
     0
 40
0.0
  0
LTYPE
  5
3A
330
2F
100
AcDbSymbolTableRecord
100
AcDbLinetypeTableRecord
  2
COL
 70
     0
  3
Solid line (for MAPS)
 72
    65
 73
     0
 40
0.0
  0
LTYPE
  5
3B
330
2F
100
AcDbSymbolTableRecord
100
AcDbLinetypeTableRecord
  2
LGN
 70
     0
  3
Solid line (for MAPS)
 72
    65
 73
     0
 40
0.0
  0
LTYPE
  5
3C
330
2F
100
AcDbSymbolTableRecord
100
AcDbLinetypeTableRecord
  2
PNT
 70
     0
  3
Solid line (for MAPS)
 72
    65
 73
     0
 40
0.0
  0
ENDTAB
  0
TABLE
  2
LAYER
  5
3D
330
0
100
AcDbSymbolTable
 70
    32
  0
LAYER
  5
3E
102
{ACAD_XDICTIONARY
360
28E
102
}
330
3D
100
AcDbSymbolTableRecord
100
AcDbLayerTableRecord
  2
STANDARD
 70
     0
 62
     7
  6
CONTINUOUS
370
    -3
390
230
  0
LAYER
  5
3F
102
{ACAD_XDICTIONARY
360
290
102
}
330
3D
100
AcDbSymbolTableRecord
100
AcDbLayerTableRecord
  2
Ech.1_1
 70
     0
 62
     7
  6
CONTINUOUS
370
    -3
390
230
  0
LAYER
  5
40
102
{ACAD_XDICTIONARY
360
292
102
}
330
3D
100
AcDbSymbolTableRecord
100
AcDbLayerTableRecord
  2
Ech.1_2
 70
     0
 62
     7
  6
CONTINUOUS
370
    -3
390
230
  0
LAYER
  5
41
102
{ACAD_XDICTIONARY
360
294
102
}
330
3D
100
AcDbSymbolTableRecord
100
AcDbLayerTableRecord
  2
Ech.1_5
 70
     0
 62
     7
  6
CONTINUOUS
370
    -3
390
230
  0
LAYER
  5
42
102
{ACAD_XDICTIONARY
360
296
102
}
330
3D
100
AcDbSymbolTableRecord
100
AcDbLayerTableRecord
  2
Ech.1_10
 70
     0
 62
     7
  6
CONTINUOUS
370
    -3
390
230
  0
LAYER
  5
43
102
{ACAD_XDICTIONARY
360
298
102
}
330
3D
100
AcDbSymbolTableRecord
100
AcDbLayerTableRecord
  2
Ech.1_20
 70
     0
 62
     7
  6
CONTINUOUS
370
    -3
390
230
  0
LAYER
  5
44
102
{ACAD_XDICTIONARY
360
29A
102
}
330
3D
100
AcDbSymbolTableRecord
100
AcDbLayerTableRecord
  2
Ech.1_25
 70
     0
 62
     7
  6
CONTINUOUS
370
    -3
390
230
  0
LAYER
  5
45
102
{ACAD_XDICTIONARY
360
29C
102
}
330
3D
100
AcDbSymbolTableRecord
100
AcDbLayerTableRecord
  2
Ech.1_33
 70
     0
 62
     7
  6
CONTINUOUS
370
    -3
390
230
  0
LAYER
  5
46
102
{ACAD_XDICTIONARY
360
29E
102
}
330
3D
100
AcDbSymbolTableRecord
100
AcDbLayerTableRecord
  2
Ech.1_50
 70
     0
 62
     7
  6
CONTINUOUS
370
    -3
390
230
  0
LAYER
  5
47
102
{ACAD_XDICTIONARY
360
2A0
102
}
330
3D
100
AcDbSymbolTableRecord
100
AcDbLayerTableRecord
  2
Ech.1_75
 70
     0
 62
     7
  6
CONTINUOUS
370
    -3
390
230
  0
LAYER
  5
48
102
{ACAD_XDICTIONARY
360
2A2
102
}
330
3D
100
AcDbSymbolTableRecord
100
AcDbLayerTableRecord
  2
Ech.1_100
 70
     0
 62
     7
  6
CONTINUOUS
370
    -3
390
230
  0
LAYER
  5
49
102
{ACAD_XDICTIONARY
360
2A4
102
}
330
3D
100
AcDbSymbolTableRecord
100
AcDbLayerTableRecord
  2
Ech.1_200
 70
     0
 62
     7
  6
CONTINUOUS
370
    -3
390
230
  0
LAYER
  5
4A
102
{ACAD_XDICTIONARY
360
2A6
102
}
330
3D
100
AcDbSymbolTableRecord
100
AcDbLayerTableRecord
  2
Ech.1_500
 70
     0
 62
     7
  6
CONTINUOUS
370
    -3
390
230
  0
LAYER
  5
4B
102
{ACAD_XDICTIONARY
360
2A8
102
}
330
3D
100
AcDbSymbolTableRecord
100
AcDbLayerTableRecord
  2
Ech.1_1000
 70
     0
 62
     7
  6
CONTINUOUS
370
    -3
390
230
  0
LAYER
  5
4C
102
{ACAD_XDICTIONARY
360
2AA
102
}
330
3D
100
AcDbSymbolTableRecord
100
AcDbLayerTableRecord
  2
Cadres traceur
 70
     0
 62
     7
  6
CONTINUOUS
370
    -3
390
230
  0
LAYER
  5
4D
102
{ACAD_XDICTIONARY
360
2AC
102
}
330
3D
100
AcDbSymbolTableRecord
100
AcDbLayerTableRecord
  2
Cadres laser
 70
     0
 62
     7
  6
CONTINUOUS
370
    -3
390
230
  0
LAYER
  5
4E
102
{ACAD_XDICTIONARY
360
2AE
102
}
330
3D
100
AcDbSymbolTableRecord
100
AcDbLayerTableRecord
  2
Légende d_aide
 70
     0
 62
     7
  6
CONTINUOUS
370
    -3
390
230
  0
LAYER
  5
4F
102
{ACAD_XDICTIONARY
360
2B0
102
}
330
3D
100
AcDbSymbolTableRecord
100
AcDbLayerTableRecord
  2
hachures ok
 70
     0
 62
     7
  6
CONTINUOUS
370
    -3
390
230
  0
LAYER
  5
50
102
{ACAD_XDICTIONARY
360
2B2
102
}
330
3D
100
AcDbSymbolTableRecord
100
AcDbLayerTableRecord
  2
ossature bois
 70
     0
 62
     7
  6
CONTINUOUS
370
    -3
390
230
  0
LAYER
  5
51
102
{ACAD_XDICTIONARY
360
2B4
102
}
330
3D
100
AcDbSymbolTableRecord
100
AcDbLayerTableRecord
  2
VR
 70
     0
 62
     7
  6
CONTINUOUS
370
    -3
390
230
  0
LAYER
  5
52
102
{ACAD_XDICTIONARY
360
2B6
102
}
330
3D
100
AcDbSymbolTableRecord
100
AcDbLayerTableRecord
  2
CALQUE1
 70
     0
 62
     7
  6
CONTINUOUS
370
    -3
390
230
  0
LAYER
  5
53
330
3D
100
AcDbSymbolTableRecord
100
AcDbLayerTableRecord
  2
0
 70
     0
 62
     7
  6
CONTINUOUS
370
    -3
390
230
  0
LAYER
  5
54
102
{ACAD_XDICTIONARY
360
2B8
102
}
330
3D
100
AcDbSymbolTableRecord
100
AcDbLayerTableRecord
  2
MENUISERIE
 70
     0
 62
     7
  6
CONTINUOUS
370
    -3
390
230
  0
LAYER
  5
55
102
{ACAD_XDICTIONARY
360
2BA
102
}
330
3D
100
AcDbSymbolTableRecord
100
AcDbLayerTableRecord
  2
COTATION
 70
     0
 62
   250
  6
CONTINUOUS
370
    -3
390
230
  0
LAYER
  5
56
330
3D
100
AcDbSymbolTableRecord
100
AcDbLayerTableRecord
  2
DEFPOINTS
 70
     0
 62
    10
  6
CONTINUOUS
290
     0
370
    -3
390
230
  0
LAYER
  5
57
102
{ACAD_XDICTIONARY
360
2BC
102
}
330
3D
100
AcDbSymbolTableRecord
100
AcDbLayerTableRecord
  2
HACHURE
 70
     0
 62
   254
  6
CONTINUOUS
370
    -3
390
230
  0
LAYER
  5
58
102
{ACAD_XDICTIONARY
360
2BE
102
}
330
3D
100
AcDbSymbolTableRecord
100
AcDbLayerTableRecord
  2
MAT1
 70
     0
 62
     7
  6
CONTINUOUS
370
    -3
390
230
  0
LAYER
  5
59
102
{ACAD_XDICTIONARY
360
2C0
102
}
330
3D
100
AcDbSymbolTableRecord
100
AcDbLayerTableRecord
  2
MAT2
 70
     0
 62
     7
  6
CONTINUOUS
370
    -3
390
230
  0
LAYER
  5
5A
102
{ACAD_XDICTIONARY
360
2C2
102
}
330
3D
100
AcDbSymbolTableRecord
100
AcDbLayerTableRecord
  2
HACH
 70
     0
 62
     8
  6
CONTINUOUS
370
    -3
390
230
  0
LAYER
  5
5B
102
{ACAD_XDICTIONARY
360
2C4
102
}
330
3D
100
AcDbSymbolTableRecord
100
AcDbLayerTableRecord
  2
MENUISERIES
 70
     0
 62
     7
  6
CONTINUOUS
370
    -3
390
230
  0
LAYER
  5
5C
102
{ACAD_XDICTIONARY
360
2C6
102
}
330
3D
100
AcDbSymbolTableRecord
100
AcDbLayerTableRecord
  2
BÉTONMÉTAL
 70
     0
 62
     7
  6
CONTINUOUS
370
    -3
390
230
  0
LAYER
  5
5D
102
{ACAD_XDICTIONARY
360
2C8
102
}
330
3D
100
AcDbSymbolTableRecord
100
AcDbLayerTableRecord
  2
BOIS
 70
     0
 62
     7
  6
CONTINUOUS
370
    -3
390
230
  0
ENDTAB
  0
TABLE
  2
STYLE
  5
2A
330
0
100
AcDbSymbolTable
 70
     4
  0
STYLE
  5
2B
330
2A
100
AcDbSymbolTableRecord
100
AcDbTextStyleTableRecord
  2
STANDARD
 70
     0
 40
0.0
 41
1.0
 50
0.0
 71
     0
 42
3.5
  3
MONOTXT
  4

  0
STYLE
  5
2C
330
2A
100
AcDbSymbolTableRecord
100
AcDbTextStyleTableRecord
  2
CADWORK1
 70
     0
 40
0.0
 41
1.0
 50
0.0
 71
     0
 42
3.5
  3
MONOTXT
  4

  0
STYLE
  5
2D
330
2A
100
AcDbSymbolTableRecord
100
AcDbTextStyleTableRecord
  2
MONOTXT
 70
     0
 40
0.0
 41
1.0
 50
0.0
 71
     0
 42
3.5
  3
MONOTXT
  4

  0
STYLE
  5
2E
330
2A
100
AcDbSymbolTableRecord
100
AcDbTextStyleTableRecord
  2
ARIAL
 70
     0
 40
0.0
 41
1.0
 50
0.0
 71
     0
 42
3.5
  3

  4

1001
ACAD
1000
Arial
1071
        0
  0
ENDTAB
  0
TABLE
  2
VIEW
  5
5E
330
0
100
AcDbSymbolTable
 70
     3
  0
ENDTAB
  0
TABLE
  2
UCS
  5
5F
330
0
100
AcDbSymbolTable
 70
     0
  0
ENDTAB
  0
TABLE
  2
APPID
  5
60
330
0
100
AcDbSymbolTable
 70
     2
  0
APPID
  5
61
330
60
100
AcDbSymbolTableRecord
100
AcDbRegAppTableRecord
  2
ACAD
 70
     0
  0
APPID
  5
30A
330
60
100
AcDbSymbolTableRecord
100
AcDbRegAppTableRecord
  2
ACAD_MLEADERVER
 70
     0
  0
ENDTAB
  0
TABLE
  2
DIMSTYLE
  5
62
330
0
100
AcDbSymbolTable
 70
     1
100
AcDbDimStyleTable
 71
     0
  0
DIMSTYLE
105
27A
330
62
100
AcDbSymbolTableRecord
100
AcDbDimStyleTableRecord
  2
Standard
 70
     0
340
2B
  0
ENDTAB
  0
TABLE
  2
BLOCK_RECORD
  5
63
330
0
100
AcDbSymbolTable
 70
    47
  0
BLOCK_RECORD
  5
64
102
{ACAD_XDICTIONARY
360
286
102
}
330
63
100
AcDbSymbolTableRecord
100
AcDbBlockTableRecord
  2
*MODEL_SPACE
340
27D
  0
BLOCK_RECORD
  5
65
330
63
100
AcDbSymbolTableRecord
100
AcDbBlockTableRecord
  2
*PAPER_SPACE
340
27E
  0
BLOCK_RECORD
  5
66
330
63
100
AcDbSymbolTableRecord
100
AcDbBlockTableRecord
  2
CDWK_EXTR_0
340
0
  0
BLOCK_RECORD
  5
67
330
63
100
AcDbSymbolTableRecord
100
AcDbBlockTableRecord
  2
CDWK_EXTR_1D
340
0
  0
BLOCK_RECORD
  5
68
330
63
100
AcDbSymbolTableRecord
100
AcDbBlockTableRecord
  2
CDWK_EXTR_1G
340
0
  0
BLOCK_RECORD
  5
69
330
63
100
AcDbSymbolTableRecord
100
AcDbBlockTableRecord
  2
CDWK_EXTR_2
340
0
  0
BLOCK_RECORD
  5
6A
330
63
100
AcDbSymbolTableRecord
100
AcDbBlockTableRecord
  2
CDWK_EXTR_3
340
0
  0
BLOCK_RECORD
  5
6B
330
63
100
AcDbSymbolTableRecord
100
AcDbBlockTableRecord
  2
CDWK_EXTR_4
340
0
  0
BLOCK_RECORD
  5
6C
330
63
100
AcDbSymbolTableRecord
100
AcDbBlockTableRecord
  2
CDWK_PTTYP0
340
0
  0
BLOCK_RECORD
  5
6D
330
63
100
AcDbSymbolTableRecord
100
AcDbBlockTableRecord
  2
CDWK_PTTYP1
340
0
  0
BLOCK_RECORD
  5
6E
330
63
100
AcDbSymbolTableRecord
100
AcDbBlockTableRecord
  2
CDWK_PTTYP2
340
0
  0
BLOCK_RECORD
  5
6F
330
63
100
AcDbSymbolTableRecord
100
AcDbBlockTableRecord
  2
CDWK_PTTYP3
340
0
  0
BLOCK_RECORD
  5
70
330
63
100
AcDbSymbolTableRecord
100
AcDbBlockTableRecord
  2
CDWK_PTTYP4
340
0
  0
BLOCK_RECORD
  5
71
330
63
100
AcDbSymbolTableRecord
100
AcDbBlockTableRecord
  2
CDWK_PTTYP5
340
0
  0
BLOCK_RECORD
  5
72
330
63
100
AcDbSymbolTableRecord
100
AcDbBlockTableRecord
  2
CDWK_PTTYP6
340
0
  0
BLOCK_RECORD
  5
73
330
63
100
AcDbSymbolTableRecord
100
AcDbBlockTableRecord
  2
CDWK_PTTYP7
340
0
  0
BLOCK_RECORD
  5
74
330
63
100
AcDbSymbolTableRecord
100
AcDbBlockTableRecord
  2
CDWK_PTTYP8
340
0
  0
BLOCK_RECORD
  5
75
330
63
100
AcDbSymbolTableRecord
100
AcDbBlockTableRecord
  2
CDWK_PTTYP9
340
0
  0
BLOCK_RECORD
  5
76
330
63
100
AcDbSymbolTableRecord
100
AcDbBlockTableRecord
  2
CDWK_PTTYP10
340
0
  0
BLOCK_RECORD
  5
77
330
63
100
AcDbSymbolTableRecord
100
AcDbBlockTableRecord
  2
CDWK_PTTYP11
340
0
  0
BLOCK_RECORD
  5
78
330
63
100
AcDbSymbolTableRecord
100
AcDbBlockTableRecord
  2
CDWK_PTTYP12
340
0
  0
BLOCK_RECORD
  5
79
330
63
100
AcDbSymbolTableRecord
100
AcDbBlockTableRecord
  2
CDWK_PTTYP13
340
0
  0
BLOCK_RECORD
  5
7A
330
63
100
AcDbSymbolTableRecord
100
AcDbBlockTableRecord
  2
CDWK_PTTYP14
340
0
  0
BLOCK_RECORD
  5
7B
330
63
100
AcDbSymbolTableRecord
100
AcDbBlockTableRecord
  2
CDWK_PTTYP15
340
0
  0
BLOCK_RECORD
  5
7C
330
63
100
AcDbSymbolTableRecord
100
AcDbBlockTableRecord
  2
CDWK_PTTYP16
340
0
  0
BLOCK_RECORD
  5
7D
330
63
100
AcDbSymbolTableRecord
100
AcDbBlockTableRecord
  2
CDWK_PTTYP17
340
0
  0
BLOCK_RECORD
  5
7E
330
63
100
AcDbSymbolTableRecord
100
AcDbBlockTableRecord
  2
CDWK_PTTYP18
340
0
  0
BLOCK_RECORD
  5
7F
330
63
100
AcDbSymbolTableRecord
100
AcDbBlockTableRecord
  2
CDWK_PTTYP19
340
0
  0
BLOCK_RECORD
  5
80
330
63
100
AcDbSymbolTableRecord
100
AcDbBlockTableRecord
  2
CDWK_PTTYP20
340
0
  0
BLOCK_RECORD
  5
81
330
63
100
AcDbSymbolTableRecord
100
AcDbBlockTableRecord
  2
CDWK_PTTYP21
340
0
  0
BLOCK_RECORD
  5
82
330
63
100
AcDbSymbolTableRecord
100
AcDbBlockTableRecord
  2
CDWK_PTTYP22
340
0
  0
BLOCK_RECORD
  5
83
330
63
100
AcDbSymbolTableRecord
100
AcDbBlockTableRecord
  2
CDWK_PTTYP23
340
0
  0
BLOCK_RECORD
  5
84
330
63
100
AcDbSymbolTableRecord
100
AcDbBlockTableRecord
  2
CDWK_PTTYP24
340
0
  0
BLOCK_RECORD
  5
85
330
63
100
AcDbSymbolTableRecord
100
AcDbBlockTableRecord
  2
CDWK_PTTYP25
340
0
  0
BLOCK_RECORD
  5
86
330
63
100
AcDbSymbolTableRecord
100
AcDbBlockTableRecord
  2
CDWK_PTTYP26
340
0
  0
BLOCK_RECORD
  5
87
330
63
100
AcDbSymbolTableRecord
100
AcDbBlockTableRecord
  2
CDWK_PTTYP27
340
0
  0
BLOCK_RECORD
  5
88
330
63
100
AcDbSymbolTableRecord
100
AcDbBlockTableRecord
  2
CDWK_PTTYP28
340
0
  0
BLOCK_RECORD
  5
89
330
63
100
AcDbSymbolTableRecord
100
AcDbBlockTableRecord
  2
CDWK_PTTYP29
340
0
  0
BLOCK_RECORD
  5
8A
330
63
100
AcDbSymbolTableRecord
100
AcDbBlockTableRecord
  2
CDWK_PTTYP30
340
0
102
{BLKREFS
331
229
102
}
  0
BLOCK_RECORD
  5
8B
330
63
100
AcDbSymbolTableRecord
100
AcDbBlockTableRecord
  2
CDWK_PTTYP31
340
0
  0
BLOCK_RECORD
  5
8C
330
63
100
AcDbSymbolTableRecord
100
AcDbBlockTableRecord
  2
CDWK_PTTYP32
340
0
  0
BLOCK_RECORD
  5
8D
330
63
100
AcDbSymbolTableRecord
100
AcDbBlockTableRecord
  2
CDWK_PTTYP33
340
0
  0
BLOCK_RECORD
  5
8E
330
63
100
AcDbSymbolTableRecord
100
AcDbBlockTableRecord
  2
CDWK_PTTYP34
340
0
  0
BLOCK_RECORD
  5
8F
330
63
100
AcDbSymbolTableRecord
100
AcDbBlockTableRecord
  2
CDWK_PTTYP35
340
0
  0
BLOCK_RECORD
  5
90
330
63
100
AcDbSymbolTableRecord
100
AcDbBlockTableRecord
  2
CDWK_PTTYP36
340
0
  0
BLOCK_RECORD
  5
91
330
63
100
AcDbSymbolTableRecord
100
AcDbBlockTableRecord
  2
CDWK_PTTYP37
340
0
  0
BLOCK_RECORD
  5
92
330
63
100
AcDbSymbolTableRecord
100
AcDbBlockTableRecord
  2
CDWK_PTTYP38
340
0
  0
BLOCK_RECORD
  5
93
330
63
100
AcDbSymbolTableRecord
100
AcDbBlockTableRecord
  2
*D45
340
0
102
{BLKREFS
331
22A
102
}
  0
BLOCK_RECORD
  5
94
330
63
100
AcDbSymbolTableRecord
100
AcDbBlockTableRecord
  2
*D46
340
0
102
{BLKREFS
331
22B
102
}
  0
ENDTAB
  0
ENDSEC
  0
SECTION
  2
BLOCKS
  0
BLOCK
  5
95
330
64
100
AcDbEntity
  8
0
100
AcDbBlockBegin
  2
*MODEL_SPACE
 70
     0
 10
0.0
 20
0.0
 30
0.0
  3
*MODEL_SPACE
  1

  0
ENDBLK
  5
96
330
64
100
AcDbEntity
  8
0
100
AcDbBlockEnd
  0
BLOCK
  5
97
330
65
100
AcDbEntity
 67
     1
  8
0
100
AcDbBlockBegin
  2
*PAPER_SPACE
 70
     0
 10
0.0
 20
0.0
 30
0.0
  3
*PAPER_SPACE
  1

  0
ENDBLK
  5
98
330
65
100
AcDbEntity
 67
     1
  8
0
100
AcDbBlockEnd
  0
BLOCK
  5
99
330
66
100
AcDbEntity
  8
0
100
AcDbBlockBegin
  2
CDWK_EXTR_0
 70
     0
 10
0.0
 20
0.0
 30
0.0
  3
CDWK_EXTR_0
  1

  0
LINE
  5
9A
330
66
100
AcDbEntity
  8
0
 62
     0
370
    -2
100
AcDbLine
 10
0.0
 20
0.0
 30
0.0
 11
2.0
 21
0.5
 31
0.0
  0
LINE
  5
9B
330
66
100
AcDbEntity
  8
0
 62
     0
370
    -2
100
AcDbLine
 10
0.0
 20
0.0
 30
0.0
 11
2.0
 21
-0.5
 31
0.0
  0
LINE
  5
9C
330
66
100
AcDbEntity
  8
0
 62
     0
370
    -2
100
AcDbLine
 10
2.0
 20
0.5
 30
0.0
 11
2.0
 21
-0.5
 31
0.0
  0
ENDBLK
  5
9D
330
66
100
AcDbEntity
  8
0
100
AcDbBlockEnd
  0
BLOCK
  5
9E
330
67
100
AcDbEntity
  8
0
100
AcDbBlockBegin
  2
CDWK_EXTR_1D
 70
     0
 10
0.0
 20
0.0
 30
0.0
  3
CDWK_EXTR_1D
  1

  0
LINE
  5
9F
330
67
100
AcDbEntity
  8
0
 62
     0
370
    -2
100
AcDbLine
 10
0.0
 20
0.0
 30
0.0
 11
0.0
 21
1.0
 31
0.0
  0
LINE
  5
A0
330
67
100
AcDbEntity
  8
0
 62
     0
370
    -2
100
AcDbLine
 10
0.0
 20
1.0
 30
0.0
 11
0.5
 21
1.5
 31
0.0
  0
LINE
  5
A1
330
67
100
AcDbEntity
  8
0
 62
     0
370
    -2
100
AcDbLine
 10
0.5
 20
1.5
 30
0.0
 11
1.5
 21
1.5
 31
0.0
  0
ENDBLK
  5
A2
330
67
100
AcDbEntity
  8
0
100
AcDbBlockEnd
  0
BLOCK
  5
A3
330
68
100
AcDbEntity
  8
0
100
AcDbBlockBegin
  2
CDWK_EXTR_1G
 70
     0
 10
0.0
 20
0.0
 30
0.0
  3
CDWK_EXTR_1G
  1

  0
LINE
  5
A4
330
68
100
AcDbEntity
  8
0
 62
     0
370
    -2
100
AcDbLine
 10
0.0
 20
0.0
 30
0.0
 11
0.0
 21
-1.0
 31
0.0
  0
LINE
  5
A5
330
68
100
AcDbEntity
  8
0
 62
     0
370
    -2
100
AcDbLine
 10
0.0
 20
-1.0
 30
0.0
 11
0.5
 21
-1.5
 31
0.0
  0
LINE
  5
A6
330
68
100
AcDbEntity
  8
0
 62
     0
370
    -2
100
AcDbLine
 10
0.5
 20
-1.5
 30
0.0
 11
1.5
 21
-1.5
 31
0.0
  0
ENDBLK
  5
A7
330
68
100
AcDbEntity
  8
0
100
AcDbBlockEnd
  0
BLOCK
  5
A8
330
69
100
AcDbEntity
  8
0
100
AcDbBlockBegin
  2
CDWK_EXTR_2
 70
     0
 10
0.0
 20
0.0
 30
0.0
  3
CDWK_EXTR_2
  1

  0
SOLID
  5
A9
330
69
100
AcDbEntity
  8
0
 62
     0
100
AcDbTrace
 10
0.0
 20
0.0
 30
0.0
 11
2.0
 21
0.5
 31
0.0
 12
2.0
 22
-0.5
 32
0.0
 13
2.0
 23
-0.5
 33
0.0
  0
ENDBLK
  5
AA
330
69
100
AcDbEntity
  8
0
100
AcDbBlockEnd
  0
BLOCK
  5
AB
330
6A
100
AcDbEntity
  8
0
100
AcDbBlockBegin
  2
CDWK_EXTR_3
 70
     0
 10
0.0
 20
0.0
 30
0.0
  3
CDWK_EXTR_3
  1

  0
SOLID
  5
AC
330
6A
100
AcDbEntity
  8
0
 62
     0
100
AcDbTrace
 10
0.0
 20
0.0
 30
0.0
 11
2.0
 21
0.5
 31
0.0
 12
2.0
 22
-0.5
 32
0.0
 13
2.0
 23
-0.5
 33
0.0
  0
LINE
  5
AD
330
6A
100
AcDbEntity
  8
0
 62
     0
370
    -2
100
AcDbLine
 10
0.0
 20
1.0
 30
0.0
 11
0.0
 21
-1.0
 31
0.0
  0
ENDBLK
  5
AE
330
6A
100
AcDbEntity
  8
0
100
AcDbBlockEnd
  0
BLOCK
  5
AF
330
6B
100
AcDbEntity
  8
0
100
AcDbBlockBegin
  2
CDWK_EXTR_4
 70
     0
 10
0.0
 20
0.0
 30
0.0
  3
CDWK_EXTR_4
  1

  0
HATCH
  5
B0
330
6B
100
AcDbEntity
  8
0
 62
     0
370
    20
100
AcDbHatch
 10
0.0
 20
0.0
 30
0.0
210
0.0
220
0.0
230
1.0
  2
SOLID
 70
     1
 71
     0
 91
        1
 92
        1
 93
        1
 72
     2
 10
0.0
 20
0.0
 40
0.5
 50
0.0
 51
360.0
 73
     1
 97
        0
 75
     0
 76
     1
 98
        1
 10
0.0
 20
0.0
  0
ENDBLK
  5
B1
330
6B
100
AcDbEntity
  8
0
100
AcDbBlockEnd
  0
BLOCK
  5
B2
330
6C
100
AcDbEntity
  8
0
100
AcDbBlockBegin
  2
CDWK_PTTYP0
 70
     0
 10
0.0
 20
0.0
 30
0.0
  3
CDWK_PTTYP0
  1

  0
POINT
  5
B3
330
6C
100
AcDbEntity
  8
0
 62
     0
100
AcDbPoint
 10
0.0
 20
0.0
 30
0.0
  0
ENDBLK
  5
B4
330
6C
100
AcDbEntity
  8
0
100
AcDbBlockEnd
  0
BLOCK
  5
B5
330
6D
100
AcDbEntity
  8
0
100
AcDbBlockBegin
  2
CDWK_PTTYP1
 70
     0
 10
0.0
 20
0.0
 30
0.0
  3
CDWK_PTTYP1
  1

  0
LINE
  5
B6
330
6D
100
AcDbEntity
  8
0
 62
     0
370
    -2
100
AcDbLine
 10
-0.5
 20
0.5
 30
0.0
 11
0.5
 21
0.5
 31
0.0
  0
LINE
  5
B7
330
6D
100
AcDbEntity
  8
0
 62
     0
370
    -2
100
AcDbLine
 10
0.5
 20
0.5
 30
0.0
 11
0.5
 21
-0.5
 31
0.0
  0
LINE
  5
B8
330
6D
100
AcDbEntity
  8
0
 62
     0
370
    -2
100
AcDbLine
 10
0.5
 20
-0.5
 30
0.0
 11
-0.5
 21
-0.5
 31
0.0
  0
LINE
  5
B9
330
6D
100
AcDbEntity
  8
0
 62
     0
370
    -2
100
AcDbLine
 10
-0.5
 20
-0.5
 30
0.0
 11
-0.5
 21
0.5
 31
0.0
  0
ENDBLK
  5
BA
330
6D
100
AcDbEntity
  8
0
100
AcDbBlockEnd
  0
BLOCK
  5
BB
330
6E
100
AcDbEntity
  8
0
100
AcDbBlockBegin
  2
CDWK_PTTYP2
 70
     0
 10
0.0
 20
0.0
 30
0.0
  3
CDWK_PTTYP2
  1

  0
LINE
  5
BC
330
6E
100
AcDbEntity
  8
0
 62
     0
370
    -2
100
AcDbLine
 10
0.0
 20
0.5
 30
0.0
 11
0.0
 21
-0.5
 31
0.0
  0
LINE
  5
BD
330
6E
100
AcDbEntity
  8
0
 62
     0
370
    -2
100
AcDbLine
 10
-0.5
 20
0.0
 30
0.0
 11
0.5
 21
0.0
 31
0.0
  0
ENDBLK
  5
BE
330
6E
100
AcDbEntity
  8
0
100
AcDbBlockEnd
  0
BLOCK
  5
BF
330
6F
100
AcDbEntity
  8
0
100
AcDbBlockBegin
  2
CDWK_PTTYP3
 70
     0
 10
0.0
 20
0.0
 30
0.0
  3
CDWK_PTTYP3
  1

  0
CIRCLE
  5
C0
330
6F
100
AcDbEntity
  8
0
 62
     0
370
    -2
100
AcDbCircle
 10
0.0
 20
0.0
 30
0.0
 40
0.5
  0
ENDBLK
  5
C1
330
6F
100
AcDbEntity
  8
0
100
AcDbBlockEnd
  0
BLOCK
  5
C2
330
70
100
AcDbEntity
  8
0
100
AcDbBlockBegin
  2
CDWK_PTTYP4
 70
     0
 10
0.0
 20
0.0
 30
0.0
  3
CDWK_PTTYP4
  1

  0
HATCH
  5
C3
330
70
100
AcDbEntity
  8
0
 62
     0
370
    20
100
AcDbHatch
 10
0.0
 20
0.0
 30
0.0
210
0.0
220
0.0
230
1.0
  2
SOLID
 70
     1
 71
     0
 91
        1
 92
        1
 93
        1
 72
     2
 10
0.0
 20
0.0
 40
0.5
 50
0.0
 51
360.0
 73
     1
 97
        0
 75
     0
 76
     1
 98
        1
 10
0.0
 20
0.0
  0
ENDBLK
  5
C4
330
70
100
AcDbEntity
  8
0
100
AcDbBlockEnd
  0
BLOCK
  5
C5
330
71
100
AcDbEntity
  8
0
100
AcDbBlockBegin
  2
CDWK_PTTYP5
 70
     0
 10
0.0
 20
0.0
 30
0.0
  3
CDWK_PTTYP5
  1

  0
LINE
  5
C6
330
71
100
AcDbEntity
  8
0
 62
     0
370
    -2
100
AcDbLine
 10
-0.5
 20
0.5
 30
0.0
 11
0.5
 21
0.5
 31
0.0
  0
LINE
  5
C7
330
71
100
AcDbEntity
  8
0
 62
     0
370
    -2
100
AcDbLine
 10
0.5
 20
0.5
 30
0.0
 11
0.5
 21
-0.5
 31
0.0
  0
LINE
  5
C8
330
71
100
AcDbEntity
  8
0
 62
     0
370
    -2
100
AcDbLine
 10
0.5
 20
-0.5
 30
0.0
 11
-0.5
 21
-0.5
 31
0.0
  0
LINE
  5
C9
330
71
100
AcDbEntity
  8
0
 62
     0
370
    -2
100
AcDbLine
 10
-0.5
 20
-0.5
 30
0.0
 11
-0.5
 21
0.5
 31
0.0
  0
SOLID
  5
CA
330
71
100
AcDbEntity
  8
0
 62
     0
100
AcDbTrace
 10
-0.5
 20
-0.5
 30
0.0
 11
-0.5
 21
0.0
 31
0.0
 12
0.0
 22
-0.5
 32
0.0
 13
0.0
 23
0.0
 33
0.0
  0
SOLID
  5
CB
330
71
100
AcDbEntity
  8
0
 62
     0
100
AcDbTrace
 10
0.0
 20
0.0
 30
0.0
 11
0.0
 21
0.5
 31
0.0
 12
0.5
 22
0.0
 32
0.0
 13
0.5
 23
0.5
 33
0.0
  0
ENDBLK
  5
CC
330
71
100
AcDbEntity
  8
0
100
AcDbBlockEnd
  0
BLOCK
  5
CD
330
72
100
AcDbEntity
  8
0
100
AcDbBlockBegin
  2
CDWK_PTTYP6
 70
     0
 10
0.0
 20
0.0
 30
0.0
  3
CDWK_PTTYP6
  1

  0
LINE
  5
CE
330
72
100
AcDbEntity
  8
0
 62
     0
370
    -2
100
AcDbLine
 10
-0.5
 20
0.5
 30
0.0
 11
0.5
 21
0.5
 31
0.0
  0
LINE
  5
CF
330
72
100
AcDbEntity
  8
0
 62
     0
370
    -2
100
AcDbLine
 10
0.5
 20
0.5
 30
0.0
 11
0.5
 21
-0.5
 31
0.0
  0
LINE
  5
D0
330
72
100
AcDbEntity
  8
0
 62
     0
370
    -2
100
AcDbLine
 10
0.5
 20
-0.5
 30
0.0
 11
-0.5
 21
-0.5
 31
0.0
  0
LINE
  5
D1
330
72
100
AcDbEntity
  8
0
 62
     0
370
    -2
100
AcDbLine
 10
-0.5
 20
-0.5
 30
0.0
 11
-0.5
 21
0.5
 31
0.0
  0
SOLID
  5
D2
330
72
100
AcDbEntity
  8
0
 62
     0
100
AcDbTrace
 10
-0.5
 20
-0.5
 30
0.0
 11
-0.5
 21
0.5
 31
0.0
 12
0.5
 22
0.5
 32
0.0
 13
0.5
 23
0.5
 33
0.0
  0
ENDBLK
  5
D3
330
72
100
AcDbEntity
  8
0
100
AcDbBlockEnd
  0
BLOCK
  5
D4
330
73
100
AcDbEntity
  8
0
100
AcDbBlockBegin
  2
CDWK_PTTYP7
 70
     0
 10
0.0
 20
0.0
 30
0.0
  3
CDWK_PTTYP7
  1

  0
LINE
  5
D5
330
73
100
AcDbEntity
  8
0
 62
     0
370
    -2
100
AcDbLine
 10
-0.5
 20
0.5
 30
0.0
 11
0.5
 21
0.5
 31
0.0
  0
LINE
  5
D6
330
73
100
AcDbEntity
  8
0
 62
     0
370
    -2
100
AcDbLine
 10
0.5
 20
0.5
 30
0.0
 11
0.5
 21
-0.5
 31
0.0
  0
LINE
  5
D7
330
73
100
AcDbEntity
  8
0
 62
     0
370
    -2
100
AcDbLine
 10
0.5
 20
-0.5
 30
0.0
 11
-0.5
 21
-0.5
 31
0.0
  0
LINE
  5
D8
330
73
100
AcDbEntity
  8
0
 62
     0
370
    -2
100
AcDbLine
 10
-0.5
 20
-0.5
 30
0.0
 11
-0.5
 21
0.5
 31
0.0
  0
LINE
  5
D9
330
73
100
AcDbEntity
  8
0
 62
     0
370
    -2
100
AcDbLine
 10
0.0
 20
0.5
 30
0.0
 11
0.0
 21
-0.5
 31
0.0
  0
LINE
  5
DA
330
73
100
AcDbEntity
  8
0
 62
     0
370
    -2
100
AcDbLine
 10
-0.5
 20
0.0
 30
0.0
 11
0.5
 21
0.0
 31
0.0
  0
ENDBLK
  5
DB
330
73
100
AcDbEntity
  8
0
100
AcDbBlockEnd
  0
BLOCK
  5
DC
330
74
100
AcDbEntity
  8
0
100
AcDbBlockBegin
  2
CDWK_PTTYP8
 70
     0
 10
0.0
 20
0.0
 30
0.0
  3
CDWK_PTTYP8
  1

  0
SOLID
  5
DD
330
74
100
AcDbEntity
  8
0
 62
     0
100
AcDbTrace
 10
-0.5
 20
0.5
 30
0.0
 11
0.5
 21
0.5
 31
0.0
 12
-0.5
 22
-0.5
 32
0.0
 13
0.5
 23
-0.5
 33
0.0
  0
ENDBLK
  5
DE
330
74
100
AcDbEntity
  8
0
100
AcDbBlockEnd
  0
BLOCK
  5
DF
330
75
100
AcDbEntity
  8
0
100
AcDbBlockBegin
  2
CDWK_PTTYP9
 70
     0
 10
0.0
 20
0.0
 30
0.0
  3
CDWK_PTTYP9
  1

  0
CIRCLE
  5
E0
330
75
100
AcDbEntity
  8
0
 62
     0
370
    -2
100
AcDbCircle
 10
0.0
 20
0.0
 30
0.0
 40
0.5
  0
CIRCLE
  5
E1
330
75
100
AcDbEntity
  8
0
 62
     0
370
    -2
100
AcDbCircle
 10
0.0
 20
0.0
 30
0.0
 40
0.16666667
  0
ENDBLK
  5
E2
330
75
100
AcDbEntity
  8
0
100
AcDbBlockEnd
  0
BLOCK
  5
E3
330
76
100
AcDbEntity
  8
0
100
AcDbBlockBegin
  2
CDWK_PTTYP10
 70
     0
 10
0.0
 20
0.0
 30
0.0
  3
CDWK_PTTYP10
  1

  0
CIRCLE
  5
E4
330
76
100
AcDbEntity
  8
0
 62
     0
370
    -2
100
AcDbCircle
 10
0.0
 20
0.0
 30
0.0
 40
0.5
  0
ENDBLK
  5
E5
330
76
100
AcDbEntity
  8
0
100
AcDbBlockEnd
  0
BLOCK
  5
E6
330
77
100
AcDbEntity
  8
0
100
AcDbBlockBegin
  2
CDWK_PTTYP11
 70
     0
 10
0.0
 20
0.0
 30
0.0
  3
CDWK_PTTYP11
  1

  0
CIRCLE
  5
E7
330
77
100
AcDbEntity
  8
0
 62
     0
370
    -2
100
AcDbCircle
 10
0.0
 20
0.0
 30
0.0
 40
0.5
  0
CIRCLE
  5
E8
330
77
100
AcDbEntity
  8
0
 62
     0
370
    -2
100
AcDbCircle
 10
0.0
 20
0.0
 30
0.0
 40
0.25
  0
ENDBLK
  5
E9
330
77
100
AcDbEntity
  8
0
100
AcDbBlockEnd
  0
BLOCK
  5
EA
330
78
100
AcDbEntity
  8
0
100
AcDbBlockBegin
  2
CDWK_PTTYP12
 70
     0
 10
0.0
 20
0.0
 30
0.0
  3
CDWK_PTTYP12
  1

  0
CIRCLE
  5
EB
330
78
100
AcDbEntity
  8
0
 62
     0
370
    -2
100
AcDbCircle
 10
0.0
 20
0.0
 30
0.0
 40
0.5
  0
CIRCLE
  5
EC
330
78
100
AcDbEntity
  8
0
 62
     0
370
    -2
100
AcDbCircle
 10
0.25
 20
0.0
 30
0.0
 40
0.25
  0
ENDBLK
  5
ED
330
78
100
AcDbEntity
  8
0
100
AcDbBlockEnd
  0
BLOCK
  5
EE
330
79
100
AcDbEntity
  8
0
100
AcDbBlockBegin
  2
CDWK_PTTYP13
 70
     0
 10
0.0
 20
0.0
 30
0.0
  3
CDWK_PTTYP13
  1

  0
CIRCLE
  5
EF
330
79
100
AcDbEntity
  8
0
 62
     0
370
    -2
100
AcDbCircle
 10
0.0
 20
0.0
 30
0.0
 40
0.5
  0
CIRCLE
  5
F0
330
79
100
AcDbEntity
  8
0
 62
     0
370
    -2
100
AcDbCircle
 10
0.25
 20
0.0
 30
0.0
 40
0.25
  0
CIRCLE
  5
F1
330
79
100
AcDbEntity
  8
0
 62
     0
370
    -2
100
AcDbCircle
 10
-0.25
 20
0.0
 30
0.0
 40
0.25
  0
ENDBLK
  5
F2
330
79
100
AcDbEntity
  8
0
100
AcDbBlockEnd
  0
BLOCK
  5
F3
330
7A
100
AcDbEntity
  8
0
100
AcDbBlockBegin
  2
CDWK_PTTYP14
 70
     0
 10
0.0
 20
0.0
 30
0.0
  3
CDWK_PTTYP14
  1

  0
POINT
  5
F4
330
7A
100
AcDbEntity
  8
0
 62
     0
100
AcDbPoint
 10
0.0
 20
0.0
 30
0.0
  0
ENDBLK
  5
F5
330
7A
100
AcDbEntity
  8
0
100
AcDbBlockEnd
  0
BLOCK
  5
F6
330
7B
100
AcDbEntity
  8
0
100
AcDbBlockBegin
  2
CDWK_PTTYP15
 70
     0
 10
0.0
 20
0.0
 30
0.0
  3
CDWK_PTTYP15
  1

  0
POINT
  5
F7
330
7B
100
AcDbEntity
  8
0
 62
     0
100
AcDbPoint
 10
0.0
 20
0.0
 30
0.0
  0
ENDBLK
  5
F8
330
7B
100
AcDbEntity
  8
0
100
AcDbBlockEnd
  0
BLOCK
  5
F9
330
7C
100
AcDbEntity
  8
0
100
AcDbBlockBegin
  2
CDWK_PTTYP16
 70
     0
 10
0.0
 20
0.0
 30
0.0
  3
CDWK_PTTYP16
  1

  0
LINE
  5
FA
330
7C
100
AcDbEntity
  8
0
 62
     0
370
    -2
100
AcDbLine
 10
-0.5
 20
-0.28867513
 30
0.0
 11
0.5
 21
-0.28867513
 31
0.0
  0
LINE
  5
FB
330
7C
100
AcDbEntity
  8
0
 62
     0
370
    -2
100
AcDbLine
 10
0.5
 20
-0.28867513
 30
0.0
 11
0.0
 21
0.5773502700000001
 31
0.0
  0
LINE
  5
FC
330
7C
100
AcDbEntity
  8
0
 62
     0
370
    -2
100
AcDbLine
 10
0.0
 20
0.5773502700000001
 30
0.0
 11
-0.5
 21
-0.28867513
 31
0.0
  0
CIRCLE
  5
FD
330
7C
100
AcDbEntity
  8
0
 62
     0
370
    -2
100
AcDbCircle
 10
0.0
 20
0.0
 30
0.0
 40
0.28867513
  0
ENDBLK
  5
FE
330
7C
100
AcDbEntity
  8
0
100
AcDbBlockEnd
  0
BLOCK
  5
FF
330
7D
100
AcDbEntity
  8
0
100
AcDbBlockBegin
  2
CDWK_PTTYP17
 70
     0
 10
0.0
 20
0.0
 30
0.0
  3
CDWK_PTTYP17
  1

  0
CIRCLE
  5
100
330
7D
100
AcDbEntity
  8
0
 62
     0
370
    -2
100
AcDbCircle
 10
0.0
 20
0.0
 30
0.0
 40
0.5
  0
HATCH
  5
101
330
7D
100
AcDbEntity
  8
0
 62
     0
370
   211
100
AcDbHatch
 10
0.0
 20
0.0
 30
0.0
210
0.0
220
0.0
230
1.0
  2
SOLID
 70
     1
 71
     0
 91
        1
 92
        1
 93
        1
 72
     2
 10
0.0
 20
0.0
 40
0.25
 50
0.0
 51
360.0
 73
     1
 97
        0
 75
     0
 76
     1
 98
        1
 10
0.0
 20
0.0
  0
ENDBLK
  5
102
330
7D
100
AcDbEntity
  8
0
100
AcDbBlockEnd
  0
BLOCK
  5
103
330
7E
100
AcDbEntity
  8
0
100
AcDbBlockBegin
  2
CDWK_PTTYP18
 70
     0
 10
0.0
 20
0.0
 30
0.0
  3
CDWK_PTTYP18
  1

  0
CIRCLE
  5
104
330
7E
100
AcDbEntity
  8
0
 62
     0
370
    -2
100
AcDbCircle
 10
0.0
 20
0.0
 30
0.0
 40
0.5
  0
CIRCLE
  5
105
330
7E
100
AcDbEntity
  8
0
 62
     0
370
    -2
100
AcDbCircle
 10
0.0
 20
0.0
 30
0.0
 40
0.2
  0
ENDBLK
  5
106
330
7E
100
AcDbEntity
  8
0
100
AcDbBlockEnd
  0
BLOCK
  5
107
330
7F
100
AcDbEntity
  8
0
100
AcDbBlockBegin
  2
CDWK_PTTYP19
 70
     0
 10
0.0
 20
0.0
 30
0.0
  3
CDWK_PTTYP19
  1

  0
CIRCLE
  5
108
330
7F
100
AcDbEntity
  8
0
 62
     0
370
    -2
100
AcDbCircle
 10
0.0
 20
0.0
 30
0.0
 40
0.4
  0
CIRCLE
  5
109
330
7F
100
AcDbEntity
  8
0
 62
     0
370
    -2
100
AcDbCircle
 10
0.0
 20
0.0
 30
0.0
 40
0.25
  0
LINE
  5
10A
330
7F
100
AcDbEntity
  8
0
 62
     0
370
    -2
100
AcDbLine
 10
-0.25
 20
0.0
 30
0.0
 11
0.25
 21
0.0
 31
0.0
  0
ENDBLK
  5
10B
330
7F
100
AcDbEntity
  8
0
100
AcDbBlockEnd
  0
BLOCK
  5
10C
330
80
100
AcDbEntity
  8
0
100
AcDbBlockBegin
  2
CDWK_PTTYP20
 70
     0
 10
0.0
 20
0.0
 30
0.0
  3
CDWK_PTTYP20
  1

  0
CIRCLE
  5
10D
330
80
100
AcDbEntity
  8
0
 62
     0
370
    -2
100
AcDbCircle
 10
0.0
 20
0.0
 30
0.0
 40
0.5
  0
CIRCLE
  5
10E
330
80
100
AcDbEntity
  8
0
 62
     0
370
    -2
100
AcDbCircle
 10
0.0
 20
0.0
 30
0.0
 40
0.3
  0
ENDBLK
  5
10F
330
80
100
AcDbEntity
  8
0
100
AcDbBlockEnd
  0
BLOCK
  5
110
330
81
100
AcDbEntity
  8
0
100
AcDbBlockBegin
  2
CDWK_PTTYP21
 70
     0
 10
0.0
 20
0.0
 30
0.0
  3
CDWK_PTTYP21
  1

  0
CIRCLE
  5
111
330
81
100
AcDbEntity
  8
0
 62
     0
370
    -2
100
AcDbCircle
 10
0.0
 20
0.0
 30
0.0
 40
0.5
  0
LINE
  5
112
330
81
100
AcDbEntity
  8
0
 62
     0
370
    -2
100
AcDbLine
 10
-0.5
 20
0.0
 30
0.0
 11
0.5
 21
0.0
 31
0.0
  0
ENDBLK
  5
113
330
81
100
AcDbEntity
  8
0
100
AcDbBlockEnd
  0
BLOCK
  5
114
330
82
100
AcDbEntity
  8
0
100
AcDbBlockBegin
  2
CDWK_PTTYP22
 70
     0
 10
0.0
 20
0.0
 30
0.0
  3
CDWK_PTTYP22
  1

  0
POINT
  5
115
330
82
100
AcDbEntity
  8
0
 62
     0
100
AcDbPoint
 10
0.0
 20
0.0
 30
0.0
  0
ENDBLK
  5
116
330
82
100
AcDbEntity
  8
0
100
AcDbBlockEnd
  0
BLOCK
  5
117
330
83
100
AcDbEntity
  8
0
100
AcDbBlockBegin
  2
CDWK_PTTYP23
 70
     0
 10
0.0
 20
0.0
 30
0.0
  3
CDWK_PTTYP23
  1

  0
POINT
  5
118
330
83
100
AcDbEntity
  8
0
 62
     0
100
AcDbPoint
 10
0.0
 20
0.0
 30
0.0
  0
ENDBLK
  5
119
330
83
100
AcDbEntity
  8
0
100
AcDbBlockEnd
  0
BLOCK
  5
11A
330
84
100
AcDbEntity
  8
0
100
AcDbBlockBegin
  2
CDWK_PTTYP24
 70
     0
 10
0.0
 20
0.0
 30
0.0
  3
CDWK_PTTYP24
  1

  0
POINT
  5
11B
330
84
100
AcDbEntity
  8
0
 62
     0
100
AcDbPoint
 10
0.0
 20
0.0
 30
0.0
  0
ENDBLK
  5
11C
330
84
100
AcDbEntity
  8
0
100
AcDbBlockEnd
  0
BLOCK
  5
11D
330
85
100
AcDbEntity
  8
0
100
AcDbBlockBegin
  2
CDWK_PTTYP25
 70
     0
 10
0.0
 20
0.0
 30
0.0
  3
CDWK_PTTYP25
  1

  0
LINE
  5
11E
330
85
100
AcDbEntity
  8
0
 62
     0
370
    -2
100
AcDbLine
 10
-0.43290044
 20
-0.25
 30
0.0
 11
0.43290044
 21
-0.25
 31
0.0
  0
LINE
  5
11F
330
85
100
AcDbEntity
  8
0
 62
     0
370
    -2
100
AcDbLine
 10
-0.43290044
 20
-0.25
 30
0.0
 11
0.0
 21
0.5
 31
0.0
  0
LINE
  5
120
330
85
100
AcDbEntity
  8
0
 62
     0
370
    -2
100
AcDbLine
 10
0.43290044
 20
-0.25
 30
0.0
 11
0.0
 21
0.5
 31
0.0
  0
CIRCLE
  5
121
330
85
100
AcDbEntity
  8
0
 62
     0
370
    -2
100
AcDbCircle
 10
0.0
 20
0.0
 30
0.0
 40
0.5
  0
ENDBLK
  5
122
330
85
100
AcDbEntity
  8
0
100
AcDbBlockEnd
  0
BLOCK
  5
123
330
86
100
AcDbEntity
  8
0
100
AcDbBlockBegin
  2
CDWK_PTTYP26
 70
     0
 10
0.0
 20
0.0
 30
0.0
  3
CDWK_PTTYP26
  1

  0
LINE
  5
124
330
86
100
AcDbEntity
  8
0
 62
     0
370
    -2
100
AcDbLine
 10
-0.5
 20
-0.28850001
 30
0.0
 11
0.5
 21
-0.28850001
 31
0.0
  0
LINE
  5
125
330
86
100
AcDbEntity
  8
0
 62
     0
370
    -2
100
AcDbLine
 10
-0.5
 20
-0.28850001
 30
0.0
 11
0.0
 21
0.5773672100000001
 31
0.0
  0
LINE
  5
126
330
86
100
AcDbEntity
  8
0
 62
     0
370
    -2
100
AcDbLine
 10
0.5
 20
-0.28850001
 30
0.0
 11
0.0
 21
0.5773672100000001
 31
0.0
  0
CIRCLE
  5
127
330
86
100
AcDbEntity
  8
0
 62
     0
370
    -2
100
AcDbCircle
 10
0.0
 20
0.0
 30
0.0
 40
0.1312336
  0
ENDBLK
  5
128
330
86
100
AcDbEntity
  8
0
100
AcDbBlockEnd
  0
BLOCK
  5
129
330
87
100
AcDbEntity
  8
0
100
AcDbBlockBegin
  2
CDWK_PTTYP27
 70
     0
 10
0.0
 20
0.0
 30
0.0
  3
CDWK_PTTYP27
  1

  0
LINE
  5
12A
330
87
100
AcDbEntity
  8
0
 62
     0
370
    -2
100
AcDbLine
 10
-0.43290044
 20
-0.25
 30
0.0
 11
0.43290044
 21
-0.25
 31
0.0
  0
LINE
  5
12B
330
87
100
AcDbEntity
  8
0
 62
     0
370
    -2
100
AcDbLine
 10
-0.43290044
 20
-0.25
 30
0.0
 11
0.0
 21
0.5
 31
0.0
  0
LINE
  5
12C
330
87
100
AcDbEntity
  8
0
 62
     0
370
    -2
100
AcDbLine
 10
0.43290044
 20
-0.25
 30
0.0
 11
0.0
 21
0.5
 31
0.0
  0
CIRCLE
  5
12D
330
87
100
AcDbEntity
  8
0
 62
     0
370
    -2
100
AcDbCircle
 10
0.0
 20
0.0
 30
0.0
 40
0.5
  0
CIRCLE
  5
12E
330
87
100
AcDbEntity
  8
0
 62
     0
370
    -2
100
AcDbCircle
 10
0.0
 20
0.0
 30
0.0
 40
0.1312336
  0
ENDBLK
  5
12F
330
87
100
AcDbEntity
  8
0
100
AcDbBlockEnd
  0
BLOCK
  5
130
330
88
100
AcDbEntity
  8
0
100
AcDbBlockBegin
  2
CDWK_PTTYP28
 70
     0
 10
0.0
 20
0.0
 30
0.0
  3
CDWK_PTTYP28
  1

  0
POINT
  5
131
330
88
100
AcDbEntity
  8
0
 62
     0
100
AcDbPoint
 10
0.0
 20
0.0
 30
0.0
  0
ENDBLK
  5
132
330
88
100
AcDbEntity
  8
0
100
AcDbBlockEnd
  0
BLOCK
  5
133
330
89
100
AcDbEntity
  8
0
100
AcDbBlockBegin
  2
CDWK_PTTYP29
 70
     0
 10
0.0
 20
0.0
 30
0.0
  3
CDWK_PTTYP29
  1

  0
CIRCLE
  5
134
330
89
100
AcDbEntity
  8
0
 62
     0
370
    -2
100
AcDbCircle
 10
0.0
 20
0.0
 30
0.0
 40
0.5
  0
CIRCLE
  5
135
330
89
100
AcDbEntity
  8
0
 62
     0
370
    -2
100
AcDbCircle
 10
0.0
 20
0.0
 30
0.0
 40
0.375
  0
CIRCLE
  5
136
330
89
100
AcDbEntity
  8
0
 62
     0
370
    -2
100
AcDbCircle
 10
0.0
 20
0.0
 30
0.0
 40
0.21875
  0
ENDBLK
  5
137
330
89
100
AcDbEntity
  8
0
100
AcDbBlockEnd
  0
BLOCK
  5
138
330
8A
100
AcDbEntity
  8
0
100
AcDbBlockBegin
  2
CDWK_PTTYP30
 70
     0
 10
0.0
 20
0.0
 30
0.0
  3
CDWK_PTTYP30
  1

  0
LINE
  5
139
330
8A
100
AcDbEntity
  8
0
 62
     0
370
    -2
100
AcDbLine
 10
0.17680339
 20
0.17680339
 30
0.0
 11
0.5
 21
0.5
 31
0.0
  0
LINE
  5
13A
330
8A
100
AcDbEntity
  8
0
 62
     0
370
    -2
100
AcDbLine
 10
-0.17680339
 20
0.17680339
 30
0.0
 11
-0.5
 21
0.5
 31
0.0
  0
LINE
  5
13B
330
8A
100
AcDbEntity
  8
0
 62
     0
370
    -2
100
AcDbLine
 10
0.17680339
 20
-0.17680339
 30
0.0
 11
0.5
 21
-0.5
 31
0.0
  0
LINE
  5
13C
330
8A
100
AcDbEntity
  8
0
 62
     0
370
    -2
100
AcDbLine
 10
-0.17680339
 20
-0.17680339
 30
0.0
 11
-0.5
 21
-0.5
 31
0.0
  0
ENDBLK
  5
13D
330
8A
100
AcDbEntity
  8
0
100
AcDbBlockEnd
  0
BLOCK
  5
13E
330
8B
100
AcDbEntity
  8
0
100
AcDbBlockBegin
  2
CDWK_PTTYP31
 70
     0
 10
0.0
 20
0.0
 30
0.0
  3
CDWK_PTTYP31
  1

  0
CIRCLE
  5
13F
330
8B
100
AcDbEntity
  8
0
 62
     0
370
    -2
100
AcDbCircle
 10
0.0
 20
0.0
 30
0.0
 40
0.075
  0
LINE
  5
140
330
8B
100
AcDbEntity
  8
0
 62
     0
370
    -2
100
AcDbLine
 10
0.075
 20
0.0
 30
0.0
 11
0.5
 21
0.0
 31
0.0
  0
LINE
  5
141
330
8B
100
AcDbEntity
  8
0
 62
     0
370
    -2
100
AcDbLine
 10
-0.075
 20
0.0
 30
0.0
 11
-0.5
 21
0.0
 31
0.0
  0
LINE
  5
142
330
8B
100
AcDbEntity
  8
0
 62
     0
370
    -2
100
AcDbLine
 10
0.0
 20
0.075
 30
0.0
 11
0.0
 21
0.5
 31
0.0
  0
LINE
  5
143
330
8B
100
AcDbEntity
  8
0
 62
     0
370
    -2
100
AcDbLine
 10
0.0
 20
-0.075
 30
0.0
 11
0.0
 21
-0.5
 31
0.0
  0
ENDBLK
  5
144
330
8B
100
AcDbEntity
  8
0
100
AcDbBlockEnd
  0
BLOCK
  5
145
330
8C
100
AcDbEntity
  8
0
100
AcDbBlockBegin
  2
CDWK_PTTYP32
 70
     0
 10
0.0
 20
0.0
 30
0.0
  3
CDWK_PTTYP32
  1

  0
CIRCLE
  5
146
330
8C
100
AcDbEntity
  8
0
 62
     0
370
    -2
100
AcDbCircle
 10
0.0
 20
0.0
 30
0.0
 40
0.5
  0
CIRCLE
  5
147
330
8C
100
AcDbEntity
  8
0
 62
     0
370
    -2
100
AcDbCircle
 10
0.0
 20
0.0
 30
0.0
 40
0.16666667
  0
LINE
  5
148
330
8C
100
AcDbEntity
  8
0
 62
     0
370
    -2
100
AcDbLine
 10
0.11786893
 20
0.11786893
 30
0.0
 11
0.35360678
 21
0.35360678
 31
0.0
  0
LINE
  5
149
330
8C
100
AcDbEntity
  8
0
 62
     0
370
    -2
100
AcDbLine
 10
-0.11786893
 20
0.11786893
 30
0.0
 11
-0.35360678
 21
0.35360678
 31
0.0
  0
LINE
  5
14A
330
8C
100
AcDbEntity
  8
0
 62
     0
370
    -2
100
AcDbLine
 10
0.11786893
 20
-0.11786893
 30
0.0
 11
0.35360678
 21
-0.35360678
 31
0.0
  0
LINE
  5
14B
330
8C
100
AcDbEntity
  8
0
 62
     0
370
    -2
100
AcDbLine
 10
-0.11786893
 20
-0.11786893
 30
0.0
 11
-0.35360678
 21
-0.35360678
 31
0.0
  0
ENDBLK
  5
14C
330
8C
100
AcDbEntity
  8
0
100
AcDbBlockEnd
  0
BLOCK
  5
14D
330
8D
100
AcDbEntity
  8
0
100
AcDbBlockBegin
  2
CDWK_PTTYP33
 70
     0
 10
0.0
 20
0.0
 30
0.0
  3
CDWK_PTTYP33
  1

  0
CIRCLE
  5
14E
330
8D
100
AcDbEntity
  8
0
 62
     0
370
    -2
100
AcDbCircle
 10
0.0
 20
0.0
 30
0.0
 40
0.5
  0
LINE
  5
14F
330
8D
100
AcDbEntity
  8
0
 62
     0
370
    -2
100
AcDbLine
 10
0.0
 20
0.5
 30
0.0
 11
0.0
 21
-0.5
 31
0.0
  0
LINE
  5
150
330
8D
100
AcDbEntity
  8
0
 62
     0
370
    -2
100
AcDbLine
 10
-0.5
 20
0.0
 30
0.0
 11
0.5
 21
0.0
 31
0.0
  0
ENDBLK
  5
151
330
8D
100
AcDbEntity
  8
0
100
AcDbBlockEnd
  0
BLOCK
  5
152
330
8E
100
AcDbEntity
  8
0
100
AcDbBlockBegin
  2
CDWK_PTTYP34
 70
     0
 10
0.0
 20
0.0
 30
0.0
  3
CDWK_PTTYP34
  1

  0
CIRCLE
  5
153
330
8E
100
AcDbEntity
  8
0
 62
     0
370
    -2
100
AcDbCircle
 10
0.0
 20
0.0
 30
0.0
 40
0.5
  0
LINE
  5
154
330
8E
100
AcDbEntity
  8
0
 62
     0
370
    -2
100
AcDbLine
 10
-0.30360678
 20
-0.40360678
 30
0.0
 11
0.40360678
 21
0.30360678
 31
0.0
  0
LINE
  5
155
330
8E
100
AcDbEntity
  8
0
 62
     0
370
    -2
100
AcDbLine
 10
-0.40360678
 20
-0.30360678
 30
0.0
 11
0.30360678
 21
0.40360678
 31
0.0
  0
ENDBLK
  5
156
330
8E
100
AcDbEntity
  8
0
100
AcDbBlockEnd
  0
BLOCK
  5
157
330
8F
100
AcDbEntity
  8
0
100
AcDbBlockBegin
  2
CDWK_PTTYP35
 70
     0
 10
0.0
 20
0.0
 30
0.0
  3
CDWK_PTTYP35
  1

  0
CIRCLE
  5
158
330
8F
100
AcDbEntity
  8
0
 62
     0
370
    -2
100
AcDbCircle
 10
0.0
 20
0.0
 30
0.0
 40
0.21431634
  0
LINE
  5
159
330
8F
100
AcDbEntity
  8
0
 62
     0
370
    -2
100
AcDbLine
 10
0.0
 20
0.21431634
 30
0.0
 11
0.0
 21
0.5
 31
0.0
  0
LINE
  5
15A
330
8F
100
AcDbEntity
  8
0
 62
     0
370
    -2
100
AcDbLine
 10
0.0
 20
-0.21431634
 30
0.0
 11
0.0
 21
-0.5
 31
0.0
  0
ENDBLK
  5
15B
330
8F
100
AcDbEntity
  8
0
100
AcDbBlockEnd
  0
BLOCK
  5
15C
330
90
100
AcDbEntity
  8
0
100
AcDbBlockBegin
  2
CDWK_PTTYP36
 70
     0
 10
0.0
 20
0.0
 30
0.0
  3
CDWK_PTTYP36
  1

  0
LINE
  5
15D
330
90
100
AcDbEntity
  8
0
 62
     0
370
    -2
100
AcDbLine
 10
-0.5
 20
-0.16666667
 30
0.0
 11
0.5
 21
-0.16666667
 31
0.0
  0
LINE
  5
15E
330
90
100
AcDbEntity
  8
0
 62
     0
370
    -2
100
AcDbLine
 10
0.5
 20
-0.16666667
 30
0.0
 11
0.5
 21
0.16666667
 31
0.0
  0
LINE
  5
15F
330
90
100
AcDbEntity
  8
0
 62
     0
370
    -2
100
AcDbLine
 10
0.5
 20
0.16666667
 30
0.0
 11
-0.5
 21
0.16666667
 31
0.0
  0
LINE
  5
160
330
90
100
AcDbEntity
  8
0
 62
     0
370
    -2
100
AcDbLine
 10
-0.5
 20
0.16666667
 30
0.0
 11
-0.5
 21
-0.16666667
 31
0.0
  0
SOLID
  5
161
330
90
100
AcDbEntity
  8
0
 62
     0
100
AcDbTrace
 10
-0.5
 20
-0.16666667
 30
0.0
 11
0.5
 21
0.16666667
 31
0.0
 12
0.5
 22
-0.16666667
 32
0.0
 13
0.5
 23
-0.16666667
 33
0.0
  0
ENDBLK
  5
162
330
90
100
AcDbEntity
  8
0
100
AcDbBlockEnd
  0
BLOCK
  5
163
330
91
100
AcDbEntity
  8
0
100
AcDbBlockBegin
  2
CDWK_PTTYP37
 70
     0
 10
0.0
 20
0.0
 30
0.0
  3
CDWK_PTTYP37
  1

  0
CIRCLE
  5
164
330
91
100
AcDbEntity
  8
0
 62
     0
370
    -2
100
AcDbCircle
 10
0.0
 20
0.0
 30
0.0
 40
0.5
  0
SOLID
  5
165
330
91
100
AcDbEntity
  8
0
 62
     0
100
AcDbTrace
 10
0.0
 20
0.0
 30
0.0
 11
0.3535000099999999
 21
0.3535000099999999
 31
0.0
 12
0.5
 22
0.0
 32
0.0
 13
0.4620000100000001
 23
0.19149999
 33
0.0
  0
SOLID
  5
166
330
91
100
AcDbEntity
  8
0
 62
     0
100
AcDbTrace
 10
0.0
 20
0.0
 30
0.0
 11
0.3535000099999999
 21
-0.3535000099999999
 31
0.0
 12
0.5
 22
0.0
 32
0.0
 13
0.4620000100000001
 23
-0.19149999
 33
0.0
  0
SOLID
  5
167
330
91
100
AcDbEntity
  8
0
 62
     0
100
AcDbTrace
 10
0.0
 20
0.0
 30
0.0
 11
0.0
 21
-0.5
 31
0.0
 12
0.3535000099999999
 22
-0.3535000099999999
 32
0.0
 13
0.19149999
 23
-0.4620000100000001
 33
0.0
  0
SOLID
  5
168
330
91
100
AcDbEntity
  8
0
 62
     0
100
AcDbTrace
 10
0.0
 20
0.0
 30
0.0
 11
0.0
 21
-0.5
 31
0.0
 12
-0.3535000099999999
 22
-0.3535000099999999
 32
0.0
 13
-0.19149999
 23
-0.4620000100000001
 33
0.0
  0
ENDBLK
  5
169
330
91
100
AcDbEntity
  8
0
100
AcDbBlockEnd
  0
BLOCK
  5
16A
330
92
100
AcDbEntity
  8
0
100
AcDbBlockBegin
  2
CDWK_PTTYP38
 70
     0
 10
0.0
 20
0.0
 30
0.0
  3
CDWK_PTTYP38
  1

  0
CIRCLE
  5
16B
330
92
100
AcDbEntity
  8
0
 62
     0
370
    -2
100
AcDbCircle
 10
0.0
 20
0.0
 30
0.0
 40
0.5
  0
SOLID
  5
16C
330
92
100
AcDbEntity
  8
0
 62
     0
100
AcDbTrace
 10
0.0
 20
0.0
 30
0.0
 11
0.3535000099999999
 21
0.3535000099999999
 31
0.0
 12
0.0
 22
0.5
 32
0.0
 13
0.19149999
 23
0.4620000100000001
 33
0.0
  0
SOLID
  5
16D
330
92
100
AcDbEntity
  8
0
 62
     0
100
AcDbTrace
 10
0.0
 20
0.0
 30
0.0
 11
0.5
 21
0.0
 31
0.0
 12
0.3535000099999999
 22
0.3535000099999999
 32
0.0
 13
0.4620000100000001
 23
0.19149999
 33
0.0
  0
SOLID
  5
16E
330
92
100
AcDbEntity
  8
0
 62
     0
100
AcDbTrace
 10
0.0
 20
0.0
 30
0.0
 11
0.0
 21
-0.5
 31
0.0
 12
-0.3535000099999999
 22
-0.3535000099999999
 32
0.0
 13
-0.19149999
 23
-0.4620000100000001
 33
0.0
  0
SOLID
  5
16F
330
92
100
AcDbEntity
  8
0
 62
     0
100
AcDbTrace
 10
0.0
 20
0.0
 30
0.0
 11
-0.5
 21
0.0
 31
0.0
 12
-0.3535000099999999
 22
-0.3535000099999999
 32
0.0
 13
-0.4620000100000001
 23
-0.19149999
 33
0.0
  0
ENDBLK
  5
170
330
92
100
AcDbEntity
  8
0
100
AcDbBlockEnd
  0
BLOCK
  5
171
330
93
100
AcDbEntity
  8
Ech.1_5
100
AcDbBlockBegin
  2
*D45
 70
     1
 10
0.0
 20
0.0
 30
0.0
  3
*D45
  1

  0
TEXT
  5
172
330
93
100
AcDbEntity
  8
Ech.1_5
 62
     7
370
    18
100
AcDbText
 10
36136.71206049
 20
-3637.30859719
 30
0.0
 40
25.0
  1
2/3 *
 50
89.99999749999998
  7
ARIAL
100
AcDbText
  0
LINE
  5
173
330
93
100
AcDbEntity
  8
Ech.1_5
 62
     7
370
    -2
100
AcDbLine
 10
36150.42972685
 20
-3723.0534701
 30
0.0
 11
36144.65424821
 21
-3723.0534701
 31
0.0
  0
LINE
  5
174
330
93
100
AcDbEntity
  8
Ech.1_5
 62
     7
370
    -2
100
AcDbLine
 10
36150.42972685
 20
-3523.053449400001
 30
0.0
 11
36121.21910367001
 21
-3523.053449400001
 31
0.0
  0
LINE
  5
175
330
93
100
AcDbEntity
  8
Ech.1_5
 62
     7
370
    -2
100
AcDbLine
 10
36145.42972685
 20
-3728.0534701
 30
0.0
 11
36145.42972685
 21
-3518.053449400001
 31
0.0
  0
LINE
  5
176
330
93
100
AcDbEntity
  8
Ech.1_5
 62
     7
370
    -2
100
AcDbLine
 10
36147.92972685
 20
-3725.553470099999
 30
0.0
 11
36142.92972685
 21
-3720.5534701
 31
0.0
  0
LINE
  5
177
330
93
100
AcDbEntity
  8
Ech.1_5
 62
     7
370
    -2
100
AcDbLine
 10
36147.92972685
 20
-3525.5534494
 30
0.0
 11
36142.92972685
 21
-3520.553449400001
 31
0.0
  0
ENDBLK
  5
178
330
93
100
AcDbEntity
  8
0
100
AcDbBlockEnd
  0
BLOCK
  5
179
330
94
100
AcDbEntity
  8
Ech.1_5
100
AcDbBlockBegin
  2
*D46
 70
     1
 10
0.0
 20
0.0
 30
0.0
  3
*D46
  1

  0
TEXT
  5
17A
330
94
100
AcDbEntity
  8
Ech.1_5
 62
     7
370
    18
100
AcDbText
 10
36136.71206049
 20
-3818.30861074
 30
0.0
 40
25.0
  1
1/3 *
 50
89.99999749999998
  7
ARIAL
100
AcDbText
  0
LINE
  5
17B
330
94
100
AcDbEntity
  8
Ech.1_5
 62
     7
370
    -2
100
AcDbLine
 10
36140.42972685
 20
-3885.053476500001
 30
0.0
 11
36147.34880823001
 21
-3885.053476500001
 31
0.0
  0
LINE
  5
17C
330
94
100
AcDbEntity
  8
Ech.1_5
 62
     7
370
    -2
100
AcDbLine
 10
36140.42972685
 20
-3723.0534701
 30
0.0
 11
36144.65424821
 21
-3723.0534701
 31
0.0
  0
LINE
  5
17D
330
94
100
AcDbEntity
  8
Ech.1_5
 62
     7
370
    -2
100
AcDbLine
 10
36145.42972685
 20
-3890.0534765
 30
0.0
 11
36145.42972685
 21
-3718.0534701
 31
0.0
  0
LINE
  5
17E
330
94
100
AcDbEntity
  8
Ech.1_5
 62
     7
370
    -2
100
AcDbLine
 10
36147.92972685
 20
-3887.553476500001
 30
0.0
 11
36142.92972685
 21
-3882.5534765
 31
0.0
  0
LINE
  5
17F
330
94
100
AcDbEntity
  8
Ech.1_5
 62
     7
370
    -2
100
AcDbLine
 10
36147.92972685
 20
-3725.553470099999
 30
0.0
 11
36142.92972685
 21
-3720.5534701
 31
0.0
  0
ENDBLK
  5
180
330
94
100
AcDbEntity
  8
0
100
AcDbBlockEnd
  0
ENDSEC
  0
SECTION
  2
ENTITIES
  0
LWPOLYLINE
  5
181
330
64
100
AcDbEntity
  8
Ech.1_5
  6
Continuous
 62
     7
370
    -3
100
AcDbPolyline
 90
        5
 70
     0
 43
0.0
 10
36828.00153806
 20
-3576.0534765
 10
36828.00153806
 20
-3723.0534765
 10
35169.07473342
 20
-3723.0534765
 10
35169.07473342
 20
-3576.0534765
 10
35665.07457477396
 20
-3576.0534765
  0
LWPOLYLINE
  5
182
330
64
100
AcDbEntity
  8
Ech.1_5
 62
     7
100
AcDbPolyline
 90
       27
 70
     0
 43
0.0
 10
35572.94796353
 20
-4159.934924179999
 10
35573.07458065
 20
-4159.600450390001
 10
35573.07458065
 20
-4132.2169863
 10
35580.07458065
 20
-4132.2169863
 10
35580.07458065
 20
-4141.2169863
 10
35586.07458065
 20
-4141.2169863
 10
35586.07458065
 20
-4114.2169863
 10
35582.07458065
 20
-4110.216986300001
 10
35586.07458065
 20
-4106.2169863
 10
35586.07458065
 20
-4042.2169863
 10
35582.07458065
 20
-4038.2169863
 10
35586.07458065
 20
-4034.2169863
 10
35586.07458065
 20
-3999.216986300001
 10
35579.07458065
 20
-3999.216986300001
 10
35579.07458065
 20
-3993.216986300001
 10
35576.57458065
 20
-3988.2169863
 10
35574.07458065
 20
-3993.216986300001
 10
35574.07458065
 20
-4024.14591849
 10
35573.69397832
 20
-4026.05933565
 10
35567.53904675
 20
-4032.7525202
 10
35566.07458065
 20
-4036.288054109999
 10
35566.07458065
 20
-4155.374798519999
 10
35567.03490305
 20
-4157.00466716
 10
35571.77102391
 20
-4159.976017099999
 10
35572.18302527
 20
-4160.2169863
 10
35572.49684276
 20
-4160.2169863
 10
35572.94796353
 20
-4159.934924179999
  0
LWPOLYLINE
  5
183
330
64
100
AcDbEntity
  8
Ech.1_5
 62
     7
100
AcDbPolyline
 90
       27
 70
     0
 43
0.0
 10
35572.94796353
 20
-4304.93492418
 10
35573.07458065
 20
-4304.60045039
 10
35573.07458065
 20
-4277.2169863
 10
35580.07458065
 20
-4277.2169863
 10
35580.07458065
 20
-4286.216986300001
 10
35586.07458065
 20
-4286.216986300001
 10
35586.07458065
 20
-4259.216986300001
 10
35582.07458065
 20
-4255.216986300001
 10
35586.07458065
 20
-4251.216986300001
 10
35586.07458065
 20
-4187.216986300001
 10
35582.07458065
 20
-4183.216986300001
 10
35586.07458065
 20
-4179.216986300001
 10
35586.07458065
 20
-4144.2169863
 10
35579.07458065
 20
-4144.2169863
 10
35579.07458065
 20
-4138.2169863
 10
35576.57458065
 20
-4133.216986300001
 10
35574.07458065
 20
-4138.2169863
 10
35574.07458065
 20
-4169.14591849
 10
35573.69397832
 20
-4171.05933565
 10
35567.53904675
 20
-4177.7525202
 10
35566.07458065
 20
-4181.288054110001
 10
35566.07458065
 20
-4300.37479852
 10
35567.03490305
 20
-4302.004667160001
 10
35571.77102391
 20
-4304.976017100001
 10
35572.18302527
 20
-4305.216986300001
 10
35572.49684276
 20
-4305.216986300001
 10
35572.94796353
 20
-4304.93492418
  0
LWPOLYLINE
  5
184
330
64
100
AcDbEntity
  8
Ech.1_5
 62
     7
100
AcDbPolyline
 90
        4
 70
     0
 43
0.0
 10
35611.07669195
 20
-4365.80659875
 10
35611.07473335
 20
-3738.407678610001
 10
35620.07473342
 20
-3738.407678610001
 10
35620.07496645001
 20
-4365.80657066
  0
LINE
  5
185
330
64
100
AcDbEntity
  8
Ech.1_5
 62
     7
100
AcDbLine
 10
35800.07062057
 20
-3860.5534765
 30
0.0
 11
35800.07062057
 21
-4062.74724381
 31
0.0
  0
LWPOLYLINE
  5
186
330
64
100
AcDbEntity
  8
Ech.1_5
 62
     7
100
AcDbPolyline
 90
        4
 70
     0
 43
0.0
 10
35620.07458072
 20
-4365.80657058
 10
35620.07473342
 20
-3813.0534765
 10
35800.07062057
 20
-3813.0534765
 10
35800.09704541
 20
-4365.80623756
  0
LWPOLYLINE
  5
187
330
64
100
AcDbEntity
  8
Ech.1_5
  6
Continuous
 62
     7
370
    -3
100
AcDbPolyline
 90
       36
 70
     0
 43
0.0
 10
35650.32407339
 20
-3813.05348486
 42
1.14028181
 10
35658.15317988
 20
-3872.52144098
 10
35763.49230174
 20
-3844.33358208
 42
-1.303226189999999
 10
35763.49228559
 20
-3902.77081006
 10
35658.15317931
 20
-3874.58289296
 42
1.303226189999999
 10
35658.15316317
 20
-3933.02012093
 10
35763.49228503
 20
-3904.83226203
 42
-1.303226189999999
 10
35763.49226888
 20
-3963.26949001
 10
35658.1531626
 20
-3935.08157291
 42
1.303226189999999
 10
35658.15314645
 20
-3993.51880088
 10
35763.49226831
 20
-3965.33094199
 42
-1.303226189999999
 10
35763.49225217
 20
-4023.768169959999
 10
35658.15314589
 20
-3995.58025286
 42
1.303226189999999
 10
35658.15312974
 20
-4054.01748084
 10
35763.4922516
 20
-4025.82962194
 42
-1.303226189999999
 10
35763.49223546
 20
-4084.26684991
 10
35658.15312917
 20
-4056.07893281
 42
1.303226189999999
 10
35658.15311303
 20
-4114.51616079
 10
35763.49223489
 20
-4086.32830189
 42
-1.303226189999999
 10
35763.49221874
 20
-4144.76552986
 10
35658.15311246
 20
-4116.57761276
 42
1.303226189999999
 10
35658.15309632
 20
-4175.01484074
 10
35763.49221817
 20
-4146.82698184
 42
-1.303226189999999
 10
35763.49220203
 20
-4205.264209809999
 10
35658.15309575
 20
-4177.07629272
 42
1.303226189999999
 10
35658.1530796
 20
-4235.51352069
 10
35763.49220146
 20
-4207.32566179
 42
-1.303226189999999
 10
35763.49218532
 20
-4265.76288977
 10
35658.15307903
 20
-4237.57497267
 42
1.303226189999999
 10
35658.15306289
 20
-4296.012200639999
 10
35763.49218475
 20
-4267.824341739999
 42
-1.303226189999999
 10
35763.49216861
 20
-4326.261569719999
 10
35658.15306232
 20
-4298.07365262
 42
1.303226189999999
 10
35658.15304618
 20
-4356.51088059
 10
35763.49216804
 20
-4328.32302169
 42
-0.58234394
 10
35800.41960985
 20
-4365.806620399999
  0
LINE
  5
188
330
64
100
AcDbEntity
  8
Ech.1_5
 62
     1
100
AcDbLine
 10
35800.07062057
 20
-3723.0534765
 30
0.0
 11
35800.07062057
 21
-4365.80623756
 31
0.0
  0
LINE
  5
189
330
64
100
AcDbEntity
  8
Ech.1_5
  6
CADWORK_22
 62
     1
370
    35
100
AcDbLine
 10
35801.57062057
 20
-4365.80623632
 30
0.0
 11
35801.57062057
 21
-3723.0534765
 31
0.0
  0
LWPOLYLINE
  5
18A
330
64
100
AcDbEntity
  8
Ech.1_5
  6
Continuous
 62
     7
370
    -3
100
AcDbPolyline
 90
        4
 70
     0
 43
0.0
 10
35800.07062057
 20
-3783.053476500001
 10
35842.07062057
 20
-3723.0534765
 10
35842.07062057
 20
-3783.053476500001
 10
35800.07062057
 20
-3723.0534765
  0
LWPOLYLINE
  5
18B
330
64
100
AcDbEntity
  8
Ech.1_5
  6
Continuous
 62
     7
370
    -3
100
AcDbPolyline
 90
        5
 70
     0
 43
0.0
 10
35842.07062057
 20
-3783.053476500001
 10
35842.07062057
 20
-3723.0534765
 10
35800.07062057
 20
-3723.0534765
 10
35800.07062057
 20
-3783.053476500001
 10
35842.07062057
 20
-3783.053476500001
  0
LINE
  5
18C
330
64
100
AcDbEntity
  8
Ech.1_5
 62
     7
370
    35
100
AcDbLine
 10
35845.31515736
 20
-3860.3711439
 30
0.0
 11
35845.31515736
 21
-3730.561825360001
 31
0.0
  0
LWPOLYLINE
  5
18D
330
64
100
AcDbEntity
  8
Ech.1_5
 62
     7
100
AcDbPolyline
 90
       57
 70
     0
 43
0.0
 10
35080.76722573
 20
-3659.238076720001
 10
35082.16231289
 20
-3659.0353505
 10
35083.55850745
 20
-3658.830710410001
 10
35084.95691683
 20
-3658.62224258
 10
35086.35864842
 20
-3658.40803315
 10
35087.76480963001
 20
-3658.18616824
 10
35089.17650786
 20
-3657.95473399
 10
35090.59485052
 20
-3657.71181653
 10
35092.02094502
 20
-3657.45550198
 10
35093.45589875
 20
-3657.18387648
 10
35094.90081913
 20
-3656.89502617
 10
35096.35681356
 20
-3656.58703716
 10
35097.82498944
 20
-3656.2579956
 10
35099.30645418
 20
-3655.90598761
 10
35100.80231518
 20
-3655.52909933
 10
35102.31366041
 20
-3655.12546154
 10
35103.83972413
 20
-3654.69746558
 10
35105.37638092
 20
-3654.25522443
 10
35106.919151
 20
-3653.80966565
 10
35108.46355454
 20
-3653.37171676
 10
35110.00511175
 20
-3652.95230534
 10
35111.5393428
 20
-3652.56235892
 10
35113.06176791
 20
-3652.21280505
 10
35114.56790726001
 20
-3651.91457129
 10
35116.05328104
 20
-3651.67858518
 10
35117.51340944
 20
-3651.51577426
 10
35118.94381267
 20
-3651.4370661
 10
35120.3400109
 20
-3651.45338823
 10
35121.69752434
 20
-3651.57566821
 10
35123.01187318001
 20
-3651.81483359
 10
35124.27857761
 20
-3652.18181191
 10
35125.49315869
 20
-3652.68752699
 10
35126.65233285
 20
-3653.33777875
 10
35127.75638128
 20
-3654.12308671
 10
35128.80624676
 20
-3655.031134580001
 10
35129.80287205
 20
-3656.04960606
 10
35130.74719994
 20
-3657.16618486
 10
35131.64017318
 20
-3658.36855467
 10
35132.48273456
 20
-3659.64439921
 10
35133.27582684
 20
-3660.98140218
 10
35134.02039279
 20
-3662.36724727
 10
35134.71737518
 20
-3663.7896182
 10
35135.36771679
 20
-3665.23619867
 10
35135.97236039
 20
-3666.69467238
 10
35136.53224875
 20
-3668.15272304
 10
35137.04836088
 20
-3669.598301150001
 10
35137.52268992
 20
-3671.02682217
 10
35137.95835485
 20
-3672.44198873
 10
35138.35853328
 20
-3673.84793527
 10
35138.72640286
 20
-3675.24879624
 10
35139.06514121
 20
-3676.6487061
 10
35139.37792596
 20
-3678.0517993
 10
35139.66793474
 20
-3679.46221028
 10
35139.93836383
 20
-3680.88399768
 10
35140.19322773
 20
-3682.31789524
 10
35140.4376609
 20
-3683.76008536
 10
35140.67687872
 20
-3685.20642176
  0
ARC
  5
18E
330
64
100
AcDbEntity
  8
Ech.1_5
 62
     7
100
AcDbCircle
 10
35072.06639090001
 20
-3592.00888296
 30
0.0
 40
67.78988877
100
AcDbArc
 50
176.81519387
 51
17.9333216
  0
LINE
  5
18F
330
64
100
AcDbEntity
  8
Ech.1_5
 62
     7
100
AcDbLine
 10
35183.05800071
 20
-3562.03914101
 30
0.0
 11
35125.79429167
 21
-3569.56817347
 31
0.0
  0
LINE
  5
190
330
64
100
AcDbEntity
  8
Ech.1_5
 62
     7
100
AcDbLine
 10
35183.53605359
 20
-3563.99349954
 30
0.0
 11
35127.79429167
 21
-3571.32242639
 31
0.0
  0
LINE
  5
191
330
64
100
AcDbEntity
  8
Ech.1_5
 62
     7
100
AcDbLine
 10
35125.79429167
 20
-3569.56817347
 30
0.0
 11
35125.79429167
 21
-3598.17599307
 31
0.0
  0
LINE
  5
192
330
64
100
AcDbEntity
  8
Ech.1_5
 62
     7
100
AcDbLine
 10
35127.79429167
 20
-3571.32242639
 30
0.0
 11
35127.79429167
 21
-3592.914896270001
 31
0.0
  0
LINE
  5
193
330
64
100
AcDbEntity
  8
Ech.1_5
 62
     7
100
AcDbLine
 10
35135.26823254
 20
-3571.13569925
 30
0.0
 11
35147.07473342
 21
-3571.13569925
 31
0.0
  0
ARC
  5
194
330
64
100
AcDbEntity
  8
Ech.1_5
 62
     7
100
AcDbCircle
 10
35144.05520438
 20
-3684.59204431
 30
0.0
 40
3.43373615
100
AcDbArc
 50
190.30709612
 51
331.56662714
  0
LINE
  5
195
330
64
100
AcDbEntity
  8
Ech.1_5
 62
     7
100
AcDbLine
 10
35234.14687347
 20
-3543.44431203
 30
0.0
 11
35234.83091376
 21
-3545.323697270001
 31
0.0
  0
LINE
  5
196
330
64
100
AcDbEntity
  8
Ech.1_5
 62
     7
100
AcDbLine
 10
35183.05800071
 20
-3562.03914101
 30
0.0
 11
35234.14687347
 21
-3543.44431203
 31
0.0
  0
LINE
  5
197
330
64
100
AcDbEntity
  8
Ech.1_5
 62
     7
100
AcDbLine
 10
35586.07458065
 20
-3872.496024370001
 30
0.0
 11
35586.07458065
 21
-3863.06362984
 31
0.0
  0
LWPOLYLINE
  5
198
330
64
100
AcDbEntity
  8
Ech.1_5
 62
     7
100
AcDbPolyline
 90
        5
 70
     0
 43
0.0
 10
36765.68099371
 20
-2988.33726889
 10
36765.68099371
 20
-2959.60446903
 10
35174.89576135
 20
-3538.78421849
 10
35184.13030522
 20
-3564.15591925
 10
36765.68099371
 20
-2988.33726889
  0
ARC
  5
199
330
64
100
AcDbEntity
  8
Ech.1_5
 62
     7
100
AcDbCircle
 10
35614.46812
 20
-4342.64990508
 30
0.0
 40
901.7086350199999
100
AcDbArc
 50
114.11271308
 51
118.22750414
  0
ARC
  5
19A
330
64
100
AcDbEntity
  8
Ech.1_5
 62
     7
100
AcDbCircle
 10
35139.87162527
 20
-3454.55551106
 30
0.0
 40
105.25912681
100
AcDbArc
 50
263.48672377
 51
297.19892922
  0
LWPOLYLINE
  5
19B
330
64
100
AcDbEntity
  8
Ech.1_5
  6
Continuous
 62
     7
370
     5
100
AcDbPolyline
 90
        6
 70
     0
 43
0.0
 10
35546.77822584
 20
-4365.80679948
 10
35726.77822583
 20
-4365.80623756
 10
35743.26372899
 20
-4347.82888915
 10
35729.15378897
 20
-4383.78458916
 10
35745.64014305
 20
-4365.80623756
 10
35872.64014305
 20
-4365.80623756
  0
LWPOLYLINE
  5
19C
330
64
100
AcDbEntity
  8
Ech.1_5
  6
Continuous
 62
     7
370
    -3
100
AcDbPolyline
 90
        4
 70
     0
 43
0.0
 10
35620.07473342
 20
-3768.0534765
 10
35800.07062057
 20
-3813.0534765
 10
35800.07062057
 20
-3769.11318528
 10
35620.07473342
 20
-3813.0534765
  0
LWPOLYLINE
  5
19D
330
64
100
AcDbEntity
  8
Ech.1_5
  6
Continuous
 62
     7
370
    -3
100
AcDbPolyline
 90
        4
 70
     0
 43
0.0
 10
35620.07473342
 20
-3723.0534765
 10
35665.07473342
 20
-3633.053476500001
 10
35620.07473342
 20
-3633.053476500001
 10
35665.07473342
 20
-3723.0534765
  0
LWPOLYLINE
  5
19E
330
64
100
AcDbEntity
  8
Ech.1_5
  6
Continuous
 62
     7
370
    -3
100
AcDbPolyline
 90
        4
 70
     0
 43
0.0
 10
35620.07473342
 20
-3723.0534765
 10
35800.07062057
 20
-3768.0534765
 10
35800.07062057
 20
-3724.11318528
 10
35620.07473342
 20
-3768.0534765
  0
LWPOLYLINE
  5
19F
330
64
100
AcDbEntity
  8
Ech.1_5
 62
     7
100
AcDbPolyline
 90
       10
 70
     0
 43
0.0
 10
35234.83091376
 20
-3545.323697270001
 10
35234.14687347
 20
-3543.44431203
 10
35183.05800071
 20
-3562.03914101
 10
35125.79429167
 20
-3569.56817347
 10
35125.79429167
 20
-3598.17599307
 10
35130.51101771
 20
-3592.914896270001
 10
35127.79429167
 20
-3592.914896270001
 10
35127.79429167
 20
-3571.32242639
 10
35183.53605359
 20
-3563.99349954
 10
35234.83091376
 20
-3545.323697270001
  0
LWPOLYLINE
  5
1A0
330
64
100
AcDbEntity
  8
Ech.1_5
  6
Continuous
 62
     7
370
    -3
100
AcDbPolyline
 90
        4
 70
     0
 43
0.0
 10
36270.96001768
 20
-3783.053476500001
 10
36312.96001768
 20
-3723.0534765
 10
36312.96001768
 20
-3783.053476500001
 10
36270.96001768
 20
-3723.0534765
  0
LWPOLYLINE
  5
1A1
330
64
100
AcDbEntity
  8
Ech.1_5
 62
     7
100
AcDbPolyline
 90
        4
 70
     0
 43
0.0
 10
36828.00153806
 20
-3885.053314
 10
35805.40015806
 20
-3885.053314
 10
35805.40015806
 20
-3860.3711439
 10
36828.00153806
 20
-3860.3711439
  0
LWPOLYLINE
  5
1A2
330
64
100
AcDbEntity
  8
Ech.1_5
 62
     7
100
AcDbPolyline
 90
        5
 70
     0
 43
0.0
 10
35689.07267699
 20
-3667.452754750001
 10
35731.07267699
 20
-3667.45276006
 10
35731.07267699
 20
-3723.0534862
 10
35689.07267699
 20
-3723.053466800001
 10
35689.07267699
 20
-3667.45276006
  0
LWPOLYLINE
  5
1A3
330
64
100
AcDbEntity
  8
Ech.1_5
 62
     3
370
    70
100
AcDbPolyline
 90
        4
 70
     0
 43
0.0
 10
35807.10004955
 20
-3782.70478488
 10
35807.10004955
 20
-3769.71565146
 10
35812.78066251
 20
-3765.78091932
 10
35812.78066251
 20
-3752.30248932
  0
LWPOLYLINE
  5
1A4
330
64
100
AcDbEntity
  8
Ech.1_5
  6
Continuous
 62
     7
370
    -3
100
AcDbPolyline
 90
        5
 70
     0
 43
0.0
 10
35674.07473348001
 20
-3623.0534765
 10
36828.00153806
 20
-3623.0534765
 10
36828.00153806
 20
-3723.0534765
 10
35674.07473348001
 20
-3723.0534765
 10
35674.07473348001
 20
-3623.0534765
  0
ARC
  5
1A5
330
64
100
AcDbEntity
  8
Ech.1_5
 62
     7
100
AcDbCircle
 10
35071.26021565
 20
-3584.149519890001
 30
0.0
 40
62.81757613999999
100
AcDbArc
 50
180.12288569
 51
11.68289665
  0
ARC
  5
1A6
330
64
100
AcDbEntity
  8
Ech.1_5
 62
     7
100
AcDbCircle
 10
35071.26021565
 20
-3584.149519890001
 30
0.0
 40
65.31757613999999
100
AcDbArc
 50
182.93512956
 51
11.68289665
  0
LINE
  5
1A7
330
64
100
AcDbEntity
  8
Ech.1_5
 62
     7
100
AcDbLine
 10
35132.77641898
 20
-3571.429276150001
 30
0.0
 11
35135.22462723
 21
-3570.923038699999
 31
0.0
  0
LINE
  5
1A8
330
64
100
AcDbEntity
  8
Ech.1_5
 62
     7
100
AcDbLine
 10
35586.07458065
 20
-3784.58919156
 30
0.0
 11
35586.07458065
 21
-3812.58919156
 31
0.0
  0
LINE
  5
1A9
330
64
100
AcDbEntity
  8
Ech.1_5
 62
     7
100
AcDbLine
 10
35586.07458065
 20
-3857.589191560001
 30
0.0
 11
35586.07458065
 21
-3921.589191560001
 31
0.0
  0
LINE
  5
1AA
330
64
100
AcDbEntity
  8
Ech.1_5
 62
     7
100
AcDbLine
 10
35586.07458065
 20
-3813.58919156
 30
0.0
 11
35586.07458065
 21
-3849.58919156
 31
0.0
  0
LINE
  5
1AB
330
64
100
AcDbEntity
  8
Ech.1_5
 62
     7
100
AcDbLine
 10
35586.07458065
 20
-3929.58919156
 30
0.0
 11
35586.07458065
 21
-3957.58919156
 31
0.0
  0
LWPOLYLINE
  5
1AC
330
64
100
AcDbEntity
  8
Ech.1_5
 62
     7
100
AcDbPolyline
 90
        5
 70
     0
 43
0.0
 10
35696.33232515
 20
-3720.5531036
 42
-1.0
 10
35701.68915159
 20
-3720.5531036
 10
35701.68915159
 20
-3701.97162046
 42
1.0
 10
35696.33232515
 20
-3701.97162046
 10
35696.33232515
 20
-3720.5531036
  0
LWPOLYLINE
  5
1AD
330
64
100
AcDbEntity
  8
Ech.1_5
 62
     7
100
AcDbPolyline
 90
        5
 70
     0
 43
0.0
 10
35723.81302884
 20
-3720.5531036
 10
35723.81302884
 20
-3701.97162046
 42
1.0
 10
35718.45620239
 20
-3701.97162046
 10
35718.45620239
 20
-3720.5531036
 42
-1.0
 10
35723.81302884
 20
-3720.5531036
  0
LINE
  5
1AE
330
64
100
AcDbEntity
  8
Ech.1_5
 62
     7
100
AcDbLine
 10
35176.88172411
 20
-3481.12734483
 30
0.0
 11
35176.74454628
 21
-3481.15089793
 31
0.0
  0
LINE
  5
1AF
330
64
100
AcDbEntity
  8
Ech.1_5
 62
     7
100
AcDbLine
 10
35125.82493185
 20
-3598.14181662
 30
0.0
 11
35130.51101771
 21
-3592.914896270001
 31
0.0
  0
LINE
  5
1B0
330
64
100
AcDbEntity
  8
Ech.1_5
 62
     7
100
AcDbLine
 10
35127.82493185
 20
-3592.914896270001
 30
0.0
 11
35130.51101771
 21
-3592.914896270001
 31
0.0
  0
LWPOLYLINE
  5
1B1
330
64
100
AcDbEntity
  8
Ech.1_5
  6
Continuous
 62
     7
370
    -3
100
AcDbPolyline
 90
        4
 70
     0
 43
0.0
 10
35800.07062057
 20
-3918.053314
 10
35840.07062057
 20
-3963.053314000001
 10
35840.07062057
 20
-3918.053314
 10
35800.07062057
 20
-3963.053314000001
  0
LWPOLYLINE
  5
1B2
330
64
100
AcDbEntity
  8
Ech.1_5
  6
Continuous
 62
     7
370
    -3
100
AcDbPolyline
 90
        4
 70
     0
 43
0.0
 10
35800.07062057
 20
-4289.54356946
 10
35840.07062057
 20
-4334.54356946
 10
35840.07062057
 20
-4289.54356946
 10
35800.07062057
 20
-4334.54356946
  0
LWPOLYLINE
  5
1B3
330
64
100
AcDbEntity
  8
Ech.1_5
  6
Continuous
 62
     7
370
    -3
100
AcDbPolyline
 90
        5
 70
     0
 43
0.0
 10
35674.07473348001
 20
-3523.0534765
 10
36828.00153806
 20
-3523.0534765
 10
36828.00153806
 20
-3623.0534765
 10
35674.07473348001
 20
-3623.0534765
 10
35674.07473348001
 20
-3523.0534765
  0
LWPOLYLINE
  5
1B4
330
64
100
AcDbEntity
  8
Ech.1_5
 62
     7
370
    50
100
AcDbPolyline
 90
        3
 70
     0
 43
0.0
 10
35805.40015806
 20
-3860.29915162
 10
35805.40015806
 20
-3883.37766853
 10
35831.26234258
 20
-3883.37766853
  0
LWPOLYLINE
  5
1B5
330
64
100
AcDbEntity
  8
Ech.1_5
 62
     7
100
AcDbPolyline
 90
        5
 70
     0
 43
0.0
 10
35165.847382
 20
-3760.053476500001
 10
35609.14258481
 20
-3760.053483690001
 10
35609.14258481
 20
-3750.05348369
 10
35165.847382
 20
-3750.053476500001
 10
35165.847382
 20
-3760.053476500001
  0
LWPOLYLINE
  5
1B6
330
64
100
AcDbEntity
  8
Ech.1_5
  6
Continuous
 62
     7
370
    -3
100
AcDbPolyline
 90
        4
 70
     0
 43
0.0
 10
35223.27720402
 20
-3723.0534765
 10
35183.27720402
 20
-3750.053476500001
 10
35223.27720402
 20
-3750.053476500001
 10
35183.27720402
 20
-3723.0534765
  0
LWPOLYLINE
  5
1B7
330
64
100
AcDbEntity
  8
Ech.1_5
  6
Continuous
 62
     7
370
    -3
100
AcDbPolyline
 90
        4
 70
     0
 43
0.0
 10
35547.75490351
 20
-3723.0534765
 10
35507.75490351
 20
-3750.053476500001
 10
35547.75490351
 20
-3750.053476500001
 10
35507.75490351
 20
-3723.0534765
  0
LINE
  5
1B8
330
64
100
AcDbEntity
  8
Ech.1_5
 62
     7
100
AcDbLine
 10
35343.99980612001
 20
-3723.0534765
 30
0.0
 11
35620.07473342
 21
-3723.0534765
 31
0.0
  0
LWPOLYLINE
  5
1B9
330
64
100
AcDbEntity
  8
Ech.1_5
 62
     7
100
AcDbPolyline
 90
       12
 70
     0
 43
0.0
 10
35147.07473342
 20
-3726.46538749
 10
35147.07473342
 20
-3772.83122912
 42
-0.41421356
 10
35159.93875852
 20
-3785.695254220001
 10
35169.07473342
 20
-3785.695254220001
 10
35169.07473342
 20
-3764.39061088
 10
35162.79077395
 20
-3764.39061088
 10
35162.79077395
 20
-3753.32489051
 10
35162.79077395
 20
-3750.053476500001
 10
35169.07473342
 20
-3750.053476500001
 10
35169.07473342
 20
-3569.63569925
 10
35147.07473342
 20
-3569.63569925
 10
35147.07473342
 20
-3746.99519568
  0
LWPOLYLINE
  5
1BA
330
64
100
AcDbEntity
  8
Ech.1_5
  6
Continuous
 62
     7
370
    -3
100
AcDbPolyline
 90
        5
 70
     0
 43
0.0
 10
35508.14617217
 20
-3576.0534765
 10
36828.00153806
 20
-3095.66540978
 10
36828.00153806
 20
-2965.83572154
 10
35169.07473342
 20
-3569.63569925
 10
35169.07473342
 20
-3576.0534765
  0
LINE
  5
1BB
330
64
100
AcDbEntity
  8
Ech.1_5
 62
     7
100
AcDbLine
 10
35169.07473342
 20
-3723.0534765
 30
0.0
 11
35253.00594764
 21
-3723.0534765
 31
0.0
  0
LWPOLYLINE
  5
1BC
330
64
100
AcDbEntity
  8
Ech.1_5
 62
     7
100
AcDbPolyline
 90
        5
 70
     0
 43
0.0
 10
35071.86302098
 20
-3993.28452373
 10
35206.29179997
 20
-3993.28452373
 10
35206.29179997
 20
-4050.00748254
 10
35071.86302098
 20
-4050.00748254
 10
35071.86302098
 20
-3993.28452373
  0
LWPOLYLINE
  5
1BD
330
64
100
AcDbEntity
  8
Ech.1_5
 62
     7
100
AcDbPolyline
 90
        5
 70
     0
 43
0.0
 10
35090.14306677
 20
-4026.94133485
 10
35140.14306677
 20
-4026.94133485
 10
35140.14306677
 20
-4019.52619732
 10
35090.14306677
 20
-4019.52619732
 10
35090.14306677
 20
-4026.94133485
  0
LWPOLYLINE
  5
1BE
330
64
100
AcDbEntity
  8
Ech.1_5
 62
     7
100
AcDbPolyline
 90
        5
 70
     0
 43
0.0
 10
35140.14306677
 20
-4026.94133485
 10
35190.14306677
 20
-4026.94133485
 10
35190.14306677
 20
-4019.52619732
 10
35140.14306677
 20
-4019.52619732
 10
35140.14306677
 20
-4026.94133485
  0
LINE
  5
1BF
330
64
100
AcDbEntity
  8
Ech.1_5
  6
Continuous
 62
     7
370
    -3
100
AcDbLine
 10
35111.08417109999
 20
-3465.28176404
 30
0.0
 11
35459.15571302
 21
-3381.22934676
 31
0.0
  0
LWPOLYLINE
  5
1C0
330
64
100
AcDbEntity
  8
Ech.1_5
  6
Continuous
 62
     7
370
    -3
100
AcDbPolyline
 90
       23
 70
     0
 43
0.0
 10
35506.08925067
 20
-3358.59878359
 10
35515.53366913001
 20
-3356.31814267
 10
35528.13792779
 20
-3408.51394962
 10
35504.4052635
 20
-3414.87968646
 10
35498.29634873
 20
-3392.10450318
 10
35164.45184398
 20
-3481.65054977
 10
35166.6350765
 20
-3490.69158789
 10
35156.17587868
 20
-3493.49702516
 10
35153.68046156
 20
-3483.16319167
 10
35137.89580448
 20
-3487.33400974
 10
35140.42905716
 20
-3497.82452497
 10
35120.12650382
 20
-3502.72719146
 10
35111.08417109999
 20
-3465.28176404
 10
35103.18995585
 20
-3432.59083424
 42
-0.41421356
 10
35119.63777876
 20
-3405.67044215
 10
35446.02521318
 20
-3326.85430946
 10
35459.15571302
 20
-3381.22934676
 10
35482.2700114
 20
-3375.64769926
 10
35479.69231187
 20
-3364.97312405
 10
35489.13673034
 20
-3362.69248313
 10
35491.71442986001
 20
-3373.36705834
 10
35508.6669502
 20
-3369.27335879
 10
35506.08925067
 20
-3358.59878359
  0
LINE
  5
1C1
330
64
100
AcDbEntity
  8
Ech.1_5
  6
Continuous
 62
     7
370
    -3
100
AcDbLine
 10
35449.69192504
 20
-3342.03862052
 30
0.0
 11
35797.76346695
 21
-3257.98620324
 31
0.0
  0
LWPOLYLINE
  5
1C2
330
64
100
AcDbEntity
  8
Ech.1_5
  6
Continuous
 62
     7
370
    -3
100
AcDbPolyline
 90
       23
 70
     0
 43
0.0
 10
35844.6970046
 20
-3235.35564006
 10
35854.14142306
 20
-3233.07499914
 10
35866.74568172
 20
-3285.2708061
 10
35843.01301743
 20
-3291.63654294
 10
35836.90410267
 20
-3268.86135965
 10
35503.05959792
 20
-3358.40740625
 10
35505.24283044
 20
-3367.44844436
 10
35494.78363261
 20
-3370.25388163
 10
35492.28821549
 20
-3359.92004814
 10
35476.50355842
 20
-3364.09086622
 10
35479.03681109001
 20
-3374.58138144
 10
35458.73425775
 20
-3379.48404794
 10
35449.69192504
 20
-3342.03862052
 10
35441.79770979
 20
-3309.34769071
 42
-0.41421356
 10
35458.24553269
 20
-3282.42729862
 10
35784.68091671
 20
-3203.59958705
 10
35797.81141655
 20
-3257.97462435
 10
35820.87776534001
 20
-3252.40455574
 10
35818.30006581
 20
-3241.72998053
 10
35827.74448427
 20
-3239.449339610001
 10
35830.3221838
 20
-3250.12391482
 10
35847.27470413
 20
-3246.03021527
 10
35844.6970046
 20
-3235.35564006
  0
LINE
  5
1C3
330
64
100
AcDbEntity
  8
Ech.1_5
  6
Continuous
 62
     7
370
    -3
100
AcDbLine
 10
35788.27711533
 20
-3218.7334839
 30
0.0
 11
36136.34865725
 21
-3134.68106662
 31
0.0
  0
LWPOLYLINE
  5
1C4
330
64
100
AcDbEntity
  8
Ech.1_5
  6
Continuous
 62
     7
370
    -3
100
AcDbPolyline
 90
       23
 70
     0
 43
0.0
 10
36183.28219489
 20
-3112.05050344
 10
36192.72661336
 20
-3109.76986252
 10
36205.33087202
 20
-3161.96566947
 10
36181.59820772
 20
-3168.33140631
 10
36175.48929296
 20
-3145.556223030001
 10
35841.64478821
 20
-3235.10226963
 10
35843.82802073
 20
-3244.14330774
 10
35833.36882290001
 20
-3246.94874501
 10
35830.87340578
 20
-3236.61491152
 10
35815.08874871
 20
-3240.78572959
 10
35817.62200138
 20
-3251.27624482
 10
35797.31944804
 20
-3256.17891131
 10
35788.27711533
 20
-3218.7334839
 10
35780.38290008
 20
-3186.04255409
 42
-0.41421356
 10
35796.83072299
 20
-3159.122162
 10
36123.26610701
 20
-3080.29445043
 10
36136.39660685
 20
-3134.66948773
 10
36159.46295563
 20
-3129.09941911
 10
36156.8852561
 20
-3118.424843910001
 10
36166.32967456
 20
-3116.14420299
 10
36168.90737409
 20
-3126.81877819
 10
36185.85989442
 20
-3122.72507865
 10
36183.28219489
 20
-3112.05050344
  0
LINE
  5
1C5
330
64
100
AcDbEntity
  8
Ech.1_5
 62
     7
100
AcDbLine
 10
36126.88486926
 20
-3095.49034037
 30
0.0
 11
36474.95641118
 21
-3011.43792309
 31
0.0
  0
LWPOLYLINE
  5
1C6
330
64
100
AcDbEntity
  8
Ech.1_5
  6
Continuous
 62
     7
370
    -3
100
AcDbPolyline
 90
       23
 70
     0
 43
0.0
 10
36521.88994883
 20
-2988.80735992
 10
36531.33436729
 20
-2986.526719
 10
36543.93862595
 20
-3038.72252595
 10
36520.20596166
 20
-3045.08826279
 10
36514.0970469
 20
-3022.31307951
 10
36180.25254215
 20
-3111.859126100001
 10
36182.43577466
 20
-3120.90016422
 10
36171.97657684001
 20
-3123.70560149
 10
36169.48115972
 20
-3113.37176799
 10
36153.69650265
 20
-3117.54258607
 10
36156.22975532
 20
-3128.0331013
 10
36135.92720198
 20
-3132.93576779
 10
36126.88486926
 20
-3095.49034037
 10
36118.99065402
 20
-3062.79941057
 42
-0.41421356
 10
36135.43847692
 20
-3035.87901848
 10
36461.87386094001
 20
-2957.0513069
 10
36475.00436078
 20
-3011.42634421
 10
36498.07070956
 20
-3005.85627559
 10
36495.49301004
 20
-2995.18170038
 10
36504.9374285
 20
-2992.90105946
 10
36507.51512803
 20
-3003.57563467
 10
36524.46764836
 20
-2999.48193512
 10
36521.88994883
 20
-2988.80735992
  0
LINE
  5
1C7
330
64
100
AcDbEntity
  8
Ech.1_5
  6
Continuous
 62
     7
370
    -3
100
AcDbLine
 10
36126.87769413
 20
-3095.49207303
 30
0.0
 11
36474.94923605
 21
-3011.43965574
 31
0.0
  0
LWPOLYLINE
  5
1C8
330
64
100
AcDbEntity
  8
Ech.1_5
 62
     7
100
AcDbPolyline
 90
        5
 70
     0
 43
0.0
 10
35795.56541724
 20
-3284.146138580001
 10
35833.15312207
 20
-3270.46533285
 10
35842.38766594
 20
-3295.837033610001
 10
35804.79996111
 20
-3309.517839340001
 10
35795.56541724
 20
-3284.146138580001
  0
LWPOLYLINE
  5
1C9
330
64
100
AcDbEntity
  8
Ech.1_5
  6
Continuous
 62
     7
370
    -3
100
AcDbPolyline
 90
        4
 70
     0
 43
0.0
 10
35210.9551736
 20
-3472.44233822
 10
35174.89576135
 20
-3538.78421849
 10
35227.62421979
 20
-3519.59262912
 10
35174.87863692001
 20
-3482.11903258
  0
LWPOLYLINE
  5
1CA
330
64
100
AcDbEntity
  8
Ech.1_5
  6
Continuous
 62
     7
370
    -3
100
AcDbPolyline
 90
        4
 70
     0
 43
0.0
 10
35494.54536814001
 20
-3393.70847637
 10
35466.19220718
 20
-3432.76098286
 10
35503.77991201
 20
-3419.080177130001
 10
35456.95766331
 20
-3407.3892821
  0
LWPOLYLINE
  5
1CB
330
64
100
AcDbEntity
  8
Ech.1_5
  6
Continuous
 62
     7
370
    -3
100
AcDbPolyline
 90
        4
 70
     0
 43
0.0
 10
35833.15312207
 20
-3270.46533285
 10
35804.79996111
 20
-3309.517839340001
 10
35842.38766594
 20
-3295.837033610001
 10
35795.56541724
 20
-3284.146138580001
  0
LWPOLYLINE
  5
1CC
330
64
100
AcDbEntity
  8
Ech.1_5
  6
Continuous
 62
     7
370
    -3
100
AcDbPolyline
 90
        4
 70
     0
 43
0.0
 10
36171.73831237
 20
-3147.160196230001
 10
36143.3851514
 20
-3186.21270272
 10
36180.97285624
 20
-3172.53189699
 10
36134.15060753
 20
-3160.84100196
  0
LWPOLYLINE
  5
1CD
330
64
100
AcDbEntity
  8
Ech.1_5
  6
Continuous
 62
     7
370
    -3
100
AcDbPolyline
 90
        4
 70
     0
 43
0.0
 10
36510.33889117
 20
-3023.91878535
 10
36481.98573021
 20
-3062.97129185
 10
36519.57343504
 20
-3049.29048611
 10
36472.75118634
 20
-3037.59959109
  0
LINE
  5
1CE
330
64
100
AcDbEntity
  8
Ech.1_5
  6
Continuous
 62
     7
370
    -3
100
AcDbLine
 10
35111.08417109999
 20
-3465.28176404
 30
0.0
 11
35459.15571302
 21
-3381.22934676
 31
0.0
  0
LWPOLYLINE
  5
1CF
330
64
100
AcDbEntity
  8
Ech.1_5
  6
Continuous
 62
     7
370
    -3
100
AcDbPolyline
 90
        5
 70
     0
 43
0.0
 10
35800.07062057
 20
-3963.053314000001
 10
35840.07062057
 20
-3963.053314000001
 10
35840.07062057
 20
-3918.053314
 10
35800.07062057
 20
-3918.053314
 10
35800.07062057
 20
-3963.053314000001
  0
LWPOLYLINE
  5
1D0
330
64
100
AcDbEntity
  8
Ech.1_5
  6
Continuous
 62
     7
370
    -3
100
AcDbPolyline
 90
        5
 70
     0
 43
0.0
 10
35800.07062057
 20
-4334.54356946
 10
35840.07062057
 20
-4334.54356946
 10
35840.07062057
 20
-4289.54356946
 10
35800.07062057
 20
-4289.54356946
 10
35800.07062057
 20
-4334.54356946
  0
LWPOLYLINE
  5
1D1
330
64
100
AcDbEntity
  8
Ech.1_5
  6
Continuous
 62
     7
370
    -3
100
AcDbPolyline
 90
        5
 70
     0
 43
0.0
 10
36312.96001768
 20
-3783.053476500001
 10
36312.96001768
 20
-3723.0534765
 10
36270.96001768
 20
-3723.0534765
 10
36270.96001768
 20
-3783.053476500001
 10
36312.96001768
 20
-3783.053476500001
  0
LWPOLYLINE
  5
1D2
330
64
100
AcDbEntity
  8
Ech.1_5
  6
Continuous
 62
     7
370
    -3
100
AcDbPolyline
 90
        5
 70
     0
 43
0.0
 10
35800.07062057
 20
-3723.0534765
 10
35620.07473342
 20
-3723.0534765
 10
35620.07473342
 20
-3768.0534765
 10
35800.07062057
 20
-3768.0534765
 10
35800.07062057
 20
-3723.0534765
  0
LWPOLYLINE
  5
1D3
330
64
100
AcDbEntity
  8
Ech.1_5
  6
Continuous
 62
     7
370
    -3
100
AcDbPolyline
 90
        5
 70
     0
 43
0.0
 10
35800.07062057
 20
-3768.0534765
 10
35620.07473342
 20
-3768.0534765
 10
35620.07473342
 20
-3813.0534765
 10
35800.07062057
 20
-3813.0534765
 10
35800.07062057
 20
-3768.0534765
  0
LWPOLYLINE
  5
1D4
330
64
100
AcDbEntity
  8
Ech.1_5
  6
Continuous
 62
     7
370
    -3
100
AcDbPolyline
 90
        7
 70
     0
 43
0.0
 10
35620.07473342
 20
-3723.0534765
 10
35665.07473342
 20
-3723.0534765
 10
35665.07473342
 20
-3633.053476500001
 10
35641.49337441
 20
-3633.053476500001
 10
35620.07473342
 20
-3633.053476500001
 10
35620.07473342
 20
-3723.0534765
 10
35641.09755694
 20
-3723.0534765
  0
LWPOLYLINE
  5
1D5
330
64
100
AcDbEntity
  8
Ech.1_5
  6
Continuous
 62
     7
370
    -3
100
AcDbPolyline
 90
        5
 70
     0
 43
0.0
 10
35183.27720402
 20
-3723.0534765
 10
35223.27720402
 20
-3723.0534765
 10
35223.27720402
 20
-3750.053476500001
 10
35183.27720402
 20
-3750.053476500001
 10
35183.27720402
 20
-3723.0534765
  0
LWPOLYLINE
  5
1D6
330
64
100
AcDbEntity
  8
Ech.1_5
  6
Continuous
 62
     7
370
    -3
100
AcDbPolyline
 90
        5
 70
     0
 43
0.0
 10
35507.75490351
 20
-3723.0534765
 10
35547.75490351
 20
-3723.0534765
 10
35547.75490351
 20
-3750.053476500001
 10
35507.75490351
 20
-3750.053476500001
 10
35507.75490351
 20
-3723.0534765
  0
LWPOLYLINE
  5
1D7
330
64
100
AcDbEntity
  8
Ech.1_5
  6
Continuous
 62
     7
370
    -3
100
AcDbPolyline
 90
        5
 70
     0
 43
0.0
 10
35456.95766331
 20
-3407.3892821
 10
35494.54536814001
 20
-3393.70847637
 10
35503.77991201
 20
-3419.080177130001
 10
35466.19220718
 20
-3432.76098286
 10
35456.95766331
 20
-3407.3892821
  0
LWPOLYLINE
  5
1D8
330
64
100
AcDbEntity
  8
Ech.1_5
  6
Continuous
 62
     7
370
    -3
100
AcDbPolyline
 90
        5
 70
     0
 43
0.0
 10
35174.87863692001
 20
-3482.11903258
 10
35210.9551736
 20
-3472.44233822
 10
35227.62864001
 20
-3519.5910203
 10
35174.89576135
 20
-3538.78421849
 10
35174.87863692001
 20
-3482.11903258
  0
LWPOLYLINE
  5
1D9
330
64
100
AcDbEntity
  8
Ech.1_5
  6
Continuous
 62
     7
370
    -3
100
AcDbPolyline
 90
        5
 70
     0
 43
0.0
 10
35795.60349729
 20
-3284.09368865
 10
35833.19120212
 20
-3270.41288292
 10
35842.42574599
 20
-3295.784583680001
 10
35804.83804116
 20
-3309.465389410001
 10
35795.60349729
 20
-3284.09368865
  0
LWPOLYLINE
  5
1DA
330
64
100
AcDbEntity
  8
Ech.1_5
  6
Continuous
 62
     7
370
    -3
100
AcDbPolyline
 90
        5
 70
     0
 43
0.0
 10
36134.18868758
 20
-3160.78855203
 10
36171.77639241
 20
-3147.10774629
 10
36181.01093628
 20
-3172.47944706
 10
36143.42323145
 20
-3186.16025279
 10
36134.18868758
 20
-3160.78855203
  0
LWPOLYLINE
  5
1DB
330
64
100
AcDbEntity
  8
Ech.1_5
  6
Continuous
 62
     7
370
    -3
100
AcDbPolyline
 90
        5
 70
     0
 43
0.0
 10
36472.78926639
 20
-3037.547141160001
 10
36510.37697122
 20
-3023.86633542
 10
36519.61151509
 20
-3049.23803618
 10
36482.02381026
 20
-3062.91884192
 10
36472.78926639
 20
-3037.547141160001
  0
LINE
  5
1DC
330
64
100
AcDbEntity
  8
Ech.1_5
 62
     7
370
    35
100
AcDbLine
 10
36316.20455446
 20
-3860.3711439
 30
0.0
 11
36316.20455446
 21
-3730.561825360001
 31
0.0
  0
LINE
  5
1DD
330
64
100
AcDbEntity
  8
Ech.1_5
  6
DASHEDX2
 62
     7
370
    35
100
AcDbLine
 10
36316.20455446
 20
-3860.3711439
 30
0.0
 11
36316.20455446
 21
-3885.053314
 31
0.0
  0
LWPOLYLINE
  5
1DE
330
64
100
AcDbEntity
  8
Ech.1_5
  6
CADWORK_22
 62
     1
370
    35
100
AcDbPolyline
 90
        3
 70
     0
 43
0.0
 10
35807.30549197
 20
-3758.65215343
 10
35807.30549197
 20
-3725.053476500001
 10
36828.00153806
 20
-3725.053476500001
  0
LWPOLYLINE
  5
1DF
330
64
100
AcDbEntity
  8
Ech.1_5
  6
CADWORK_22
 62
   150
370
    35
100
AcDbPolyline
 90
        4
 70
     0
 43
0.0
 38
2500.0
 10
35181.65425794
 20
-3560.830315
 10
35232.69971769
 20
-3541.975349360001
 10
35239.62802553
 20
-3542.36013433
 10
36828.00153806
 20
-2964.23945488
  0
LINE
  5
1E0
330
64
100
AcDbEntity
  8
Ech.1_5
  6
DASHEDX2
 62
     7
370
    35
100
AcDbLine
 10
35845.31515736
 20
-3860.3711439
 30
0.0
 11
35845.31515736
 21
-3885.053314
 31
0.0
  0
LWPOLYLINE
  5
1E1
330
64
100
AcDbEntity
  8
Ech.1_5
  6
Continuous
 62
     7
370
    -3
100
AcDbPolyline
 90
        5
 70
     0
 43
0.0
 10
36349.82091619999
 20
-4260.75823996
 10
36349.82091619999
 20
-3275.75823996
 10
34994.82091619999
 20
-3275.75823996
 10
34994.82091619999
 20
-4260.75823996
 10
36349.82091619999
 20
-4260.75823996
  0
LWPOLYLINE
  5
1E4
330
64
100
AcDbEntity
  8
Ech.1_5
 62
     7
100
AcDbPolyline
 90
       17
 70
     0
 43
0.0
 10
35586.07458065
 20
-3783.306589199999
 10
35586.07458065
 20
-3816.2169863
 10
35582.07458065
 20
-3820.2169863
 10
35586.07458065
 20
-3824.216986300001
 10
35586.07458065
 20
-3851.216986300001
 10
35580.07458065
 20
-3851.216986300001
 10
35580.07458065
 20
-3842.216986300001
 10
35573.07458065
 20
-3842.216986300001
 10
35573.07458065
 20
-3869.60045039
 10
35572.94796353
 20
-3869.93492418
 10
35572.49684276
 20
-3870.2169863
 10
35572.18302527
 20
-3870.2169863
 10
35571.77102391
 20
-3869.9760171
 10
35567.03490305
 20
-3867.00466716
 10
35566.07458065
 20
-3865.37479852
 10
35566.07458065
 20
-3783.306589199999
 10
35586.07458065
 20
-3783.306589199999
  0
LWPOLYLINE
  5
1E5
330
64
100
AcDbEntity
  8
Ech.1_5
  6
Continuous
 62
   177
370
    70
100
AcDbPolyline
 90
        6
 70
     0
 43
0.0
 10
35611.07458065
 20
-3777.55491273
 10
35611.07473335
 20
-3760.9932282
 10
35598.74986632
 20
-3760.993179300001
 10
35611.07473335
 20
-3760.9932282
 10
35611.07473335
 20
-3749.11378842
 10
35598.75000487001
 20
-3749.11378842
  0
LWPOLYLINE
  5
1E6
330
64
100
AcDbEntity
  8
Ech.1_5
 62
     7
100
AcDbPolyline
 90
       27
 70
     0
 43
0.0
 10
35572.94796353
 20
-4014.93492418
 10
35573.07458065
 20
-4014.60045039
 10
35573.07458065
 20
-3987.2169863
 10
35580.07458065
 20
-3987.2169863
 10
35580.07458065
 20
-3996.216986300001
 10
35586.07458065
 20
-3996.216986300001
 10
35586.07458065
 20
-3969.216986300001
 10
35582.07458065
 20
-3965.216986300001
 10
35586.07458065
 20
-3961.216986300001
 10
35586.07458065
 20
-3897.216986300001
 10
35582.07458065
 20
-3893.2169863
 10
35586.07458065
 20
-3889.216986300001
 10
35586.07458065
 20
-3854.216986300001
 10
35579.07458065
 20
-3854.216986300001
 10
35579.07458065
 20
-3848.2169863
 10
35576.57458065
 20
-3843.216986300001
 10
35574.07458065
 20
-3848.2169863
 10
35574.07458065
 20
-3879.14591849
 10
35573.69397832
 20
-3881.05933565
 10
35567.53904675
 20
-3887.7525202
 10
35566.07458065
 20
-3891.28805411
 10
35566.07458065
 20
-4010.37479852
 10
35567.03490305
 20
-4012.00466716
 10
35571.77102391
 20
-4014.976017099999
 10
35572.18302527
 20
-4015.2169863
 10
35572.49684276
 20
-4015.2169863
 10
35572.94796353
 20
-4014.93492418
  0
LWPOLYLINE
  5
1E7
330
64
100
AcDbEntity
  8
Ech.1_5
 62
     7
100
AcDbPolyline
 90
       14
 70
     0
 43
0.0
 10
35586.07458065
 20
-4365.80679948
 10
35586.07458065
 20
-4332.2169863
 10
35582.07458065
 20
-4328.216986300001
 10
35586.07458065
 20
-4324.2169863
 10
35586.07458065
 20
-4289.2169863
 10
35579.07458065
 20
-4289.2169863
 10
35579.07458065
 20
-4283.216986300001
 10
35576.57458065
 20
-4278.216986300001
 10
35574.07458065
 20
-4283.216986300001
 10
35574.07458065
 20
-4314.145918490001
 10
35573.69397832
 20
-4316.05933565
 10
35567.53904675
 20
-4322.752520199999
 10
35566.07458065
 20
-4326.28805411
 10
35566.07458065
 20
-4365.80679948
  0
LWPOLYLINE
  5
1E8
330
64
100
AcDbEntity
  8
Ech.1_5
  6
CADWORK_22
 62
   150
370
    35
100
AcDbPolyline
 90
        3
 70
     0
 43
0.0
 38
2500.0
 10
35609.57442796
 20
-4363.80657817
 10
35609.57458065
 20
-3721.053476500001
 10
35659.01508922
 20
-3721.053476500001
  0
LWPOLYLINE
  5
1E9
330
64
100
AcDbEntity
  8
Ech.1_5
  6
Continuous
 62
     7
370
    -3
100
AcDbPolyline
 90
      122
 70
     0
 43
0.0
 10
36828.00153806
 20
-3801.72014317
 42
1.14028181
 10
36795.23611022
 20
-3806.03380363
 10
36810.76696589
 20
-3864.07314937
 42
-1.303226189999999
 10
36778.56944355
 20
-3864.07314937
 10
36794.10029923
 20
-3806.03380363
 42
1.303226189999999
 10
36761.90277689
 20
-3806.03380363
 10
36777.43363256
 20
-3864.07314937
 42
-1.303226189999999
 10
36745.23611022
 20
-3864.07314937
 10
36760.76696589
 20
-3806.03380363
 42
1.303226189999999
 10
36728.56944355
 20
-3806.03380363
 10
36744.10029923
 20
-3864.07314937
 42
-1.303226189999999
 10
36711.90277689
 20
-3864.07314937
 10
36727.43363256
 20
-3806.03380363
 42
1.303226189999999
 10
36695.23611022
 20
-3806.03380363
 10
36710.76696589
 20
-3864.07314937
 42
-1.303226189999999
 10
36678.56944355
 20
-3864.07314937
 10
36694.10029923
 20
-3806.03380363
 42
1.303226189999999
 10
36661.90277689
 20
-3806.03380363
 10
36677.43363256
 20
-3864.07314937
 42
-1.303226189999999
 10
36645.23611022
 20
-3864.07314937
 10
36660.76696589
 20
-3806.03380363
 42
1.303226189999999
 10
36628.56944355
 20
-3806.03380363
 10
36644.10029923
 20
-3864.07314937
 42
-1.303226189999999
 10
36611.90277689
 20
-3864.07314937
 10
36627.43363256
 20
-3806.03380363
 42
1.303226189999999
 10
36595.23611022
 20
-3806.03380363
 10
36610.76696589
 20
-3864.07314937
 42
-1.303226189999999
 10
36578.56944355
 20
-3864.07314937
 10
36594.10029923
 20
-3806.03380363
 42
1.303226189999999
 10
36561.90277689
 20
-3806.03380363
 10
36577.43363256
 20
-3864.07314937
 42
-1.303226189999999
 10
36545.23611022
 20
-3864.07314937
 10
36560.76696589
 20
-3806.03380363
 42
1.303226189999999
 10
36528.56944355
 20
-3806.03380363
 10
36544.10029923
 20
-3864.07314937
 42
-1.303226189999999
 10
36511.90277689
 20
-3864.07314937
 10
36527.43363256
 20
-3806.03380363
 42
1.303226189999999
 10
36495.23611022
 20
-3806.03380363
 10
36510.76696589
 20
-3864.07314937
 42
-1.303226189999999
 10
36478.56944355
 20
-3864.07314937
 10
36494.10029923
 20
-3806.03380363
 42
1.303226189999999
 10
36461.90277689
 20
-3806.03380363
 10
36477.43363256
 20
-3864.07314937
 42
-1.303226189999999
 10
36445.23611022
 20
-3864.07314937
 10
36460.76696589
 20
-3806.03380363
 42
1.303226189999999
 10
36428.56944355
 20
-3806.03380363
 10
36444.10029923
 20
-3864.07314937
 42
-1.303226189999999
 10
36411.90277689
 20
-3864.07314937
 10
36427.43363256
 20
-3806.03380363
 42
1.303226189999999
 10
36395.23611022
 20
-3806.03380363
 10
36410.76696589
 20
-3864.07314937
 42
-1.303226189999999
 10
36378.56944355
 20
-3864.07314937
 10
36394.10029923
 20
-3806.03380363
 42
1.303226189999999
 10
36361.90277689
 20
-3806.03380363
 10
36377.43363256
 20
-3864.07314937
 42
-1.303226189999999
 10
36345.23611022
 20
-3864.07314937
 10
36360.76696589
 20
-3806.03380363
 42
1.303226189999999
 10
36328.56944355
 20
-3806.03380363
 10
36344.10029923
 20
-3864.07314937
 42
-1.303226189999999
 10
36311.90277689
 20
-3864.07314937
 10
36327.43363256
 20
-3806.03380363
 42
1.303226189999999
 10
36295.23611022
 20
-3806.03380363
 10
36310.76696589
 20
-3864.07314937
 42
-1.303226189999999
 10
36278.56944355
 20
-3864.07314937
 10
36294.10029923
 20
-3806.03380363
 42
1.303226189999999
 10
36261.90277689
 20
-3806.03380363
 10
36277.43363256
 20
-3864.07314937
 42
-1.303226189999999
 10
36245.23611022
 20
-3864.07314937
 10
36260.76696589
 20
-3806.03380363
 42
1.303226189999999
 10
36228.56944355
 20
-3806.03380363
 10
36244.10029923
 20
-3864.07314937
 42
-1.303226189999999
 10
36211.90277689
 20
-3864.07314937
 10
36227.43363256
 20
-3806.03380363
 42
1.303226189999999
 10
36195.23611022
 20
-3806.03380363
 10
36210.76696589
 20
-3864.07314937
 42
-1.303226189999999
 10
36178.56944355
 20
-3864.07314937
 10
36194.10029923
 20
-3806.03380363
 42
1.303226189999999
 10
36161.90277689
 20
-3806.03380363
 10
36177.43363256
 20
-3864.07314937
 42
-1.303226189999999
 10
36145.23611022
 20
-3864.07314937
 10
36160.76696589
 20
-3806.03380363
 42
1.303226189999999
 10
36128.56944355
 20
-3806.03380363
 10
36144.10029923
 20
-3864.07314937
 42
-1.303226189999999
 10
36111.90277689
 20
-3864.07314937
 10
36127.43363256
 20
-3806.03380363
 42
1.303226189999999
 10
36095.23611022
 20
-3806.03380363
 10
36110.76696589
 20
-3864.07314937
 42
-1.303226189999999
 10
36078.56944355
 20
-3864.07314937
 10
36094.10029923
 20
-3806.03380363
 42
1.303226189999999
 10
36061.90277689
 20
-3806.03380363
 10
36077.43363256
 20
-3864.07314937
 42
-1.303226189999999
 10
36045.23611022
 20
-3864.07314937
 10
36060.76696589
 20
-3806.03380363
 42
1.303226189999999
 10
36028.56944355
 20
-3806.03380363
 10
36044.10029923
 20
-3864.07314937
 42
-1.303226189999999
 10
36011.90277689
 20
-3864.07314937
 10
36027.43363256
 20
-3806.03380363
 42
1.303226189999999
 10
35995.23611022
 20
-3806.03380363
 10
36010.76696589
 20
-3864.07314937
 42
-1.303226189999999
 10
35978.56944355
 20
-3864.07314937
 10
35994.10029923
 20
-3806.03380363
 42
1.303226189999999
 10
35961.90277689
 20
-3806.03380363
 10
35977.43363256
 20
-3864.07314937
 42
-1.303226189999999
 10
35945.23611022
 20
-3864.07314937
 10
35960.76696589
 20
-3806.03380363
 42
1.303226189999999
 10
35928.56944355
 20
-3806.03380363
 10
35944.10029923
 20
-3864.07314937
 42
-1.303226189999999
 10
35911.90277689
 20
-3864.07314937
 10
35927.43363256
 20
-3806.03380363
 42
1.303226189999999
 10
35895.23611022
 20
-3806.03380363
 10
35910.76696589
 20
-3864.07314937
 42
-1.303226189999999
 10
35878.56944355
 20
-3864.07314937
 10
35894.10029923
 20
-3806.03380363
 42
1.303226189999999
 10
35861.90277689
 20
-3806.03380363
 10
35877.43363256
 20
-3864.07314937
 42
-1.303226189999999
 10
35845.23611022
 20
-3864.07314937
 10
35860.76696589
 20
-3806.03380363
 42
1.303226189999999
 10
35828.56944355
 20
-3806.03380363
 10
35844.10029923
 20
-3864.07314937
 42
-1.303226189999999
 10
35811.90277689
 20
-3864.07314937
 10
35827.43363256
 20
-3806.03380363
 42
0.61195998
 10
35805.40015806
 20
-3786.14590304
  0
LWPOLYLINE
  5
1EA
330
64
100
AcDbEntity
  8
Ech.1_5
  6
Continuous
 62
     7
370
    -3
100
AcDbPolyline
 90
      138
 70
     0
 43
0.0
 10
36828.00153806
 20
-3639.720143170001
 42
1.14028181
 10
36795.23611022
 20
-3644.03380363
 10
36810.76696589
 20
-3702.07314937
 42
-1.303226189999999
 10
36778.56944355
 20
-3702.07314937
 10
36794.10029923
 20
-3644.03380363
 42
1.303226189999999
 10
36761.90277689
 20
-3644.03380363
 10
36777.43363256
 20
-3702.07314937
 42
-1.303226189999999
 10
36745.23611022
 20
-3702.07314937
 10
36760.76696589
 20
-3644.03380363
 42
1.303226189999999
 10
36728.56944355
 20
-3644.03380363
 10
36744.10029923
 20
-3702.07314937
 42
-1.303226189999999
 10
36711.90277689
 20
-3702.07314937
 10
36727.43363256
 20
-3644.03380363
 42
1.303226189999999
 10
36695.23611022
 20
-3644.03380363
 10
36710.76696589
 20
-3702.07314937
 42
-1.303226189999999
 10
36678.56944355
 20
-3702.07314937
 10
36694.10029923
 20
-3644.03380363
 42
1.303226189999999
 10
36661.90277689
 20
-3644.03380363
 10
36677.43363256
 20
-3702.07314937
 42
-1.303226189999999
 10
36645.23611022
 20
-3702.07314937
 10
36660.76696589
 20
-3644.03380363
 42
1.303226189999999
 10
36628.56944355
 20
-3644.03380363
 10
36644.10029923
 20
-3702.07314937
 42
-1.303226189999999
 10
36611.90277689
 20
-3702.07314937
 10
36627.43363256
 20
-3644.03380363
 42
1.303226189999999
 10
36595.23611022
 20
-3644.03380363
 10
36610.76696589
 20
-3702.07314937
 42
-1.303226189999999
 10
36578.56944355
 20
-3702.07314937
 10
36594.10029923
 20
-3644.03380363
 42
1.303226189999999
 10
36561.90277689
 20
-3644.03380363
 10
36577.43363256
 20
-3702.07314937
 42
-1.303226189999999
 10
36545.23611022
 20
-3702.07314937
 10
36560.76696589
 20
-3644.03380363
 42
1.303226189999999
 10
36528.56944355
 20
-3644.03380363
 10
36544.10029923
 20
-3702.07314937
 42
-1.303226189999999
 10
36511.90277689
 20
-3702.07314937
 10
36527.43363256
 20
-3644.03380363
 42
1.303226189999999
 10
36495.23611022
 20
-3644.03380363
 10
36510.76696589
 20
-3702.07314937
 42
-1.303226189999999
 10
36478.56944355
 20
-3702.07314937
 10
36494.10029923
 20
-3644.03380363
 42
1.303226189999999
 10
36461.90277689
 20
-3644.03380363
 10
36477.43363256
 20
-3702.07314937
 42
-1.303226189999999
 10
36445.23611022
 20
-3702.07314937
 10
36460.76696589
 20
-3644.03380363
 42
1.303226189999999
 10
36428.56944355
 20
-3644.03380363
 10
36444.10029923
 20
-3702.07314937
 42
-1.303226189999999
 10
36411.90277689
 20
-3702.07314937
 10
36427.43363256
 20
-3644.03380363
 42
1.303226189999999
 10
36395.23611022
 20
-3644.03380363
 10
36410.76696589
 20
-3702.07314937
 42
-1.303226189999999
 10
36378.56944355
 20
-3702.07314937
 10
36394.10029923
 20
-3644.03380363
 42
1.303226189999999
 10
36361.90277689
 20
-3644.03380363
 10
36377.43363256
 20
-3702.07314937
 42
-1.303226189999999
 10
36345.23611022
 20
-3702.07314937
 10
36360.76696589
 20
-3644.03380363
 42
1.303226189999999
 10
36328.56944355
 20
-3644.03380363
 10
36344.10029923
 20
-3702.07314937
 42
-1.303226189999999
 10
36311.90277689
 20
-3702.07314937
 10
36327.43363256
 20
-3644.03380363
 42
1.303226189999999
 10
36295.23611022
 20
-3644.03380363
 10
36310.76696589
 20
-3702.07314937
 42
-1.303226189999999
 10
36278.56944355
 20
-3702.07314937
 10
36294.10029923
 20
-3644.03380363
 42
1.303226189999999
 10
36261.90277689
 20
-3644.03380363
 10
36277.43363256
 20
-3702.07314937
 42
-1.303226189999999
 10
36245.23611022
 20
-3702.07314937
 10
36260.76696589
 20
-3644.03380363
 42
1.303226189999999
 10
36228.56944355
 20
-3644.03380363
 10
36244.10029923
 20
-3702.07314937
 42
-1.303226189999999
 10
36211.90277689
 20
-3702.07314937
 10
36227.43363256
 20
-3644.03380363
 42
1.303226189999999
 10
36195.23611022
 20
-3644.03380363
 10
36210.76696589
 20
-3702.07314937
 42
-1.303226189999999
 10
36178.56944355
 20
-3702.07314937
 10
36194.10029923
 20
-3644.03380363
 42
1.303226189999999
 10
36161.90277689
 20
-3644.03380363
 10
36177.43363256
 20
-3702.07314937
 42
-1.303226189999999
 10
36145.23611022
 20
-3702.07314937
 10
36160.76696589
 20
-3644.03380363
 42
1.303226189999999
 10
36128.56944355
 20
-3644.03380363
 10
36144.10029923
 20
-3702.07314937
 42
-1.303226189999999
 10
36111.90277689
 20
-3702.07314937
 10
36127.43363256
 20
-3644.03380363
 42
1.303226189999999
 10
36095.23611022
 20
-3644.03380363
 10
36110.76696589
 20
-3702.07314937
 42
-1.303226189999999
 10
36078.56944355
 20
-3702.07314937
 10
36094.10029923
 20
-3644.03380363
 42
1.303226189999999
 10
36061.90277689
 20
-3644.03380363
 10
36077.43363256
 20
-3702.07314937
 42
-1.303226189999999
 10
36045.23611022
 20
-3702.07314937
 10
36060.76696589
 20
-3644.03380363
 42
1.303226189999999
 10
36028.56944355
 20
-3644.03380363
 10
36044.10029923
 20
-3702.07314937
 42
-1.303226189999999
 10
36011.90277689
 20
-3702.07314937
 10
36027.43363256
 20
-3644.03380363
 42
1.303226189999999
 10
35995.23611022
 20
-3644.03380363
 10
36010.76696589
 20
-3702.07314937
 42
-1.303226189999999
 10
35978.56944355
 20
-3702.07314937
 10
35994.10029923
 20
-3644.03380363
 42
1.303226189999999
 10
35961.90277689
 20
-3644.03380363
 10
35977.43363256
 20
-3702.07314937
 42
-1.303226189999999
 10
35945.23611022
 20
-3702.07314937
 10
35960.76696589
 20
-3644.03380363
 42
1.303226189999999
 10
35928.56944355
 20
-3644.03380363
 10
35944.10029923
 20
-3702.07314937
 42
-1.303226189999999
 10
35911.90277689
 20
-3702.07314937
 10
35927.43363256
 20
-3644.03380363
 42
1.303226189999999
 10
35895.23611022
 20
-3644.03380363
 10
35910.76696589
 20
-3702.07314937
 42
-1.303226189999999
 10
35878.56944355
 20
-3702.07314937
 10
35894.10029923
 20
-3644.03380363
 42
1.303226189999999
 10
35861.90277689
 20
-3644.03380363
 10
35877.43363256
 20
-3702.07314937
 42
-1.303226189999999
 10
35845.23611022
 20
-3702.07314937
 10
35860.76696589
 20
-3644.03380363
 42
1.303226189999999
 10
35828.56944355
 20
-3644.03380363
 10
35844.10029923
 20
-3702.07314937
 42
-1.303226189999999
 10
35811.90277689
 20
-3702.07314937
 10
35827.43363256
 20
-3644.03380363
 42
1.303226189999999
 10
35795.23611022
 20
-3644.03380363
 10
35810.76696589
 20
-3702.07314937
 42
-1.303226189999999
 10
35778.56944355
 20
-3702.07314937
 10
35794.10029923
 20
-3644.03380363
 42
1.303226189999999
 10
35761.90277689
 20
-3644.03380363
 10
35777.43363256
 20
-3702.07314937
 42
-1.303226189999999
 10
35745.23611022
 20
-3702.07314937
 10
35760.76696589
 20
-3644.03380363
 42
1.303226189999999
 10
35728.56944355
 20
-3644.03380363
 10
35744.10029923
 20
-3702.07314937
 42
-1.303226189999999
 10
35711.90277689
 20
-3702.07314937
 10
35727.43363256
 20
-3644.03380363
 42
1.303226189999999
 10
35695.23611022
 20
-3644.03380363
 10
35710.76696589
 20
-3702.07314937
 42
-1.303226189999999
 10
35678.56944355
 20
-3702.07314937
 10
35694.10029923
 20
-3644.03380363
 42
0.5693929
 10
35674.07473348001
 20
-3623.52267473
  0
LWPOLYLINE
  5
1EB
330
64
100
AcDbEntity
  8
Ech.1_5
  6
Continuous
 62
     7
370
    -3
100
AcDbPolyline
 90
      138
 70
     0
 43
0.0
 10
36828.00153806
 20
-3539.720143170001
 42
1.14028181
 10
36795.23611022
 20
-3544.03380363
 10
36810.76696589
 20
-3602.07314937
 42
-1.303226189999999
 10
36778.56944355
 20
-3602.07314937
 10
36794.10029923
 20
-3544.03380363
 42
1.303226189999999
 10
36761.90277689
 20
-3544.03380363
 10
36777.43363256
 20
-3602.07314937
 42
-1.303226189999999
 10
36745.23611022
 20
-3602.07314937
 10
36760.76696589
 20
-3544.03380363
 42
1.303226189999999
 10
36728.56944355
 20
-3544.03380363
 10
36744.10029923
 20
-3602.07314937
 42
-1.303226189999999
 10
36711.90277689
 20
-3602.07314937
 10
36727.43363256
 20
-3544.03380363
 42
1.303226189999999
 10
36695.23611022
 20
-3544.03380363
 10
36710.76696589
 20
-3602.07314937
 42
-1.303226189999999
 10
36678.56944355
 20
-3602.07314937
 10
36694.10029923
 20
-3544.03380363
 42
1.303226189999999
 10
36661.90277689
 20
-3544.03380363
 10
36677.43363256
 20
-3602.07314937
 42
-1.303226189999999
 10
36645.23611022
 20
-3602.07314937
 10
36660.76696589
 20
-3544.03380363
 42
1.303226189999999
 10
36628.56944355
 20
-3544.03380363
 10
36644.10029923
 20
-3602.07314937
 42
-1.303226189999999
 10
36611.90277689
 20
-3602.07314937
 10
36627.43363256
 20
-3544.03380363
 42
1.303226189999999
 10
36595.23611022
 20
-3544.03380363
 10
36610.76696589
 20
-3602.07314937
 42
-1.303226189999999
 10
36578.56944355
 20
-3602.07314937
 10
36594.10029923
 20
-3544.03380363
 42
1.303226189999999
 10
36561.90277689
 20
-3544.03380363
 10
36577.43363256
 20
-3602.07314937
 42
-1.303226189999999
 10
36545.23611022
 20
-3602.07314937
 10
36560.76696589
 20
-3544.03380363
 42
1.303226189999999
 10
36528.56944355
 20
-3544.03380363
 10
36544.10029923
 20
-3602.07314937
 42
-1.303226189999999
 10
36511.90277689
 20
-3602.07314937
 10
36527.43363256
 20
-3544.03380363
 42
1.303226189999999
 10
36495.23611022
 20
-3544.03380363
 10
36510.76696589
 20
-3602.07314937
 42
-1.303226189999999
 10
36478.56944355
 20
-3602.07314937
 10
36494.10029923
 20
-3544.03380363
 42
1.303226189999999
 10
36461.90277689
 20
-3544.03380363
 10
36477.43363256
 20
-3602.07314937
 42
-1.303226189999999
 10
36445.23611022
 20
-3602.07314937
 10
36460.76696589
 20
-3544.03380363
 42
1.303226189999999
 10
36428.56944355
 20
-3544.03380363
 10
36444.10029923
 20
-3602.07314937
 42
-1.303226189999999
 10
36411.90277689
 20
-3602.07314937
 10
36427.43363256
 20
-3544.03380363
 42
1.303226189999999
 10
36395.23611022
 20
-3544.03380363
 10
36410.76696589
 20
-3602.07314937
 42
-1.303226189999999
 10
36378.56944355
 20
-3602.07314937
 10
36394.10029923
 20
-3544.03380363
 42
1.303226189999999
 10
36361.90277689
 20
-3544.03380363
 10
36377.43363256
 20
-3602.07314937
 42
-1.303226189999999
 10
36345.23611022
 20
-3602.07314937
 10
36360.76696589
 20
-3544.03380363
 42
1.303226189999999
 10
36328.56944355
 20
-3544.03380363
 10
36344.10029923
 20
-3602.07314937
 42
-1.303226189999999
 10
36311.90277689
 20
-3602.07314937
 10
36327.43363256
 20
-3544.03380363
 42
1.303226189999999
 10
36295.23611022
 20
-3544.03380363
 10
36310.76696589
 20
-3602.07314937
 42
-1.303226189999999
 10
36278.56944355
 20
-3602.07314937
 10
36294.10029923
 20
-3544.03380363
 42
1.303226189999999
 10
36261.90277689
 20
-3544.03380363
 10
36277.43363256
 20
-3602.07314937
 42
-1.303226189999999
 10
36245.23611022
 20
-3602.07314937
 10
36260.76696589
 20
-3544.03380363
 42
1.303226189999999
 10
36228.56944355
 20
-3544.03380363
 10
36244.10029923
 20
-3602.07314937
 42
-1.303226189999999
 10
36211.90277689
 20
-3602.07314937
 10
36227.43363256
 20
-3544.03380363
 42
1.303226189999999
 10
36195.23611022
 20
-3544.03380363
 10
36210.76696589
 20
-3602.07314937
 42
-1.303226189999999
 10
36178.56944355
 20
-3602.07314937
 10
36194.10029923
 20
-3544.03380363
 42
1.303226189999999
 10
36161.90277689
 20
-3544.03380363
 10
36177.43363256
 20
-3602.07314937
 42
-1.303226189999999
 10
36145.23611022
 20
-3602.07314937
 10
36160.76696589
 20
-3544.03380363
 42
1.303226189999999
 10
36128.56944355
 20
-3544.03380363
 10
36144.10029923
 20
-3602.07314937
 42
-1.303226189999999
 10
36111.90277689
 20
-3602.07314937
 10
36127.43363256
 20
-3544.03380363
 42
1.303226189999999
 10
36095.23611022
 20
-3544.03380363
 10
36110.76696589
 20
-3602.07314937
 42
-1.303226189999999
 10
36078.56944355
 20
-3602.07314937
 10
36094.10029923
 20
-3544.03380363
 42
1.303226189999999
 10
36061.90277689
 20
-3544.03380363
 10
36077.43363256
 20
-3602.07314937
 42
-1.303226189999999
 10
36045.23611022
 20
-3602.07314937
 10
36060.76696589
 20
-3544.03380363
 42
1.303226189999999
 10
36028.56944355
 20
-3544.03380363
 10
36044.10029923
 20
-3602.07314937
 42
-1.303226189999999
 10
36011.90277689
 20
-3602.07314937
 10
36027.43363256
 20
-3544.03380363
 42
1.303226189999999
 10
35995.23611022
 20
-3544.03380363
 10
36010.76696589
 20
-3602.07314937
 42
-1.303226189999999
 10
35978.56944355
 20
-3602.07314937
 10
35994.10029923
 20
-3544.03380363
 42
1.303226189999999
 10
35961.90277689
 20
-3544.03380363
 10
35977.43363256
 20
-3602.07314937
 42
-1.303226189999999
 10
35945.23611022
 20
-3602.07314937
 10
35960.76696589
 20
-3544.03380363
 42
1.303226189999999
 10
35928.56944355
 20
-3544.03380363
 10
35944.10029923
 20
-3602.07314937
 42
-1.303226189999999
 10
35911.90277689
 20
-3602.07314937
 10
35927.43363256
 20
-3544.03380363
 42
1.303226189999999
 10
35895.23611022
 20
-3544.03380363
 10
35910.76696589
 20
-3602.07314937
 42
-1.303226189999999
 10
35878.56944355
 20
-3602.07314937
 10
35894.10029923
 20
-3544.03380363
 42
1.303226189999999
 10
35861.90277689
 20
-3544.03380363
 10
35877.43363256
 20
-3602.07314937
 42
-1.303226189999999
 10
35845.23611022
 20
-3602.07314937
 10
35860.76696589
 20
-3544.03380363
 42
1.303226189999999
 10
35828.56944355
 20
-3544.03380363
 10
35844.10029923
 20
-3602.07314937
 42
-1.303226189999999
 10
35811.90277689
 20
-3602.07314937
 10
35827.43363256
 20
-3544.03380363
 42
1.303226189999999
 10
35795.23611022
 20
-3544.03380363
 10
35810.76696589
 20
-3602.07314937
 42
-1.303226189999999
 10
35778.56944355
 20
-3602.07314937
 10
35794.10029923
 20
-3544.03380363
 42
1.303226189999999
 10
35761.90277689
 20
-3544.03380363
 10
35777.43363256
 20
-3602.07314937
 42
-1.303226189999999
 10
35745.23611022
 20
-3602.07314937
 10
35760.76696589
 20
-3544.03380363
 42
1.303226189999999
 10
35728.56944355
 20
-3544.03380363
 10
35744.10029923
 20
-3602.07314937
 42
-1.303226189999999
 10
35711.90277689
 20
-3602.07314937
 10
35727.43363256
 20
-3544.03380363
 42
1.303226189999999
 10
35695.23611022
 20
-3544.03380363
 10
35710.76696589
 20
-3602.07314937
 42
-1.303226189999999
 10
35678.56944355
 20
-3602.07314937
 10
35694.10029923
 20
-3544.03380363
 42
0.5693929
 10
35674.07473348001
 20
-3523.52267473
  0
LWPOLYLINE
  5
1EC
330
64
100
AcDbEntity
  8
Ech.1_5
  6
Continuous
 62
     7
370
    -3
100
AcDbPolyline
 90
        5
 70
     0
 43
0.0
 10
35805.40015806
 20
-3785.053476500001
 10
36828.00153806
 20
-3785.053476500001
 10
36828.00153806
 20
-3885.053476500001
 10
35805.40015806
 20
-3885.053476500001
 10
35805.40015806
 20
-3785.053476500001
  0
LWPOLYLINE
  5
1ED
330
64
100
AcDbEntity
  8
Ech.1_5
  6
Continuous
 62
     7
370
    -3
100
AcDbPolyline
 90
        5
 70
     0
 43
0.0
 10
35800.07062057
 20
-3963.053314000001
 10
35840.07062057
 20
-3963.053314000001
 10
35840.07062057
 20
-3918.053314
 10
35800.07062057
 20
-3918.053314
 10
35800.07062057
 20
-3963.053314000001
  0
LWPOLYLINE
  5
1EE
330
64
100
AcDbEntity
  8
Ech.1_5
  6
Continuous
 62
     7
370
    -3
100
AcDbPolyline
 90
        5
 70
     0
 43
0.0
 10
35800.07062057
 20
-4334.54356946
 10
35840.07062057
 20
-4334.54356946
 10
35840.07062057
 20
-4289.54356946
 10
35800.07062057
 20
-4289.54356946
 10
35800.07062057
 20
-4334.54356946
  0
LWPOLYLINE
  5
1EF
330
64
100
AcDbEntity
  8
Ech.1_5
  6
Continuous
 62
     7
370
    -3
100
AcDbPolyline
 90
        5
 70
     0
 43
0.0
 10
36828.00153806
 20
-3885.053314
 10
35805.40015806
 20
-3885.053314
 10
35805.40015806
 20
-3898.053314000001
 10
36828.00153806
 20
-3898.053314000001
 10
36828.00153806
 20
-3885.053314
  0
LWPOLYLINE
  5
1F0
330
64
100
AcDbEntity
  8
Ech.1_5
  6
Continuous
 62
     7
370
    -3
100
AcDbPolyline
 90
        5
 70
     0
 43
0.0
 10
35853.07045807
 20
-3898.053314000001
 10
35840.07045807
 20
-3898.053314000001
 10
35840.07062057
 20
-4365.80623756
 10
35853.07062057
 20
-4365.80623756
 10
35853.07045807
 20
-3898.053314000001
  0
LWPOLYLINE
  5
1F1
330
64
100
AcDbEntity
  8
Ech.1_5
  6
Continuous
 62
     7
370
    -3
100
AcDbPolyline
 90
        5
 70
     0
 43
0.0
 10
35620.07458072
 20
-3738.407678610001
 10
35611.07458065
 20
-3738.407678610001
 10
35611.07481368
 20
-4365.806584709999
 10
35620.07481375
 20
-4365.806584709999
 10
35620.07458072
 20
-3738.407678610001
  0
LWPOLYLINE
  5
1F2
330
64
100
AcDbEntity
  8
Ech.1_5
  6
Continuous
 62
     7
370
    -3
100
AcDbPolyline
 90
        5
 70
     0
 43
0.0
 10
35674.07473348001
 20
-3623.0534765
 10
36828.00153806
 20
-3623.0534765
 10
36828.00153806
 20
-3723.0534765
 10
35674.07473348001
 20
-3723.0534765
 10
35674.07473348001
 20
-3623.0534765
  0
LWPOLYLINE
  5
1F3
330
64
100
AcDbEntity
  8
Ech.1_5
  6
Continuous
 62
     7
370
    -3
100
AcDbPolyline
 90
        9
 70
     0
 43
0.0
 10
35800.07062057
 20
-3813.0534765
 10
35620.07458072
 20
-3813.0534765
 10
35620.07458072
 20
-4365.80657058
 10
35726.751801
 20
-4365.80623756
 10
35743.23730415001
 20
-4347.82888915
 10
35729.12736414
 20
-4383.78458916
 10
35745.61371822
 20
-4365.80623756
 10
35800.07062057
 20
-4365.80623756
 10
35800.07062057
 20
-3813.0534765
  0
LWPOLYLINE
  5
1F4
330
64
100
AcDbEntity
  8
Ech.1_5
  6
Continuous
 62
     7
370
    -3
100
AcDbPolyline
 90
       10
 70
     0
 43
0.0
 10
35234.83091376
 20
-3545.323697270001
 10
35234.14687347
 20
-3543.44431203
 10
35183.05800071
 20
-3562.03914101
 10
35125.79429167
 20
-3569.56817347
 10
35125.79429167
 20
-3598.17599307
 10
35130.51101771
 20
-3592.914896270001
 10
35127.79429167
 20
-3592.914896270001
 10
35127.79429167
 20
-3571.32242639
 10
35183.53605359
 20
-3563.99349954
 10
35234.83091376
 20
-3545.323697270001
  0
LWPOLYLINE
  5
1F5
330
64
100
AcDbEntity
  8
Ech.1_5
  6
Continuous
 62
     7
370
    -3
100
AcDbPolyline
 90
        5
 70
     0
 43
0.0
 10
36312.96001768
 20
-3783.053476500001
 10
36312.96001768
 20
-3723.0534765
 10
36270.96001768
 20
-3723.0534765
 10
36270.96001768
 20
-3783.053476500001
 10
36312.96001768
 20
-3783.053476500001
  0
LWPOLYLINE
  5
1F6
330
64
100
AcDbEntity
  8
Ech.1_5
  6
Continuous
 62
     7
370
    -3
100
AcDbPolyline
 90
        5
 70
     0
 43
0.0
 10
35674.07450045
 20
-3507.129968570001
 10
35665.07450039
 20
-3507.129968570001
 10
35665.07473342
 20
-3723.0534765
 10
35674.07473348001
 20
-3723.0534765
 10
35674.07450045
 20
-3507.129968570001
  0
LWPOLYLINE
  5
1F7
330
64
100
AcDbEntity
  8
Ech.1_5
  6
Continuous
 62
     7
370
    -3
100
AcDbPolyline
 90
        5
 70
     0
 43
0.0
 10
35674.07473348001
 20
-3523.0534765
 10
36828.00153806
 20
-3523.0534765
 10
36828.00153806
 20
-3623.0534765
 10
35674.07473348001
 20
-3623.0534765
 10
35674.07473348001
 20
-3523.0534765
  0
LWPOLYLINE
  5
1F8
330
64
100
AcDbEntity
  8
Ech.1_5
  6
Continuous
 62
     7
370
     5
100
AcDbPolyline
 90
        5
 70
     0
 43
0.0
 10
35090.14306677
 20
-4026.94133485
 10
35140.14306677
 20
-4026.94133485
 10
35140.14306677
 20
-4019.52619732
 10
35090.14306677
 20
-4019.52619732
 10
35090.14306677
 20
-4026.94133485
  0
LWPOLYLINE
  5
1F9
330
64
100
AcDbEntity
  8
Ech.1_5
  6
Continuous
 62
     7
370
    -3
100
AcDbPolyline
 90
       26
 70
     0
 43
0.0
 10
35836.90410267
 20
-3268.86135965
 10
35843.01301743
 20
-3291.63654294
 10
35866.74568172
 20
-3285.2708061
 10
35854.14142306
 20
-3233.07499914
 10
35844.6970046
 20
-3235.35564006
 10
35847.27470413
 20
-3246.03021527
 10
35830.3221838
 20
-3250.12391482
 10
35827.74448427
 20
-3239.449339610001
 10
35818.30006581
 20
-3241.72998053
 10
35820.87776534001
 20
-3252.40455574
 10
35797.81141655
 20
-3257.97462435
 10
35797.37457277
 20
-3256.16559978
 10
35797.31944804
 20
-3256.17891131
 10
35788.27711533
 20
-3218.7334839
 10
35784.62579198
 20
-3203.61289859
 10
35458.24553269
 20
-3282.42729862
 42
0.41421356
 10
35441.79770979
 20
-3309.34769071
 10
35446.02521318
 20
-3326.85430946
 10
35458.73425775
 20
-3379.48404794
 10
35479.03681109001
 20
-3374.58138144
 10
35476.50355842
 20
-3364.09086622
 10
35492.28821549
 20
-3359.92004814
 10
35494.78363261
 20
-3370.25388163
 10
35505.24283044
 20
-3367.44844436
 10
35503.05959792
 20
-3358.40740625
 10
35836.90410267
 20
-3268.86135965
  0
LWPOLYLINE
  5
1FA
330
64
100
AcDbEntity
  8
Ech.1_5
  6
Continuous
 62
     7
370
    -3
100
AcDbPolyline
 90
       27
 70
     0
 43
0.0
 10
36175.48929296
 20
-3145.556223030001
 10
36181.59820772
 20
-3168.33140631
 10
36205.33087202
 20
-3161.96566947
 10
36192.72661336
 20
-3109.76986252
 10
36183.28219489
 20
-3112.05050344
 10
36185.85989442
 20
-3122.72507865
 10
36168.90737409
 20
-3126.81877819
 10
36166.32967456
 20
-3116.14420299
 10
36156.8852561
 20
-3118.424843910001
 10
36159.46295563
 20
-3129.09941911
 10
36136.39660685
 20
-3134.66948773
 10
36135.97515158
 20
-3132.92418891
 10
36135.92720198
 20
-3132.93576779
 10
36126.88486926
 20
-3095.49034037
 10
36123.21815741001
 20
-3080.30602931
 10
35796.83072299
 20
-3159.122162
 42
0.41421356
 10
35780.38290008
 20
-3186.04255409
 10
35784.62579198
 20
-3203.61289859
 10
35784.68091671
 20
-3203.59958705
 10
35797.37457277
 20
-3256.16559978
 10
35817.62200138
 20
-3251.27624482
 10
35815.08874871
 20
-3240.78572959
 10
35830.87340578
 20
-3236.61491152
 10
35833.36882290001
 20
-3246.94874501
 10
35843.82802073
 20
-3244.14330774
 10
35841.64478821
 20
-3235.10226963
 10
36175.48929296
 20
-3145.556223030001
  0
LWPOLYLINE
  5
1FB
330
64
100
AcDbEntity
  8
Ech.1_5
  6
Continuous
 62
     7
370
    -3
100
AcDbPolyline
 90
       24
 70
     0
 43
0.0
 10
36514.0970469
 20
-3022.31307951
 10
36520.20596166
 20
-3045.08826279
 10
36543.93862595
 20
-3038.72252595
 10
36531.33436729
 20
-2986.526719
 10
36521.88994883
 20
-2988.80735992
 10
36524.46764836
 20
-2999.48193512
 10
36507.51512803
 20
-3003.57563467
 10
36504.9374285
 20
-2992.90105946
 10
36495.49301004
 20
-2995.18170038
 10
36498.07070956
 20
-3005.85627559
 10
36475.00436078
 20
-3011.42634421
 10
36461.87386094001
 20
-2957.0513069
 10
36135.43847692
 20
-3035.87901848
 42
0.41421356
 10
36118.99065402
 20
-3062.79941057
 10
36123.21815741001
 20
-3080.30602931
 10
36123.26610701
 20
-3080.29445043
 10
36135.97515158
 20
-3132.92418891
 10
36156.22975532
 20
-3128.0331013
 10
36153.69650265
 20
-3117.54258607
 10
36169.48115972
 20
-3113.37176799
 10
36171.97657684001
 20
-3123.70560149
 10
36182.43577466
 20
-3120.90016422
 10
36180.25254215
 20
-3111.859126100001
 10
36514.0970469
 20
-3022.31307951
  0
LWPOLYLINE
  5
1FC
330
64
100
AcDbEntity
  8
Ech.1_5
  6
Continuous
 62
     7
370
    -3
100
AcDbPolyline
 90
        7
 70
     0
 43
0.0
 10
36510.37697122
 20
-3023.86633542
 10
36519.59802053
 20
-3049.2009602
 10
36482.01169226
 20
-3062.885548000001
 10
36476.28518552
 20
-3047.15210004
 10
36472.78926639
 20
-3037.547141160001
 10
36476.28518552
 20
-3036.27473065
 10
36510.37697122
 20
-3023.86633542
  0
LWPOLYLINE
  5
1FD
330
64
100
AcDbEntity
  8
Ech.1_5
  6
Continuous
 62
     7
370
    -3
100
AcDbPolyline
 90
        5
 70
     0
 43
0.0
 10
36171.77639241
 20
-3147.10774629
 10
36134.18868758
 20
-3160.78855203
 10
36143.42323145
 20
-3186.16025279
 10
36181.00955972
 20
-3172.47566498
 10
36171.77639241
 20
-3147.10774629
  0
LWPOLYLINE
  5
1FE
330
64
100
AcDbEntity
  8
Ech.1_5
  6
Continuous
 62
     7
370
    -3
100
AcDbPolyline
 90
        5
 70
     0
 43
0.0
 10
35833.15312207
 20
-3270.46533285
 10
35795.61589985
 20
-3284.12776441
 10
35804.82787823
 20
-3309.437467
 10
35842.36372574
 20
-3295.77125844
 10
35833.15312207
 20
-3270.46533285
  0
LWPOLYLINE
  5
1FF
330
64
100
AcDbEntity
  8
Ech.1_5
  6
Continuous
 62
     7
370
    -3
100
AcDbPolyline
 90
        5
 70
     0
 43
0.0
 10
35494.54536814001
 20
-3393.70847637
 10
35456.95766331
 20
-3407.3892821
 10
35466.18204425
 20
-3432.73306045
 10
35503.76837252
 20
-3419.048472650001
 10
35494.54536814001
 20
-3393.70847637
  0
LWPOLYLINE
  5
200
330
64
100
AcDbEntity
  8
Ech.1_5
  6
Continuous
 62
     7
370
    -3
100
AcDbPolyline
 90
        5
 70
     0
 43
0.0
 10
35210.9551736
 20
-3472.44233822
 10
35174.87863692001
 20
-3482.11903258
 10
35174.89576133
 20
-3538.78412841
 10
35227.62672914
 20
-3519.58561681
 10
35210.9551736
 20
-3472.44233822
  0
LWPOLYLINE
  5
201
330
64
100
AcDbEntity
  8
Ech.1_5
  6
Continuous
 62
     7
370
    -3
100
AcDbPolyline
 90
       24
 70
     0
 43
0.0
 10
35498.29634873
 20
-3392.10450318
 10
35504.4052635
 20
-3414.87968646
 10
35528.13792779
 20
-3408.51394962
 10
35515.53366913001
 20
-3356.31814267
 10
35506.08925067
 20
-3358.59878359
 10
35508.6669502
 20
-3369.27335879
 10
35491.71442986001
 20
-3373.36705834
 10
35489.13673034
 20
-3362.69248313
 10
35479.69231187
 20
-3364.97312405
 10
35482.2700114
 20
-3375.64769926
 10
35459.15571302
 20
-3381.22934676
 10
35449.69192504
 20
-3342.03862052
 10
35446.02521318
 20
-3326.85430946
 10
35119.63777876
 20
-3405.67044215
 42
0.41421356
 10
35103.18995585
 20
-3432.59083424
 10
35111.08417109999
 20
-3465.28176404
 10
35120.12650382
 20
-3502.72719146
 10
35140.42905716
 20
-3497.82452497
 10
35137.89580448
 20
-3487.33400974
 10
35153.68046156
 20
-3483.16319167
 10
35156.17587868
 20
-3493.49702516
 10
35166.6350765
 20
-3490.69158789
 10
35164.45184398
 20
-3481.65054977
 10
35498.29634873
 20
-3392.10450318
  0
LWPOLYLINE
  5
202
330
64
100
AcDbEntity
  8
Ech.1_5
  6
Continuous
 62
     7
370
    -3
100
AcDbPolyline
 90
        5
 70
     0
 43
0.0
 10
35842.07062057
 20
-3783.053476500001
 10
35842.07062057
 20
-3723.0534765
 10
35800.07062057
 20
-3723.0534765
 10
35800.07062057
 20
-3783.053476500001
 10
35842.07062057
 20
-3783.053476500001
  0
LWPOLYLINE
  5
203
330
64
100
AcDbEntity
  8
Ech.1_5
  6
Continuous
 62
     7
370
    -3
100
AcDbPolyline
 90
        5
 70
     0
 43
0.0
 10
35352.11899059999
 20
-3750.05346748
 10
35293.35642365
 20
-3750.05346748
 10
35293.35642365
 20
-3760.053476500001
 10
35352.11899059999
 20
-3760.05347468
 10
35352.11899059999
 20
-3750.05346748
  0
LWPOLYLINE
  5
204
330
64
100
AcDbEntity
  8
Ech.1_5
  6
Continuous
 62
     7
370
    -3
100
AcDbPolyline
 90
        5
 70
     0
 43
0.0
 10
35293.35642365
 20
-3760.053476500001
 10
35293.35642365
 20
-3750.053476500001
 10
35165.847382
 20
-3750.053476500001
 10
35165.847382
 20
-3760.053476500001
 10
35293.35642365
 20
-3760.053476500001
  0
LWPOLYLINE
  5
205
330
64
100
AcDbEntity
  8
Ech.1_5
  6
Continuous
 62
     7
370
    -3
100
AcDbPolyline
 90
        5
 70
     0
 43
0.0
 10
35609.14258481
 20
-3760.053483690001
 10
35609.14258481
 20
-3750.05348369
 10
35352.11899059999
 20
-3750.053476500001
 10
35352.11899059999
 20
-3760.053476500001
 10
35609.14258481
 20
-3760.053483690001
  0
LWPOLYLINE
  5
207
330
64
100
AcDbEntity
  8
Ech.1_5
  6
Continuous
 62
     7
370
    -3
100
AcDbPolyline
 90
        5
 70
     0
 43
0.0
 10
35611.07458065
 20
-3777.55491273
 10
35586.07458065
 20
-3777.55491273
 10
35586.07463231
 20
-4365.80679948
 10
35611.07463231
 20
-4365.80679948
 10
35611.07458065
 20
-3777.55491273
  0
LWPOLYLINE
  5
208
330
64
100
AcDbEntity
  8
Ech.1_5
  6
Continuous
 62
     7
370
    -3
100
AcDbPolyline
 90
        3
 70
     0
 43
0.0
 10
35169.07473342
 20
-3576.0534765
 10
35169.07473342
 20
-3723.0534765
 10
35674.07473348001
 20
-3723.0534765
  0
LWPOLYLINE
  5
209
330
64
100
AcDbEntity
  8
Ech.1_5
  6
Continuous
 62
     7
370
    -3
100
AcDbPolyline
 90
        2
 70
     0
 43
0.0
 10
35508.14617217
 20
-3576.0534765
 10
35169.07473342
 20
-3576.0534765
  0
LWPOLYLINE
  5
20A
330
64
100
AcDbEntity
  8
Ech.1_5
  6
Continuous
 62
     7
370
    -3
100
AcDbPolyline
 90
        6
 70
     0
 43
0.0
 10
36828.00153806
 20
-2965.83572154
 10
35169.07473342
 20
-3569.63569925
 10
35169.07473342
 20
-3576.0534765
 10
35508.14617217
 20
-3576.0534765
 10
36828.00153806
 20
-3095.66540978
 10
36828.00153806
 20
-2965.83572154
  0
LWPOLYLINE
  5
20B
330
64
100
AcDbEntity
  8
Ech.1_5
  6
Continuous
 62
     7
370
    -3
100
AcDbPolyline
 90
        5
 70
     0
 43
0.0
 10
36765.68099371
 20
-2988.33726889
 10
36765.68099371
 20
-2959.60446903
 10
35174.89576135
 20
-3538.78421849
 10
35184.13030522
 20
-3564.15591925
 10
36765.68099371
 20
-2988.33726889
  0
LWPOLYLINE
  5
20C
330
64
100
AcDbEntity
  8
Ech.1_5
  6
Continuous
 62
     7
100
AcDbPolyline
 90
        4
 70
     0
 43
0.0
 10
35244.7195586
 20
-3516.22038853
 10
35266.49503412
 20
-3511.39616731
 10
35247.46122362
 20
-3523.0219362
 10
35244.7195586
 20
-3516.22038853
  0
LWPOLYLINE
  5
20D
330
64
100
AcDbEntity
  8
Ech.1_5
 62
     7
100
AcDbPolyline
 90
        3
 70
     0
 43
0.0
 10
35721.18410834
 20
-3678.1699719
 42
1.0
 10
35721.18410834
 20
-3676.55417245
 42
1.0
 10
35721.18410834
 20
-3678.1699719
  0
LWPOLYLINE
  5
20E
330
64
100
AcDbEntity
  8
Ech.1_5
 62
     7
100
AcDbPolyline
 90
        3
 70
     0
 43
0.0
 10
35721.18410834
 20
-3693.49681143
 42
1.0
 10
35721.18410834
 20
-3691.88101198
 42
1.0
 10
35721.18410834
 20
-3693.49681143
  0
LWPOLYLINE
  5
20F
330
64
100
AcDbEntity
  8
Ech.1_5
 62
     7
100
AcDbPolyline
 90
        3
 70
     0
 43
0.0
 10
35698.96124565
 20
-3693.49681143
 42
1.0
 10
35698.96124565
 20
-3691.88101198
 42
1.0
 10
35698.96124565
 20
-3693.49681143
  0
LWPOLYLINE
  5
210
330
64
100
AcDbEntity
  8
Ech.1_5
 62
     7
100
AcDbPolyline
 90
        3
 70
     0
 43
0.0
 10
35698.96124565
 20
-3678.1699719
 42
1.0
 10
35698.96124565
 20
-3676.55417245
 42
1.0
 10
35698.96124565
 20
-3678.1699719
  0
LWPOLYLINE
  5
211
330
64
100
AcDbEntity
  8
Ech.1_5
 62
     7
100
AcDbPolyline
 90
        3
 70
     0
 43
0.0
 10
35710.57246551
 20
-3701.62855715
 42
1.0
 10
35710.57246551
 20
-3700.01275769
 42
1.0
 10
35710.57246551
 20
-3701.62855715
  0
LWPOLYLINE
  5
212
330
64
100
AcDbEntity
  8
Ech.1_5
 62
     7
100
AcDbPolyline
 90
        3
 70
     0
 43
0.0
 10
35710.57246551
 20
-3686.301717620001
 42
1.0
 10
35710.57246551
 20
-3684.68591817
 42
1.0
 10
35710.57246551
 20
-3686.301717620001
  0
LWPOLYLINE
  5
213
330
64
100
AcDbEntity
  8
Ech.1_5
  6
Continuous
 62
     7
370
    -3
100
AcDbPolyline
 90
        5
 70
     0
 43
0.0
 10
35611.07481368
 20
-4365.806584709999
 10
35620.07481375
 20
-4365.806584709999
 10
35620.07458072
 20
-3738.407678610001
 10
35611.07458065
 20
-3738.407678610001
 10
35611.07481368
 20
-4365.806584709999
  0
LWPOLYLINE
  5
214
330
64
100
AcDbEntity
  8
Ech.1_5
  6
Continuous
 62
     7
370
    -3
100
AcDbPolyline
 90
        5
 70
     0
 43
0.0
 10
35805.40015806
 20
-3885.053476500001
 10
35805.40015806
 20
-3898.0534765
 10
36828.00153806
 20
-3898.053314000001
 10
36828.00153806
 20
-3885.053314
 10
35805.40015806
 20
-3885.053476500001
  0
LWPOLYLINE
  5
215
330
64
100
AcDbEntity
  8
Ech.1_5
  6
Continuous
 62
     7
370
    -3
100
AcDbPolyline
 90
        5
 70
     0
 43
0.0
 10
35800.07062057
 20
-3723.0534765
 10
35620.07473342
 20
-3723.0534765
 10
35620.07473342
 20
-3768.0534765
 10
35800.07062057
 20
-3768.0534765
 10
35800.07062057
 20
-3723.0534765
  0
LWPOLYLINE
  5
216
330
64
100
AcDbEntity
  8
Ech.1_5
  6
Continuous
 62
     7
370
    -3
100
AcDbPolyline
 90
        5
 70
     0
 43
0.0
 10
35800.07062057
 20
-3768.0534765
 10
35620.07473342
 20
-3768.0534765
 10
35620.07473342
 20
-3813.0534765
 10
35800.07062057
 20
-3813.0534765
 10
35800.07062057
 20
-3768.0534765
  0
LWPOLYLINE
  5
217
330
64
100
AcDbEntity
  8
Ech.1_5
  6
Continuous
 62
     7
370
    -3
100
AcDbPolyline
 90
        6
 70
     0
 43
0.0
 10
35620.07473342
 20
-3723.0534765
 10
35665.07473342
 20
-3723.0534765
 10
35665.07473342
 20
-3633.053476500001
 10
35641.49337441
 20
-3633.053476500001
 10
35620.07473342
 20
-3633.053476500001
 10
35620.07473342
 20
-3723.0534765
  0
CIRCLE
  5
218
330
64
100
AcDbEntity
  8
Ech.1_5
 62
     7
100
AcDbCircle
 10
35002.78314947
 20
-3582.54008966
 30
0.0
 40
5.922289599999999
  0
LWPOLYLINE
  5
219
330
64
100
AcDbEntity
  8
Ech.1_5
  6
Continuous
 62
     7
370
    -3
100
AcDbPolyline
 90
        5
 70
     0
 43
0.0
 10
35853.07062057
 20
-3898.053314000001
 10
35840.07062057
 20
-3898.053314000001
 10
35840.07062057
 20
-4365.80623756
 10
35853.07062057
 20
-4365.80623756
 10
35853.07062057
 20
-3898.053314000001
  0
LWPOLYLINE
  5
21A
330
64
100
AcDbEntity
  8
Ech.1_5
  6
Continuous
 62
     7
370
    -3
100
AcDbPolyline
 90
        5
 70
     0
 43
0.0
 10
35665.07473342
 20
-3723.0534765
 10
35674.07473348001
 20
-3723.0534765
 10
35674.07450045
 20
-3507.129968570001
 10
35665.07450039
 20
-3507.129968570001
 10
35665.07473342
 20
-3723.0534765
  0
LWPOLYLINE
  5
21B
330
64
100
AcDbEntity
  8
Ech.1_5
  6
Continuous
 62
     7
370
    -3
100
AcDbPolyline
 90
        5
 70
     0
 43
0.0
 10
35183.27720402
 20
-3723.0534765
 10
35223.27720402
 20
-3723.0534765
 10
35223.27720402
 20
-3750.053476500001
 10
35183.27720402
 20
-3750.053476500001
 10
35183.27720402
 20
-3723.0534765
  0
LWPOLYLINE
  5
21C
330
64
100
AcDbEntity
  8
Ech.1_5
  6
Continuous
 62
     7
370
    -3
100
AcDbPolyline
 90
       11
 70
     0
 43
0.0
 10
35147.07473342
 20
-3569.63569925
 10
35147.07473342
 20
-3772.83122912
 42
-0.41421356
 10
35159.93875852
 20
-3785.695254220001
 10
35169.07473342
 20
-3785.695254220001
 10
35169.07473342
 20
-3764.39061088
 10
35162.79077395
 20
-3764.39061088
 10
35162.79077395
 20
-3753.32489051
 10
35162.79077395
 20
-3750.053476500001
 10
35169.07473342
 20
-3750.053476500001
 10
35169.07473342
 20
-3569.63569925
 10
35147.07473342
 20
-3569.63569925
  0
LWPOLYLINE
  5
21D
330
64
100
AcDbEntity
  8
Ech.1_5
  6
Continuous
 62
     7
370
    -3
100
AcDbPolyline
 90
        5
 70
     0
 43
0.0
 10
35507.75490351
 20
-3723.0534765
 10
35547.75490351
 20
-3723.0534765
 10
35547.75490351
 20
-3750.053476500001
 10
35507.75490351
 20
-3750.053476500001
 10
35507.75490351
 20
-3723.0534765
  0
LWPOLYLINE
  5
21E
330
64
100
AcDbEntity
  8
Ech.1_5
  6
Continuous
 62
     7
370
    -3
100
AcDbPolyline
 90
        5
 70
     0
 43
0.0
 10
35293.35642365
 20
-3760.053476500001
 10
35293.35642365
 20
-3750.053476500001
 10
35165.847382
 20
-3750.053476500001
 10
35165.847382
 20
-3760.053476500001
 10
35293.35642365
 20
-3760.053476500001
  0
LWPOLYLINE
  5
21F
330
64
100
AcDbEntity
  8
Ech.1_5
  6
Continuous
 62
     7
370
    -3
100
AcDbPolyline
 90
        5
 70
     0
 43
0.0
 10
35609.14258481
 20
-3760.053483690001
 10
35609.14258481
 20
-3750.05348369
 10
35352.11899059999
 20
-3750.053476500001
 10
35352.11899059999
 20
-3760.053476500001
 10
35609.14258481
 20
-3760.053483690001
  0
LWPOLYLINE
  5
220
330
64
100
AcDbEntity
  8
Ech.1_5
  6
Continuous
 62
     7
370
    -3
100
AcDbPolyline
 90
       17
 70
     0
 43
0.0
 10
35586.07458065
 20
-3783.306589199999
 10
35566.07458065
 20
-3783.306589199999
 10
35566.07458065
 20
-3865.37479852
 10
35567.03490305
 20
-3867.00466716
 10
35571.77102391
 20
-3869.9760171
 10
35572.18302527
 20
-3870.2169863
 10
35572.49684276
 20
-3870.2169863
 10
35572.94796353
 20
-3869.93492418
 10
35573.07458065
 20
-3869.60045039
 10
35573.07458065
 20
-3842.216986300001
 10
35580.07458065
 20
-3842.216986300001
 10
35580.07458065
 20
-3851.216986300001
 10
35586.07458065
 20
-3851.216986300001
 10
35586.07458065
 20
-3824.216986300001
 10
35582.07458065
 20
-3820.2169863
 10
35586.07458065
 20
-3816.2169863
 10
35586.07458065
 20
-3783.306589199999
  0
LWPOLYLINE
  5
221
330
64
100
AcDbEntity
  8
Ech.1_5
  6
Continuous
 62
     7
370
    -3
100
AcDbPolyline
 90
       27
 70
     0
 43
0.0
 10
35572.94796353
 20
-4014.93492418
 10
35573.07458065
 20
-4014.60045039
 10
35573.07458065
 20
-3987.2169863
 10
35580.07458065
 20
-3987.2169863
 10
35580.07458065
 20
-3996.216986300001
 10
35586.07458065
 20
-3996.216986300001
 10
35586.07458065
 20
-3969.216986300001
 10
35582.07458065
 20
-3965.216986300001
 10
35586.07458065
 20
-3961.216986300001
 10
35586.07458065
 20
-3897.216986300001
 10
35582.07458065
 20
-3893.2169863
 10
35586.07458065
 20
-3889.216986300001
 10
35586.07458065
 20
-3854.216986300001
 10
35579.07458065
 20
-3854.216986300001
 10
35579.07458065
 20
-3848.2169863
 10
35576.57458065
 20
-3843.216986300001
 10
35574.07458065
 20
-3848.2169863
 10
35574.07458065
 20
-3879.14591849
 10
35573.69397832
 20
-3881.05933565
 10
35567.53904675
 20
-3887.7525202
 10
35566.07458065
 20
-3891.28805411
 10
35566.07458065
 20
-4010.37479852
 10
35567.03490305
 20
-4012.00466716
 10
35571.77102391
 20
-4014.976017099999
 10
35572.18302527
 20
-4015.2169863
 10
35572.49684276
 20
-4015.2169863
 10
35572.94796353
 20
-4014.93492418
  0
LWPOLYLINE
  5
222
330
64
100
AcDbEntity
  8
Ech.1_5
  6
Continuous
 62
     7
370
    -3
100
AcDbPolyline
 90
       27
 70
     0
 43
0.0
 10
35572.94796353
 20
-4159.934924179999
 10
35573.07458065
 20
-4159.600450390001
 10
35573.07458065
 20
-4132.2169863
 10
35580.07458065
 20
-4132.2169863
 10
35580.07458065
 20
-4141.2169863
 10
35586.07458065
 20
-4141.2169863
 10
35586.07458065
 20
-4114.2169863
 10
35582.07458065
 20
-4110.216986300001
 10
35586.07458065
 20
-4106.2169863
 10
35586.07458065
 20
-4042.2169863
 10
35582.07458065
 20
-4038.2169863
 10
35586.07458065
 20
-4034.2169863
 10
35586.07458065
 20
-3999.216986300001
 10
35579.07458065
 20
-3999.216986300001
 10
35579.07458065
 20
-3993.216986300001
 10
35576.57458065
 20
-3988.2169863
 10
35574.07458065
 20
-3993.216986300001
 10
35574.07458065
 20
-4024.14591849
 10
35573.69397832
 20
-4026.05933565
 10
35567.53904675
 20
-4032.7525202
 10
35566.07458065
 20
-4036.288054109999
 10
35566.07458065
 20
-4155.374798519999
 10
35567.03490305
 20
-4157.00466716
 10
35571.77102391
 20
-4159.976017099999
 10
35572.18302527
 20
-4160.2169863
 10
35572.49684276
 20
-4160.2169863
 10
35572.94796353
 20
-4159.934924179999
  0
LWPOLYLINE
  5
223
330
64
100
AcDbEntity
  8
Ech.1_5
  6
Continuous
 62
     7
370
    -3
100
AcDbPolyline
 90
       27
 70
     0
 43
0.0
 10
35572.94796353
 20
-4304.93492418
 10
35573.07458065
 20
-4304.60045039
 10
35573.07458065
 20
-4277.2169863
 10
35580.07458065
 20
-4277.2169863
 10
35580.07458065
 20
-4286.216986300001
 10
35586.07458065
 20
-4286.216986300001
 10
35586.07458065
 20
-4259.216986300001
 10
35582.07458065
 20
-4255.216986300001
 10
35586.07458065
 20
-4251.216986300001
 10
35586.07458065
 20
-4187.216986300001
 10
35582.07458065
 20
-4183.216986300001
 10
35586.07458065
 20
-4179.216986300001
 10
35586.07458065
 20
-4144.2169863
 10
35579.07458065
 20
-4144.2169863
 10
35579.07458065
 20
-4138.2169863
 10
35576.57458065
 20
-4133.216986300001
 10
35574.07458065
 20
-4138.2169863
 10
35574.07458065
 20
-4169.14591849
 10
35573.69397832
 20
-4171.05933565
 10
35567.53904675
 20
-4177.7525202
 10
35566.07458065
 20
-4181.288054110001
 10
35566.07458065
 20
-4300.37479852
 10
35567.03490305
 20
-4302.004667160001
 10
35571.77102391
 20
-4304.976017100001
 10
35572.18302527
 20
-4305.216986300001
 10
35572.49684276
 20
-4305.216986300001
 10
35572.94796353
 20
-4304.93492418
  0
LWPOLYLINE
  5
224
330
64
100
AcDbEntity
  8
Ech.1_5
  6
Continuous
 62
     7
370
    -3
100
AcDbPolyline
 90
       15
 70
     0
 43
0.0
 10
35582.07458065
 20
-4328.216986300001
 10
35586.07458065
 20
-4324.2169863
 10
35586.07458065
 20
-4289.2169863
 10
35579.07458065
 20
-4289.2169863
 10
35579.07458065
 20
-4283.216986300001
 10
35576.57458065
 20
-4278.216986300001
 10
35574.07458065
 20
-4283.216986300001
 10
35574.07458065
 20
-4314.145918490001
 10
35573.69397832
 20
-4316.05933565
 10
35567.53904675
 20
-4322.752520199999
 10
35566.07458065
 20
-4326.28805411
 10
35566.07458065
 20
-4365.80679948
 10
35586.07458065
 20
-4365.80679948
 10
35586.07458065
 20
-4332.2169863
 10
35582.07458065
 20
-4328.216986300001
  0
TEXT
  5
225
330
64
100
AcDbEntity
  8
Ech.1_5
 62
     7
100
AcDbText
 10
35101.43735939
 20
-4009.94019424
 30
0.0
 40
8.000000119999999
  1
Echelle en mm
  7
ARIAL
100
AcDbText
  0
TEXT
  5
226
330
64
100
AcDbEntity
  8
Ech.1_5
 62
     7
100
AcDbText
 10
35087.45677464
 20
-4038.15002977
 30
0.0
 40
8.000000119999999
  1
0
  7
ARIAL
100
AcDbText
  0
TEXT
  5
227
330
64
100
AcDbEntity
  8
Ech.1_5
 62
     7
100
AcDbText
 10
35174.05383254
 20
-4038.15002977
 30
0.0
 40
8.000000119999999
  1
100
  7
ARIAL
100
AcDbText
  0
TEXT
  5
228
330
64
100
AcDbEntity
  8
Ech.1_5
 62
     7
100
AcDbText
 10
35135.31340097
 20
-4038.15002977
 30
0.0
 40
8.000000119999999
  1
50
  7
ARIAL
100
AcDbText
  0
INSERT
  5
229
330
64
100
AcDbEntity
  8
Ech.1_5
 62
     7
370
    -3
100
AcDbBlockReference
  2
CDWK_PTTYP30
 10
36016.463406
 20
-3260.37491242
 30
0.0
 41
2.5
 42
2.5
  0
INSERT
  5
22A
330
64
100
AcDbEntity
  8
Ech.1_5
 62
     0
370
    -3
100
AcDbBlockReference
  2
*D45
 10
0.0
 20
0.0
 30
0.0
  0
INSERT
  5
22B
330
64
100
AcDbEntity
  8
Ech.1_5
 62
     0
370
    -3
100
AcDbBlockReference
  2
*D46
 10
0.0
 20
0.0
 30
0.0
  0
LWPOLYLINE
  5
285
330
64
100
AcDbEntity
  8
Ech.1_5
  6
Continuous
 62
     7
370
    -3
100
AcDbPolyline
 90
        2
 70
     0
 43
0.0
 10
35665.07457477396
 20
-3576.0534765
 10
35169.07473342
 20
-3576.0534765
  0
ENDSEC
  0
SECTION
  2
OBJECTS
  0
DICTIONARY
  5
1
330
0
100
AcDbDictionary
281
     1
  3
ACAD_COLOR
350
263
  3
ACAD_GROUP
350
2
  3
ACAD_LAYOUT
350
27B
  3
ACAD_MATERIAL
350
231
  3
ACAD_MLEADERSTYLE
350
278
  3
ACAD_MLINESTYLE
350
3
  3
ACAD_PLOTSETTINGS
350
27C
  3
ACAD_PLOTSTYLENAME
350
22F
  3
ACAD_SCALELIST
350
266
  3
ACAD_TABLESTYLE
350
264
  3
ACAD_VISUALSTYLE
350
24A
  3
ACDB_RECOMPOSE_DATA
350
2D4
  3
AcDbVariableDictionary
350
2CA
  3
DWGPROPS
350
2D5
  0
DICTIONARY
  5
28E
330
3E
100
AcDbDictionary
280
     1
281
     1
  3
ADSK_XREC_LAYER_RECONCILED
360
28F
  0
DICTIONARY
  5
290
330
3F
100
AcDbDictionary
280
     1
281
     1
  3
ADSK_XREC_LAYER_RECONCILED
360
291
  0
DICTIONARY
  5
292
330
40
100
AcDbDictionary
280
     1
281
     1
  3
ADSK_XREC_LAYER_RECONCILED
360
293
  0
DICTIONARY
  5
294
330
41
100
AcDbDictionary
280
     1
281
     1
  3
ADSK_XREC_LAYER_RECONCILED
360
295
  0
DICTIONARY
  5
296
330
42
100
AcDbDictionary
280
     1
281
     1
  3
ADSK_XREC_LAYER_RECONCILED
360
297
  0
DICTIONARY
  5
298
330
43
100
AcDbDictionary
280
     1
281
     1
  3
ADSK_XREC_LAYER_RECONCILED
360
299
  0
DICTIONARY
  5
29A
330
44
100
AcDbDictionary
280
     1
281
     1
  3
ADSK_XREC_LAYER_RECONCILED
360
29B
  0
DICTIONARY
  5
29C
330
45
100
AcDbDictionary
280
     1
281
     1
  3
ADSK_XREC_LAYER_RECONCILED
360
29D
  0
DICTIONARY
  5
29E
330
46
100
AcDbDictionary
280
     1
281
     1
  3
ADSK_XREC_LAYER_RECONCILED
360
29F
  0
DICTIONARY
  5
2A0
330
47
100
AcDbDictionary
280
     1
281
     1
  3
ADSK_XREC_LAYER_RECONCILED
360
2A1
  0
DICTIONARY
  5
2A2
330
48
100
AcDbDictionary
280
     1
281
     1
  3
ADSK_XREC_LAYER_RECONCILED
360
2A3
  0
DICTIONARY
  5
2A4
330
49
100
AcDbDictionary
280
     1
281
     1
  3
ADSK_XREC_LAYER_RECONCILED
360
2A5
  0
DICTIONARY
  5
2A6
330
4A
100
AcDbDictionary
280
     1
281
     1
  3
ADSK_XREC_LAYER_RECONCILED
360
2A7
  0
DICTIONARY
  5
2A8
330
4B
100
AcDbDictionary
280
     1
281
     1
  3
ADSK_XREC_LAYER_RECONCILED
360
2A9
  0
DICTIONARY
  5
2AA
330
4C
100
AcDbDictionary
280
     1
281
     1
  3
ADSK_XREC_LAYER_RECONCILED
360
2AB
  0
DICTIONARY
  5
2AC
330
4D
100
AcDbDictionary
280
     1
281
     1
  3
ADSK_XREC_LAYER_RECONCILED
360
2AD
  0
DICTIONARY
  5
2AE
330
4E
100
AcDbDictionary
280
     1
281
     1
  3
ADSK_XREC_LAYER_RECONCILED
360
2AF
  0
DICTIONARY
  5
2B0
330
4F
100
AcDbDictionary
280
     1
281
     1
  3
ADSK_XREC_LAYER_RECONCILED
360
2B1
  0
DICTIONARY
  5
2B2
330
50
100
AcDbDictionary
280
     1
281
     1
  3
ADSK_XREC_LAYER_RECONCILED
360
2B3
  0
DICTIONARY
  5
2B4
330
51
100
AcDbDictionary
280
     1
281
     1
  3
ADSK_XREC_LAYER_RECONCILED
360
2B5
  0
DICTIONARY
  5
2B6
330
52
100
AcDbDictionary
280
     1
281
     1
  3
ADSK_XREC_LAYER_RECONCILED
360
2B7
  0
DICTIONARY
  5
2B8
330
54
100
AcDbDictionary
280
     1
281
     1
  3
ADSK_XREC_LAYER_RECONCILED
360
2B9
  0
DICTIONARY
  5
2BA
330
55
100
AcDbDictionary
280
     1
281
     1
  3
ADSK_XREC_LAYER_RECONCILED
360
2BB
  0
DICTIONARY
  5
2BC
330
57
100
AcDbDictionary
280
     1
281
     1
  3
ADSK_XREC_LAYER_RECONCILED
360
2BD
  0
DICTIONARY
  5
2BE
330
58
100
AcDbDictionary
280
     1
281
     1
  3
ADSK_XREC_LAYER_RECONCILED
360
2BF
  0
DICTIONARY
  5
2C0
330
59
100
AcDbDictionary
280
     1
281
     1
  3
ADSK_XREC_LAYER_RECONCILED
360
2C1
  0
DICTIONARY
  5
2C2
330
5A
100
AcDbDictionary
280
     1
281
     1
  3
ADSK_XREC_LAYER_RECONCILED
360
2C3
  0
DICTIONARY
  5
2C4
330
5B
100
AcDbDictionary
280
     1
281
     1
  3
ADSK_XREC_LAYER_RECONCILED
360
2C5
  0
DICTIONARY
  5
2C6
330
5C
100
AcDbDictionary
280
     1
281
     1
  3
ADSK_XREC_LAYER_RECONCILED
360
2C7
  0
DICTIONARY
  5
2C8
330
5D
100
AcDbDictionary
280
     1
281
     1
  3
ADSK_XREC_LAYER_RECONCILED
360
2C9
  0
DICTIONARY
  5
286
330
64
100
AcDbDictionary
280
     1
281
     1
  3
ACAD_SORTENTS
360
287
  0
DICTIONARY
  5
263
102
{ACAD_REACTORS
330
1
102
}
330
1
100
AcDbDictionary
281
     1
  0
DICTIONARY
  5
2
330
1
100
AcDbDictionary
281
     1
  0
DICTIONARY
  5
27B
102
{ACAD_REACTORS
330
1
102
}
330
1
100
AcDbDictionary
281
     1
  3
Model
350
27D
  3
Présentation1
350
27E
  0
DICTIONARY
  5
231
102
{ACAD_REACTORS
330
1
102
}
330
1
100
AcDbDictionary
281
     1
  3
ByBlock
350
23A
  3
ByLayer
350
232
  3
Global
350
242
  0
DICTIONARY
  5
278
102
{ACAD_REACTORS
330
1
102
}
330
1
100
AcDbDictionary
281
     1
  3
Standard
350
279
  0
DICTIONARY
  5
3
330
1
100
AcDbDictionary
281
     1
  3
STANDARD
350
4
  0
DICTIONARY
  5
27C
102
{ACAD_REACTORS
330
1
102
}
330
1
100
AcDbDictionary
281
     1
  0
ACDBDICTIONARYWDFLT
  5
22F
102
{ACAD_REACTORS
330
1
102
}
330
1
100
AcDbDictionary
281
     1
  3
Normal
350
230
100
AcDbDictionaryWithDefault
340
230
  0
DICTIONARY
  5
266
102
{ACAD_REACTORS
330
1
102
}
330
1
100
AcDbDictionary
281
     1
  3
A0
350
267
  3
A1
350
268
  3
A2
350
269
  3
A3
350
26A
  3
A4
350
26B
  3
A5
350
26C
  3
A6
350
26D
  3
A7
350
26E
  3
A8
350
26F
  3
A9
350
270
  3
B0
350
271
  3
B1
350
272
  3
B2
350
273
  3
B3
350
274
  3
B4
350
275
  3
B5
350
276
  3
B6
350
277
  0
DICTIONARY
  5
264
102
{ACAD_REACTORS
330
1
102
}
330
1
100
AcDbDictionary
281
     1
  3
Standard
350
265
  0
DICTIONARY
  5
24A
102
{ACAD_REACTORS
330
1
102
}
330
1
100
AcDbDictionary
281
     1
  3
2dWireframe
350
250
  3
Basic
350
24F
  3
Brighten
350
256
  3
ColorChange
350
25A
  3
Conceptual
350
253
  3
Dim
350
255
  3
EdgeColorOff
350
262
  3
Facepattern
350
259
  3
Flat
350
24B
  3
FlatWithEdges
350
24C
  3
Gouraud
350
24D
  3
GouraudWithEdges
350
24E
  3
Hidden
350
252
  3
JitterOff
350
260
  3
Linepattern
350
258
  3
OverhangOff
350
261
  3
Realistic
350
254
  3
Shaded
350
25F
  3
Shaded with edges
350
25E
  3
Shades of Gray
350
25B
  3
Sketchy
350
25C
  3
Thicken
350
257
  3
Wireframe
350
251
  3
X-Ray
350
25D
  0
XRECORD
  5
2D4
102
{ACAD_REACTORS
330
1
102
}
330
1
100
AcDbXrecord
280
     1
 90
        1
330
265
  0
DICTIONARY
  5
2CA
102
{ACAD_REACTORS
330
1
102
}
330
1
100
AcDbDictionary
281
     1
  3
CANNOSCALE
350
2CD
  3
CMLEADERSTYLE
350
2CC
  3
CTABLESTYLE
350
2CB
  3
DIMASSOC
350
2D0
  3
INDEXCTL
350
2CF
  3
SORTENTS
350
2CE
  3
XCLIPFRAME
350
2D1
  0
XRECORD
  5
2D5
102
{ACAD_REACTORS
330
1
102
}
330
1
100
AcDbXrecord
280
     1
  1
DWGPROPS COOKIE
  2

  3

  4

  6

  7

  8
cazeaux
  9

300
=
301
=
302
=
303
=
304
=
305
=
306
=
307
=
308
=
309
=
 40
0.0043723148148148
 41
2456467.0
 42
2456468.4692961
  1

 90
        0
  0
XRECORD
  5
28F
102
{ACAD_REACTORS
330
28E
102
}
330
28E
100
AcDbXrecord
280
     1
290
     1
  0
XRECORD
  5
291
102
{ACAD_REACTORS
330
290
102
}
330
290
100
AcDbXrecord
280
     1
290
     1
  0
XRECORD
  5
293
102
{ACAD_REACTORS
330
292
102
}
330
292
100
AcDbXrecord
280
     1
290
     1
  0
XRECORD
  5
295
102
{ACAD_REACTORS
330
294
102
}
330
294
100
AcDbXrecord
280
     1
290
     1
  0
XRECORD
  5
297
102
{ACAD_REACTORS
330
296
102
}
330
296
100
AcDbXrecord
280
     1
290
     1
  0
XRECORD
  5
299
102
{ACAD_REACTORS
330
298
102
}
330
298
100
AcDbXrecord
280
     1
290
     1
  0
XRECORD
  5
29B
102
{ACAD_REACTORS
330
29A
102
}
330
29A
100
AcDbXrecord
280
     1
290
     1
  0
XRECORD
  5
29D
102
{ACAD_REACTORS
330
29C
102
}
330
29C
100
AcDbXrecord
280
     1
290
     1
  0
XRECORD
  5
29F
102
{ACAD_REACTORS
330
29E
102
}
330
29E
100
AcDbXrecord
280
     1
290
     1
  0
XRECORD
  5
2A1
102
{ACAD_REACTORS
330
2A0
102
}
330
2A0
100
AcDbXrecord
280
     1
290
     1
  0
XRECORD
  5
2A3
102
{ACAD_REACTORS
330
2A2
102
}
330
2A2
100
AcDbXrecord
280
     1
290
     1
  0
XRECORD
  5
2A5
102
{ACAD_REACTORS
330
2A4
102
}
330
2A4
100
AcDbXrecord
280
     1
290
     1
  0
XRECORD
  5
2A7
102
{ACAD_REACTORS
330
2A6
102
}
330
2A6
100
AcDbXrecord
280
     1
290
     1
  0
XRECORD
  5
2A9
102
{ACAD_REACTORS
330
2A8
102
}
330
2A8
100
AcDbXrecord
280
     1
290
     1
  0
XRECORD
  5
2AB
102
{ACAD_REACTORS
330
2AA
102
}
330
2AA
100
AcDbXrecord
280
     1
290
     1
  0
XRECORD
  5
2AD
102
{ACAD_REACTORS
330
2AC
102
}
330
2AC
100
AcDbXrecord
280
     1
290
     1
  0
XRECORD
  5
2AF
102
{ACAD_REACTORS
330
2AE
102
}
330
2AE
100
AcDbXrecord
280
     1
290
     1
  0
XRECORD
  5
2B1
102
{ACAD_REACTORS
330
2B0
102
}
330
2B0
100
AcDbXrecord
280
     1
290
     1
  0
XRECORD
  5
2B3
102
{ACAD_REACTORS
330
2B2
102
}
330
2B2
100
AcDbXrecord
280
     1
290
     1
  0
XRECORD
  5
2B5
102
{ACAD_REACTORS
330
2B4
102
}
330
2B4
100
AcDbXrecord
280
     1
290
     1
  0
XRECORD
  5
2B7
102
{ACAD_REACTORS
330
2B6
102
}
330
2B6
100
AcDbXrecord
280
     1
290
     1
  0
XRECORD
  5
2B9
102
{ACAD_REACTORS
330
2B8
102
}
330
2B8
100
AcDbXrecord
280
     1
290
     1
  0
XRECORD
  5
2BB
102
{ACAD_REACTORS
330
2BA
102
}
330
2BA
100
AcDbXrecord
280
     1
290
     1
  0
XRECORD
  5
2BD
102
{ACAD_REACTORS
330
2BC
102
}
330
2BC
100
AcDbXrecord
280
     1
290
     1
  0
XRECORD
  5
2BF
102
{ACAD_REACTORS
330
2BE
102
}
330
2BE
100
AcDbXrecord
280
     1
290
     1
  0
XRECORD
  5
2C1
102
{ACAD_REACTORS
330
2C0
102
}
330
2C0
100
AcDbXrecord
280
     1
290
     1
  0
XRECORD
  5
2C3
102
{ACAD_REACTORS
330
2C2
102
}
330
2C2
100
AcDbXrecord
280
     1
290
     1
  0
XRECORD
  5
2C5
102
{ACAD_REACTORS
330
2C4
102
}
330
2C4
100
AcDbXrecord
280
     1
290
     1
  0
XRECORD
  5
2C7
102
{ACAD_REACTORS
330
2C6
102
}
330
2C6
100
AcDbXrecord
280
     1
290
     1
  0
XRECORD
  5
2C9
102
{ACAD_REACTORS
330
2C8
102
}
330
2C8
100
AcDbXrecord
280
     1
290
     1
  0
SORTENTSTABLE
  5
287
102
{ACAD_REACTORS
330
286
102
}
330
286
100
AcDbSortentsTable
330
64
331
20D
  5
20E
331
1F9
  5
1F9
331
1D7
  5
1D7
331
1B5
  5
1B5
331
193
  5
193
331
21E
  5
21F
331
1E8
  5
1E8
331
1C6
  5
1C6
331
1A4
  5
1A4
331
18A
  5
18A
331
20B
  5
20C
331
1F7
  5
1F7
331
1D5
  5
1D5
331
1B3
  5
1B3
331
191
  5
191
331
21C
  5
21D
331
1E6
  5
1E6
331
1C4
  5
1C4
331
1A2
  5
1A2
331
188
  5
188
331
209
  5
20A
331
1F5
  5
1F5
331
1D3
  5
1D3
331
1B1
  5
1B1
331
21A
  5
21B
331
1E4
  5
1E4
331
1C2
  5
1C2
331
1A0
  5
1A0
331
186
  5
186
331
22A
  5
22B
331
1F3
  5
1F3
331
1D1
  5
1D1
331
218
  5
219
331
204
  5
204
331
1C0
  5
1C0
331
1AF
  5
1AF
331
19E
  5
19E
331
184
  5
184
331
228
  5
229
331
1F1
  5
1F1
331
216
  5
217
331
202
  5
202
331
1E0
  5
1E0
331
1BE
  5
1BE
331
227
  5
228
331
1CF
  5
1CF
331
1AD
  5
1AD
331
19C
  5
19C
331
182
  5
182
331
214
  5
215
331
200
  5
200
331
1DE
  5
1DE
331
1BC
  5
1BC
331
225
  5
226
331
1EF
  5
1EF
331
1CD
  5
1CD
331
1AB
  5
1AB
331
19A
  5
19A
331
212
  5
213
331
1FE
  5
1FE
331
1DC
  5
1DC
331
1BA
  5
1BA
331
198
  5
198
331
223
  5
224
331
1ED
  5
1ED
331
1CB
  5
1CB
331
1A9
  5
1A9
331
18F
  5
18F
331
210
  5
211
331
1FC
  5
1FC
331
1DA
  5
1DA
331
1B8
  5
1B8
331
196
  5
196
331
221
  5
222
331
1EB
  5
1EB
331
1C9
  5
1C9
331
1A7
  5
1A7
331
18D
  5
18D
331
20E
  5
20F
331
1FA
  5
1FA
331
1D8
  5
1D8
331
1B6
  5
1B6
331
194
  5
194
331
21F
  5
220
331
1E9
  5
1E9
331
1C7
  5
1C7
331
1A5
  5
1A5
331
18B
  5
18B
331
20C
  5
20D
331
1F8
  5
1F8
331
1D6
  5
1D6
331
1B4
  5
1B4
331
192
  5
192
331
21D
  5
21E
331
1E7
  5
1E7
331
1C5
  5
1C5
331
1A3
  5
1A3
331
189
  5
189
331
20A
  5
20B
331
1F6
  5
1F6
331
1D4
  5
1D4
331
1B2
  5
1B2
331
190
  5
190
331
21B
  5
21C
331
207
  5
207
331
1E5
  5
1E5
331
1C3
  5
1C3
331
1A1
  5
1A1
331
187
  5
187
331
208
  5
208
331
22B
  5
285
331
1F4
  5
1F4
331
1D2
  5
1D2
331
1B0
  5
1B0
331
219
  5
21A
331
285
  5
209
331
205
  5
205
331
1C1
  5
1C1
331
19F
  5
19F
331
185
  5
185
331
229
  5
22A
331
1F2
  5
1F2
331
1D0
  5
1D0
331
217
  5
218
331
203
  5
203
331
1E1
  5
1E1
331
1BF
  5
1BF
331
1AE
  5
1AE
331
19D
  5
19D
331
183
  5
183
331
1F0
  5
1F0
331
215
  5
216
331
201
  5
201
331
1DF
  5
1DF
331
1BD
  5
1BD
331
226
  5
227
331
1CE
  5
1CE
331
1AC
  5
1AC
331
19B
  5
19B
331
181
  5
181
331
213
  5
214
331
1FF
  5
1FF
331
1DD
  5
1DD
331
1BB
  5
1BB
331
224
  5
225
331
1EE
  5
1EE
331
1CC
  5
1CC
331
1AA
  5
1AA
331
199
  5
199
331
211
  5
212
331
1FD
  5
1FD
331
1DB
  5
1DB
331
1B9
  5
1B9
331
197
  5
197
331
222
  5
223
331
1EC
  5
1EC
331
1CA
  5
1CA
331
1A8
  5
1A8
331
18E
  5
18E
331
20F
  5
210
331
1FB
  5
1FB
331
1D9
  5
1D9
331
1B7
  5
1B7
331
195
  5
195
331
220
  5
221
331
1EA
  5
1EA
331
1C8
  5
1C8
331
1A6
  5
1A6
331
18C
  5
18C
  0
LAYOUT
  5
27D
102
{ACAD_XDICTIONARY
360
30B
102
}
102
{ACAD_REACTORS
330
27B
102
}
330
27B
100
AcDbPlotSettings
  1

  2
Aucun(e)
  4

  6

 40
0.0
 41
0.0
 42
0.0
 43
0.0
 44
0.0
 45
0.0
 46
0.0
 47
0.0
 48
0.0
 49
0.0
140
0.0
141
0.0
142
1.0
143
1.0
 70
  1712
 72
     0
 73
     0
 74
     0
  7
acad.ctb
 75
     0
147
1.0
148
0.0
149
0.0
100
AcDbLayout
  1
Model
 70
     1
 71
     0
 10
0.0
 20
0.0
 11
12.0
 21
9.0
 12
0.0
 22
0.0
 32
0.0
 14
0.0
 24
0.0
 34
0.0
 15
0.0
 25
0.0
 35
0.0
146
0.0
 13
0.0
 23
0.0
 33
0.0
 16
1.0
 26
0.0
 36
0.0
 17
0.0
 27
1.0
 37
0.0
 76
     0
330
64
331
281
  0
LAYOUT
  5
27E
102
{ACAD_XDICTIONARY
360
30D
102
}
102
{ACAD_REACTORS
330
27B
102
}
330
27B
100
AcDbPlotSettings
  1

  2
Aucun(e)
  4

  6

 40
0.0
 41
0.0
 42
0.0
 43
0.0
 44
0.0
 45
0.0
 46
0.0
 47
0.0
 48
0.0
 49
0.0
140
0.0
141
0.0
142
1.0
143
1.0
 70
   688
 72
     0
 73
     0
 74
     5
  7
acad.ctb
 75
    16
147
1.0
148
0.0
149
0.0
100
AcDbLayout
  1
Présentation1
 70
     1
 71
     1
 10
0.0
 20
0.0
 11
12.0
 21
9.0
 12
0.0
 22
0.0
 32
0.0
 14
1.000000000000000E+20
 24
1.000000000000000E+20
 34
1.000000000000000E+20
 15
-1.000000000000000E+20
 25
-1.000000000000000E+20
 35
-1.000000000000000E+20
146
0.0
 13
0.0
 23
0.0
 33
0.0
 16
1.0
 26
0.0
 36
0.0
 17
0.0
 27
1.0
 37
0.0
 76
     0
330
65
  0
MATERIAL
  5
23A
102
{ACAD_XDICTIONARY
360
23B
102
}
102
{ACAD_REACTORS
330
231
102
}
330
231
100
AcDbMaterial
  1
ByBlock
 72
     0
 43
0.0208333333333333
 43
0.0
 43
0.0
 43
0.0
 43
0.0
 43
0.0208333333333333
 43
0.0
 43
0.0
 43
0.0
 43
0.0
 43
1.0
 43
0.0
 43
0.0
 43
0.0
 43
0.0
 43
1.0
 77
     0
 47
0.0208333333333333
 47
0.0
 47
0.0
 47
0.0
 47
0.0
 47
0.0208333333333333
 47
0.0
 47
0.0
 47
0.0
 47
0.0
 47
1.0
 47
0.0
 47
0.0
 47
0.0
 47
0.0
 47
1.0
171
     0
 49
0.0208333333333333
 49
0.0
 49
0.0
 49
0.0
 49
0.0
 49
0.0208333333333333
 49
0.0
 49
0.0
 49
0.0
 49
0.0
 49
1.0
 49
0.0
 49
0.0
 49
0.0
 49
0.0
 49
1.0
175
     0
142
0.0208333333333333
142
0.0
142
0.0
142
0.0
142
0.0
142
0.0208333333333333
142
0.0
142
0.0
142
0.0
142
0.0
142
1.0
142
0.0
142
0.0
142
0.0
142
0.0
142
1.0
179
     0
144
0.0208333333333333
144
0.0
144
0.0
144
0.0
144
0.0
144
0.0208333333333333
144
0.0
144
0.0
144
0.0
144
0.0
144
1.0
144
0.0
144
0.0
144
0.0
144
0.0
144
1.0
147
0.0208333333333333
147
0.0
147
0.0
147
0.0
147
0.0
147
0.0208333333333333
147
0.0
147
0.0
147
0.0
147
0.0
147
1.0
147
0.0
147
0.0
147
0.0
147
0.0
147
1.0
  0
MATERIAL
  5
232
102
{ACAD_XDICTIONARY
360
233
102
}
102
{ACAD_REACTORS
330
231
102
}
330
231
100
AcDbMaterial
  1
ByLayer
 72
     0
 43
0.0208333333333333
 43
0.0
 43
0.0
 43
0.0
 43
0.0
 43
0.0208333333333333
 43
0.0
 43
0.0
 43
0.0
 43
0.0
 43
1.0
 43
0.0
 43
0.0
 43
0.0
 43
0.0
 43
1.0
 77
     0
 47
0.0208333333333333
 47
0.0
 47
0.0
 47
0.0
 47
0.0
 47
0.0208333333333333
 47
0.0
 47
0.0
 47
0.0
 47
0.0
 47
1.0
 47
0.0
 47
0.0
 47
0.0
 47
0.0
 47
1.0
171
     0
 49
0.0208333333333333
 49
0.0
 49
0.0
 49
0.0
 49
0.0
 49
0.0208333333333333
 49
0.0
 49
0.0
 49
0.0
 49
0.0
 49
1.0
 49
0.0
 49
0.0
 49
0.0
 49
0.0
 49
1.0
175
     0
142
0.0208333333333333
142
0.0
142
0.0
142
0.0
142
0.0
142
0.0208333333333333
142
0.0
142
0.0
142
0.0
142
0.0
142
1.0
142
0.0
142
0.0
142
0.0
142
0.0
142
1.0
179
     0
144
0.0208333333333333
144
0.0
144
0.0
144
0.0
144
0.0
144
0.0208333333333333
144
0.0
144
0.0
144
0.0
144
0.0
144
1.0
144
0.0
144
0.0
144
0.0
144
0.0
144
1.0
147
0.0208333333333333
147
0.0
147
0.0
147
0.0
147
0.0
147
0.0208333333333333
147
0.0
147
0.0
147
0.0
147
0.0
147
1.0
147
0.0
147
0.0
147
0.0
147
0.0
147
1.0
  0
MATERIAL
  5
242
102
{ACAD_XDICTIONARY
360
243
102
}
102
{ACAD_REACTORS
330
231
102
}
330
231
100
AcDbMaterial
  1
Global
 72
     0
 43
0.0208333333333333
 43
0.0
 43
0.0
 43
0.0
 43
0.0
 43
0.0208333333333333
 43
0.0
 43
0.0
 43
0.0
 43
0.0
 43
1.0
 43
0.0
 43
0.0
 43
0.0
 43
0.0
 43
1.0
 77
     0
 47
0.0208333333333333
 47
0.0
 47
0.0
 47
0.0
 47
0.0
 47
0.0208333333333333
 47
0.0
 47
0.0
 47
0.0
 47
0.0
 47
1.0
 47
0.0
 47
0.0
 47
0.0
 47
0.0
 47
1.0
171
     0
 49
0.0208333333333333
 49
0.0
 49
0.0
 49
0.0
 49
0.0
 49
0.0208333333333333
 49
0.0
 49
0.0
 49
0.0
 49
0.0
 49
1.0
 49
0.0
 49
0.0
 49
0.0
 49
0.0
 49
1.0
175
     0
142
0.0208333333333333
142
0.0
142
0.0
142
0.0
142
0.0
142
0.0208333333333333
142
0.0
142
0.0
142
0.0
142
0.0
142
1.0
142
0.0
142
0.0
142
0.0
142
0.0
142
1.0
179
     0
144
0.0208333333333333
144
0.0
144
0.0
144
0.0
144
0.0
144
0.0208333333333333
144
0.0
144
0.0
144
0.0
144
0.0
144
1.0
144
0.0
144
0.0
144
0.0
144
0.0
144
1.0
147
0.0208333333333333
147
0.0
147
0.0
147
0.0
147
0.0
147
0.0208333333333333
147
0.0
147
0.0
147
0.0
147
0.0
147
1.0
147
0.0
147
0.0
147
0.0
147
0.0
147
1.0
  0
MLEADERSTYLE
  5
279
102
{ACAD_REACTORS
330
278
102
}
330
278
100
AcDbMLeaderStyle
170
     2
171
     1
172
     0
 90
        2
 40
0.0
 41
0.0
173
     1
 91
-1056964608
340
30
 92
       -2
290
     1
 42
2.0
291
     1
 43
0.36
  3
Standard
 44
4.0
300

342
2B
174
     1
178
     6
175
     1
176
     0
 93
-1056964608
 45
4.0
292
     0
297
     0
 46
4.0
 94
-1056964608
 47
1.0
 49
1.0
140
1.0
293
     1
141
0.0
294
     1
177
     0
142
1.0
295
     0
296
     0
143
0.125
1001
ACAD_MLEADERVER
1070
     2
  0
MLINESTYLE
  5
4
330
3
100
AcDbMlineStyle
  2
STANDARD
 70
     0
  3

 62
     0
 51
90.0
 52
90.0
 71
     2
 49
0.5
 62
   256
  6
BYLAYER
 49
-0.5
 62
   256
  6
BYLAYER
  0
ACDBPLACEHOLDER
  5
230
102
{ACAD_REACTORS
330
22F
102
}
330
22F
  0
SCALE
  5
267
102
{ACAD_REACTORS
330
266
102
}
330
266
100
AcDbScale
 70
     0
300
1:1
140
1.0
141
1.0
290
     1
  0
SCALE
  5
268
102
{ACAD_REACTORS
330
266
102
}
330
266
100
AcDbScale
 70
     0
300
1:2
140
1.0
141
2.0
290
     0
  0
SCALE
  5
269
102
{ACAD_REACTORS
330
266
102
}
330
266
100
AcDbScale
 70
     0
300
1:4
140
1.0
141
4.0
290
     0
  0
SCALE
  5
26A
102
{ACAD_REACTORS
330
266
102
}
330
266
100
AcDbScale
 70
     0
300
1:5
140
1.0
141
5.0
290
     0
  0
SCALE
  5
26B
102
{ACAD_REACTORS
330
266
102
}
330
266
100
AcDbScale
 70
     0
300
1:8
140
1.0
141
8.0
290
     0
  0
SCALE
  5
26C
102
{ACAD_REACTORS
330
266
102
}
330
266
100
AcDbScale
 70
     0
300
1:10
140
1.0
141
10.0
290
     0
  0
SCALE
  5
26D
102
{ACAD_REACTORS
330
266
102
}
330
266
100
AcDbScale
 70
     0
300
1:16
140
1.0
141
16.0
290
     0
  0
SCALE
  5
26E
102
{ACAD_REACTORS
330
266
102
}
330
266
100
AcDbScale
 70
     0
300
1:20
140
1.0
141
20.0
290
     0
  0
SCALE
  5
26F
102
{ACAD_REACTORS
330
266
102
}
330
266
100
AcDbScale
 70
     0
300
1:30
140
1.0
141
30.0
290
     0
  0
SCALE
  5
270
102
{ACAD_REACTORS
330
266
102
}
330
266
100
AcDbScale
 70
     0
300
1:40
140
1.0
141
40.0
290
     0
  0
SCALE
  5
271
102
{ACAD_REACTORS
330
266
102
}
330
266
100
AcDbScale
 70
     0
300
1:50
140
1.0
141
50.0
290
     0
  0
SCALE
  5
272
102
{ACAD_REACTORS
330
266
102
}
330
266
100
AcDbScale
 70
     0
300
1:100
140
1.0
141
100.0
290
     0
  0
SCALE
  5
273
102
{ACAD_REACTORS
330
266
102
}
330
266
100
AcDbScale
 70
     0
300
2:1
140
2.0
141
1.0
290
     0
  0
SCALE
  5
274
102
{ACAD_REACTORS
330
266
102
}
330
266
100
AcDbScale
 70
     0
300
4:1
140
4.0
141
1.0
290
     0
  0
SCALE
  5
275
102
{ACAD_REACTORS
330
266
102
}
330
266
100
AcDbScale
 70
     0
300
8:1
140
8.0
141
1.0
290
     0
  0
SCALE
  5
276
102
{ACAD_REACTORS
330
266
102
}
330
266
100
AcDbScale
 70
     0
300
10:1
140
10.0
141
1.0
290
     0
  0
SCALE
  5
277
102
{ACAD_REACTORS
330
266
102
}
330
266
100
AcDbScale
 70
     0
300
100:1
140
100.0
141
1.0
290
     0
  0
TABLESTYLE
  5
265
102
{ACAD_XDICTIONARY
360
2D2
102
}
102
{ACAD_REACTORS
330
264
102
}
330
264
100
AcDbTableStyle
  3
Standard
 70
     0
 71
     0
 40
1.5
 41
1.5
280
     0
281
     0
  7
STANDARD
140
4.5
170
     2
 62
     0
 63
     7
283
     0
274
    -2
284
     1
 64
     0
275
    -2
285
     1
 65
     0
276
    -2
286
     1
 66
     0
277
    -2
287
     1
 67
     0
278
    -2
288
     1
 68
     0
279
    -2
289
     1
 69
     0
  7
STANDARD
140
6.0
170
     5
 62
     0
 63
     7
283
     0
274
    -2
284
     1
 64
     0
275
    -2
285
     1
 65
     0
276
    -2
286
     1
 66
     0
277
    -2
287
     1
 67
     0
278
    -2
288
     1
 68
     0
279
    -2
289
     1
 69
     0
  7
STANDARD
140
4.5
170
     5
 62
     0
 63
     7
283
     0
274
    -2
284
     1
 64
     0
275
    -2
285
     1
 65
     0
276
    -2
286
     1
 66
     0
277
    -2
287
     1
 67
     0
278
    -2
288
     1
 68
     0
279
    -2
289
     1
 69
     0
  0
VISUALSTYLE
  5
250
102
{ACAD_XDICTIONARY
360
2E3
102
}
102
{ACAD_REACTORS
330
24A
102
}
330
24A
100
AcDbVisualStyle
  2
2dWireframe
 70
     4
 71
     0
 72
     2
 73
     0
 90
        0
 40
-0.6
 41
-30.0
 62
     5
 63
     7
 74
     1
 91
        4
 64
     7
 65
   257
 75
     1
175
     1
 42
1.0
 92
        0
 66
   257
 43
1.0
 76
     1
 77
     6
 78
     2
 67
     7
 79
     5
170
     0
171
     0
290
     0
174
     0
 93
        1
 44
0.0
173
     0
291
     0
 45
0.0
1001
ACAD
1000
AcDbSavedByObjectVersion
1070
     0
  0
VISUALSTYLE
  5
24F
102
{ACAD_XDICTIONARY
360
2E1
102
}
102
{ACAD_REACTORS
330
24A
102
}
330
24A
100
AcDbVisualStyle
  2
Basic
 70
     7
 71
     1
 72
     0
 73
     1
 90
        0
 40
-0.6
 41
-30.0
 62
     5
 63
     7
 74
     0
 91
        4
 64
     7
 65
   257
 75
     1
175
     1
 42
1.0
 92
        8
 66
     7
 43
1.0
 76
     1
 77
     6
 78
     2
 67
     7
 79
     5
170
     0
171
     0
290
     0
174
     0
 93
        1
 44
0.0
173
     0
291
     1
 45
0.0
1001
ACAD
1000
AcDbSavedByObjectVersion
1070
     0
  0
VISUALSTYLE
  5
256
102
{ACAD_XDICTIONARY
360
2EF
102
}
102
{ACAD_REACTORS
330
24A
102
}
330
24A
100
AcDbVisualStyle
  2
Brighten
 70
    12
 71
     2
 72
     2
 73
     0
 90
        0
 40
-0.6
 41
-30.0
 62
     5
 63
     7
 74
     1
 91
        4
 64
     7
 65
   257
 75
     1
175
     1
 42
1.0
 92
        8
 66
     7
 43
1.0
 76
     1
 77
     6
 78
     2
 67
     7
 79
     5
170
     0
171
     0
290
     0
174
     0
 93
        1
 44
50.0
173
     0
291
     1
 45
0.0
1001
ACAD
1000
AcDbSavedByObjectVersion
1070
     0
  0
VISUALSTYLE
  5
25A
102
{ACAD_XDICTIONARY
360
2F7
102
}
102
{ACAD_REACTORS
330
24A
102
}
330
24A
100
AcDbVisualStyle
  2
ColorChange
 70
    16
 71
     2
 72
     2
 73
     3
 90
        0
 40
-0.6
 41
-30.0
 62
     5
 63
     8
 74
     1
 91
        4
 64
     7
 65
   257
 75
     1
175
     1
 42
1.0
 92
        8
 66
     8
 43
1.0
 76
     1
 77
     6
 78
     2
 67
     7
 79
     5
170
     0
171
     0
290
     0
174
     0
 93
        1
 44
0.0
173
     0
291
     1
 45
0.0
1001
ACAD
1000
AcDbSavedByObjectVersion
1070
     0
  0
VISUALSTYLE
  5
253
102
{ACAD_XDICTIONARY
360
2E9
102
}
102
{ACAD_REACTORS
330
24A
102
}
330
24A
100
AcDbVisualStyle
  2
Conceptual
 70
     9
 71
     3
 72
     2
 73
     0
 90
        0
 40
-0.6
 41
-30.0
 62
     5
 63
     7
 74
     2
 91
        2
 64
     7
 65
   257
 75
     1
175
     1
 42
179.0
 92
        8
 66
     7
 43
1.0
 76
     1
 77
     6
 78
     2
 67
     7
 79
     3
170
     0
171
     0
290
     0
174
     0
 93
        1
 44
0.0
173
     0
291
     0
 45
0.0
1001
ACAD
1000
AcDbSavedByObjectVersion
1070
     0
  0
VISUALSTYLE
  5
255
102
{ACAD_XDICTIONARY
360
2ED
102
}
102
{ACAD_REACTORS
330
24A
102
}
330
24A
100
AcDbVisualStyle
  2
Dim
 70
    11
 71
     2
 72
     2
 73
     0
 90
        0
 40
-0.6
 41
-30.0
 62
     5
 63
     7
 74
     1
 91
        4
 64
     7
 65
   257
 75
     1
175
     1
 42
1.0
 92
        8
 66
     7
 43
1.0
 76
     1
 77
     6
 78
     2
 67
     7
 79
     5
170
     0
171
     0
290
     0
174
     0
 93
        1
 44
-50.0
173
     0
291
     1
 45
0.0
1001
ACAD
1000
AcDbSavedByObjectVersion
1070
     0
  0
VISUALSTYLE
  5
262
102
{ACAD_XDICTIONARY
360
307
102
}
102
{ACAD_REACTORS
330
24A
102
}
330
24A
100
AcDbVisualStyle
  2
EdgeColorOff
 70
    22
 71
     2
 72
     2
 73
     0
 90
        0
 40
-0.6
 41
-30.0
 62
     5
 63
     7
 74
     1
 91
        4
 64
     7
 65
   257
 75
     1
175
     1
 42
1.0
 92
        8
 66
     7
 43
1.0
 76
     1
 77
     6
 78
     2
 67
     7
 79
     5
170
     0
171
     0
290
     0
174
     0
 93
        1
 44
0.0
173
     0
291
     1
 45
0.0
1001
ACAD
1000
AcDbSavedByObjectVersion
1070
     0
  0
VISUALSTYLE
  5
259
102
{ACAD_XDICTIONARY
360
2F5
102
}
102
{ACAD_REACTORS
330
24A
102
}
330
24A
100
AcDbVisualStyle
  2
Facepattern
 70
    15
 71
     2
 72
     2
 73
     0
 90
        0
 40
-0.6
 41
-30.0
 62
     5
 63
     7
 74
     1
 91
        4
 64
     7
 65
   257
 75
     1
175
     1
 42
1.0
 92
        8
 66
     7
 43
1.0
 76
     1
 77
     6
 78
     2
 67
     7
 79
     5
170
     0
171
     0
290
     0
174
     0
 93
        1
 44
0.0
173
     0
291
     1
 45
0.0
1001
ACAD
1000
AcDbSavedByObjectVersion
1070
     0
  0
VISUALSTYLE
  5
24B
102
{ACAD_XDICTIONARY
360
2D9
102
}
102
{ACAD_REACTORS
330
24A
102
}
330
24A
100
AcDbVisualStyle
  2
Flat
 70
     0
 71
     2
 72
     1
 73
     1
 90
        2
 40
-0.6
 41
30.0
 62
     5
 63
     7
 74
     0
 91
        0
 64
     7
 65
   257
 75
     1
175
     1
 42
1.0
 92
        8
 66
     7
 43
1.0
 76
     1
 77
     6
 78
     2
 67
     7
 79
     5
170
     0
171
     0
290
     0
174
     0
 93
       13
 44
0.0
173
     0
291
     1
 45
0.0
1001
ACAD
1000
AcDbSavedByObjectVersion
1070
     0
  0
VISUALSTYLE
  5
24C
102
{ACAD_XDICTIONARY
360
2DB
102
}
102
{ACAD_REACTORS
330
24A
102
}
330
24A
100
AcDbVisualStyle
  2
FlatWithEdges
 70
     1
 71
     2
 72
     1
 73
     1
 90
        2
 40
-0.6
 41
30.0
 62
     5
 63
     7
 74
     1
 91
        0
 64
     7
 65
   257
 75
     1
175
     1
 42
1.0
 92
        0
 66
   257
 43
1.0
 76
     1
 77
     6
 78
     2
 67
     7
 79
     5
170
     0
171
     0
290
     0
174
     0
 93
       13
 44
0.0
173
     0
291
     1
 45
0.0
1001
ACAD
1000
AcDbSavedByObjectVersion
1070
     0
  0
VISUALSTYLE
  5
24D
102
{ACAD_XDICTIONARY
360
2DD
102
}
102
{ACAD_REACTORS
330
24A
102
}
330
24A
100
AcDbVisualStyle
  2
Gouraud
 70
     2
 71
     2
 72
     2
 73
     1
 90
        2
 40
-0.6
 41
30.0
 62
     5
 63
     7
 74
     0
 91
        0
 64
     7
 65
   257
 75
     1
175
     1
 42
1.0
 92
        0
 66
     7
 43
1.0
 76
     1
 77
     6
 78
     2
 67
     7
 79
     5
170
     0
171
     0
290
     0
174
     0
 93
       13
 44
0.0
173
     0
291
     1
 45
0.0
1001
ACAD
1000
AcDbSavedByObjectVersion
1070
     0
  0
VISUALSTYLE
  5
24E
102
{ACAD_XDICTIONARY
360
2DF
102
}
102
{ACAD_REACTORS
330
24A
102
}
330
24A
100
AcDbVisualStyle
  2
GouraudWithEdges
 70
     3
 71
     2
 72
     2
 73
     1
 90
        2
 40
-0.6
 41
30.0
 62
     5
 63
     7
 74
     1
 91
        0
 64
     7
 65
   257
 75
     1
175
     1
 42
1.0
 92
        0
 66
   257
 43
1.0
 76
     1
 77
     6
 78
     2
 67
     7
 79
     5
170
     0
171
     0
290
     0
174
     0
 93
       13
 44
0.0
173
     0
291
     1
 45
0.0
1001
ACAD
1000
AcDbSavedByObjectVersion
1070
     0
  0
VISUALSTYLE
  5
252
102
{ACAD_XDICTIONARY
360
2E7
102
}
102
{ACAD_REACTORS
330
24A
102
}
330
24A
100
AcDbVisualStyle
  2
Hidden
 70
     6
 71
     1
 72
     2
 73
     2
 90
        0
 40
-0.6
 41
-30.0
 62
     5
 63
     7
 74
     2
 91
        2
 64
     7
 65
   257
 75
     2
175
     1
 42
40.0
 92
        0
 66
   257
 43
1.0
 76
     1
 77
     6
 78
     2
 67
     7
 79
     3
170
     0
171
     0
290
     0
174
     0
 93
        1
 44
0.0
173
     0
291
     0
 45
0.0
1001
ACAD
1000
AcDbSavedByObjectVersion
1070
     0
  0
VISUALSTYLE
  5
260
102
{ACAD_XDICTIONARY
360
303
102
}
102
{ACAD_REACTORS
330
24A
102
}
330
24A
100
AcDbVisualStyle
  2
JitterOff
 70
    20
 71
     2
 72
     2
 73
     0
 90
        0
 40
-0.6
 41
-30.0
 62
     5
 63
     7
 74
     1
 91
        4
 64
     7
 65
   257
 75
     1
175
     1
 42
1.0
 92
       10
 66
     7
 43
1.0
 76
     1
 77
     6
 78
     2
 67
     7
 79
     5
170
     0
171
     0
290
     0
174
     0
 93
        1
 44
0.0
173
     0
291
     1
 45
0.0
1001
ACAD
1000
AcDbSavedByObjectVersion
1070
     0
  0
VISUALSTYLE
  5
258
102
{ACAD_XDICTIONARY
360
2F3
102
}
102
{ACAD_REACTORS
330
24A
102
}
330
24A
100
AcDbVisualStyle
  2
Linepattern
 70
    14
 71
     2
 72
     2
 73
     0
 90
        0
 40
-0.6
 41
-30.0
 62
     5
 63
     7
 74
     1
 91
        4
 64
     7
 65
   257
 75
     7
175
     7
 42
1.0
 92
        8
 66
     7
 43
1.0
 76
     1
 77
     6
 78
     2
 67
     7
 79
     5
170
     0
171
     0
290
     0
174
     0
 93
        1
 44
0.0
173
     0
291
     1
 45
0.0
1001
ACAD
1000
AcDbSavedByObjectVersion
1070
     0
  0
VISUALSTYLE
  5
261
102
{ACAD_XDICTIONARY
360
305
102
}
102
{ACAD_REACTORS
330
24A
102
}
330
24A
100
AcDbVisualStyle
  2
OverhangOff
 70
    21
 71
     2
 72
     2
 73
     0
 90
        0
 40
-0.6
 41
-30.0
 62
     5
 63
     7
 74
     1
 91
        4
 64
     7
 65
   257
 75
     1
175
     1
 42
1.0
 92
        9
 66
     7
 43
1.0
 76
     1
 77
     6
 78
     2
 67
     7
 79
     5
170
     0
171
     0
290
     0
174
     0
 93
        1
 44
0.0
173
     0
291
     1
 45
0.0
1001
ACAD
1000
AcDbSavedByObjectVersion
1070
     0
  0
VISUALSTYLE
  5
254
102
{ACAD_XDICTIONARY
360
2EB
102
}
102
{ACAD_REACTORS
330
24A
102
}
330
24A
100
AcDbVisualStyle
  2
Realistic
 70
     8
 71
     2
 72
     3
 73
     0
 90
        2
 40
-0.6
 41
30.0
 62
     5
 63
     7
 74
     0
 91
        0
 64
     7
 65
   257
 75
     1
175
     1
 42
1.0
 92
        8
 66
   257
 43
1.0
 76
     1
 77
     6
 78
     2
 67
     7
 79
     3
170
     0
171
     0
290
     0
174
     0
 93
       13
 44
0.0
173
     0
291
     0
 45
0.0
1001
ACAD
1000
AcDbSavedByObjectVersion
1070
     0
  0
VISUALSTYLE
  5
25F
102
{ACAD_XDICTIONARY
360
301
102
}
102
{ACAD_REACTORS
330
24A
102
}
330
24A
100
AcDbVisualStyle
  2
Shaded
 70
    27
 71
     2
 72
     2
 73
     1
 90
        2
 40
-0.6
 41
30.0
 62
     5
 63
     7
 74
     0
 91
        4
 64
     7
 65
   257
 75
     1
175
     1
 42
1.0
 92
        8
 66
   257
 43
1.0
 76
     1
 77
     6
 78
     2
 67
     8
 79
     3
170
     0
171
     0
290
     0
174
     0
 93
        5
 44
0.0
173
     0
291
     0
 45
0.0
1001
ACAD
1000
AcDbSavedByObjectVersion
1070
     0
  0
VISUALSTYLE
  5
25E
102
{ACAD_XDICTIONARY
360
2FF
102
}
102
{ACAD_REACTORS
330
24A
102
}
330
24A
100
AcDbVisualStyle
  2
Shaded with edges
 70
    26
 71
     2
 72
     2
 73
     1
 90
        2
 40
-0.6
 41
30.0
 62
     5
 63
     7
 74
     1
 91
       10
 64
     7
 65
   257
 75
     2
175
     1
 42
1.0
 92
        8
 66
   257
 43
1.0
 76
     1
 77
     6
 78
     2
 67
     7
 79
     3
170
     0
171
     0
290
     0
174
     0
 93
        5
 44
0.0
173
     0
291
     0
 45
0.0
1001
ACAD
1000
AcDbSavedByObjectVersion
1070
     0
  0
VISUALSTYLE
  5
25B
102
{ACAD_XDICTIONARY
360
2F9
102
}
102
{ACAD_REACTORS
330
24A
102
}
330
24A
100
AcDbVisualStyle
  2
Shades of Gray
 70
    23
 71
     2
 72
     2
 73
     3
 90
        0
 40
-0.6
 41
-30.0
 62
     5
 63
     7
 74
     2
 91
        2
 64
     7
 65
     7
 75
     1
175
     1
 42
40.0
 92
        8
 66
     7
 43
1.0
 76
     1
 77
     6
 78
     2
 67
     7
 79
     3
170
     0
171
     0
290
     0
174
     0
 93
        1
 44
0.0
173
     0
291
     0
 45
0.0
1001
ACAD
1000
AcDbSavedByObjectVersion
1070
     0
  0
VISUALSTYLE
  5
25C
102
{ACAD_XDICTIONARY
360
2FB
102
}
102
{ACAD_REACTORS
330
24A
102
}
330
24A
100
AcDbVisualStyle
  2
Sketchy
 70
    24
 71
     1
 72
     2
 73
     2
 90
        0
 40
-0.6
 41
-30.0
 62
     5
 63
     7
 74
     2
 91
        2
 64
     7
 65
     7
 75
     1
175
     1
 42
40.0
 92
       11
 66
     7
 43
1.0
 76
     1
 77
     6
 78
     2
 67
     7
 79
     6
170
     0
171
     0
290
     0
174
     0
 93
        1
 44
0.0
173
     0
291
     0
 45
0.0
1001
ACAD
1000
AcDbSavedByObjectVersion
1070
     0
  0
VISUALSTYLE
  5
257
102
{ACAD_XDICTIONARY
360
2F1
102
}
102
{ACAD_REACTORS
330
24A
102
}
330
24A
100
AcDbVisualStyle
  2
Thicken
 70
    13
 71
     2
 72
     2
 73
     0
 90
        0
 40
-0.6
 41
-30.0
 62
     5
 63
     7
 74
     1
 91
        4
 64
     7
 65
   257
 75
     1
175
     1
 42
1.0
 92
       12
 66
     7
 43
1.0
 76
     1
 77
     6
 78
     2
 67
     7
 79
     5
170
     0
171
     0
290
     0
174
     0
 93
        1
 44
0.0
173
     0
291
     1
 45
0.0
1001
ACAD
1000
AcDbSavedByObjectVersion
1070
     0
  0
VISUALSTYLE
  5
251
102
{ACAD_XDICTIONARY
360
2E5
102
}
102
{ACAD_REACTORS
330
24A
102
}
330
24A
100
AcDbVisualStyle
  2
Wireframe
 70
     5
 71
     0
 72
     2
 73
     0
 90
        0
 40
-0.6
 41
-30.0
 62
     5
 63
     7
 74
     1
 91
        4
 64
     7
 65
   257
 75
     1
175
     1
 42
1.0
 92
        0
 66
   257
 43
1.0
 76
     1
 77
     6
 78
     2
 67
     7
 79
     3
170
     0
171
     0
290
     0
174
     0
 93
        1
 44
0.0
173
     0
291
     0
 45
0.0
1001
ACAD
1000
AcDbSavedByObjectVersion
1070
     0
  0
VISUALSTYLE
  5
25D
102
{ACAD_XDICTIONARY
360
2FD
102
}
102
{ACAD_REACTORS
330
24A
102
}
330
24A
100
AcDbVisualStyle
  2
X-Ray
 70
    25
 71
     2
 72
     2
 73
     1
 90
        1
 40
0.5
 41
-30.0
 62
     5
 63
     7
 74
     1
 91
        0
 64
     7
 65
   257
 75
     1
175
     1
 42
1.0
 92
        8
 66
     7
 43
1.0
 76
     1
 77
     6
 78
     2
 67
     7
 79
     3
170
     0
171
     0
290
     0
174
     0
 93
       13
 44
0.0
173
     0
291
     0
 45
0.0
1001
ACAD
1000
AcDbSavedByObjectVersion
1070
     0
  0
DICTIONARYVAR
  5
2CD
102
{ACAD_REACTORS
330
2CA
102
}
330
2CA
100
DictionaryVariables
280
     0
  1
1:1
  0
DICTIONARYVAR
  5
2CC
102
{ACAD_REACTORS
330
2CA
102
}
330
2CA
100
DictionaryVariables
280
     0
  1
STANDARD
  0
DICTIONARYVAR
  5
2CB
102
{ACAD_REACTORS
330
2CA
102
}
330
2CA
100
DictionaryVariables
280
     0
  1
STANDARD
  0
DICTIONARYVAR
  5
2D0
102
{ACAD_REACTORS
330
2CA
102
}
330
2CA
100
DictionaryVariables
280
     0
  1
1
  0
DICTIONARYVAR
  5
2CF
102
{ACAD_REACTORS
330
2CA
102
}
330
2CA
100
DictionaryVariables
280
     0
  1
0
  0
DICTIONARYVAR
  5
2CE
102
{ACAD_REACTORS
330
2CA
102
}
330
2CA
100
DictionaryVariables
280
     0
  1
127
  0
DICTIONARYVAR
  5
2D1
102
{ACAD_REACTORS
330
2CA
102
}
330
2CA
100
DictionaryVariables
280
     0
  1
2
  0
DICTIONARY
  5
30B
330
27D
100
AcDbDictionary
280
     1
281
     1
  3
ACAD_XREC_ROUNDTRIP
360
30C
  0
DICTIONARY
  5
30D
330
27E
100
AcDbDictionary
280
     1
281
     1
  3
ACAD_XREC_ROUNDTRIP
360
30E
  0
DICTIONARY
  5
23B
330
23A
100
AcDbDictionary
280
     1
281
     1
  3
ACAD_XREC_ROUNDTRIP
360
2D7
  3
BUMPTILE
360
23D
  3
DIFFUSETILE
360
23C
  3
OPACITYTILE
360
240
  3
REFLECTIONTILE
360
23F
  3
REFRACTIONTILE
360
241
  3
SPECULARTILE
360
23E
  0
DICTIONARY
  5
233
330
232
100
AcDbDictionary
280
     1
281
     1
  3
ACAD_XREC_ROUNDTRIP
360
2D6
  3
BUMPTILE
360
235
  3
DIFFUSETILE
360
234
  3
OPACITYTILE
360
238
  3
REFLECTIONTILE
360
237
  3
REFRACTIONTILE
360
239
  3
SPECULARTILE
360
236
  0
DICTIONARY
  5
243
330
242
100
AcDbDictionary
280
     1
281
     1
  3
ACAD_XREC_ROUNDTRIP
360
2D8
  3
BUMPTILE
360
245
  3
DIFFUSETILE
360
244
  3
OPACITYTILE
360
248
  3
REFLECTIONTILE
360
247
  3
REFRACTIONTILE
360
249
  3
SPECULARTILE
360
246
  0
DICTIONARY
  5
2D2
330
265
100
AcDbDictionary
280
     1
281
     1
  3
ACAD_ROUNDTRIP_2008_TABLESTYLE_CELLSTYLEMAP
360
2D3
  3
ACAD_XREC_ROUNDTRIP
360
309
  0
DICTIONARY
  5
2E3
330
250
100
AcDbDictionary
280
     1
281
     1
  3
ACAD_XREC_ROUNDTRIP
360
2E4
  0
DICTIONARY
  5
2E1
330
24F
100
AcDbDictionary
280
     1
281
     1
  3
ACAD_XREC_ROUNDTRIP
360
2E2
  0
DICTIONARY
  5
2EF
330
256
100
AcDbDictionary
280
     1
281
     1
  3
ACAD_XREC_ROUNDTRIP
360
2F0
  0
DICTIONARY
  5
2F7
330
25A
100
AcDbDictionary
280
     1
281
     1
  3
ACAD_XREC_ROUNDTRIP
360
2F8
  0
DICTIONARY
  5
2E9
330
253
100
AcDbDictionary
280
     1
281
     1
  3
ACAD_XREC_ROUNDTRIP
360
2EA
  0
DICTIONARY
  5
2ED
330
255
100
AcDbDictionary
280
     1
281
     1
  3
ACAD_XREC_ROUNDTRIP
360
2EE
  0
DICTIONARY
  5
307
330
262
100
AcDbDictionary
280
     1
281
     1
  3
ACAD_XREC_ROUNDTRIP
360
308
  0
DICTIONARY
  5
2F5
330
259
100
AcDbDictionary
280
     1
281
     1
  3
ACAD_XREC_ROUNDTRIP
360
2F6
  0
DICTIONARY
  5
2D9
330
24B
100
AcDbDictionary
280
     1
281
     1
  3
ACAD_XREC_ROUNDTRIP
360
2DA
  0
DICTIONARY
  5
2DB
330
24C
100
AcDbDictionary
280
     1
281
     1
  3
ACAD_XREC_ROUNDTRIP
360
2DC
  0
DICTIONARY
  5
2DD
330
24D
100
AcDbDictionary
280
     1
281
     1
  3
ACAD_XREC_ROUNDTRIP
360
2DE
  0
DICTIONARY
  5
2DF
330
24E
100
AcDbDictionary
280
     1
281
     1
  3
ACAD_XREC_ROUNDTRIP
360
2E0
  0
DICTIONARY
  5
2E7
330
252
100
AcDbDictionary
280
     1
281
     1
  3
ACAD_XREC_ROUNDTRIP
360
2E8
  0
DICTIONARY
  5
303
330
260
100
AcDbDictionary
280
     1
281
     1
  3
ACAD_XREC_ROUNDTRIP
360
304
  0
DICTIONARY
  5
2F3
330
258
100
AcDbDictionary
280
     1
281
     1
  3
ACAD_XREC_ROUNDTRIP
360
2F4
  0
DICTIONARY
  5
305
330
261
100
AcDbDictionary
280
     1
281
     1
  3
ACAD_XREC_ROUNDTRIP
360
306
  0
DICTIONARY
  5
2EB
330
254
100
AcDbDictionary
280
     1
281
     1
  3
ACAD_XREC_ROUNDTRIP
360
2EC
  0
DICTIONARY
  5
301
330
25F
100
AcDbDictionary
280
     1
281
     1
  3
ACAD_XREC_ROUNDTRIP
360
302
  0
DICTIONARY
  5
2FF
330
25E
100
AcDbDictionary
280
     1
281
     1
  3
ACAD_XREC_ROUNDTRIP
360
300
  0
DICTIONARY
  5
2F9
330
25B
100
AcDbDictionary
280
     1
281
     1
  3
ACAD_XREC_ROUNDTRIP
360
2FA
  0
DICTIONARY
  5
2FB
330
25C
100
AcDbDictionary
280
     1
281
     1
  3
ACAD_XREC_ROUNDTRIP
360
2FC
  0
DICTIONARY
  5
2F1
330
257
100
AcDbDictionary
280
     1
281
     1
  3
ACAD_XREC_ROUNDTRIP
360
2F2
  0
DICTIONARY
  5
2E5
330
251
100
AcDbDictionary
280
     1
281
     1
  3
ACAD_XREC_ROUNDTRIP
360
2E6
  0
DICTIONARY
  5
2FD
330
25D
100
AcDbDictionary
280
     1
281
     1
  3
ACAD_XREC_ROUNDTRIP
360
2FE
  0
XRECORD
  5
30C
102
{ACAD_REACTORS
330
30B
102
}
330
30B
100
AcDbXrecord
280
     1
102
SHADEPLOT
 70
     0
102
SHADEPLOTRESLEVEL
 70
     2
102
SHADEPLOTCUSTOMDPI
 70
   300
  0
XRECORD
  5
30E
102
{ACAD_REACTORS
330
30D
102
}
330
30D
100
AcDbXrecord
280
     1
102
SHADEPLOT
 70
     0
102
SHADEPLOTRESLEVEL
 70
     2
102
SHADEPLOTCUSTOMDPI
 70
   300
  0
XRECORD
  5
2D7
102
{ACAD_REACTORS
330
23B
102
}
330
23B
100
AcDbXrecord
280
     1
102
MATERIAL
148
0.0
149
0.0
149
0.0
 93
        0
 94
      127
282
     0
 72
     0
 77
     0
171
     0
175
     0
179
     0
273
     0
  0
XRECORD
  5
23D
102
{ACAD_REACTORS
330
23B
102
}
330
23B
100
AcDbXrecord
280
     1
270
     1
271
     1
  0
XRECORD
  5
23C
102
{ACAD_REACTORS
330
23B
102
}
330
23B
100
AcDbXrecord
280
     1
270
     1
271
     1
  0
XRECORD
  5
240
102
{ACAD_REACTORS
330
23B
102
}
330
23B
100
AcDbXrecord
280
     1
270
     1
271
     1
  0
XRECORD
  5
23F
102
{ACAD_REACTORS
330
23B
102
}
330
23B
100
AcDbXrecord
280
     1
270
     1
271
     1
  0
XRECORD
  5
241
102
{ACAD_REACTORS
330
23B
102
}
330
23B
100
AcDbXrecord
280
     1
270
     1
271
     1
  0
XRECORD
  5
23E
102
{ACAD_REACTORS
330
23B
102
}
330
23B
100
AcDbXrecord
280
     1
270
     1
271
     1
  0
XRECORD
  5
2D6
102
{ACAD_REACTORS
330
233
102
}
330
233
100
AcDbXrecord
280
     1
102
MATERIAL
148
0.0
149
0.0
149
0.0
 93
        0
 94
      127
282
     0
 72
     0
 77
     0
171
     0
175
     0
179
     0
273
     0
  0
XRECORD
  5
235
102
{ACAD_REACTORS
330
233
102
}
330
233
100
AcDbXrecord
280
     1
270
     1
271
     1
  0
XRECORD
  5
234
102
{ACAD_REACTORS
330
233
102
}
330
233
100
AcDbXrecord
280
     1
270
     1
271
     1
  0
XRECORD
  5
238
102
{ACAD_REACTORS
330
233
102
}
330
233
100
AcDbXrecord
280
     1
270
     1
271
     1
  0
XRECORD
  5
237
102
{ACAD_REACTORS
330
233
102
}
330
233
100
AcDbXrecord
280
     1
270
     1
271
     1
  0
XRECORD
  5
239
102
{ACAD_REACTORS
330
233
102
}
330
233
100
AcDbXrecord
280
     1
270
     1
271
     1
  0
XRECORD
  5
236
102
{ACAD_REACTORS
330
233
102
}
330
233
100
AcDbXrecord
280
     1
270
     1
271
     1
  0
XRECORD
  5
2D8
102
{ACAD_REACTORS
330
243
102
}
330
243
100
AcDbXrecord
280
     1
102
MATERIAL
148
0.0
149
0.0
149
0.0
 93
        0
 94
      127
282
     0
 72
     0
 77
     0
171
     0
175
     0
179
     0
273
     0
  0
XRECORD
  5
245
102
{ACAD_REACTORS
330
243
102
}
330
243
100
AcDbXrecord
280
     1
270
     1
271
     1
  0
XRECORD
  5
244
102
{ACAD_REACTORS
330
243
102
}
330
243
100
AcDbXrecord
280
     1
270
     1
271
     1
  0
XRECORD
  5
248
102
{ACAD_REACTORS
330
243
102
}
330
243
100
AcDbXrecord
280
     1
270
     1
271
     1
  0
XRECORD
  5
247
102
{ACAD_REACTORS
330
243
102
}
330
243
100
AcDbXrecord
280
     1
270
     1
271
     1
  0
XRECORD
  5
249
102
{ACAD_REACTORS
330
243
102
}
330
243
100
AcDbXrecord
280
     1
270
     1
271
     1
  0
XRECORD
  5
246
102
{ACAD_REACTORS
330
243
102
}
330
243
100
AcDbXrecord
280
     1
270
     1
271
     1
  0
CELLSTYLEMAP
  5
2D3
102
{ACAD_REACTORS
330
2D2
102
}
330
2D2
100
AcDbCellStyleMap
 90
        3
300
CELLSTYLE
  1
TABLEFORMAT_BEGIN
 90
        5
170
     1
 91
        0
 92
    32768
 62
   257
 93
        1
300
CONTENTFORMAT
  1
CONTENTFORMAT_BEGIN
 90
        0
 91
        0
 92
      512
 93
        0
300

 40
0.0
140
1.0
 94
        5
 62
     0
340
2B
144
6.0
309
CONTENTFORMAT_END
171
     1
301
MARGIN
  1
CELLMARGIN_BEGIN
 40
1.5
 40
1.5
 40
1.5
 40
1.5
 40
4.5
 40
4.5
309
CELLMARGIN_END
 94
        6
 95
        1
302
GRIDFORMAT
  1
GRIDFORMAT_BEGIN
 90
        0
 91
        1
 62
     0
 92
       -2
340
0
 93
        0
 40
1.125
309
GRIDFORMAT_END
 95
        2
302
GRIDFORMAT
  1
GRIDFORMAT_BEGIN
 90
        0
 91
        1
 62
     0
 92
       -2
340
0
 93
        0
 40
1.125
309
GRIDFORMAT_END
 95
        4
302
GRIDFORMAT
  1
GRIDFORMAT_BEGIN
 90
        0
 91
        1
 62
     0
 92
       -2
340
0
 93
        0
 40
1.125
309
GRIDFORMAT_END
 95
        8
302
GRIDFORMAT
  1
GRIDFORMAT_BEGIN
 90
        0
 91
        1
 62
     0
 92
       -2
340
0
 93
        0
 40
1.125
309
GRIDFORMAT_END
 95
       16
302
GRIDFORMAT
  1
GRIDFORMAT_BEGIN
 90
        0
 91
        1
 62
     0
 92
       -2
340
0
 93
        0
 40
1.125
309
GRIDFORMAT_END
 95
       32
302
GRIDFORMAT
  1
GRIDFORMAT_BEGIN
 90
        0
 91
        1
 62
     0
 92
       -2
340
0
 93
        0
 40
1.125
309
GRIDFORMAT_END
309
TABLEFORMAT_END
  1
CELLSTYLE_BEGIN
 90
        1
 91
        1
300
_TITLE
309
CELLSTYLE_END
300
CELLSTYLE
  1
TABLEFORMAT_BEGIN
 90
        5
170
     1
 91
        0
 92
        0
 62
   257
 93
        1
300
CONTENTFORMAT
  1
CONTENTFORMAT_BEGIN
 90
        0
 91
        0
 92
      512
 93
        0
300

 40
0.0
140
1.0
 94
        5
 62
     0
340
2B
144
4.5
309
CONTENTFORMAT_END
171
     1
301
MARGIN
  1
CELLMARGIN_BEGIN
 40
1.5
 40
1.5
 40
1.5
 40
1.5
 40
4.5
 40
4.5
309
CELLMARGIN_END
 94
        6
 95
        1
302
GRIDFORMAT
  1
GRIDFORMAT_BEGIN
 90
        0
 91
        1
 62
     0
 92
       -2
340
0
 93
        0
 40
1.125
309
GRIDFORMAT_END
 95
        2
302
GRIDFORMAT
  1
GRIDFORMAT_BEGIN
 90
        0
 91
        1
 62
     0
 92
       -2
340
0
 93
        0
 40
1.125
309
GRIDFORMAT_END
 95
        4
302
GRIDFORMAT
  1
GRIDFORMAT_BEGIN
 90
        0
 91
        1
 62
     0
 92
       -2
340
0
 93
        0
 40
1.125
309
GRIDFORMAT_END
 95
        8
302
GRIDFORMAT
  1
GRIDFORMAT_BEGIN
 90
        0
 91
        1
 62
     0
 92
       -2
340
0
 93
        0
 40
1.125
309
GRIDFORMAT_END
 95
       16
302
GRIDFORMAT
  1
GRIDFORMAT_BEGIN
 90
        0
 91
        1
 62
     0
 92
       -2
340
0
 93
        0
 40
1.125
309
GRIDFORMAT_END
 95
       32
302
GRIDFORMAT
  1
GRIDFORMAT_BEGIN
 90
        0
 91
        1
 62
     0
 92
       -2
340
0
 93
        0
 40
1.125
309
GRIDFORMAT_END
309
TABLEFORMAT_END
  1
CELLSTYLE_BEGIN
 90
        2
 91
        1
300
_HEADER
309
CELLSTYLE_END
300
CELLSTYLE
  1
TABLEFORMAT_BEGIN
 90
        5
170
     1
 91
        0
 92
        0
 62
   257
 93
        1
300
CONTENTFORMAT
  1
CONTENTFORMAT_BEGIN
 90
        0
 91
        0
 92
      512
 93
        0
300

 40
0.0
140
1.0
 94
        2
 62
     0
340
2B
144
4.5
309
CONTENTFORMAT_END
171
     1
301
MARGIN
  1
CELLMARGIN_BEGIN
 40
1.5
 40
1.5
 40
1.5
 40
1.5
 40
4.5
 40
4.5
309
CELLMARGIN_END
 94
        6
 95
        1
302
GRIDFORMAT
  1
GRIDFORMAT_BEGIN
 90
        0
 91
        1
 62
     0
 92
       -2
340
0
 93
        0
 40
1.125
309
GRIDFORMAT_END
 95
        2
302
GRIDFORMAT
  1
GRIDFORMAT_BEGIN
 90
        0
 91
        1
 62
     0
 92
       -2
340
0
 93
        0
 40
1.125
309
GRIDFORMAT_END
 95
        4
302
GRIDFORMAT
  1
GRIDFORMAT_BEGIN
 90
        0
 91
        1
 62
     0
 92
       -2
340
0
 93
        0
 40
1.125
309
GRIDFORMAT_END
 95
        8
302
GRIDFORMAT
  1
GRIDFORMAT_BEGIN
 90
        0
 91
        1
 62
     0
 92
       -2
340
0
 93
        0
 40
1.125
309
GRIDFORMAT_END
 95
       16
302
GRIDFORMAT
  1
GRIDFORMAT_BEGIN
 90
        0
 91
        1
 62
     0
 92
       -2
340
0
 93
        0
 40
1.125
309
GRIDFORMAT_END
 95
       32
302
GRIDFORMAT
  1
GRIDFORMAT_BEGIN
 90
        0
 91
        1
 62
     0
 92
       -2
340
0
 93
        0
 40
1.125
309
GRIDFORMAT_END
309
TABLEFORMAT_END
  1
CELLSTYLE_BEGIN
 90
        3
 91
        2
300
_DATA
309
CELLSTYLE_END
  0
XRECORD
  5
309
102
{ACAD_REACTORS
330
2D2
102
}
330
2D2
100
AcDbXrecord
280
     1
102
ACAD_ROUNDTRIP_PRE2007_TABLESTYLE
 90
      512
 91
        0
  1

 92
      512
 93
        0
  2

 94
      512
 95
        0
  3

  0
XRECORD
  5
2E4
102
{ACAD_REACTORS
330
2E3
102
}
330
2E3
100
AcDbXrecord
280
     1
102
RTVSPropertyOp0
 70
     1
102
RTVSPropertyOp1
 70
     1
102
RTVSPropertyOp2
 70
     1
102
RTVSPropertyOp3
 70
     1
102
RTVSPropertyOp4
 70
     1
102
RTVSPropertyOp5
 70
     1
102
RTVSPropertyOp6
 70
     1
102
RTVSPropertyOp7
 70
     1
102
RTVSPropertyOp8
 70
     1
102
RTVSPropertyOp9
 70
     1
102
RTVSPropertyOp10
 70
     1
102
RTVSPropertyOp11
 70
     1
102
RTVSPropertyOp12
 70
     1
102
RTVSPropertyOp13
 70
     1
102
RTVSPropertyOp14
 70
     1
102
RTVSPropertyOp15
 70
     1
102
RTVSPropertyOp16
 70
     1
102
RTVSPropertyOp17
 70
     1
102
RTVSPropertyOp18
 70
     1
102
RTVSPropertyOp19
 70
     1
102
RTVSPropertyOp20
 70
     1
102
RTVSPropertyOp21
 70
     1
102
RTVSPropertyOp22
 70
     1
102
RTVSPropertyOp23
 70
     1
102
RTVSPropertyOp24
 70
     1
102
RTVSPropertyOp25
 70
     1
102
RTVSPropertyOp26
 70
     1
102
RTVSPropertyOp27
 70
     1
102
RTVSPropertyOp28
 70
     1
102
RTVSPropertyOp29
 70
     1
102
RTVSPropertyOp30
 70
     1
102
RTVSPropertyOp31
 70
     1
102
RTVSPropertyOp32
 70
     1
  0
XRECORD
  5
2E2
102
{ACAD_REACTORS
330
2E1
102
}
330
2E1
100
AcDbXrecord
280
     1
102
RTVSPropertyOp0
 70
     1
102
RTVSPropertyOp1
 70
     1
102
RTVSPropertyOp2
 70
     1
102
RTVSPropertyOp3
 70
     1
102
RTVSPropertyOp4
 70
     1
102
RTVSPropertyOp5
 70
     1
102
RTVSPropertyOp6
 70
     1
102
RTVSPropertyOp7
 70
     1
102
RTVSPropertyOp8
 70
     1
102
RTVSPropertyOp9
 70
     1
102
RTVSPropertyOp10
 70
     1
102
RTVSPropertyOp11
 70
     1
102
RTVSPropertyOp12
 70
     1
102
RTVSPropertyOp13
 70
     1
102
RTVSPropertyOp14
 70
     1
102
RTVSPropertyOp15
 70
     1
102
RTVSPropertyOp16
 70
     1
102
RTVSPropertyOp17
 70
     1
102
RTVSPropertyOp18
 70
     1
102
RTVSPropertyOp19
 70
     1
102
RTVSPropertyOp20
 70
     1
102
RTVSPropertyOp21
 70
     1
102
RTVSPropertyOp22
 70
     1
102
RTVSPropertyOp23
 70
     1
102
RTVSPropertyOp24
 70
     1
102
RTVSPropertyOp25
 70
     1
102
RTVSPropertyOp26
 70
     1
102
RTVSPropertyOp27
 70
     1
102
RTVSPropertyOp28
 70
     1
102
RTVSPropertyOp29
 70
     1
102
RTVSPropertyOp30
 70
     1
102
RTVSPropertyOp31
 70
     1
102
RTVSPropertyOp32
 70
     1
  0
XRECORD
  5
2F0
102
{ACAD_REACTORS
330
2EF
102
}
330
2EF
100
AcDbXrecord
280
     1
102
RTVSPropertyOp0
 70
     1
102
RTVSPropertyOp1
 70
     1
102
RTVSPropertyOp2
 70
     1
102
RTVSPropertyOp3
 70
     1
102
RTVSPropertyOp4
 70
     1
102
RTVSPropertyOp5
 70
     1
102
RTVSPropertyOp6
 70
     1
102
RTVSPropertyOp7
 70
     1
102
RTVSPropertyOp8
 70
     1
102
RTVSPropertyOp9
 70
     1
102
RTVSPropertyOp10
 70
     1
102
RTVSPropertyOp11
 70
     1
102
RTVSPropertyOp12
 70
     1
102
RTVSPropertyOp13
 70
     1
102
RTVSPropertyOp14
 70
     1
102
RTVSPropertyOp15
 70
     1
102
RTVSPropertyOp16
 70
     1
102
RTVSPropertyOp17
 70
     1
102
RTVSPropertyOp18
 70
     1
102
RTVSPropertyOp19
 70
     1
102
RTVSPropertyOp20
 70
     1
102
RTVSPropertyOp21
 70
     1
102
RTVSPropertyOp22
 70
     1
102
RTVSPropertyOp23
 70
     1
102
RTVSPropertyOp24
 70
     1
102
RTVSPropertyOp25
 70
     1
102
RTVSPropertyOp26
 70
     1
102
RTVSPropertyOp27
 70
     1
102
RTVSPropertyOp28
 70
     1
102
RTVSPropertyOp29
 70
     1
102
RTVSPropertyOp30
 70
     1
102
RTVSPropertyOp31
 70
     1
102
RTVSPropertyOp32
 70
     1
  0
XRECORD
  5
2F8
102
{ACAD_REACTORS
330
2F7
102
}
330
2F7
100
AcDbXrecord
280
     1
102
RTVSPropertyOp0
 70
     1
102
RTVSPropertyOp1
 70
     1
102
RTVSPropertyOp2
 70
     1
102
RTVSPropertyOp3
 70
     1
102
RTVSPropertyOp4
 70
     1
102
RTVSPropertyOp5
 70
     1
102
RTVSPropertyOp6
 70
     1
102
RTVSPropertyOp7
 70
     1
102
RTVSPropertyOp8
 70
     1
102
RTVSPropertyOp9
 70
     1
102
RTVSPropertyOp10
 70
     1
102
RTVSPropertyOp11
 70
     1
102
RTVSPropertyOp12
 70
     1
102
RTVSPropertyOp13
 70
     1
102
RTVSPropertyOp14
 70
     1
102
RTVSPropertyOp15
 70
     1
102
RTVSPropertyOp16
 70
     1
102
RTVSPropertyOp17
 70
     1
102
RTVSPropertyOp18
 70
     1
102
RTVSPropertyOp19
 70
     1
102
RTVSPropertyOp20
 70
     1
102
RTVSPropertyOp21
 70
     1
102
RTVSPropertyOp22
 70
     1
102
RTVSPropertyOp23
 70
     1
102
RTVSPropertyOp24
 70
     1
102
RTVSPropertyOp25
 70
     1
102
RTVSPropertyOp26
 70
     1
102
RTVSPropertyOp27
 70
     1
102
RTVSPropertyOp28
 70
     1
102
RTVSPropertyOp29
 70
     1
102
RTVSPropertyOp30
 70
     1
102
RTVSPropertyOp31
 70
     1
102
RTVSPropertyOp32
 70
     1
  0
XRECORD
  5
2EA
102
{ACAD_REACTORS
330
2E9
102
}
330
2E9
100
AcDbXrecord
280
     1
102
RTVSPropertyOp0
 70
     1
102
RTVSPropertyOp1
 70
     1
102
RTVSPropertyOp2
 70
     1
102
RTVSPropertyOp3
 70
     1
102
RTVSPropertyOp4
 70
     1
102
RTVSPropertyOp5
 70
     1
102
RTVSPropertyOp6
 70
     1
102
RTVSPropertyOp7
 70
     1
102
RTVSPropertyOp8
 70
     1
102
RTVSPropertyOp9
 70
     1
102
RTVSPropertyOp10
 70
     1
102
RTVSPropertyOp11
 70
     1
102
RTVSPropertyOp12
 70
     1
102
RTVSPropertyOp13
 70
     1
102
RTVSPropertyOp14
 70
     1
102
RTVSPropertyOp15
 70
     1
102
RTVSPropertyOp16
 70
     1
102
RTVSPropertyOp17
 70
     1
102
RTVSPropertyOp18
 70
     1
102
RTVSPropertyOp19
 70
     1
102
RTVSPropertyOp20
 70
     1
102
RTVSPropertyOp21
 70
     1
102
RTVSPropertyOp22
 70
     1
102
RTVSPropertyOp23
 70
     1
102
RTVSPropertyOp24
 70
     1
102
RTVSPropertyOp25
 70
     1
102
RTVSPropertyOp26
 70
     1
102
RTVSPropertyOp27
 70
     1
102
RTVSPropertyOp28
 70
     1
102
RTVSPropertyOp29
 70
     1
102
RTVSPropertyOp30
 70
     1
102
RTVSPropertyOp31
 70
     1
102
RTVSPropertyOp32
 70
     1
  0
XRECORD
  5
2EE
102
{ACAD_REACTORS
330
2ED
102
}
330
2ED
100
AcDbXrecord
280
     1
102
RTVSPropertyOp0
 70
     1
102
RTVSPropertyOp1
 70
     1
102
RTVSPropertyOp2
 70
     1
102
RTVSPropertyOp3
 70
     1
102
RTVSPropertyOp4
 70
     1
102
RTVSPropertyOp5
 70
     1
102
RTVSPropertyOp6
 70
     1
102
RTVSPropertyOp7
 70
     1
102
RTVSPropertyOp8
 70
     1
102
RTVSPropertyOp9
 70
     1
102
RTVSPropertyOp10
 70
     1
102
RTVSPropertyOp11
 70
     1
102
RTVSPropertyOp12
 70
     1
102
RTVSPropertyOp13
 70
     1
102
RTVSPropertyOp14
 70
     1
102
RTVSPropertyOp15
 70
     1
102
RTVSPropertyOp16
 70
     1
102
RTVSPropertyOp17
 70
     1
102
RTVSPropertyOp18
 70
     1
102
RTVSPropertyOp19
 70
     1
102
RTVSPropertyOp20
 70
     1
102
RTVSPropertyOp21
 70
     1
102
RTVSPropertyOp22
 70
     1
102
RTVSPropertyOp23
 70
     1
102
RTVSPropertyOp24
 70
     1
102
RTVSPropertyOp25
 70
     1
102
RTVSPropertyOp26
 70
     1
102
RTVSPropertyOp27
 70
     1
102
RTVSPropertyOp28
 70
     1
102
RTVSPropertyOp29
 70
     1
102
RTVSPropertyOp30
 70
     1
102
RTVSPropertyOp31
 70
     1
102
RTVSPropertyOp32
 70
     1
  0
XRECORD
  5
308
102
{ACAD_REACTORS
330
307
102
}
330
307
100
AcDbXrecord
280
     1
102
RTVSPropertyOp0
 70
     0
102
RTVSPropertyOp1
 70
     0
102
RTVSPropertyOp2
 70
     0
102
RTVSPropertyOp3
 70
     0
102
RTVSPropertyOp4
 70
     0
102
RTVSPropertyOp5
 70
     0
102
RTVSPropertyOp6
 70
     0
102
RTVSPropertyOp7
 70
     0
102
RTVSPropertyOp8
 70
     0
102
RTVSPropertyOp9
 70
     0
102
RTVSPropertyOp10
 70
     0
102
RTVSPropertyOp11
 70
     0
102
RTVSPropertyOp12
 70
     0
102
RTVSPropertyOp13
 70
     0
102
RTVSPropertyOp14
 70
     2
102
RTVSPropertyOp15
 70
     0
102
RTVSPropertyOp16
 70
     0
102
RTVSPropertyOp17
 70
     0
102
RTVSPropertyOp18
 70
     0
102
RTVSPropertyOp19
 70
     0
102
RTVSPropertyOp20
 70
     0
102
RTVSPropertyOp21
 70
     0
102
RTVSPropertyOp22
 70
     0
102
RTVSPropertyOp23
 70
     0
102
RTVSPropertyOp24
 70
     0
102
RTVSPropertyOp25
 70
     0
102
RTVSPropertyOp26
 70
     0
102
RTVSPropertyOp27
 70
     0
102
RTVSPropertyOp28
 70
     0
102
RTVSPropertyOp29
 70
     0
102
RTVSPropertyOp30
 70
     0
102
RTVSPropertyOp31
 70
     0
102
RTVSPropertyOp32
 70
     0
  0
XRECORD
  5
2F6
102
{ACAD_REACTORS
330
2F5
102
}
330
2F5
100
AcDbXrecord
280
     1
102
RTVSPropertyOp0
 70
     1
102
RTVSPropertyOp1
 70
     1
102
RTVSPropertyOp2
 70
     1
102
RTVSPropertyOp3
 70
     1
102
RTVSPropertyOp4
 70
     1
102
RTVSPropertyOp5
 70
     1
102
RTVSPropertyOp6
 70
     1
102
RTVSPropertyOp7
 70
     1
102
RTVSPropertyOp8
 70
     1
102
RTVSPropertyOp9
 70
     1
102
RTVSPropertyOp10
 70
     1
102
RTVSPropertyOp11
 70
     1
102
RTVSPropertyOp12
 70
     1
102
RTVSPropertyOp13
 70
     1
102
RTVSPropertyOp14
 70
     1
102
RTVSPropertyOp15
 70
     1
102
RTVSPropertyOp16
 70
     1
102
RTVSPropertyOp17
 70
     1
102
RTVSPropertyOp18
 70
     1
102
RTVSPropertyOp19
 70
     1
102
RTVSPropertyOp20
 70
     1
102
RTVSPropertyOp21
 70
     1
102
RTVSPropertyOp22
 70
     1
102
RTVSPropertyOp23
 70
     1
102
RTVSPropertyOp24
 70
     1
102
RTVSPropertyOp25
 70
     1
102
RTVSPropertyOp26
 70
     1
102
RTVSPropertyOp27
 70
     1
102
RTVSPropertyOp28
 70
     1
102
RTVSPropertyOp29
 70
     1
102
RTVSPropertyOp30
 70
     1
102
RTVSPropertyOp31
 70
     1
102
RTVSPropertyOp32
 70
     1
  0
XRECORD
  5
2DA
102
{ACAD_REACTORS
330
2D9
102
}
330
2D9
100
AcDbXrecord
280
     1
102
RTVSPropertyOp0
 70
     1
102
RTVSPropertyOp1
 70
     1
102
RTVSPropertyOp2
 70
     1
102
RTVSPropertyOp3
 70
     1
102
RTVSPropertyOp4
 70
     1
102
RTVSPropertyOp5
 70
     1
102
RTVSPropertyOp6
 70
     1
102
RTVSPropertyOp7
 70
     1
102
RTVSPropertyOp8
 70
     1
102
RTVSPropertyOp9
 70
     1
102
RTVSPropertyOp10
 70
     1
102
RTVSPropertyOp11
 70
     1
102
RTVSPropertyOp12
 70
     1
102
RTVSPropertyOp13
 70
     1
102
RTVSPropertyOp14
 70
     1
102
RTVSPropertyOp15
 70
     1
102
RTVSPropertyOp16
 70
     1
102
RTVSPropertyOp17
 70
     1
102
RTVSPropertyOp18
 70
     1
102
RTVSPropertyOp19
 70
     1
102
RTVSPropertyOp20
 70
     1
102
RTVSPropertyOp21
 70
     1
102
RTVSPropertyOp22
 70
     1
102
RTVSPropertyOp23
 70
     1
102
RTVSPropertyOp24
 70
     1
102
RTVSPropertyOp25
 70
     1
102
RTVSPropertyOp26
 70
     1
102
RTVSPropertyOp27
 70
     1
102
RTVSPropertyOp28
 70
     1
102
RTVSPropertyOp29
 70
     1
102
RTVSPropertyOp30
 70
     1
102
RTVSPropertyOp31
 70
     1
102
RTVSPropertyOp32
 70
     1
  0
XRECORD
  5
2DC
102
{ACAD_REACTORS
330
2DB
102
}
330
2DB
100
AcDbXrecord
280
     1
102
RTVSPropertyOp0
 70
     1
102
RTVSPropertyOp1
 70
     1
102
RTVSPropertyOp2
 70
     1
102
RTVSPropertyOp3
 70
     1
102
RTVSPropertyOp4
 70
     1
102
RTVSPropertyOp5
 70
     1
102
RTVSPropertyOp6
 70
     1
102
RTVSPropertyOp7
 70
     1
102
RTVSPropertyOp8
 70
     1
102
RTVSPropertyOp9
 70
     1
102
RTVSPropertyOp10
 70
     1
102
RTVSPropertyOp11
 70
     1
102
RTVSPropertyOp12
 70
     1
102
RTVSPropertyOp13
 70
     1
102
RTVSPropertyOp14
 70
     1
102
RTVSPropertyOp15
 70
     1
102
RTVSPropertyOp16
 70
     1
102
RTVSPropertyOp17
 70
     1
102
RTVSPropertyOp18
 70
     1
102
RTVSPropertyOp19
 70
     1
102
RTVSPropertyOp20
 70
     1
102
RTVSPropertyOp21
 70
     1
102
RTVSPropertyOp22
 70
     1
102
RTVSPropertyOp23
 70
     1
102
RTVSPropertyOp24
 70
     1
102
RTVSPropertyOp25
 70
     1
102
RTVSPropertyOp26
 70
     1
102
RTVSPropertyOp27
 70
     1
102
RTVSPropertyOp28
 70
     1
102
RTVSPropertyOp29
 70
     1
102
RTVSPropertyOp30
 70
     1
102
RTVSPropertyOp31
 70
     1
102
RTVSPropertyOp32
 70
     1
  0
XRECORD
  5
2DE
102
{ACAD_REACTORS
330
2DD
102
}
330
2DD
100
AcDbXrecord
280
     1
102
RTVSPropertyOp0
 70
     1
102
RTVSPropertyOp1
 70
     1
102
RTVSPropertyOp2
 70
     1
102
RTVSPropertyOp3
 70
     1
102
RTVSPropertyOp4
 70
     1
102
RTVSPropertyOp5
 70
     1
102
RTVSPropertyOp6
 70
     1
102
RTVSPropertyOp7
 70
     1
102
RTVSPropertyOp8
 70
     1
102
RTVSPropertyOp9
 70
     1
102
RTVSPropertyOp10
 70
     1
102
RTVSPropertyOp11
 70
     1
102
RTVSPropertyOp12
 70
     1
102
RTVSPropertyOp13
 70
     1
102
RTVSPropertyOp14
 70
     1
102
RTVSPropertyOp15
 70
     1
102
RTVSPropertyOp16
 70
     1
102
RTVSPropertyOp17
 70
     1
102
RTVSPropertyOp18
 70
     1
102
RTVSPropertyOp19
 70
     1
102
RTVSPropertyOp20
 70
     1
102
RTVSPropertyOp21
 70
     1
102
RTVSPropertyOp22
 70
     1
102
RTVSPropertyOp23
 70
     1
102
RTVSPropertyOp24
 70
     1
102
RTVSPropertyOp25
 70
     1
102
RTVSPropertyOp26
 70
     1
102
RTVSPropertyOp27
 70
     1
102
RTVSPropertyOp28
 70
     1
102
RTVSPropertyOp29
 70
     1
102
RTVSPropertyOp30
 70
     1
102
RTVSPropertyOp31
 70
     1
102
RTVSPropertyOp32
 70
     1
  0
XRECORD
  5
2E0
102
{ACAD_REACTORS
330
2DF
102
}
330
2DF
100
AcDbXrecord
280
     1
102
RTVSPropertyOp0
 70
     1
102
RTVSPropertyOp1
 70
     1
102
RTVSPropertyOp2
 70
     1
102
RTVSPropertyOp3
 70
     1
102
RTVSPropertyOp4
 70
     1
102
RTVSPropertyOp5
 70
     1
102
RTVSPropertyOp6
 70
     1
102
RTVSPropertyOp7
 70
     1
102
RTVSPropertyOp8
 70
     1
102
RTVSPropertyOp9
 70
     1
102
RTVSPropertyOp10
 70
     1
102
RTVSPropertyOp11
 70
     1
102
RTVSPropertyOp12
 70
     1
102
RTVSPropertyOp13
 70
     1
102
RTVSPropertyOp14
 70
     1
102
RTVSPropertyOp15
 70
     1
102
RTVSPropertyOp16
 70
     1
102
RTVSPropertyOp17
 70
     1
102
RTVSPropertyOp18
 70
     1
102
RTVSPropertyOp19
 70
     1
102
RTVSPropertyOp20
 70
     1
102
RTVSPropertyOp21
 70
     1
102
RTVSPropertyOp22
 70
     1
102
RTVSPropertyOp23
 70
     1
102
RTVSPropertyOp24
 70
     1
102
RTVSPropertyOp25
 70
     1
102
RTVSPropertyOp26
 70
     1
102
RTVSPropertyOp27
 70
     1
102
RTVSPropertyOp28
 70
     1
102
RTVSPropertyOp29
 70
     1
102
RTVSPropertyOp30
 70
     1
102
RTVSPropertyOp31
 70
     1
102
RTVSPropertyOp32
 70
     1
  0
XRECORD
  5
2E8
102
{ACAD_REACTORS
330
2E7
102
}
330
2E7
100
AcDbXrecord
280
     1
102
RTVSPropertyOp0
 70
     1
102
RTVSPropertyOp1
 70
     1
102
RTVSPropertyOp2
 70
     1
102
RTVSPropertyOp3
 70
     1
102
RTVSPropertyOp4
 70
     1
102
RTVSPropertyOp5
 70
     1
102
RTVSPropertyOp6
 70
     1
102
RTVSPropertyOp7
 70
     1
102
RTVSPropertyOp8
 70
     1
102
RTVSPropertyOp9
 70
     1
102
RTVSPropertyOp10
 70
     1
102
RTVSPropertyOp11
 70
     1
102
RTVSPropertyOp12
 70
     1
102
RTVSPropertyOp13
 70
     1
102
RTVSPropertyOp14
 70
     1
102
RTVSPropertyOp15
 70
     1
102
RTVSPropertyOp16
 70
     1
102
RTVSPropertyOp17
 70
     1
102
RTVSPropertyOp18
 70
     1
102
RTVSPropertyOp19
 70
     1
102
RTVSPropertyOp20
 70
     1
102
RTVSPropertyOp21
 70
     1
102
RTVSPropertyOp22
 70
     1
102
RTVSPropertyOp23
 70
     1
102
RTVSPropertyOp24
 70
     1
102
RTVSPropertyOp25
 70
     1
102
RTVSPropertyOp26
 70
     1
102
RTVSPropertyOp27
 70
     1
102
RTVSPropertyOp28
 70
     1
102
RTVSPropertyOp29
 70
     1
102
RTVSPropertyOp30
 70
     1
102
RTVSPropertyOp31
 70
     1
102
RTVSPropertyOp32
 70
     1
  0
XRECORD
  5
304
102
{ACAD_REACTORS
330
303
102
}
330
303
100
AcDbXrecord
280
     1
102
RTVSPropertyOp0
 70
     0
102
RTVSPropertyOp1
 70
     0
102
RTVSPropertyOp2
 70
     0
102
RTVSPropertyOp3
 70
     0
102
RTVSPropertyOp4
 70
     0
102
RTVSPropertyOp5
 70
     0
102
RTVSPropertyOp6
 70
     0
102
RTVSPropertyOp7
 70
     0
102
RTVSPropertyOp8
 70
     0
102
RTVSPropertyOp9
 70
     0
102
RTVSPropertyOp10
 70
     0
102
RTVSPropertyOp11
 70
     0
102
RTVSPropertyOp12
 70
     0
102
RTVSPropertyOp13
 70
     0
102
RTVSPropertyOp14
 70
     2
102
RTVSPropertyOp15
 70
     0
102
RTVSPropertyOp16
 70
     0
102
RTVSPropertyOp17
 70
     0
102
RTVSPropertyOp18
 70
     0
102
RTVSPropertyOp19
 70
     0
102
RTVSPropertyOp20
 70
     0
102
RTVSPropertyOp21
 70
     0
102
RTVSPropertyOp22
 70
     0
102
RTVSPropertyOp23
 70
     0
102
RTVSPropertyOp24
 70
     0
102
RTVSPropertyOp25
 70
     0
102
RTVSPropertyOp26
 70
     0
102
RTVSPropertyOp27
 70
     0
102
RTVSPropertyOp28
 70
     0
102
RTVSPropertyOp29
 70
     0
102
RTVSPropertyOp30
 70
     0
102
RTVSPropertyOp31
 70
     0
102
RTVSPropertyOp32
 70
     0
  0
XRECORD
  5
2F4
102
{ACAD_REACTORS
330
2F3
102
}
330
2F3
100
AcDbXrecord
280
     1
102
RTVSPropertyOp0
 70
     1
102
RTVSPropertyOp1
 70
     1
102
RTVSPropertyOp2
 70
     1
102
RTVSPropertyOp3
 70
     1
102
RTVSPropertyOp4
 70
     1
102
RTVSPropertyOp5
 70
     1
102
RTVSPropertyOp6
 70
     1
102
RTVSPropertyOp7
 70
     1
102
RTVSPropertyOp8
 70
     1
102
RTVSPropertyOp9
 70
     1
102
RTVSPropertyOp10
 70
     1
102
RTVSPropertyOp11
 70
     1
102
RTVSPropertyOp12
 70
     1
102
RTVSPropertyOp13
 70
     1
102
RTVSPropertyOp14
 70
     1
102
RTVSPropertyOp15
 70
     1
102
RTVSPropertyOp16
 70
     1
102
RTVSPropertyOp17
 70
     1
102
RTVSPropertyOp18
 70
     1
102
RTVSPropertyOp19
 70
     1
102
RTVSPropertyOp20
 70
     1
102
RTVSPropertyOp21
 70
     1
102
RTVSPropertyOp22
 70
     1
102
RTVSPropertyOp23
 70
     1
102
RTVSPropertyOp24
 70
     1
102
RTVSPropertyOp25
 70
     1
102
RTVSPropertyOp26
 70
     1
102
RTVSPropertyOp27
 70
     1
102
RTVSPropertyOp28
 70
     1
102
RTVSPropertyOp29
 70
     1
102
RTVSPropertyOp30
 70
     1
102
RTVSPropertyOp31
 70
     1
102
RTVSPropertyOp32
 70
     1
  0
XRECORD
  5
306
102
{ACAD_REACTORS
330
305
102
}
330
305
100
AcDbXrecord
280
     1
102
RTVSPropertyOp0
 70
     0
102
RTVSPropertyOp1
 70
     0
102
RTVSPropertyOp2
 70
     0
102
RTVSPropertyOp3
 70
     0
102
RTVSPropertyOp4
 70
     0
102
RTVSPropertyOp5
 70
     0
102
RTVSPropertyOp6
 70
     0
102
RTVSPropertyOp7
 70
     0
102
RTVSPropertyOp8
 70
     0
102
RTVSPropertyOp9
 70
     0
102
RTVSPropertyOp10
 70
     0
102
RTVSPropertyOp11
 70
     0
102
RTVSPropertyOp12
 70
     0
102
RTVSPropertyOp13
 70
     0
102
RTVSPropertyOp14
 70
     2
102
RTVSPropertyOp15
 70
     0
102
RTVSPropertyOp16
 70
     0
102
RTVSPropertyOp17
 70
     0
102
RTVSPropertyOp18
 70
     0
102
RTVSPropertyOp19
 70
     0
102
RTVSPropertyOp20
 70
     0
102
RTVSPropertyOp21
 70
     0
102
RTVSPropertyOp22
 70
     0
102
RTVSPropertyOp23
 70
     0
102
RTVSPropertyOp24
 70
     0
102
RTVSPropertyOp25
 70
     0
102
RTVSPropertyOp26
 70
     0
102
RTVSPropertyOp27
 70
     0
102
RTVSPropertyOp28
 70
     0
102
RTVSPropertyOp29
 70
     0
102
RTVSPropertyOp30
 70
     0
102
RTVSPropertyOp31
 70
     0
102
RTVSPropertyOp32
 70
     0
  0
XRECORD
  5
2EC
102
{ACAD_REACTORS
330
2EB
102
}
330
2EB
100
AcDbXrecord
280
     1
102
RTVSPropertyOp0
 70
     1
102
RTVSPropertyOp1
 70
     1
102
RTVSPropertyOp2
 70
     1
102
RTVSPropertyOp3
 70
     1
102
RTVSPropertyOp4
 70
     1
102
RTVSPropertyOp5
 70
     1
102
RTVSPropertyOp6
 70
     1
102
RTVSPropertyOp7
 70
     1
102
RTVSPropertyOp8
 70
     1
102
RTVSPropertyOp9
 70
     1
102
RTVSPropertyOp10
 70
     1
102
RTVSPropertyOp11
 70
     1
102
RTVSPropertyOp12
 70
     1
102
RTVSPropertyOp13
 70
     1
102
RTVSPropertyOp14
 70
     1
102
RTVSPropertyOp15
 70
     1
102
RTVSPropertyOp16
 70
     1
102
RTVSPropertyOp17
 70
     1
102
RTVSPropertyOp18
 70
     1
102
RTVSPropertyOp19
 70
     1
102
RTVSPropertyOp20
 70
     1
102
RTVSPropertyOp21
 70
     1
102
RTVSPropertyOp22
 70
     1
102
RTVSPropertyOp23
 70
     1
102
RTVSPropertyOp24
 70
     1
102
RTVSPropertyOp25
 70
     1
102
RTVSPropertyOp26
 70
     1
102
RTVSPropertyOp27
 70
     1
102
RTVSPropertyOp28
 70
     1
102
RTVSPropertyOp29
 70
     1
102
RTVSPropertyOp30
 70
     1
102
RTVSPropertyOp31
 70
     1
102
RTVSPropertyOp32
 70
     1
  0
XRECORD
  5
302
102
{ACAD_REACTORS
330
301
102
}
330
301
100
AcDbXrecord
280
     1
102
RTVSPropertyOp0
 70
     1
102
RTVSPropertyOp1
 70
     1
102
RTVSPropertyOp2
 70
     1
102
RTVSPropertyOp3
 70
     1
102
RTVSPropertyOp4
 70
     1
102
RTVSPropertyOp5
 70
     1
102
RTVSPropertyOp6
 70
     1
102
RTVSPropertyOp7
 70
     1
102
RTVSPropertyOp8
 70
     1
102
RTVSPropertyOp9
 70
     1
102
RTVSPropertyOp10
 70
     1
102
RTVSPropertyOp11
 70
     1
102
RTVSPropertyOp12
 70
     1
102
RTVSPropertyOp13
 70
     1
102
RTVSPropertyOp14
 70
     1
102
RTVSPropertyOp15
 70
     1
102
RTVSPropertyOp16
 70
     1
102
RTVSPropertyOp17
 70
     1
102
RTVSPropertyOp18
 70
     1
102
RTVSPropertyOp19
 70
     1
102
RTVSPropertyOp20
 70
     1
102
RTVSPropertyOp21
 70
     1
102
RTVSPropertyOp22
 70
     1
102
RTVSPropertyOp23
 70
     1
102
RTVSPropertyOp24
 70
     1
102
RTVSPropertyOp25
 70
     1
102
RTVSPropertyOp26
 70
     1
102
RTVSPropertyOp27
 70
     1
102
RTVSPropertyOp28
 70
     1
102
RTVSPropertyOp29
 70
     1
102
RTVSPropertyOp30
 70
     1
102
RTVSPropertyOp31
 70
     1
102
RTVSPropertyOp32
 70
     1
  0
XRECORD
  5
300
102
{ACAD_REACTORS
330
2FF
102
}
330
2FF
100
AcDbXrecord
280
     1
102
RTVSPropertyOp0
 70
     1
102
RTVSPropertyOp1
 70
     1
102
RTVSPropertyOp2
 70
     1
102
RTVSPropertyOp3
 70
     1
102
RTVSPropertyOp4
 70
     1
102
RTVSPropertyOp5
 70
     1
102
RTVSPropertyOp6
 70
     1
102
RTVSPropertyOp7
 70
     1
102
RTVSPropertyOp8
 70
     1
102
RTVSPropertyOp9
 70
     1
102
RTVSPropertyOp10
 70
     1
102
RTVSPropertyOp11
 70
     1
102
RTVSPropertyOp12
 70
     1
102
RTVSPropertyOp13
 70
     1
102
RTVSPropertyOp14
 70
     1
102
RTVSPropertyOp15
 70
     1
102
RTVSPropertyOp16
 70
     1
102
RTVSPropertyOp17
 70
     1
102
RTVSPropertyOp18
 70
     1
102
RTVSPropertyOp19
 70
     1
102
RTVSPropertyOp20
 70
     1
102
RTVSPropertyOp21
 70
     1
102
RTVSPropertyOp22
 70
     1
102
RTVSPropertyOp23
 70
     1
102
RTVSPropertyOp24
 70
     1
102
RTVSPropertyOp25
 70
     1
102
RTVSPropertyOp26
 70
     1
102
RTVSPropertyOp27
 70
     1
102
RTVSPropertyOp28
 70
     1
102
RTVSPropertyOp29
 70
     1
102
RTVSPropertyOp30
 70
     1
102
RTVSPropertyOp31
 70
     1
102
RTVSPropertyOp32
 70
     1
  0
XRECORD
  5
2FA
102
{ACAD_REACTORS
330
2F9
102
}
330
2F9
100
AcDbXrecord
280
     1
102
RTVSPropertyOp0
 70
     1
102
RTVSPropertyOp1
 70
     1
102
RTVSPropertyOp2
 70
     1
102
RTVSPropertyOp3
 70
     1
102
RTVSPropertyOp4
 70
     1
102
RTVSPropertyOp5
 70
     1
102
RTVSPropertyOp6
 70
     1
102
RTVSPropertyOp7
 70
     1
102
RTVSPropertyOp8
 70
     1
102
RTVSPropertyOp9
 70
     1
102
RTVSPropertyOp10
 70
     1
102
RTVSPropertyOp11
 70
     1
102
RTVSPropertyOp12
 70
     1
102
RTVSPropertyOp13
 70
     1
102
RTVSPropertyOp14
 70
     1
102
RTVSPropertyOp15
 70
     1
102
RTVSPropertyOp16
 70
     1
102
RTVSPropertyOp17
 70
     1
102
RTVSPropertyOp18
 70
     1
102
RTVSPropertyOp19
 70
     1
102
RTVSPropertyOp20
 70
     1
102
RTVSPropertyOp21
 70
     1
102
RTVSPropertyOp22
 70
     1
102
RTVSPropertyOp23
 70
     1
102
RTVSPropertyOp24
 70
     1
102
RTVSPropertyOp25
 70
     1
102
RTVSPropertyOp26
 70
     1
102
RTVSPropertyOp27
 70
     1
102
RTVSPropertyOp28
 70
     1
102
RTVSPropertyOp29
 70
     1
102
RTVSPropertyOp30
 70
     1
102
RTVSPropertyOp31
 70
     1
102
RTVSPropertyOp32
 70
     1
  0
XRECORD
  5
2FC
102
{ACAD_REACTORS
330
2FB
102
}
330
2FB
100
AcDbXrecord
280
     1
102
RTVSPropertyOp0
 70
     1
102
RTVSPropertyOp1
 70
     1
102
RTVSPropertyOp2
 70
     1
102
RTVSPropertyOp3
 70
     1
102
RTVSPropertyOp4
 70
     1
102
RTVSPropertyOp5
 70
     1
102
RTVSPropertyOp6
 70
     1
102
RTVSPropertyOp7
 70
     1
102
RTVSPropertyOp8
 70
     1
102
RTVSPropertyOp9
 70
     1
102
RTVSPropertyOp10
 70
     1
102
RTVSPropertyOp11
 70
     1
102
RTVSPropertyOp12
 70
     1
102
RTVSPropertyOp13
 70
     1
102
RTVSPropertyOp14
 70
     1
102
RTVSPropertyOp15
 70
     1
102
RTVSPropertyOp16
 70
     1
102
RTVSPropertyOp17
 70
     1
102
RTVSPropertyOp18
 70
     1
102
RTVSPropertyOp19
 70
     1
102
RTVSPropertyOp20
 70
     1
102
RTVSPropertyOp21
 70
     1
102
RTVSPropertyOp22
 70
     1
102
RTVSPropertyOp23
 70
     1
102
RTVSPropertyOp24
 70
     1
102
RTVSPropertyOp25
 70
     1
102
RTVSPropertyOp26
 70
     1
102
RTVSPropertyOp27
 70
     1
102
RTVSPropertyOp28
 70
     1
102
RTVSPropertyOp29
 70
     1
102
RTVSPropertyOp30
 70
     1
102
RTVSPropertyOp31
 70
     1
102
RTVSPropertyOp32
 70
     1
  0
XRECORD
  5
2F2
102
{ACAD_REACTORS
330
2F1
102
}
330
2F1
100
AcDbXrecord
280
     1
102
RTVSPropertyOp0
 70
     1
102
RTVSPropertyOp1
 70
     1
102
RTVSPropertyOp2
 70
     1
102
RTVSPropertyOp3
 70
     1
102
RTVSPropertyOp4
 70
     1
102
RTVSPropertyOp5
 70
     1
102
RTVSPropertyOp6
 70
     1
102
RTVSPropertyOp7
 70
     1
102
RTVSPropertyOp8
 70
     1
102
RTVSPropertyOp9
 70
     1
102
RTVSPropertyOp10
 70
     1
102
RTVSPropertyOp11
 70
     1
102
RTVSPropertyOp12
 70
     1
102
RTVSPropertyOp13
 70
     1
102
RTVSPropertyOp14
 70
     1
102
RTVSPropertyOp15
 70
     1
102
RTVSPropertyOp16
 70
     1
102
RTVSPropertyOp17
 70
     1
102
RTVSPropertyOp18
 70
     1
102
RTVSPropertyOp19
 70
     1
102
RTVSPropertyOp20
 70
     1
102
RTVSPropertyOp21
 70
     1
102
RTVSPropertyOp22
 70
     1
102
RTVSPropertyOp23
 70
     1
102
RTVSPropertyOp24
 70
     1
102
RTVSPropertyOp25
 70
     1
102
RTVSPropertyOp26
 70
     1
102
RTVSPropertyOp27
 70
     1
102
RTVSPropertyOp28
 70
     1
102
RTVSPropertyOp29
 70
     1
102
RTVSPropertyOp30
 70
     1
102
RTVSPropertyOp31
 70
     1
102
RTVSPropertyOp32
 70
     1
  0
XRECORD
  5
2E6
102
{ACAD_REACTORS
330
2E5
102
}
330
2E5
100
AcDbXrecord
280
     1
102
RTVSPropertyOp0
 70
     1
102
RTVSPropertyOp1
 70
     1
102
RTVSPropertyOp2
 70
     1
102
RTVSPropertyOp3
 70
     1
102
RTVSPropertyOp4
 70
     1
102
RTVSPropertyOp5
 70
     1
102
RTVSPropertyOp6
 70
     1
102
RTVSPropertyOp7
 70
     1
102
RTVSPropertyOp8
 70
     1
102
RTVSPropertyOp9
 70
     1
102
RTVSPropertyOp10
 70
     1
102
RTVSPropertyOp11
 70
     1
102
RTVSPropertyOp12
 70
     1
102
RTVSPropertyOp13
 70
     1
102
RTVSPropertyOp14
 70
     1
102
RTVSPropertyOp15
 70
     1
102
RTVSPropertyOp16
 70
     1
102
RTVSPropertyOp17
 70
     1
102
RTVSPropertyOp18
 70
     1
102
RTVSPropertyOp19
 70
     1
102
RTVSPropertyOp20
 70
     1
102
RTVSPropertyOp21
 70
     1
102
RTVSPropertyOp22
 70
     1
102
RTVSPropertyOp23
 70
     1
102
RTVSPropertyOp24
 70
     1
102
RTVSPropertyOp25
 70
     1
102
RTVSPropertyOp26
 70
     1
102
RTVSPropertyOp27
 70
     1
102
RTVSPropertyOp28
 70
     1
102
RTVSPropertyOp29
 70
     1
102
RTVSPropertyOp30
 70
     1
102
RTVSPropertyOp31
 70
     1
102
RTVSPropertyOp32
 70
     1
  0
XRECORD
  5
2FE
102
{ACAD_REACTORS
330
2FD
102
}
330
2FD
100
AcDbXrecord
280
     1
102
RTVSPropertyOp0
 70
     1
102
RTVSPropertyOp1
 70
     1
102
RTVSPropertyOp2
 70
     1
102
RTVSPropertyOp3
 70
     1
102
RTVSPropertyOp4
 70
     1
102
RTVSPropertyOp5
 70
     1
102
RTVSPropertyOp6
 70
     1
102
RTVSPropertyOp7
 70
     1
102
RTVSPropertyOp8
 70
     1
102
RTVSPropertyOp9
 70
     1
102
RTVSPropertyOp10
 70
     1
102
RTVSPropertyOp11
 70
     1
102
RTVSPropertyOp12
 70
     1
102
RTVSPropertyOp13
 70
     1
102
RTVSPropertyOp14
 70
     1
102
RTVSPropertyOp15
 70
     1
102
RTVSPropertyOp16
 70
     1
102
RTVSPropertyOp17
 70
     1
102
RTVSPropertyOp18
 70
     1
102
RTVSPropertyOp19
 70
     1
102
RTVSPropertyOp20
 70
     1
102
RTVSPropertyOp21
 70
     1
102
RTVSPropertyOp22
 70
     1
102
RTVSPropertyOp23
 70
     1
102
RTVSPropertyOp24
 70
     1
102
RTVSPropertyOp25
 70
     1
102
RTVSPropertyOp26
 70
     1
102
RTVSPropertyOp27
 70
     1
102
RTVSPropertyOp28
 70
     1
102
RTVSPropertyOp29
 70
     1
102
RTVSPropertyOp30
 70
     1
102
RTVSPropertyOp31
 70
     1
102
RTVSPropertyOp32
 70
     1
  0
ENDSEC
  0
EOF
