  0
SECTION
  2
HEADER
  9
$ACADVER
  1
AC1014
  9
$DWGCODEPAGE
  3
ANSI_1252
  9
$INSBASE
 10
0.0
 20
0.0
 30
0.0
  9
$EXTMIN
 10
34994.8209162
 20
-2269.29641299
  9
$EXTMAX
 10
36828.00153823
 20
-1023.77133537
  9
$LIMMIN
 10
34994.8209162
 20
-2269.29641299
  9
$LIMMAX
 10
36828.00153823
 20
-1023.77133537
  9
$ORTHOMODE
 70
     0
  9
$REGENMODE
 70
     1
  9
$FILLMODE
 70
     1
  9
$QTEXTMODE
 70
     0
  9
$MIRRTEXT
 70
     1
  9
$DRAGMODE
 70
     2
  9
$LTSCALE
 40
5.0
  9
$OSMODE
 70
     0
  9
$ATTMODE
 70
     1
  9
$TEXTSIZE
 40
3.5
  9
$TRACEWID
 40
1.0
  9
$TEXTSTYLE
  7
STANDARD
  9
$CLAYER
  8
0
  9
$CELTYPE
  6
BYLAYER
  9
$CECOLOR
 62
   256
  9
$DIMSCALE
 40
1.0
  9
$DIMASZ
 40
2.0
  9
$DIMEXO
 40
5.0
  9
$DIMDLI
 40
10.0
  9
$DIMRND
 40
0.0
  9
$DIMDLE
 40
2.0
  9
$DIMEXE
 40
2.0
  9
$DIMTP
 40
0.0
  9
$DIMTM
 40
0.0
  9
$DIMTXT
 40
2.5
  9
$DIMCEN
 40
1.5
  9
$DIMTSZ
 40
0.0
  9
$DIMTOL
 70
     0
  9
$DIMLIM
 70
     0
  9
$DIMTIH
 70
     1
  9
$DIMTOH
 70
     0
  9
$DIMSE1
 70
     0
  9
$DIMSE2
 70
     0
  9
$DIMTAD
 70
     1
  9
$DIMZIN
 70
     8
  9
$DIMBLK
  1

  9
$DIMASO
 70
     1
  9
$DIMSHO
 70
     1
  9
$DIMPOST
  1

  9
$DIMAPOST
  1

  9
$DIMALT
 70
     0
  9
$DIMALTD
 70
     2
  9
$DIMALTF
 40
25.4
  9
$DIMLFAC
 40
1.0
  9
$DIMTOFL
 70
     0
  9
$DIMTVP
 40
0.0
  9
$DIMTIX
 70
     0
  9
$DIMSOXD
 70
     0
  9
$DIMSAH
 70
     0
  9
$DIMBLK1
  1

  9
$DIMBLK2
  1

  9
$DIMSTYLE
  2
*UNNAMED
  9
$DIMCLRD
 70
   190
  9
$DIMCLRE
 70
   190
  9
$DIMCLRT
 70
   190
  9
$DIMTFAC
 40
1.0
  9
$DIMGAP
 40
0.09
  9
$DIMUNIT
 70
     2
  9
$LUNITS
 70
     2
  9
$LUPREC
 70
     6
  9
$AXISMODE
 70
     0
  9
$AXISUNIT
 10
0.0
 20
0.0
  9
$SKETCHINC
 40
0.1
  9
$FILLETRAD
 40
0.0
  9
$AUNITS
 70
     0
  9
$AUPREC
 70
     0
  9
$MENU
  1
ACAD
  9
$ELEVATION
 40
0.0
  9
$PELEVATION
 40
0.0
  9
$THICKNESS
 40
0.0
  9
$LIMCHECK
 70
     0
  9
$BLIPMODE
 70
     1
  9
$CHAMFERA
 40
0.0
  9
$CHAMFERB
 40
0.0
  9
$SKPOLY
 70
     1
  9
$TDCREATE
 40
2457884.0000000000
  9
$TDUPDATE
 40
2457884.0000000000
  9
$TDINDWG
 40
0.0
  9
$TDUSRTIMER
 40
0.0
  9
$USRTIMER
 70
     1
  9
$ANGBASE
 50
0.0
  9
$ANGDIR
 70
     0
  9
$PDMODE
 70
     0
  9
$PDSIZE
 40
0.0
  9
$PLINEWID
 40
0.0
  9
$COORDS
 70
     2
  9
$SPLFRAME
 70
     0
  9
$SPLINETYPE
 70
     6
  9
$SPLINESEGS
 70
     8
  9
$ATTDIA
 70
     1
  9
$ATTREQ
 70
     1
  9
$HANDLING
 70
     1
  9
$HANDSEED
  5
     447
  9
$SURFTAB1
 70
     6
  9
$SURFTAB2
 70
     6
  9
$SURFTYPE
 70
     6
  9
$SURFU
 70
     6
  9
$SURFV
 70
     6
  9
$UCSNAME
  2

  9
$UCSORG
 10
0.0
 20
0.0
 30
0.0
  9
$UCSXDIR
 10
1.0
 20
0.0
 30
0.0
  9
$UCSYDIR
 10
0.0
 20
1.0
 30
0.0
  9
$PUCSNAME
  2

  9
$PUCSORG
 10
0.0
 20
0.0
 30
0.0
  9
$PUCSXDIR
 10
1.0
 20
0.0
 30
0.0
  9
$PUCSYDIR
 10
0.0
 20
1.0
 30
0.0
  9
$USERI1
 70
     0
  9
$USERI2
 70
     0
  9
$USERI3
 70
     0
  9
$USERI4
 70
     0
  9
$USERI5
 70
     0
  9
$USERR1
 40
0.0
  9
$USERR2
 40
0.0
  9
$USERR3
 40
0.0
  9
$USERR4
 40
0.0
  9
$USERR5
 40
0.0
  9
$WORLDVIEW
 70
     1
  9
$SHADEDGE
 70
     3
  9
$SHADEDIF
 70
    70
  9
$TILEMODE
 70
     1
  9
$MAXACTVP
 70
    16
  9
$PINSBASE
 10
0.0
 20
0.0
 30
0.0
  9
$PLIMCHECK
 70
     0
  9
$PEXTMIN
 10
1.0000000000000E+20
 20
1.0000000000000E+20
 30
1.0000000000000E+20
  9
$PEXTMAX
 10
-1.0000000000000E+20
 20
-1.0000000000000E+20
 30
-1.0000000000000E+20
  9
$PLIMMIN
 10
0.0
 20
0.0
  9
$UNITMODE
 70
     0
  9
$VISRETAIN
 70
     0
  9
$MEASUREMENT
 70
     1
  0
ENDSEC
  0
SECTION
  2
TABLES
  0
TABLE
  2
VPORT
  5
1DE
100
AcDbSymbolTable
 70
     1
  0
ENDTAB
  0
TABLE
  2
STYLE
  5
1DF
100
AcDbSymbolTable
 70
     3
  0
STYLE
  5
1E0
100
AcDbSymbolTableRecord
100
AcDbTextStyleTableRecord
  2
STANDARD
 70
     0
 40
0.0
 41
1.0
 50
0.0
 71
     0
 42
3.5
  3
MONOTXT
  4

  0
STYLE
  5
1E1
100
AcDbSymbolTableRecord
100
AcDbTextStyleTableRecord
  2
SYMAP
 70
     0
 40
0.0
 41
1.0
 50
0.0
 71
     0
 42
3.5
  3
SYMAP
  4

  0
STYLE
  5
1E2
100
AcDbSymbolTableRecord
100
AcDbTextStyleTableRecord
  2
CADWORK1
 70
     0
 40
0.0
 41
1.0
 50
0.0
 71
     0
 42
3.5
  3
MONOTXT
  4

  0
STYLE
  5
1E3
100
AcDbSymbolTableRecord
100
AcDbTextStyleTableRecord
  2
MONOTXT
 70
     0
 40
0.0
 41
1.0
 50
0.0
 71
     0
 42
3.5
  3
MONOTXT
  4

  0
STYLE
  5
1E4
100
AcDbSymbolTableRecord
100
AcDbTextStyleTableRecord
  2
ARIAL
 70
     0
 40
0.0
 41
1.0
 50
0.0
 71
     0
 42
3.5
  3

  4

1001
ACAD
1000
Arial
1071
        0
  0
ENDTAB
  0
TABLE
  2
LTYPE
  5
1E5
100
AcDbSymbolTable
 70
    16
  0
LTYPE
  5
1E6
100
AcDbSymbolTableRecord
100
AcDbLinetypeTableRecord
  2
BYBLOCK
 70
    64
  3

 72
    65
 73
     0
 40
0.0
  0
LTYPE
  5
1E7
100
AcDbSymbolTableRecord
100
AcDbLinetypeTableRecord
  2
BYLAYER
 70
    64
  3

 72
    65
 73
     0
 40
0.0
  0
LTYPE
  5
1E8
100
AcDbSymbolTableRecord
100
AcDbLinetypeTableRecord
  2
CONTINUOUS
 70
    64
  3
Solid line
 72
    65
 73
     0
 40
0.0
  0
LTYPE
  5
1E9
100
AcDbSymbolTableRecord
100
AcDbLinetypeTableRecord
  2
DOT2
 70
    64
  3
...............................................
 72
    65
 73
     2
 40
1.25
 49
0.0
 74
     0
 49
-1.25
 74
     0
  0
LTYPE
  5
1EA
100
AcDbSymbolTableRecord
100
AcDbLinetypeTableRecord
  2
CADWORK_13
 70
    64
  3
13 =======================================
 72
    65
 73
     2
 40
4.0
 49
2.0
 74
     0
 49
-2.0
 74
     0
  0
LTYPE
  5
1EB
100
AcDbSymbolTableRecord
100
AcDbLinetypeTableRecord
  2
DASHDOT
 70
    64
  3
 __ . __ . __ . __ . __ . __ . __ . __ . __ . __
 72
    65
 73
     4
 40
10.0
 49
5.0
 74
     0
 49
-2.5
 74
     0
 49
0.0
 74
     0
 49
-2.5
 74
     0
  0
LTYPE
  5
1EC
100
AcDbSymbolTableRecord
100
AcDbLinetypeTableRecord
  2
CENTER
 70
    64
  3
 ____ _ ____ _ ____ _ ____ _ ____ _ ____ _ ____
 72
    65
 73
     4
 40
20.0
 49
12.5
 74
     0
 49
-2.5
 74
     0
 49
2.5
 74
     0
 49
-2.5
 74
     0
  0
LTYPE
  5
1ED
100
AcDbSymbolTableRecord
100
AcDbLinetypeTableRecord
  2
DASHEDX2
 70
    64
  3
____  ____  ____  ____  ____  ____  ____  ____
 72
    65
 73
     2
 40
3.75
 49
2.5
 74
     0
 49
-1.25
 74
     0
  0
LTYPE
  5
1EE
100
AcDbSymbolTableRecord
100
AcDbLinetypeTableRecord
  2
CADWORK_19
 70
    64
  3
19 =======================================
 72
    65
 73
     0
 40
0.0
  0
LTYPE
  5
1EF
100
AcDbSymbolTableRecord
100
AcDbLinetypeTableRecord
  2
CADWORK_22
 70
    64
  3
22 =======================================
 72
    65
 73
     0
 40
0.0
  0
LTYPE
  5
1F0
100
AcDbSymbolTableRecord
100
AcDbLinetypeTableRecord
  2
DAL
 70
    64
  3
Solid line (for MAPS)
 72
    65
 73
     0
 40
0.0
  0
LTYPE
  5
1F1
100
AcDbSymbolTableRecord
100
AcDbLinetypeTableRecord
  2
MUR
 70
    64
  3
Solid line (for MAPS)
 72
    65
 73
     0
 40
0.0
  0
LTYPE
  5
1F2
100
AcDbSymbolTableRecord
100
AcDbLinetypeTableRecord
  2
SOM
 70
    64
  3
Solid line (for MAPS)
 72
    65
 73
     0
 40
0.0
  0
LTYPE
  5
1F3
100
AcDbSymbolTableRecord
100
AcDbLinetypeTableRecord
  2
COL
 70
    64
  3
Solid line (for MAPS)
 72
    65
 73
     0
 40
0.0
  0
LTYPE
  5
1F4
100
AcDbSymbolTableRecord
100
AcDbLinetypeTableRecord
  2
LGN
 70
    64
  3
Solid line (for MAPS)
 72
    65
 73
     0
 40
0.0
  0
LTYPE
  5
1F5
100
AcDbSymbolTableRecord
100
AcDbLinetypeTableRecord
  2
PNT
 70
    64
  3
Solid line (for MAPS)
 72
    65
 73
     0
 40
0.0
  0
ENDTAB
  0
TABLE
  2
LAYER
  5
1F6
100
AcDbSymbolTable
 70
    33
  0
LAYER
  5
1F7
100
AcDbSymbolTableRecord
100
AcDbLayerTableRecord
  2
Standard
 70
     0
 62
     7
  6
CONTINUOUS
370
    -3
  0
LAYER
  5
1F8
100
AcDbSymbolTableRecord
100
AcDbLayerTableRecord
  2
Ech.1_1
 70
     0
 62
     7
  6
CONTINUOUS
370
    -3
  0
LAYER
  5
1F9
100
AcDbSymbolTableRecord
100
AcDbLayerTableRecord
  2
Ech.1_2
 70
     0
 62
     7
  6
CONTINUOUS
370
    -3
  0
LAYER
  5
1FA
100
AcDbSymbolTableRecord
100
AcDbLayerTableRecord
  2
Ech.1_5
 70
     0
 62
     7
  6
CONTINUOUS
370
    -3
  0
LAYER
  5
1FB
100
AcDbSymbolTableRecord
100
AcDbLayerTableRecord
  2
Ech.1_10
 70
     0
 62
     7
  6
CONTINUOUS
370
    -3
  0
LAYER
  5
1FC
100
AcDbSymbolTableRecord
100
AcDbLayerTableRecord
  2
Ech.1_20
 70
     0
 62
     7
  6
CONTINUOUS
370
    -3
  0
LAYER
  5
1FD
100
AcDbSymbolTableRecord
100
AcDbLayerTableRecord
  2
Ech.1_25
 70
     0
 62
     7
  6
CONTINUOUS
370
    -3
  0
LAYER
  5
1FE
100
AcDbSymbolTableRecord
100
AcDbLayerTableRecord
  2
Ech.1_33
 70
     0
 62
     7
  6
CONTINUOUS
370
    -3
  0
LAYER
  5
1FF
100
AcDbSymbolTableRecord
100
AcDbLayerTableRecord
  2
Ech.1_50
 70
     0
 62
     7
  6
CONTINUOUS
370
    -3
  0
LAYER
  5
200
100
AcDbSymbolTableRecord
100
AcDbLayerTableRecord
  2
Ech.1_75
 70
     0
 62
     7
  6
CONTINUOUS
370
    -3
  0
LAYER
  5
201
100
AcDbSymbolTableRecord
100
AcDbLayerTableRecord
  2
Ech.1_100
 70
     0
 62
     7
  6
CONTINUOUS
370
    -3
  0
LAYER
  5
202
100
AcDbSymbolTableRecord
100
AcDbLayerTableRecord
  2
Ech.1_200
 70
     0
 62
     7
  6
CONTINUOUS
370
    -3
  0
LAYER
  5
203
100
AcDbSymbolTableRecord
100
AcDbLayerTableRecord
  2
Ech.1_500
 70
     0
 62
     7
  6
CONTINUOUS
370
    -3
  0
LAYER
  5
204
100
AcDbSymbolTableRecord
100
AcDbLayerTableRecord
  2
Ech.1_1000
 70
     0
 62
     7
  6
CONTINUOUS
370
    -3
  0
LAYER
  5
205
100
AcDbSymbolTableRecord
100
AcDbLayerTableRecord
  2
Cadres traceur
 70
     0
 62
     7
  6
CONTINUOUS
370
    18
  0
LAYER
  5
206
100
AcDbSymbolTableRecord
100
AcDbLayerTableRecord
  2
Cadres laser
 70
     0
 62
     7
  6
CONTINUOUS
370
    18
  0
LAYER
  5
207
100
AcDbSymbolTableRecord
100
AcDbLayerTableRecord
  2
Légende d_aide
 70
     0
 62
     7
  6
CONTINUOUS
370
    18
  0
LAYER
  5
208
100
AcDbSymbolTableRecord
100
AcDbLayerTableRecord
  2
hachures ok
 70
     0
 62
     7
  6
CONTINUOUS
370
    18
  0
LAYER
  5
209
100
AcDbSymbolTableRecord
100
AcDbLayerTableRecord
  2
ossature bois
 70
     0
 62
     7
  6
CONTINUOUS
370
    18
  0
LAYER
  5
20A
100
AcDbSymbolTableRecord
100
AcDbLayerTableRecord
  2
VR
 70
     0
 62
     7
  6
CONTINUOUS
370
    25
  0
LAYER
  5
20B
100
AcDbSymbolTableRecord
100
AcDbLayerTableRecord
  2
Calque1
 70
     0
 62
     7
  6
CONTINUOUS
370
     9
  0
LAYER
  5
20C
100
AcDbSymbolTableRecord
100
AcDbLayerTableRecord
  2
0
 70
     0
 62
     7
  6
CONTINUOUS
370
    -3
  0
LAYER
  5
20D
100
AcDbSymbolTableRecord
100
AcDbLayerTableRecord
  2
menuiserie
 70
     0
 62
     7
  6
CONTINUOUS
370
    -3
  0
LAYER
  5
20E
100
AcDbSymbolTableRecord
100
AcDbLayerTableRecord
  2
cotation
 70
     0
 62
   250
  6
CONTINUOUS
370
     9
  0
LAYER
  5
20F
100
AcDbSymbolTableRecord
100
AcDbLayerTableRecord
  2
Defpoints
 70
     0
 62
    10
  6
CONTINUOUS
370
    -3
  0
LAYER
  5
210
100
AcDbSymbolTableRecord
100
AcDbLayerTableRecord
  2
HACHURE
 70
     0
 62
   254
  6
CONTINUOUS
370
    25
  0
LAYER
  5
211
100
AcDbSymbolTableRecord
100
AcDbLayerTableRecord
  2
mat1
 70
     0
 62
     7
  6
CONTINUOUS
370
    30
  0
LAYER
  5
212
100
AcDbSymbolTableRecord
100
AcDbLayerTableRecord
  2
mat2
 70
     0
 62
     7
  6
CONTINUOUS
370
     5
  0
LAYER
  5
213
100
AcDbSymbolTableRecord
100
AcDbLayerTableRecord
  2
hach
 70
     0
 62
     8
  6
CONTINUOUS
370
     5
  0
LAYER
  5
214
100
AcDbSymbolTableRecord
100
AcDbLayerTableRecord
  2
menuiseries
 70
     0
 62
     7
  6
CONTINUOUS
370
     9
  0
LAYER
  5
215
100
AcDbSymbolTableRecord
100
AcDbLayerTableRecord
  2
BétonMétal
 70
     0
 62
     7
  6
CONTINUOUS
370
    80
  0
LAYER
  5
216
100
AcDbSymbolTableRecord
100
AcDbLayerTableRecord
  2
bois
 70
     0
 62
     7
  6
CONTINUOUS
370
    60
  0
ENDTAB
  0
TABLE
  2
VIEW
  5
217
100
AcDbSymbolTable
 70
     0
  0
ENDTAB
  0
TABLE
  2
UCS
  5
218
100
AcDbSymbolTable
 70
     0
  0
ENDTAB
  0
TABLE
  2
APPID
  5
219
100
AcDbSymbolTable
 70
     1
  0
APPID
  5
21A
100
AcDbSymbolTableRecord
100
AcDbRegAppTableRecord
  2
ACAD
 70
     0
  0
ENDTAB
  0
TABLE
  2
DIMSTYLE
  5
21B
100
AcDbSymbolTable
 70
     0
  0
ENDTAB
  0
TABLE
  2
BLOCK_RECORD
  5
21C
100
AcDbSymbolTable
 70
     0
  0
BLOCK_RECORD
  5
21D
100
AcDbSymbolTableRecord
100
AcDbBlockTableRecord
  2
*MODEL_SPACE
  0
BLOCK_RECORD
  5
21E
100
AcDbSymbolTableRecord
100
AcDbBlockTableRecord
  2
*PAPER_SPACE
  0
BLOCK_RECORD
  5
21F
100
AcDbSymbolTableRecord
100
AcDbBlockTableRecord
  2
CDWK_EXTR_0
  0
BLOCK_RECORD
  5
220
100
AcDbSymbolTableRecord
100
AcDbBlockTableRecord
  2
CDWK_EXTR_1D
  0
BLOCK_RECORD
  5
221
100
AcDbSymbolTableRecord
100
AcDbBlockTableRecord
  2
CDWK_EXTR_1G
  0
BLOCK_RECORD
  5
222
100
AcDbSymbolTableRecord
100
AcDbBlockTableRecord
  2
CDWK_EXTR_2
  0
BLOCK_RECORD
  5
223
100
AcDbSymbolTableRecord
100
AcDbBlockTableRecord
  2
CDWK_EXTR_3
  0
BLOCK_RECORD
  5
224
100
AcDbSymbolTableRecord
100
AcDbBlockTableRecord
  2
CDWK_EXTR_4
  0
BLOCK_RECORD
  5
225
100
AcDbSymbolTableRecord
100
AcDbBlockTableRecord
  2
CDWK_PTTYP0
  0
BLOCK_RECORD
  5
226
100
AcDbSymbolTableRecord
100
AcDbBlockTableRecord
  2
CDWK_PTTYP1
  0
BLOCK_RECORD
  5
227
100
AcDbSymbolTableRecord
100
AcDbBlockTableRecord
  2
CDWK_PTTYP2
  0
BLOCK_RECORD
  5
228
100
AcDbSymbolTableRecord
100
AcDbBlockTableRecord
  2
CDWK_PTTYP3
  0
BLOCK_RECORD
  5
229
100
AcDbSymbolTableRecord
100
AcDbBlockTableRecord
  2
CDWK_PTTYP4
  0
BLOCK_RECORD
  5
22A
100
AcDbSymbolTableRecord
100
AcDbBlockTableRecord
  2
CDWK_PTTYP5
  0
BLOCK_RECORD
  5
22B
100
AcDbSymbolTableRecord
100
AcDbBlockTableRecord
  2
CDWK_PTTYP6
  0
BLOCK_RECORD
  5
22C
100
AcDbSymbolTableRecord
100
AcDbBlockTableRecord
  2
CDWK_PTTYP7
  0
BLOCK_RECORD
  5
22D
100
AcDbSymbolTableRecord
100
AcDbBlockTableRecord
  2
CDWK_PTTYP8
  0
BLOCK_RECORD
  5
22E
100
AcDbSymbolTableRecord
100
AcDbBlockTableRecord
  2
CDWK_PTTYP9
  0
BLOCK_RECORD
  5
22F
100
AcDbSymbolTableRecord
100
AcDbBlockTableRecord
  2
CDWK_PTTYP10
  0
BLOCK_RECORD
  5
230
100
AcDbSymbolTableRecord
100
AcDbBlockTableRecord
  2
CDWK_PTTYP11
  0
BLOCK_RECORD
  5
231
100
AcDbSymbolTableRecord
100
AcDbBlockTableRecord
  2
CDWK_PTTYP12
  0
BLOCK_RECORD
  5
232
100
AcDbSymbolTableRecord
100
AcDbBlockTableRecord
  2
CDWK_PTTYP13
  0
BLOCK_RECORD
  5
233
100
AcDbSymbolTableRecord
100
AcDbBlockTableRecord
  2
CDWK_PTTYP14
  0
BLOCK_RECORD
  5
234
100
AcDbSymbolTableRecord
100
AcDbBlockTableRecord
  2
CDWK_PTTYP15
  0
BLOCK_RECORD
  5
235
100
AcDbSymbolTableRecord
100
AcDbBlockTableRecord
  2
CDWK_PTTYP16
  0
BLOCK_RECORD
  5
236
100
AcDbSymbolTableRecord
100
AcDbBlockTableRecord
  2
CDWK_PTTYP17
  0
BLOCK_RECORD
  5
237
100
AcDbSymbolTableRecord
100
AcDbBlockTableRecord
  2
CDWK_PTTYP18
  0
BLOCK_RECORD
  5
238
100
AcDbSymbolTableRecord
100
AcDbBlockTableRecord
  2
CDWK_PTTYP19
  0
BLOCK_RECORD
  5
239
100
AcDbSymbolTableRecord
100
AcDbBlockTableRecord
  2
CDWK_PTTYP20
  0
BLOCK_RECORD
  5
23A
100
AcDbSymbolTableRecord
100
AcDbBlockTableRecord
  2
CDWK_PTTYP21
  0
BLOCK_RECORD
  5
23B
100
AcDbSymbolTableRecord
100
AcDbBlockTableRecord
  2
CDWK_PTTYP22
  0
BLOCK_RECORD
  5
23C
100
AcDbSymbolTableRecord
100
AcDbBlockTableRecord
  2
CDWK_PTTYP23
  0
BLOCK_RECORD
  5
23D
100
AcDbSymbolTableRecord
100
AcDbBlockTableRecord
  2
CDWK_PTTYP24
  0
BLOCK_RECORD
  5
23E
100
AcDbSymbolTableRecord
100
AcDbBlockTableRecord
  2
CDWK_PTTYP25
  0
BLOCK_RECORD
  5
23F
100
AcDbSymbolTableRecord
100
AcDbBlockTableRecord
  2
CDWK_PTTYP26
  0
BLOCK_RECORD
  5
240
100
AcDbSymbolTableRecord
100
AcDbBlockTableRecord
  2
CDWK_PTTYP27
  0
BLOCK_RECORD
  5
241
100
AcDbSymbolTableRecord
100
AcDbBlockTableRecord
  2
CDWK_PTTYP28
  0
BLOCK_RECORD
  5
242
100
AcDbSymbolTableRecord
100
AcDbBlockTableRecord
  2
CDWK_PTTYP29
  0
BLOCK_RECORD
  5
243
100
AcDbSymbolTableRecord
100
AcDbBlockTableRecord
  2
CDWK_PTTYP30
  0
BLOCK_RECORD
  5
244
100
AcDbSymbolTableRecord
100
AcDbBlockTableRecord
  2
CDWK_PTTYP31
  0
BLOCK_RECORD
  5
245
100
AcDbSymbolTableRecord
100
AcDbBlockTableRecord
  2
CDWK_PTTYP32
  0
BLOCK_RECORD
  5
246
100
AcDbSymbolTableRecord
100
AcDbBlockTableRecord
  2
CDWK_PTTYP33
  0
BLOCK_RECORD
  5
247
100
AcDbSymbolTableRecord
100
AcDbBlockTableRecord
  2
CDWK_PTTYP34
  0
BLOCK_RECORD
  5
248
100
AcDbSymbolTableRecord
100
AcDbBlockTableRecord
  2
CDWK_PTTYP35
  0
BLOCK_RECORD
  5
249
100
AcDbSymbolTableRecord
100
AcDbBlockTableRecord
  2
CDWK_PTTYP36
  0
BLOCK_RECORD
  5
24A
100
AcDbSymbolTableRecord
100
AcDbBlockTableRecord
  2
CDWK_PTTYP37
  0
BLOCK_RECORD
  5
24B
100
AcDbSymbolTableRecord
100
AcDbBlockTableRecord
  2
CDWK_PTTYP38
  0
BLOCK_RECORD
  5
24C
100
AcDbSymbolTableRecord
100
AcDbBlockTableRecord
  2
*D25
  0
BLOCK_RECORD
  5
24D
100
AcDbSymbolTableRecord
100
AcDbBlockTableRecord
  2
*D26
  0
ENDTAB
  0
ENDSEC
  0
SECTION
  2
BLOCKS
  0
BLOCK
  5
24E
100
AcDbEntity
  8
0
100
AcDbBlockBegin
  2
*MODEL_SPACE
 70
     0
 10
0.0
 20
0.0
 30
0.0
  3
*MODEL_SPACE
  1

  0
ENDBLK
  5
24F
100
AcDbEntity
100
AcDbBlockEnd
  0
BLOCK
  5
250
100
AcDbEntity
  8
0
100
AcDbBlockBegin
  2
*PAPER_SPACE
 70
     0
 10
0.0
 20
0.0
 30
0.0
  3
*PAPER_SPACE
  1

  0
ENDBLK
  5
251
100
AcDbEntity
100
AcDbBlockEnd
  0
BLOCK
  5
252
100
AcDbEntity
  8
0
100
AcDbBlockBegin
  2
CDWK_EXTR_0
 70
     0
 10
0.0
 20
0.0
 30
0.0
  3
CDWK_EXTR_0
  1

  4
Cadwork line-extremity
  0
LINE
  5
253
100
AcDbEntity
  8
0
 62
     0
370
    -2
100
AcDbLine
 10
0.0
 20
0.0
 30
0.0
 11
2.0
 21
0.5
 31
0.0
  0
LINE
  5
254
100
AcDbEntity
  8
0
 62
     0
370
    -2
100
AcDbLine
 10
0.0
 20
0.0
 30
0.0
 11
2.0
 21
-0.5
 31
0.0
  0
LINE
  5
255
100
AcDbEntity
  8
0
 62
     0
370
    -2
100
AcDbLine
 10
2.0
 20
0.5
 30
0.0
 11
2.0
 21
-0.5
 31
0.0
  0
ENDBLK
  5
256
100
AcDbEntity
100
AcDbBlockEnd
  0
BLOCK
  5
257
100
AcDbEntity
  8
0
100
AcDbBlockBegin
  2
CDWK_EXTR_1D
 70
     0
 10
0.0
 20
0.0
 30
0.0
  3
CDWK_EXTR_1D
  1

  4
Cadwork line-extremity
  0
LINE
  5
258
100
AcDbEntity
  8
0
 62
     0
370
    -2
100
AcDbLine
 10
0.0
 20
0.0
 30
0.0
 11
0.0
 21
1.0
 31
0.0
  0
LINE
  5
259
100
AcDbEntity
  8
0
 62
     0
370
    -2
100
AcDbLine
 10
0.0
 20
1.0
 30
0.0
 11
0.5
 21
1.5
 31
0.0
  0
LINE
  5
25A
100
AcDbEntity
  8
0
 62
     0
370
    -2
100
AcDbLine
 10
0.5
 20
1.5
 30
0.0
 11
1.5
 21
1.5
 31
0.0
  0
ENDBLK
  5
25B
100
AcDbEntity
100
AcDbBlockEnd
  0
BLOCK
  5
25C
100
AcDbEntity
  8
0
100
AcDbBlockBegin
  2
CDWK_EXTR_1G
 70
     0
 10
0.0
 20
0.0
 30
0.0
  3
CDWK_EXTR_1G
  1

  4
Cadwork line-extremity
  0
LINE
  5
25D
100
AcDbEntity
  8
0
 62
     0
370
    -2
100
AcDbLine
 10
0.0
 20
0.0
 30
0.0
 11
0.0
 21
-1.0
 31
0.0
  0
LINE
  5
25E
100
AcDbEntity
  8
0
 62
     0
370
    -2
100
AcDbLine
 10
0.0
 20
-1.0
 30
0.0
 11
0.5
 21
-1.5
 31
0.0
  0
LINE
  5
25F
100
AcDbEntity
  8
0
 62
     0
370
    -2
100
AcDbLine
 10
0.5
 20
-1.5
 30
0.0
 11
1.5
 21
-1.5
 31
0.0
  0
ENDBLK
  5
260
100
AcDbEntity
100
AcDbBlockEnd
  0
BLOCK
  5
261
100
AcDbEntity
  8
0
100
AcDbBlockBegin
  2
CDWK_EXTR_2
 70
     0
 10
0.0
 20
0.0
 30
0.0
  3
CDWK_EXTR_2
  1

  4
Cadwork line-extremity
  0
SOLID
  5
262
100
AcDbEntity
  8
0
 62
     0
100
AcDbTrace
 10
0.0
 20
0.0
 11
2.0
 21
0.5
 12
2.0
 22
-0.5
 13
2.0
 23
-0.5
  0
ENDBLK
  5
263
100
AcDbEntity
100
AcDbBlockEnd
  0
BLOCK
  5
264
100
AcDbEntity
  8
0
100
AcDbBlockBegin
  2
CDWK_EXTR_3
 70
     0
 10
0.0
 20
0.0
 30
0.0
  3
CDWK_EXTR_3
  1

  4
Cadwork line-extremity
  0
SOLID
  5
265
100
AcDbEntity
  8
0
 62
     0
100
AcDbTrace
 10
0.0
 20
0.0
 11
2.0
 21
0.5
 12
2.0
 22
-0.5
 13
2.0
 23
-0.5
  0
LINE
  5
266
100
AcDbEntity
  8
0
 62
     0
370
    -2
100
AcDbLine
 10
0.0
 20
1.0
 30
0.0
 11
0.0
 21
-1.0
 31
0.0
  0
ENDBLK
  5
267
100
AcDbEntity
100
AcDbBlockEnd
  0
BLOCK
  5
268
100
AcDbEntity
  8
0
100
AcDbBlockBegin
  2
CDWK_EXTR_4
 70
     0
 10
0.0
 20
0.0
 30
0.0
  3
CDWK_EXTR_4
  1

  4
Cadwork line-extremity
  0
HATCH
  5
269
100
AcDbEntity
  8
0
 62
     0
370
    -2
100
AcDbHatch
 10
0.0
 20
0.0
 30
0.0
210
0.0
220
0.0
230
1.0
  2
SOLID
 70
     1
 71
     0
 91
        1
 92
        1
 93
        1
 72
     2
 10
0.0
 20
0.0
 40
0.5
 50
0.0
 51
360.0
 73
     1
 97
        0
 75
     0
 76
     1
 98
        1
 10
0.0
 20
0.0
  0
ENDBLK
  5
26A
100
AcDbEntity
100
AcDbBlockEnd
  0
BLOCK
  5
26B
100
AcDbEntity
  8
0
100
AcDbBlockBegin
  2
CDWK_PTTYP0
 70
     0
 10
0.0
 20
0.0
 30
0.0
  3
CDWK_PTTYP0
  1

  4
Cadwork point
  0
POINT
  5
26C
100
AcDbEntity
  8
0
 62
     0
100
AcDbPoint
 10
0.0
 20
0.0
 30
0.0
  0
ENDBLK
  5
26D
100
AcDbEntity
100
AcDbBlockEnd
  0
BLOCK
  5
26E
100
AcDbEntity
  8
0
100
AcDbBlockBegin
  2
CDWK_PTTYP1
 70
     0
 10
0.0
 20
0.0
 30
0.0
  3
CDWK_PTTYP1
  1

  4
Cadwork node
  0
LINE
  5
26F
100
AcDbEntity
  8
0
 62
     0
370
    -2
100
AcDbLine
 10
-0.5
 20
0.5
 30
0.0
 11
0.5
 21
0.5
 31
0.0
  0
LINE
  5
270
100
AcDbEntity
  8
0
 62
     0
370
    -2
100
AcDbLine
 10
0.5
 20
0.5
 30
0.0
 11
0.5
 21
-0.5
 31
0.0
  0
LINE
  5
271
100
AcDbEntity
  8
0
 62
     0
370
    -2
100
AcDbLine
 10
0.5
 20
-0.5
 30
0.0
 11
-0.5
 21
-0.5
 31
0.0
  0
LINE
  5
272
100
AcDbEntity
  8
0
 62
     0
370
    -2
100
AcDbLine
 10
-0.5
 20
-0.5
 30
0.0
 11
-0.5
 21
0.5
 31
0.0
  0
ENDBLK
  5
273
100
AcDbEntity
100
AcDbBlockEnd
  0
BLOCK
  5
274
100
AcDbEntity
  8
0
100
AcDbBlockBegin
  2
CDWK_PTTYP2
 70
     0
 10
0.0
 20
0.0
 30
0.0
  3
CDWK_PTTYP2
  1

  4
Cadwork node
  0
LINE
  5
275
100
AcDbEntity
  8
0
 62
     0
370
    -2
100
AcDbLine
 10
0.0
 20
0.5
 30
0.0
 11
0.0
 21
-0.5
 31
0.0
  0
LINE
  5
276
100
AcDbEntity
  8
0
 62
     0
370
    -2
100
AcDbLine
 10
-0.5
 20
0.0
 30
0.0
 11
0.5
 21
0.0
 31
0.0
  0
ENDBLK
  5
277
100
AcDbEntity
100
AcDbBlockEnd
  0
BLOCK
  5
278
100
AcDbEntity
  8
0
100
AcDbBlockBegin
  2
CDWK_PTTYP3
 70
     0
 10
0.0
 20
0.0
 30
0.0
  3
CDWK_PTTYP3
  1

  4
Cadwork node
  0
CIRCLE
  5
279
100
AcDbEntity
  8
0
 62
     0
370
    -2
100
AcDbCircle
 10
0.0
 20
0.0
 30
0.0
 40
0.5
  0
ENDBLK
  5
27A
100
AcDbEntity
100
AcDbBlockEnd
  0
BLOCK
  5
27B
100
AcDbEntity
  8
0
100
AcDbBlockBegin
  2
CDWK_PTTYP4
 70
     0
 10
0.0
 20
0.0
 30
0.0
  3
CDWK_PTTYP4
  1

  4
Cadwork node
  0
HATCH
  5
27C
100
AcDbEntity
  8
0
 62
     0
370
    -2
100
AcDbHatch
 10
0.0
 20
0.0
 30
0.0
210
0.0
220
0.0
230
1.0
  2
SOLID
 70
     1
 71
     0
 91
        1
 92
        1
 93
        1
 72
     2
 10
0.0
 20
0.0
 40
0.5
 50
0.0
 51
360.0
 73
     1
 97
        0
 75
     0
 76
     1
 98
        1
 10
0.0
 20
0.0
  0
ENDBLK
  5
27D
100
AcDbEntity
100
AcDbBlockEnd
  0
BLOCK
  5
27E
100
AcDbEntity
  8
0
100
AcDbBlockBegin
  2
CDWK_PTTYP5
 70
     0
 10
0.0
 20
0.0
 30
0.0
  3
CDWK_PTTYP5
  1

  4
Cadwork node
  0
LINE
  5
27F
100
AcDbEntity
  8
0
 62
     0
370
    -2
100
AcDbLine
 10
-0.5
 20
0.5
 30
0.0
 11
0.5
 21
0.5
 31
0.0
  0
LINE
  5
280
100
AcDbEntity
  8
0
 62
     0
370
    -2
100
AcDbLine
 10
0.5
 20
0.5
 30
0.0
 11
0.5
 21
-0.5
 31
0.0
  0
LINE
  5
281
100
AcDbEntity
  8
0
 62
     0
370
    -2
100
AcDbLine
 10
0.5
 20
-0.5
 30
0.0
 11
-0.5
 21
-0.5
 31
0.0
  0
LINE
  5
282
100
AcDbEntity
  8
0
 62
     0
370
    -2
100
AcDbLine
 10
-0.5
 20
-0.5
 30
0.0
 11
-0.5
 21
0.5
 31
0.0
  0
SOLID
  5
283
100
AcDbEntity
  8
0
 62
     0
100
AcDbTrace
 10
-0.5
 20
-0.5
 11
-0.5
 21
0.0
 12
0.0
 22
-0.5
 13
0.0
 23
0.0
  0
SOLID
  5
284
100
AcDbEntity
  8
0
 62
     0
100
AcDbTrace
 10
0.0
 20
0.0
 11
0.0
 21
0.5
 12
0.5
 22
0.0
 13
0.5
 23
0.5
  0
ENDBLK
  5
285
100
AcDbEntity
100
AcDbBlockEnd
  0
BLOCK
  5
286
100
AcDbEntity
  8
0
100
AcDbBlockBegin
  2
CDWK_PTTYP6
 70
     0
 10
0.0
 20
0.0
 30
0.0
  3
CDWK_PTTYP6
  1

  4
Cadwork node
  0
LINE
  5
287
100
AcDbEntity
  8
0
 62
     0
370
    -2
100
AcDbLine
 10
-0.5
 20
0.5
 30
0.0
 11
0.5
 21
0.5
 31
0.0
  0
LINE
  5
288
100
AcDbEntity
  8
0
 62
     0
370
    -2
100
AcDbLine
 10
0.5
 20
0.5
 30
0.0
 11
0.5
 21
-0.5
 31
0.0
  0
LINE
  5
289
100
AcDbEntity
  8
0
 62
     0
370
    -2
100
AcDbLine
 10
0.5
 20
-0.5
 30
0.0
 11
-0.5
 21
-0.5
 31
0.0
  0
LINE
  5
28A
100
AcDbEntity
  8
0
 62
     0
370
    -2
100
AcDbLine
 10
-0.5
 20
-0.5
 30
0.0
 11
-0.5
 21
0.5
 31
0.0
  0
SOLID
  5
28B
100
AcDbEntity
  8
0
 62
     0
100
AcDbTrace
 10
-0.5
 20
-0.5
 11
-0.5
 21
0.5
 12
0.5
 22
0.5
 13
0.5
 23
0.5
  0
ENDBLK
  5
28C
100
AcDbEntity
100
AcDbBlockEnd
  0
BLOCK
  5
28D
100
AcDbEntity
  8
0
100
AcDbBlockBegin
  2
CDWK_PTTYP7
 70
     0
 10
0.0
 20
0.0
 30
0.0
  3
CDWK_PTTYP7
  1

  4
Cadwork node
  0
LINE
  5
28E
100
AcDbEntity
  8
0
 62
     0
370
    -2
100
AcDbLine
 10
-0.5
 20
0.5
 30
0.0
 11
0.5
 21
0.5
 31
0.0
  0
LINE
  5
28F
100
AcDbEntity
  8
0
 62
     0
370
    -2
100
AcDbLine
 10
0.5
 20
0.5
 30
0.0
 11
0.5
 21
-0.5
 31
0.0
  0
LINE
  5
290
100
AcDbEntity
  8
0
 62
     0
370
    -2
100
AcDbLine
 10
0.5
 20
-0.5
 30
0.0
 11
-0.5
 21
-0.5
 31
0.0
  0
LINE
  5
291
100
AcDbEntity
  8
0
 62
     0
370
    -2
100
AcDbLine
 10
-0.5
 20
-0.5
 30
0.0
 11
-0.5
 21
0.5
 31
0.0
  0
LINE
  5
292
100
AcDbEntity
  8
0
 62
     0
370
    -2
100
AcDbLine
 10
0.0
 20
0.5
 30
0.0
 11
0.0
 21
-0.5
 31
0.0
  0
LINE
  5
293
100
AcDbEntity
  8
0
 62
     0
370
    -2
100
AcDbLine
 10
-0.5
 20
0.0
 30
0.0
 11
0.5
 21
0.0
 31
0.0
  0
ENDBLK
  5
294
100
AcDbEntity
100
AcDbBlockEnd
  0
BLOCK
  5
295
100
AcDbEntity
  8
0
100
AcDbBlockBegin
  2
CDWK_PTTYP8
 70
     0
 10
0.0
 20
0.0
 30
0.0
  3
CDWK_PTTYP8
  1

  4
Cadwork node
  0
SOLID
  5
296
100
AcDbEntity
  8
0
 62
     0
100
AcDbTrace
 10
-0.5
 20
0.5
 11
0.5
 21
0.5
 12
-0.5
 22
-0.5
 13
0.5
 23
-0.5
  0
ENDBLK
  5
297
100
AcDbEntity
100
AcDbBlockEnd
  0
BLOCK
  5
298
100
AcDbEntity
  8
0
100
AcDbBlockBegin
  2
CDWK_PTTYP9
 70
     0
 10
0.0
 20
0.0
 30
0.0
  3
CDWK_PTTYP9
  1

  4
Cadwork node
  0
CIRCLE
  5
299
100
AcDbEntity
  8
0
 62
     0
370
    -2
100
AcDbCircle
 10
0.0
 20
0.0
 30
0.0
 40
0.5
  0
CIRCLE
  5
29A
100
AcDbEntity
  8
0
 62
     0
370
    -2
100
AcDbCircle
 10
0.0
 20
0.0
 30
0.0
 40
0.16666667
  0
ENDBLK
  5
29B
100
AcDbEntity
100
AcDbBlockEnd
  0
BLOCK
  5
29C
100
AcDbEntity
  8
0
100
AcDbBlockBegin
  2
CDWK_PTTYP10
 70
     0
 10
0.0
 20
0.0
 30
0.0
  3
CDWK_PTTYP10
  1

  4
Cadwork node
  0
CIRCLE
  5
29D
100
AcDbEntity
  8
0
 62
     0
370
    -2
100
AcDbCircle
 10
0.0
 20
0.0
 30
0.0
 40
0.5
  0
ENDBLK
  5
29E
100
AcDbEntity
100
AcDbBlockEnd
  0
BLOCK
  5
29F
100
AcDbEntity
  8
0
100
AcDbBlockBegin
  2
CDWK_PTTYP11
 70
     0
 10
0.0
 20
0.0
 30
0.0
  3
CDWK_PTTYP11
  1

  4
Cadwork node
  0
CIRCLE
  5
2A0
100
AcDbEntity
  8
0
 62
     0
370
    -2
100
AcDbCircle
 10
0.0
 20
0.0
 30
0.0
 40
0.5
  0
CIRCLE
  5
2A1
100
AcDbEntity
  8
0
 62
     0
370
    -2
100
AcDbCircle
 10
0.0
 20
0.0
 30
0.0
 40
0.25
  0
ENDBLK
  5
2A2
100
AcDbEntity
100
AcDbBlockEnd
  0
BLOCK
  5
2A3
100
AcDbEntity
  8
0
100
AcDbBlockBegin
  2
CDWK_PTTYP12
 70
     0
 10
0.0
 20
0.0
 30
0.0
  3
CDWK_PTTYP12
  1

  4
Cadwork node
  0
CIRCLE
  5
2A4
100
AcDbEntity
  8
0
 62
     0
370
    -2
100
AcDbCircle
 10
0.0
 20
0.0
 30
0.0
 40
0.5
  0
CIRCLE
  5
2A5
100
AcDbEntity
  8
0
 62
     0
370
    -2
100
AcDbCircle
 10
0.25
 20
0.0
 30
0.0
 40
0.25
  0
ENDBLK
  5
2A6
100
AcDbEntity
100
AcDbBlockEnd
  0
BLOCK
  5
2A7
100
AcDbEntity
  8
0
100
AcDbBlockBegin
  2
CDWK_PTTYP13
 70
     0
 10
0.0
 20
0.0
 30
0.0
  3
CDWK_PTTYP13
  1

  4
Cadwork node
  0
CIRCLE
  5
2A8
100
AcDbEntity
  8
0
 62
     0
370
    -2
100
AcDbCircle
 10
0.0
 20
0.0
 30
0.0
 40
0.5
  0
CIRCLE
  5
2A9
100
AcDbEntity
  8
0
 62
     0
370
    -2
100
AcDbCircle
 10
0.25
 20
0.0
 30
0.0
 40
0.25
  0
CIRCLE
  5
2AA
100
AcDbEntity
  8
0
 62
     0
370
    -2
100
AcDbCircle
 10
-0.25
 20
0.0
 30
0.0
 40
0.25
  0
ENDBLK
  5
2AB
100
AcDbEntity
100
AcDbBlockEnd
  0
BLOCK
  5
2AC
100
AcDbEntity
  8
0
100
AcDbBlockBegin
  2
CDWK_PTTYP14
 70
     0
 10
0.0
 20
0.0
 30
0.0
  3
CDWK_PTTYP14
  1

  4
Cadwork node
  0
POINT
  5
2AD
100
AcDbEntity
  8
0
 62
     0
100
AcDbPoint
 10
0.0
 20
0.0
 30
0.0
  0
ENDBLK
  5
2AE
100
AcDbEntity
100
AcDbBlockEnd
  0
BLOCK
  5
2AF
100
AcDbEntity
  8
0
100
AcDbBlockBegin
  2
CDWK_PTTYP15
 70
     0
 10
0.0
 20
0.0
 30
0.0
  3
CDWK_PTTYP15
  1

  4
Cadwork node
  0
POINT
  5
2B0
100
AcDbEntity
  8
0
 62
     0
100
AcDbPoint
 10
0.0
 20
0.0
 30
0.0
  0
ENDBLK
  5
2B1
100
AcDbEntity
100
AcDbBlockEnd
  0
BLOCK
  5
2B2
100
AcDbEntity
  8
0
100
AcDbBlockBegin
  2
CDWK_PTTYP16
 70
     0
 10
0.0
 20
0.0
 30
0.0
  3
CDWK_PTTYP16
  1

  4
Cadwork node
  0
LINE
  5
2B3
100
AcDbEntity
  8
0
 62
     0
370
    -2
100
AcDbLine
 10
-0.5
 20
-0.28867513
 30
0.0
 11
0.5
 21
-0.28867513
 31
0.0
  0
LINE
  5
2B4
100
AcDbEntity
  8
0
 62
     0
370
    -2
100
AcDbLine
 10
0.5
 20
-0.28867513
 30
0.0
 11
0.0
 21
0.57735027
 31
0.0
  0
LINE
  5
2B5
100
AcDbEntity
  8
0
 62
     0
370
    -2
100
AcDbLine
 10
0.0
 20
0.57735027
 30
0.0
 11
-0.5
 21
-0.28867513
 31
0.0
  0
CIRCLE
  5
2B6
100
AcDbEntity
  8
0
 62
     0
370
    -2
100
AcDbCircle
 10
0.0
 20
0.0
 30
0.0
 40
0.28867513
  0
ENDBLK
  5
2B7
100
AcDbEntity
100
AcDbBlockEnd
  0
BLOCK
  5
2B8
100
AcDbEntity
  8
0
100
AcDbBlockBegin
  2
CDWK_PTTYP17
 70
     0
 10
0.0
 20
0.0
 30
0.0
  3
CDWK_PTTYP17
  1

  4
Cadwork node
  0
CIRCLE
  5
2B9
100
AcDbEntity
  8
0
 62
     0
370
    -2
100
AcDbCircle
 10
0.0
 20
0.0
 30
0.0
 40
0.5
  0
HATCH
  5
2BA
100
AcDbEntity
  8
0
 62
     0
370
    -2
100
AcDbHatch
 10
0.0
 20
0.0
 30
0.0
210
0.0
220
0.0
230
1.0
  2
SOLID
 70
     1
 71
     0
 91
        1
 92
        1
 93
        1
 72
     2
 10
0.0
 20
0.0
 40
0.25
 50
0.0
 51
360.0
 73
     1
 97
        0
 75
     0
 76
     1
 98
        1
 10
0.0
 20
0.0
  0
ENDBLK
  5
2BB
100
AcDbEntity
100
AcDbBlockEnd
  0
BLOCK
  5
2BC
100
AcDbEntity
  8
0
100
AcDbBlockBegin
  2
CDWK_PTTYP18
 70
     0
 10
0.0
 20
0.0
 30
0.0
  3
CDWK_PTTYP18
  1

  4
Cadwork node
  0
CIRCLE
  5
2BD
100
AcDbEntity
  8
0
 62
     0
370
    -2
100
AcDbCircle
 10
0.0
 20
0.0
 30
0.0
 40
0.5
  0
CIRCLE
  5
2BE
100
AcDbEntity
  8
0
 62
     0
370
    -2
100
AcDbCircle
 10
0.0
 20
0.0
 30
0.0
 40
0.2
  0
ENDBLK
  5
2BF
100
AcDbEntity
100
AcDbBlockEnd
  0
BLOCK
  5
2C0
100
AcDbEntity
  8
0
100
AcDbBlockBegin
  2
CDWK_PTTYP19
 70
     0
 10
0.0
 20
0.0
 30
0.0
  3
CDWK_PTTYP19
  1

  4
Cadwork node
  0
CIRCLE
  5
2C1
100
AcDbEntity
  8
0
 62
     0
370
    -2
100
AcDbCircle
 10
0.0
 20
0.0
 30
0.0
 40
0.4
  0
CIRCLE
  5
2C2
100
AcDbEntity
  8
0
 62
     0
370
    -2
100
AcDbCircle
 10
0.0
 20
0.0
 30
0.0
 40
0.25
  0
LINE
  5
2C3
100
AcDbEntity
  8
0
 62
     0
370
    -2
100
AcDbLine
 10
-0.25
 20
0.0
 30
0.0
 11
0.25
 21
0.0
 31
0.0
  0
ENDBLK
  5
2C4
100
AcDbEntity
100
AcDbBlockEnd
  0
BLOCK
  5
2C5
100
AcDbEntity
  8
0
100
AcDbBlockBegin
  2
CDWK_PTTYP20
 70
     0
 10
0.0
 20
0.0
 30
0.0
  3
CDWK_PTTYP20
  1

  4
Cadwork node
  0
CIRCLE
  5
2C6
100
AcDbEntity
  8
0
 62
     0
370
    -2
100
AcDbCircle
 10
0.0
 20
0.0
 30
0.0
 40
0.5
  0
CIRCLE
  5
2C7
100
AcDbEntity
  8
0
 62
     0
370
    -2
100
AcDbCircle
 10
0.0
 20
0.0
 30
0.0
 40
0.3
  0
ENDBLK
  5
2C8
100
AcDbEntity
100
AcDbBlockEnd
  0
BLOCK
  5
2C9
100
AcDbEntity
  8
0
100
AcDbBlockBegin
  2
CDWK_PTTYP21
 70
     0
 10
0.0
 20
0.0
 30
0.0
  3
CDWK_PTTYP21
  1

  4
Cadwork node
  0
CIRCLE
  5
2CA
100
AcDbEntity
  8
0
 62
     0
370
    -2
100
AcDbCircle
 10
0.0
 20
0.0
 30
0.0
 40
0.5
  0
LINE
  5
2CB
100
AcDbEntity
  8
0
 62
     0
370
    -2
100
AcDbLine
 10
-0.5
 20
0.0
 30
0.0
 11
0.5
 21
0.0
 31
0.0
  0
ENDBLK
  5
2CC
100
AcDbEntity
100
AcDbBlockEnd
  0
BLOCK
  5
2CD
100
AcDbEntity
  8
0
100
AcDbBlockBegin
  2
CDWK_PTTYP22
 70
     0
 10
0.0
 20
0.0
 30
0.0
  3
CDWK_PTTYP22
  1

  4
Cadwork node
  0
POINT
  5
2CE
100
AcDbEntity
  8
0
 62
     0
100
AcDbPoint
 10
0.0
 20
0.0
 30
0.0
  0
ENDBLK
  5
2CF
100
AcDbEntity
100
AcDbBlockEnd
  0
BLOCK
  5
2D0
100
AcDbEntity
  8
0
100
AcDbBlockBegin
  2
CDWK_PTTYP23
 70
     0
 10
0.0
 20
0.0
 30
0.0
  3
CDWK_PTTYP23
  1

  4
Cadwork node
  0
POINT
  5
2D1
100
AcDbEntity
  8
0
 62
     0
100
AcDbPoint
 10
0.0
 20
0.0
 30
0.0
  0
ENDBLK
  5
2D2
100
AcDbEntity
100
AcDbBlockEnd
  0
BLOCK
  5
2D3
100
AcDbEntity
  8
0
100
AcDbBlockBegin
  2
CDWK_PTTYP24
 70
     0
 10
0.0
 20
0.0
 30
0.0
  3
CDWK_PTTYP24
  1

  4
Cadwork node
  0
POINT
  5
2D4
100
AcDbEntity
  8
0
 62
     0
100
AcDbPoint
 10
0.0
 20
0.0
 30
0.0
  0
ENDBLK
  5
2D5
100
AcDbEntity
100
AcDbBlockEnd
  0
BLOCK
  5
2D6
100
AcDbEntity
  8
0
100
AcDbBlockBegin
  2
CDWK_PTTYP25
 70
     0
 10
0.0
 20
0.0
 30
0.0
  3
CDWK_PTTYP25
  1

  4
Cadwork node
  0
LINE
  5
2D7
100
AcDbEntity
  8
0
 62
     0
370
    -2
100
AcDbLine
 10
-0.43290044
 20
-0.25
 30
0.0
 11
0.43290044
 21
-0.25
 31
0.0
  0
LINE
  5
2D8
100
AcDbEntity
  8
0
 62
     0
370
    -2
100
AcDbLine
 10
-0.43290044
 20
-0.25
 30
0.0
 11
0.0
 21
0.5
 31
0.0
  0
LINE
  5
2D9
100
AcDbEntity
  8
0
 62
     0
370
    -2
100
AcDbLine
 10
0.43290044
 20
-0.25
 30
0.0
 11
0.0
 21
0.5
 31
0.0
  0
CIRCLE
  5
2DA
100
AcDbEntity
  8
0
 62
     0
370
    -2
100
AcDbCircle
 10
0.0
 20
0.0
 30
0.0
 40
0.5
  0
ENDBLK
  5
2DB
100
AcDbEntity
100
AcDbBlockEnd
  0
BLOCK
  5
2DC
100
AcDbEntity
  8
0
100
AcDbBlockBegin
  2
CDWK_PTTYP26
 70
     0
 10
0.0
 20
0.0
 30
0.0
  3
CDWK_PTTYP26
  1

  4
Cadwork node
  0
LINE
  5
2DD
100
AcDbEntity
  8
0
 62
     0
370
    -2
100
AcDbLine
 10
-0.5
 20
-0.28850001
 30
0.0
 11
0.5
 21
-0.28850001
 31
0.0
  0
LINE
  5
2DE
100
AcDbEntity
  8
0
 62
     0
370
    -2
100
AcDbLine
 10
-0.5
 20
-0.28850001
 30
0.0
 11
0.0
 21
0.57736721
 31
0.0
  0
LINE
  5
2DF
100
AcDbEntity
  8
0
 62
     0
370
    -2
100
AcDbLine
 10
0.5
 20
-0.28850001
 30
0.0
 11
0.0
 21
0.57736721
 31
0.0
  0
CIRCLE
  5
2E0
100
AcDbEntity
  8
0
 62
     0
370
    -2
100
AcDbCircle
 10
0.0
 20
0.0
 30
0.0
 40
0.1312336
  0
ENDBLK
  5
2E1
100
AcDbEntity
100
AcDbBlockEnd
  0
BLOCK
  5
2E2
100
AcDbEntity
  8
0
100
AcDbBlockBegin
  2
CDWK_PTTYP27
 70
     0
 10
0.0
 20
0.0
 30
0.0
  3
CDWK_PTTYP27
  1

  4
Cadwork node
  0
LINE
  5
2E3
100
AcDbEntity
  8
0
 62
     0
370
    -2
100
AcDbLine
 10
-0.43290044
 20
-0.25
 30
0.0
 11
0.43290044
 21
-0.25
 31
0.0
  0
LINE
  5
2E4
100
AcDbEntity
  8
0
 62
     0
370
    -2
100
AcDbLine
 10
-0.43290044
 20
-0.25
 30
0.0
 11
0.0
 21
0.5
 31
0.0
  0
LINE
  5
2E5
100
AcDbEntity
  8
0
 62
     0
370
    -2
100
AcDbLine
 10
0.43290044
 20
-0.25
 30
0.0
 11
0.0
 21
0.5
 31
0.0
  0
CIRCLE
  5
2E6
100
AcDbEntity
  8
0
 62
     0
370
    -2
100
AcDbCircle
 10
0.0
 20
0.0
 30
0.0
 40
0.5
  0
CIRCLE
  5
2E7
100
AcDbEntity
  8
0
 62
     0
370
    -2
100
AcDbCircle
 10
0.0
 20
0.0
 30
0.0
 40
0.1312336
  0
ENDBLK
  5
2E8
100
AcDbEntity
100
AcDbBlockEnd
  0
BLOCK
  5
2E9
100
AcDbEntity
  8
0
100
AcDbBlockBegin
  2
CDWK_PTTYP28
 70
     0
 10
0.0
 20
0.0
 30
0.0
  3
CDWK_PTTYP28
  1

  4
Cadwork node
  0
POINT
  5
2EA
100
AcDbEntity
  8
0
 62
     0
100
AcDbPoint
 10
0.0
 20
0.0
 30
0.0
  0
ENDBLK
  5
2EB
100
AcDbEntity
100
AcDbBlockEnd
  0
BLOCK
  5
2EC
100
AcDbEntity
  8
0
100
AcDbBlockBegin
  2
CDWK_PTTYP29
 70
     0
 10
0.0
 20
0.0
 30
0.0
  3
CDWK_PTTYP29
  1

  4
Cadwork node
  0
CIRCLE
  5
2ED
100
AcDbEntity
  8
0
 62
     0
370
    -2
100
AcDbCircle
 10
0.0
 20
0.0
 30
0.0
 40
0.5
  0
CIRCLE
  5
2EE
100
AcDbEntity
  8
0
 62
     0
370
    -2
100
AcDbCircle
 10
0.0
 20
0.0
 30
0.0
 40
0.375
  0
CIRCLE
  5
2EF
100
AcDbEntity
  8
0
 62
     0
370
    -2
100
AcDbCircle
 10
0.0
 20
0.0
 30
0.0
 40
0.21875
  0
ENDBLK
  5
2F0
100
AcDbEntity
100
AcDbBlockEnd
  0
BLOCK
  5
2F1
100
AcDbEntity
  8
0
100
AcDbBlockBegin
  2
CDWK_PTTYP30
 70
     0
 10
0.0
 20
0.0
 30
0.0
  3
CDWK_PTTYP30
  1

  4
Cadwork node
  0
LINE
  5
2F2
100
AcDbEntity
  8
0
 62
     0
370
    -2
100
AcDbLine
 10
0.17680339
 20
0.17680339
 30
0.0
 11
0.5
 21
0.5
 31
0.0
  0
LINE
  5
2F3
100
AcDbEntity
  8
0
 62
     0
370
    -2
100
AcDbLine
 10
-0.17680339
 20
0.17680339
 30
0.0
 11
-0.5
 21
0.5
 31
0.0
  0
LINE
  5
2F4
100
AcDbEntity
  8
0
 62
     0
370
    -2
100
AcDbLine
 10
0.17680339
 20
-0.17680339
 30
0.0
 11
0.5
 21
-0.5
 31
0.0
  0
LINE
  5
2F5
100
AcDbEntity
  8
0
 62
     0
370
    -2
100
AcDbLine
 10
-0.17680339
 20
-0.17680339
 30
0.0
 11
-0.5
 21
-0.5
 31
0.0
  0
ENDBLK
  5
2F6
100
AcDbEntity
100
AcDbBlockEnd
  0
BLOCK
  5
2F7
100
AcDbEntity
  8
0
100
AcDbBlockBegin
  2
CDWK_PTTYP31
 70
     0
 10
0.0
 20
0.0
 30
0.0
  3
CDWK_PTTYP31
  1

  4
Cadwork node
  0
CIRCLE
  5
2F8
100
AcDbEntity
  8
0
 62
     0
370
    -2
100
AcDbCircle
 10
0.0
 20
0.0
 30
0.0
 40
0.075
  0
LINE
  5
2F9
100
AcDbEntity
  8
0
 62
     0
370
    -2
100
AcDbLine
 10
0.075
 20
0.0
 30
0.0
 11
0.5
 21
0.0
 31
0.0
  0
LINE
  5
2FA
100
AcDbEntity
  8
0
 62
     0
370
    -2
100
AcDbLine
 10
-0.075
 20
0.0
 30
0.0
 11
-0.5
 21
0.0
 31
0.0
  0
LINE
  5
2FB
100
AcDbEntity
  8
0
 62
     0
370
    -2
100
AcDbLine
 10
0.0
 20
0.075
 30
0.0
 11
0.0
 21
0.5
 31
0.0
  0
LINE
  5
2FC
100
AcDbEntity
  8
0
 62
     0
370
    -2
100
AcDbLine
 10
0.0
 20
-0.075
 30
0.0
 11
0.0
 21
-0.5
 31
0.0
  0
ENDBLK
  5
2FD
100
AcDbEntity
100
AcDbBlockEnd
  0
BLOCK
  5
2FE
100
AcDbEntity
  8
0
100
AcDbBlockBegin
  2
CDWK_PTTYP32
 70
     0
 10
0.0
 20
0.0
 30
0.0
  3
CDWK_PTTYP32
  1

  4
Cadwork node
  0
CIRCLE
  5
2FF
100
AcDbEntity
  8
0
 62
     0
370
    -2
100
AcDbCircle
 10
0.0
 20
0.0
 30
0.0
 40
0.5
  0
CIRCLE
  5
300
100
AcDbEntity
  8
0
 62
     0
370
    -2
100
AcDbCircle
 10
0.0
 20
0.0
 30
0.0
 40
0.16666667
  0
LINE
  5
301
100
AcDbEntity
  8
0
 62
     0
370
    -2
100
AcDbLine
 10
0.11786893
 20
0.11786893
 30
0.0
 11
0.35360678
 21
0.35360678
 31
0.0
  0
LINE
  5
302
100
AcDbEntity
  8
0
 62
     0
370
    -2
100
AcDbLine
 10
-0.11786893
 20
0.11786893
 30
0.0
 11
-0.35360678
 21
0.35360678
 31
0.0
  0
LINE
  5
303
100
AcDbEntity
  8
0
 62
     0
370
    -2
100
AcDbLine
 10
0.11786893
 20
-0.11786893
 30
0.0
 11
0.35360678
 21
-0.35360678
 31
0.0
  0
LINE
  5
304
100
AcDbEntity
  8
0
 62
     0
370
    -2
100
AcDbLine
 10
-0.11786893
 20
-0.11786893
 30
0.0
 11
-0.35360678
 21
-0.35360678
 31
0.0
  0
ENDBLK
  5
305
100
AcDbEntity
100
AcDbBlockEnd
  0
BLOCK
  5
306
100
AcDbEntity
  8
0
100
AcDbBlockBegin
  2
CDWK_PTTYP33
 70
     0
 10
0.0
 20
0.0
 30
0.0
  3
CDWK_PTTYP33
  1

  4
Cadwork node
  0
CIRCLE
  5
307
100
AcDbEntity
  8
0
 62
     0
370
    -2
100
AcDbCircle
 10
0.0
 20
0.0
 30
0.0
 40
0.5
  0
LINE
  5
308
100
AcDbEntity
  8
0
 62
     0
370
    -2
100
AcDbLine
 10
0.0
 20
0.5
 30
0.0
 11
0.0
 21
-0.5
 31
0.0
  0
LINE
  5
309
100
AcDbEntity
  8
0
 62
     0
370
    -2
100
AcDbLine
 10
-0.5
 20
0.0
 30
0.0
 11
0.5
 21
0.0
 31
0.0
  0
ENDBLK
  5
30A
100
AcDbEntity
100
AcDbBlockEnd
  0
BLOCK
  5
30B
100
AcDbEntity
  8
0
100
AcDbBlockBegin
  2
CDWK_PTTYP34
 70
     0
 10
0.0
 20
0.0
 30
0.0
  3
CDWK_PTTYP34
  1

  4
Cadwork node
  0
CIRCLE
  5
30C
100
AcDbEntity
  8
0
 62
     0
370
    -2
100
AcDbCircle
 10
0.0
 20
0.0
 30
0.0
 40
0.5
  0
LINE
  5
30D
100
AcDbEntity
  8
0
 62
     0
370
    -2
100
AcDbLine
 10
-0.30360678
 20
-0.40360678
 30
0.0
 11
0.40360678
 21
0.30360678
 31
0.0
  0
LINE
  5
30E
100
AcDbEntity
  8
0
 62
     0
370
    -2
100
AcDbLine
 10
-0.40360678
 20
-0.30360678
 30
0.0
 11
0.30360678
 21
0.40360678
 31
0.0
  0
ENDBLK
  5
30F
100
AcDbEntity
100
AcDbBlockEnd
  0
BLOCK
  5
310
100
AcDbEntity
  8
0
100
AcDbBlockBegin
  2
CDWK_PTTYP35
 70
     0
 10
0.0
 20
0.0
 30
0.0
  3
CDWK_PTTYP35
  1

  4
Cadwork node
  0
CIRCLE
  5
311
100
AcDbEntity
  8
0
 62
     0
370
    -2
100
AcDbCircle
 10
0.0
 20
0.0
 30
0.0
 40
0.21431634
  0
LINE
  5
312
100
AcDbEntity
  8
0
 62
     0
370
    -2
100
AcDbLine
 10
0.0
 20
0.21431634
 30
0.0
 11
0.0
 21
0.5
 31
0.0
  0
LINE
  5
313
100
AcDbEntity
  8
0
 62
     0
370
    -2
100
AcDbLine
 10
0.0
 20
-0.21431634
 30
0.0
 11
0.0
 21
-0.5
 31
0.0
  0
ENDBLK
  5
314
100
AcDbEntity
100
AcDbBlockEnd
  0
BLOCK
  5
315
100
AcDbEntity
  8
0
100
AcDbBlockBegin
  2
CDWK_PTTYP36
 70
     0
 10
0.0
 20
0.0
 30
0.0
  3
CDWK_PTTYP36
  1

  4
Cadwork node
  0
LINE
  5
316
100
AcDbEntity
  8
0
 62
     0
370
    -2
100
AcDbLine
 10
-0.5
 20
-0.16666667
 30
0.0
 11
0.5
 21
-0.16666667
 31
0.0
  0
LINE
  5
317
100
AcDbEntity
  8
0
 62
     0
370
    -2
100
AcDbLine
 10
0.5
 20
-0.16666667
 30
0.0
 11
0.5
 21
0.16666667
 31
0.0
  0
LINE
  5
318
100
AcDbEntity
  8
0
 62
     0
370
    -2
100
AcDbLine
 10
0.5
 20
0.16666667
 30
0.0
 11
-0.5
 21
0.16666667
 31
0.0
  0
LINE
  5
319
100
AcDbEntity
  8
0
 62
     0
370
    -2
100
AcDbLine
 10
-0.5
 20
0.16666667
 30
0.0
 11
-0.5
 21
-0.16666667
 31
0.0
  0
SOLID
  5
31A
100
AcDbEntity
  8
0
 62
     0
100
AcDbTrace
 10
-0.5
 20
-0.16666667
 11
0.5
 21
0.16666667
 12
0.5
 22
-0.16666667
 13
0.5
 23
-0.16666667
  0
ENDBLK
  5
31B
100
AcDbEntity
100
AcDbBlockEnd
  0
BLOCK
  5
31C
100
AcDbEntity
  8
0
100
AcDbBlockBegin
  2
CDWK_PTTYP37
 70
     0
 10
0.0
 20
0.0
 30
0.0
  3
CDWK_PTTYP37
  1

  4
Cadwork node
  0
CIRCLE
  5
31D
100
AcDbEntity
  8
0
 62
     0
370
    -2
100
AcDbCircle
 10
0.0
 20
0.0
 30
0.0
 40
0.5
  0
SOLID
  5
31E
100
AcDbEntity
  8
0
 62
     0
100
AcDbTrace
 10
0.0
 20
0.0
 11
0.35350001
 21
0.35350001
 12
0.5
 22
0.0
 13
0.46200001
 23
0.19149999
  0
SOLID
  5
31F
100
AcDbEntity
  8
0
 62
     0
100
AcDbTrace
 10
0.0
 20
0.0
 11
0.35350001
 21
-0.35350001
 12
0.5
 22
0.0
 13
0.46200001
 23
-0.19149999
  0
SOLID
  5
320
100
AcDbEntity
  8
0
 62
     0
100
AcDbTrace
 10
0.0
 20
0.0
 11
0.0
 21
-0.5
 12
0.35350001
 22
-0.35350001
 13
0.19149999
 23
-0.46200001
  0
SOLID
  5
321
100
AcDbEntity
  8
0
 62
     0
100
AcDbTrace
 10
0.0
 20
0.0
 11
0.0
 21
-0.5
 12
-0.35350001
 22
-0.35350001
 13
-0.19149999
 23
-0.46200001
  0
ENDBLK
  5
322
100
AcDbEntity
100
AcDbBlockEnd
  0
BLOCK
  5
323
100
AcDbEntity
  8
0
100
AcDbBlockBegin
  2
CDWK_PTTYP38
 70
     0
 10
0.0
 20
0.0
 30
0.0
  3
CDWK_PTTYP38
  1

  4
Cadwork node
  0
CIRCLE
  5
324
100
AcDbEntity
  8
0
 62
     0
370
    -2
100
AcDbCircle
 10
0.0
 20
0.0
 30
0.0
 40
0.5
  0
SOLID
  5
325
100
AcDbEntity
  8
0
 62
     0
100
AcDbTrace
 10
0.0
 20
0.0
 11
0.35350001
 21
0.35350001
 12
0.0
 22
0.5
 13
0.19149999
 23
0.46200001
  0
SOLID
  5
326
100
AcDbEntity
  8
0
 62
     0
100
AcDbTrace
 10
0.0
 20
0.0
 11
0.5
 21
0.0
 12
0.35350001
 22
0.35350001
 13
0.46200001
 23
0.19149999
  0
SOLID
  5
327
100
AcDbEntity
  8
0
 62
     0
100
AcDbTrace
 10
0.0
 20
0.0
 11
0.0
 21
-0.5
 12
-0.35350001
 22
-0.35350001
 13
-0.19149999
 23
-0.46200001
  0
SOLID
  5
328
100
AcDbEntity
  8
0
 62
     0
100
AcDbTrace
 10
0.0
 20
0.0
 11
-0.5
 21
0.0
 12
-0.35350001
 22
-0.35350001
 13
-0.46200001
 23
-0.19149999
  0
ENDBLK
  5
329
100
AcDbEntity
100
AcDbBlockEnd
  0
BLOCK
  5
32A
100
AcDbEntity
  8
Ech.1_5
100
AcDbBlockBegin
  2
*D25
 70
     1
 10
0.0
 20
0.0
 30
0.0
  3
*D25
  1

  4
Cadwork dimension
  0
TEXT
  5
32B
100
AcDbEntity
  8
Ech.1_5
 62
   190
370
    18
100
AcDbText
 10
36151.53963577
 20
-1858.16544332
 30
0.0
 40
25.0
  1
1/3 *
  7
ARIAL
 50
89.9999975
 41
1.0
 51
0.0
100
AcDbText
  0
LINE
  5
32C
100
AcDbEntity
  8
Ech.1_5
 62
   190
370
    -2
100
AcDbLine
 10
36156.51079824
 20
-1924.91030908
 30
0.0
 11
36163.42987961
 21
-1924.91030908
 31
0.0
  0
LINE
  5
32D
100
AcDbEntity
  8
Ech.1_5
 62
   190
370
    -2
100
AcDbLine
 10
36156.51079824
 20
-1762.91030268
 30
0.0
 11
36160.7353196
 21
-1762.91030268
 31
0.0
  0
LINE
  5
32E
100
AcDbEntity
  8
Ech.1_5
 62
   190
370
    -2
100
AcDbLine
 10
36161.51079824
 20
-1929.91030908
 30
0.0
 11
36161.51079824
 21
-1757.91030268
 31
0.0
  0
LINE
  5
32F
100
AcDbEntity
  8
Ech.1_5
 62
   190
370
    -2
100
AcDbLine
 10
36164.01079824
 20
-1927.41030908
 30
0.0
 11
36159.01079824
 21
-1922.41030908
 31
0.0
  0
LINE
  5
330
100
AcDbEntity
  8
Ech.1_5
 62
   190
370
    -2
100
AcDbLine
 10
36164.01079824
 20
-1765.41030268
 30
0.0
 11
36159.01079824
 21
-1760.41030268
 31
0.0
  0
ENDBLK
  5
331
100
AcDbEntity
100
AcDbBlockEnd
  0
BLOCK
  5
332
100
AcDbEntity
  8
Ech.1_5
100
AcDbBlockBegin
  2
*D26
 70
     1
 10
0.0
 20
0.0
 30
0.0
  3
*D26
  1

  4
Cadwork dimension
  0
TEXT
  5
333
100
AcDbEntity
  8
Ech.1_5
 62
   190
370
    18
100
AcDbText
 10
36151.53963577
 20
-1677.16542978
 30
0.0
 40
25.0
  1
2/3 *
  7
ARIAL
 50
89.9999975
 41
1.0
 51
0.0
100
AcDbText
  0
LINE
  5
334
100
AcDbEntity
  8
Ech.1_5
 62
   190
370
    -2
100
AcDbLine
 10
36166.51079824
 20
-1762.91030268
 30
0.0
 11
36160.7353196
 21
-1762.91030268
 31
0.0
  0
LINE
  5
335
100
AcDbEntity
  8
Ech.1_5
 62
   190
370
    -2
100
AcDbLine
 10
36166.51079824
 20
-1562.91028199
 30
0.0
 11
36137.30017505
 21
-1562.91028199
 31
0.0
  0
LINE
  5
336
100
AcDbEntity
  8
Ech.1_5
 62
   190
370
    -2
100
AcDbLine
 10
36161.51079824
 20
-1767.91030268
 30
0.0
 11
36161.51079824
 21
-1557.91028199
 31
0.0
  0
LINE
  5
337
100
AcDbEntity
  8
Ech.1_5
 62
   190
370
    -2
100
AcDbLine
 10
36164.01079824
 20
-1765.41030268
 30
0.0
 11
36159.01079824
 21
-1760.41030268
 31
0.0
  0
LINE
  5
338
100
AcDbEntity
  8
Ech.1_5
 62
   190
370
    -2
100
AcDbLine
 10
36164.01079824
 20
-1565.41028199
 30
0.0
 11
36159.01079824
 21
-1560.41028199
 31
0.0
  0
ENDBLK
  5
339
100
AcDbEntity
100
AcDbBlockEnd
  0
ENDSEC
  0
SECTION
  2
ENTITIES
  0
LWPOLYLINE
  5
33A
102
{ACAD_REACTORS
330
33B
102
}
100
AcDbEntity
  8
Ech.1_5
 62
   190
  6
CONTINUOUS
370
    -3
100
AcDbPolyline
 90
        4
 70
     1
 43
0.0
 10
35844.79044372
 20
-1822.91030908
 10
35844.79044372
 20
-1762.91030908
 10
35802.79044372
 20
-1762.91030908
 10
35802.79044372
 20
-1822.91030908
  0
HATCH
  5
33B
100
AcDbEntity
  8
Ech.1_5
 62
   254
  6
CONTINUOUS
100
AcDbHatch
 10
0.0
 20
0.0
 30
0.0
210
0.0
220
0.0
230
1.0
  2
SOLID
 70
     1
 71
     1
 91
        1
 92
        7
 72
     0
 73
     1
 93
        4
 10
35844.79044372
 20
-1822.91030908
 10
35844.79044372
 20
-1762.91030908
 10
35802.79044372
 20
-1762.91030908
 10
35802.79044372
 20
-1822.91030908
 97
        1
330
33A
 75
     0
 76
     2
 47
0.775229
 98
        1
 10
0.0
 20
0.0
  0
LWPOLYLINE
  5
33C
100
AcDbEntity
  8
Ech.1_5
 62
   190
  6
CONTINUOUS
370
    -3
100
AcDbPolyline
 90
        4
 70
     0
 43
0.0
 10
35802.79044372
 20
-1822.91030908
 10
35844.79044372
 20
-1762.91030908
 10
35844.79044372
 20
-1822.91030908
 10
35802.79044372
 20
-1762.91030908
  0
LWPOLYLINE
  5
33D
100
AcDbEntity
  8
Ech.1_5
 62
     5
  6
CONTINUOUS
370
    -3
100
AcDbPolyline
 90
        5
 70
     0
 43
0.0
 10
35844.79044372
 20
-1822.91030908
 10
35844.79044372
 20
-1762.91030908
 10
35802.79044372
 20
-1762.91030908
 10
35802.79044372
 20
-1822.91030908
 10
35844.79044372
 20
-1822.91030908
  0
LWPOLYLINE
  5
33E
102
{ACAD_REACTORS
330
33F
102
}
100
AcDbEntity
  8
Ech.1_5
 62
   190
  6
CONTINUOUS
370
    -3
100
AcDbPolyline
 90
        4
 70
     1
 43
0.0
 10
35352.1189906
 20
-1789.91030908
 10
35293.35642365
 20
-1789.91030908
 10
35293.35642365
 20
-1799.9103181
 10
35352.1189906
 20
-1799.91031628
  0
HATCH
  5
33F
100
AcDbEntity
  8
Ech.1_5
 62
   190
  6
CONTINUOUS
100
AcDbHatch
 10
0.0
 20
0.0
 30
0.0
210
0.0
220
0.0
230
1.0
  2
ANSI37
 70
     0
 71
     1
 91
        1
 92
        7
 72
     0
 73
     1
 93
        4
 10
35352.1189906
 20
-1789.91030908
 10
35293.35642365
 20
-1789.91030908
 10
35293.35642365
 20
-1799.9103181
 10
35352.1189906
 20
-1799.91031628
 97
        1
330
33E
 75
     0
 76
     2
 52
45.0
 41
1.57480317
 77
     0
 78
     2
 53
0.0
 43
0.0
 44
2.5
 45
0.0
 46
5.0
 79
     0
 53
90.0
 43
2.5
 44
0.0
 45
5.0
 46
3.0616169978684E-16
 79
     0
 47
0.775229
 98
        1
 10
0.0
 20
0.0
  0
LWPOLYLINE
  5
340
102
{ACAD_REACTORS
330
341
102
}
100
AcDbEntity
  8
Ech.1_5
 62
   190
  6
CONTINUOUS
370
    -3
100
AcDbPolyline
 90
        4
 70
     1
 43
0.0
 10
35609.14258481
 20
-1799.91030908
 10
35609.14258481
 20
-1789.91030908
 10
35352.1189906
 20
-1789.91030908
 10
35352.1189906
 20
-1799.91030908
  0
HATCH
  5
341
100
AcDbEntity
  8
Ech.1_5
 62
    15
  6
CONTINUOUS
100
AcDbHatch
 10
0.0
 20
0.0
 30
0.0
210
0.0
220
0.0
230
1.0
  2
SOLID
 70
     1
 71
     1
 91
        1
 92
        7
 72
     0
 73
     1
 93
        4
 10
35609.14258481
 20
-1799.91030908
 10
35609.14258481
 20
-1789.91030908
 10
35352.1189906
 20
-1789.91030908
 10
35352.1189906
 20
-1799.91030908
 97
        1
330
340
 75
     0
 76
     2
 47
0.775229
 98
        1
 10
0.0
 20
0.0
  0
LWPOLYLINE
  5
342
102
{ACAD_REACTORS
330
343
102
}
100
AcDbEntity
  8
Ech.1_5
 62
   190
  6
CONTINUOUS
370
    -3
100
AcDbPolyline
 90
        4
 70
     1
 43
0.0
 10
35293.35642365
 20
-1799.91030908
 10
35293.35642365
 20
-1789.91030908
 10
35165.847382
 20
-1789.91030908
 10
35165.847382
 20
-1799.91030908
  0
HATCH
  5
343
100
AcDbEntity
  8
Ech.1_5
 62
    15
  6
CONTINUOUS
100
AcDbHatch
 10
0.0
 20
0.0
 30
0.0
210
0.0
220
0.0
230
1.0
  2
SOLID
 70
     1
 71
     1
 91
        1
 92
        7
 72
     0
 73
     1
 93
        4
 10
35293.35642365
 20
-1799.91030908
 10
35293.35642365
 20
-1789.91030908
 10
35165.847382
 20
-1789.91030908
 10
35165.847382
 20
-1799.91030908
 97
        1
330
342
 75
     0
 76
     2
 47
0.775229
 98
        1
 10
0.0
 20
0.0
  0
LWPOLYLINE
  5
344
102
{ACAD_REACTORS
330
345
102
}
100
AcDbEntity
  8
Ech.1_5
 62
   190
  6
CONTINUOUS
370
    -3
100
AcDbPolyline
 90
        4
 70
     1
 43
0.0
 10
35805.40015806
 20
-1824.91030908
 10
36828.00153806
 20
-1824.91030908
 10
36828.00153806
 20
-1924.91030908
 10
35805.40015806
 20
-1924.91030908
  0
HATCH
  5
345
100
AcDbEntity
  8
Ech.1_5
 62
    41
  6
CONTINUOUS
100
AcDbHatch
 10
0.0
 20
0.0
 30
0.0
210
0.0
220
0.0
230
1.0
  2
SOLID
 70
     1
 71
     1
 91
        1
 92
        7
 72
     0
 73
     1
 93
        4
 10
35805.40015806
 20
-1824.91030908
 10
36828.00153806
 20
-1824.91030908
 10
36828.00153806
 20
-1924.91030908
 10
35805.40015806
 20
-1924.91030908
 97
        1
330
344
 75
     0
 76
     2
 47
0.775229
 98
        1
 10
0.0
 20
0.0
  0
LWPOLYLINE
  5
346
102
{ACAD_REACTORS
330
347
102
}
100
AcDbEntity
  8
Ech.1_5
 62
   190
  6
CONTINUOUS
370
    -3
100
AcDbPolyline
 90
        4
 70
     1
 43
0.0
 10
35800.07062057
 20
-2002.91014658
 10
35840.07062057
 20
-2002.91014658
 10
35840.07062057
 20
-1957.91014658
 10
35800.07062057
 20
-1957.91014658
  0
HATCH
  5
347
100
AcDbEntity
  8
Ech.1_5
 62
   254
  6
CONTINUOUS
100
AcDbHatch
 10
0.0
 20
0.0
 30
0.0
210
0.0
220
0.0
230
1.0
  2
SOLID
 70
     1
 71
     1
 91
        1
 92
        7
 72
     0
 73
     1
 93
        4
 10
35800.07062057
 20
-2002.91014658
 10
35840.07062057
 20
-2002.91014658
 10
35840.07062057
 20
-1957.91014658
 10
35800.07062057
 20
-1957.91014658
 97
        1
330
346
 75
     0
 76
     2
 47
0.775229
 98
        1
 10
0.0
 20
0.0
  0
LWPOLYLINE
  5
348
102
{ACAD_REACTORS
330
349
102
}
100
AcDbEntity
  8
Ech.1_5
 62
   190
  6
CONTINUOUS
370
    -3
100
AcDbPolyline
 90
        4
 70
     1
 43
0.0
 10
36828.00153806
 20
-1924.91014658
 10
35805.40015806
 20
-1924.91014658
 10
35805.40015806
 20
-1937.91014658
 10
36828.00153806
 20
-1937.91014658
  0
HATCH
  5
349
100
AcDbEntity
  8
Ech.1_5
 62
   253
  6
CONTINUOUS
100
AcDbHatch
 10
0.0
 20
0.0
 30
0.0
210
0.0
220
0.0
230
1.0
  2
SOLID
 70
     1
 71
     1
 91
        1
 92
        7
 72
     0
 73
     1
 93
        4
 10
36828.00153806
 20
-1924.91014658
 10
35805.40015806
 20
-1924.91014658
 10
35805.40015806
 20
-1937.91014658
 10
36828.00153806
 20
-1937.91014658
 97
        1
330
348
 75
     0
 76
     2
 47
0.775229
 98
        1
 10
0.0
 20
0.0
  0
LWPOLYLINE
  5
34A
102
{ACAD_REACTORS
330
34B
102
}
100
AcDbEntity
  8
Ech.1_5
 62
   190
  6
CONTINUOUS
370
    -3
100
AcDbPolyline
 90
        4
 70
     1
 43
0.0
 10
35840.07048356
 20
-2012.70074895
 10
35853.07048356
 20
-2012.70074895
 10
35853.07045807
 20
-1937.91014658
 10
35840.07045807
 20
-1937.91014658
  0
HATCH
  5
34B
100
AcDbEntity
  8
Ech.1_5
 62
   253
  6
CONTINUOUS
100
AcDbHatch
 10
0.0
 20
0.0
 30
0.0
210
0.0
220
0.0
230
1.0
  2
SOLID
 70
     1
 71
     1
 91
        1
 92
        7
 72
     0
 73
     1
 93
        4
 10
35840.07048356
 20
-2012.70074895
 10
35853.07048356
 20
-2012.70074895
 10
35853.07045807
 20
-1937.91014658
 10
35840.07045807
 20
-1937.91014658
 97
        1
330
34A
 75
     0
 76
     2
 47
0.775229
 98
        1
 10
0.0
 20
0.0
  0
LWPOLYLINE
  5
34C
102
{ACAD_REACTORS
330
34D
102
}
100
AcDbEntity
  8
Ech.1_5
 62
   190
  6
CONTINUOUS
370
    -3
100
AcDbPolyline
 90
        4
 70
     1
 43
0.0
 10
35611.07466773
 20
-2012.70074895
 10
35620.07466779
 20
-2012.70074895
 10
35620.07458072
 20
-1778.26451119
 10
35611.07458065
 20
-1778.26451119
  0
HATCH
  5
34D
100
AcDbEntity
  8
Ech.1_5
 62
    30
  6
CONTINUOUS
100
AcDbHatch
 10
0.0
 20
0.0
 30
0.0
210
0.0
220
0.0
230
1.0
  2
SOLID
 70
     1
 71
     1
 91
        1
 92
        7
 72
     0
 73
     1
 93
        4
 10
35611.07466773
 20
-2012.70074895
 10
35620.07466779
 20
-2012.70074895
 10
35620.07458072
 20
-1778.26451119
 10
35611.07458065
 20
-1778.26451119
 97
        1
330
34C
 75
     0
 76
     2
 47
0.775229
 98
        1
 10
0.0
 20
0.0
  0
LWPOLYLINE
  5
34E
102
{ACAD_REACTORS
330
34F
102
}
100
AcDbEntity
  8
Ech.1_5
 62
   190
  6
CONTINUOUS
370
    -3
100
AcDbPolyline
 90
        4
 70
     1
 43
0.0
 10
36828.00153806
 20
-1762.91030908
 10
36828.00153806
 20
-1662.91030908
 10
35169.07473342
 20
-1662.91030908
 10
35169.07473342
 20
-1762.91030908
  0
HATCH
  5
34F
100
AcDbEntity
  8
Ech.1_5
 62
   254
  6
CONTINUOUS
100
AcDbHatch
 10
0.0
 20
0.0
 30
0.0
210
0.0
220
0.0
230
1.0
  2
SOLID
 70
     1
 71
     1
 91
        1
 92
        7
 72
     0
 73
     1
 93
        4
 10
36828.00153806
 20
-1762.91030908
 10
36828.00153806
 20
-1662.91030908
 10
35169.07473342
 20
-1662.91030908
 10
35169.07473342
 20
-1762.91030908
 97
        1
330
34E
 75
     0
 76
     2
 47
0.775229
 98
        1
 10
0.0
 20
0.0
  0
LWPOLYLINE
  5
350
102
{ACAD_REACTORS
330
351
102
}
100
AcDbEntity
  8
Ech.1_5
 62
   190
  6
CONTINUOUS
370
    -3
100
AcDbPolyline
 90
        4
 70
     1
 43
0.0
 10
35760.22116765
 20
-1547.75060293
 10
35660.22116765
 20
-1584.14762635
 10
35660.22116765
 20
-1662.91030908
 10
35760.22116765
 20
-1662.91030908
  0
HATCH
  5
351
100
AcDbEntity
  8
Ech.1_5
 62
   254
  6
CONTINUOUS
100
AcDbHatch
 10
0.0
 20
0.0
 30
0.0
210
0.0
220
0.0
230
1.0
  2
SOLID
 70
     1
 71
     1
 91
        1
 92
        7
 72
     0
 73
     1
 93
        4
 10
35760.22116765
 20
-1547.75060293
 10
35660.22116765
 20
-1584.14762635
 10
35660.22116765
 20
-1662.91030908
 10
35760.22116765
 20
-1662.91030908
 97
        1
330
350
 75
     0
 76
     2
 47
0.775229
 98
        1
 10
0.0
 20
0.0
  0
LWPOLYLINE
  5
352
102
{ACAD_REACTORS
330
353
102
}
100
AcDbEntity
  8
Ech.1_5
 62
   190
  6
CONTINUOUS
370
    -3
100
AcDbPolyline
 90
        9
 70
     1
 43
0.0
 10
35518.17735246
 20
-1529.4295698
 10
35169.07473342
 20
-1656.49253183
 10
35169.07473342
 20
-1662.91030908
 10
35443.82247536
 20
-1662.91030908
 10
35518.17735246
 20
-1635.84734704
 10
36318.2799715
 20
-1344.63380935
 10
36828.00153806
 20
-1159.11033137
 10
36828.00153806
 20
-1052.69255412
 10
36318.2799715
 20
-1238.21603211
  0
HATCH
  5
353
100
AcDbEntity
  8
Ech.1_5
 62
   254
  6
CONTINUOUS
100
AcDbHatch
 10
0.0
 20
0.0
 30
0.0
210
0.0
220
0.0
230
1.0
  2
SOLID
 70
     1
 71
     1
 91
        1
 92
        7
 72
     0
 73
     1
 93
        9
 10
35518.17735246
 20
-1529.4295698
 10
35169.07473342
 20
-1656.49253183
 10
35169.07473342
 20
-1662.91030908
 10
35443.82247536
 20
-1662.91030908
 10
35518.17735246
 20
-1635.84734704
 10
36318.2799715
 20
-1344.63380935
 10
36828.00153806
 20
-1159.11033137
 10
36828.00153806
 20
-1052.69255412
 10
36318.2799715
 20
-1238.21603211
 97
        1
330
352
 75
     0
 76
     2
 47
0.775229
 98
        1
 10
0.0
 20
0.0
  0
LWPOLYLINE
  5
354
102
{ACAD_REACTORS
330
355
102
}
100
AcDbEntity
  8
Ech.1_5
 62
   190
  6
CONTINUOUS
370
    -3
100
AcDbPolyline
 90
        4
 70
     1
 43
0.0
 10
35674.27662685
 20
-1662.9103056
 10
36828.00153806
 20
-1662.9103056
 10
36828.00153806
 20
-1762.9103056
 10
35674.27662685
 20
-1762.9103056
  0
HATCH
  5
355
100
AcDbEntity
  8
Ech.1_5
 62
    41
  6
CONTINUOUS
100
AcDbHatch
 10
0.0
 20
0.0
 30
0.0
210
0.0
220
0.0
230
1.0
  2
SOLID
 70
     1
 71
     1
 91
        1
 92
        7
 72
     0
 73
     1
 93
        4
 10
35674.27662685
 20
-1662.9103056
 10
36828.00153806
 20
-1662.9103056
 10
36828.00153806
 20
-1762.9103056
 10
35674.27662685
 20
-1762.9103056
 97
        1
330
354
 75
     0
 76
     2
 47
0.775229
 98
        1
 10
0.0
 20
0.0
  0
LWPOLYLINE
  5
356
102
{ACAD_REACTORS
330
357
102
}
100
AcDbEntity
  8
Ech.1_5
 62
     7
  6
CONTINUOUS
370
    -3
100
AcDbPolyline
 90
        4
 70
     1
 43
0.0
 10
36828.00153806
 20
-1052.50413523
 10
36828.00153806
 20
-1023.77133537
 10
35174.89576135
 20
-1625.64105107
 10
35184.13030522
 20
-1651.01275184
  0
HATCH
  5
357
100
AcDbEntity
  8
Ech.1_5
 62
    25
  6
CONTINUOUS
100
AcDbHatch
 10
0.0
 20
0.0
 30
0.0
210
0.0
220
0.0
230
1.0
  2
SOLID
 70
     1
 71
     1
 91
        1
 92
        7
 72
     0
 73
     1
 93
        4
 10
36828.00153806
 20
-1052.50413523
 10
36828.00153806
 20
-1023.77133537
 10
35174.89576135
 20
-1625.64105107
 10
35184.13030522
 20
-1651.01275184
 97
        1
330
356
 75
     0
 76
     2
 47
0.775229
 98
        1
 10
0.0
 20
0.0
  0
LWPOLYLINE
  5
358
100
AcDbEntity
  8
Ech.1_5
 62
     7
100
AcDbPolyline
 90
       57
 70
     0
 43
0.0
 10
35080.76722573
 20
-1746.0949093
 10
35082.16231289
 20
-1745.89218308
 10
35083.55850745
 20
-1745.68754299
 10
35084.95691683
 20
-1745.47907517
 10
35086.35864842
 20
-1745.26486573
 10
35087.76480963
 20
-1745.04300083
 10
35089.17650786
 20
-1744.81156657
 10
35090.59485052
 20
-1744.56864911
 10
35092.02094502
 20
-1744.31233456
 10
35093.45589875
 20
-1744.04070907
 10
35094.90081913
 20
-1743.75185875
 10
35096.35681356
 20
-1743.44386974
 10
35097.82498944
 20
-1743.11482818
 10
35099.30645418
 20
-1742.76282019
 10
35100.80231518
 20
-1742.38593191
 10
35102.31366041
 20
-1741.98229412
 10
35103.83972413
 20
-1741.55429816
 10
35105.37638092
 20
-1741.11205702
 10
35106.919151
 20
-1740.66649823
 10
35108.46355454
 20
-1740.22854935
 10
35110.00511175
 20
-1739.80913792
 10
35111.5393428
 20
-1739.4191915
 10
35113.06176791
 20
-1739.06963763
 10
35114.56790726
 20
-1738.77140387
 10
35116.05328104
 20
-1738.53541776
 10
35117.51340944
 20
-1738.37260685
 10
35118.94381267
 20
-1738.29389868
 10
35120.3400109
 20
-1738.31022082
 10
35121.69752434
 20
-1738.4325008
 10
35123.01187318
 20
-1738.67166617
 10
35124.27857761
 20
-1739.03864449
 10
35125.49315869
 20
-1739.54435957
 10
35126.65233285
 20
-1740.19461133
 10
35127.75638128
 20
-1740.97991929
 10
35128.80624676
 20
-1741.88796716
 10
35129.80287205
 20
-1742.90643864
 10
35130.74719994
 20
-1744.02301744
 10
35131.64017318
 20
-1745.22538726
 10
35132.48273456
 20
-1746.50123179
 10
35133.27582684
 20
-1747.83823476
 10
35134.02039279
 20
-1749.22407985
 10
35134.71737518
 20
-1750.64645078
 10
35135.36771679
 20
-1752.09303125
 10
35135.97236039
 20
-1753.55150496
 10
35136.53224875
 20
-1755.00955562
 10
35137.04836088
 20
-1756.45513373
 10
35137.52268992
 20
-1757.88365476
 10
35137.95835485
 20
-1759.29882131
 10
35138.35853328
 20
-1760.70476785
 10
35138.72640286
 20
-1762.10562882
 10
35139.06514121
 20
-1763.50553868
 10
35139.37792596
 20
-1764.90863188
 10
35139.66793474
 20
-1766.31904286
 10
35139.93836383
 20
-1767.74083027
 10
35140.19322773
 20
-1769.17472782
 10
35140.4376609
 20
-1770.61691794
 10
35140.67687872
 20
-1772.06325434
  0
ARC
  5
359
100
AcDbEntity
  8
Ech.1_5
 62
     7
100
AcDbCircle
 10
35072.0663909
 20
-1678.86571555
 30
0.0
 40
67.78988877
100
AcDbArc
 50
176.81519387
 51
17.9333216
  0
LINE
  5
35A
100
AcDbEntity
  8
Ech.1_5
 62
     7
100
AcDbLine
 10
35169.07473342
 20
-1762.91030908
 30
0.0
 11
35253.00594764
 21
-1762.91030908
 31
0.0
  0
LINE
  5
35B
100
AcDbEntity
  8
Ech.1_5
 62
     7
100
AcDbLine
 10
35183.05800071
 20
-1648.8959736
 30
0.0
 11
35125.79429167
 21
-1656.42500605
 31
0.0
  0
LINE
  5
35C
100
AcDbEntity
  8
Ech.1_5
 62
     7
100
AcDbLine
 10
35183.53605359
 20
-1650.85033212
 30
0.0
 11
35127.79429167
 21
-1658.17925897
 31
0.0
  0
LINE
  5
35D
100
AcDbEntity
  8
Ech.1_5
 62
     7
100
AcDbLine
 10
35125.79429167
 20
-1656.42500605
 30
0.0
 11
35125.79429167
 21
-1685.03282565
 31
0.0
  0
LINE
  5
35E
100
AcDbEntity
  8
Ech.1_5
 62
     7
100
AcDbLine
 10
35127.79429167
 20
-1658.17925897
 30
0.0
 11
35127.79429167
 21
-1679.77172885
 31
0.0
  0
LINE
  5
35F
100
AcDbEntity
  8
Ech.1_5
 62
     7
100
AcDbLine
 10
35135.26823254
 20
-1657.99253183
 30
0.0
 11
35147.07473342
 21
-1657.99253183
 31
0.0
  0
ARC
  5
360
100
AcDbEntity
  8
Ech.1_5
 62
     7
100
AcDbCircle
 10
35144.05520438
 20
-1771.44887689
 30
0.0
 40
3.43373615
100
AcDbArc
 50
190.3070861
 51
331.56661712
  0
LINE
  5
361
100
AcDbEntity
  8
Ech.1_5
 62
     7
100
AcDbLine
 10
35234.14687347
 20
-1630.30114461
 30
0.0
 11
35234.83091376
 21
-1632.18052985
 31
0.0
  0
LINE
  5
362
100
AcDbEntity
  8
Ech.1_5
 62
     7
100
AcDbLine
 10
35183.05800071
 20
-1648.8959736
 30
0.0
 11
35234.14687347
 21
-1630.30114461
 31
0.0
  0
LINE
  5
363
100
AcDbEntity
  8
Ech.1_5
 62
     7
100
AcDbLine
 10
35649.19095392
 20
-1761.30960234
 30
0.0
 11
35691.19095392
 21
-1761.30960234
 31
0.0
  0
LINE
  5
364
100
AcDbEntity
  8
Ech.1_5
 62
     7
100
AcDbLine
 10
35694.55405932
 20
-1762.91030908
 30
0.0
 11
35851.76207118
 21
-1762.91030908
 31
0.0
  0
LINE
  5
365
100
AcDbEntity
  8
Ech.1_5
 62
     7
100
AcDbLine
 10
35800.07062057
 20
-1900.41030908
 30
0.0
 11
35800.07062057
 21
-2012.70074895
 31
0.0
  0
LINE
  5
366
100
AcDbEntity
  8
Ech.1_5
 62
     7
100
AcDbLine
 10
35586.07458065
 20
-1912.35285695
 30
0.0
 11
35586.07458065
 21
-1902.92046242
 31
0.0
  0
LWPOLYLINE
  5
367
100
AcDbEntity
  8
Ech.1_5
100
AcDbPolyline
 90
        5
 70
     0
 43
0.0
 10
36828.00153806
 20
-1052.50413523
 10
36828.00153806
 20
-1023.77133537
 10
35174.89576135
 20
-1625.64105107
 10
35184.13030522
 20
-1651.01275184
 10
36828.00153806
 20
-1052.50413523
  0
LWPOLYLINE
  5
368
102
{ACAD_REACTORS
330
369
102
}
100
AcDbEntity
  8
Ech.1_5
 62
     7
  6
CONTINUOUS
100
AcDbPolyline
 90
        3
 70
     1
 43
0.0
 10
35244.7195586
 20
-1603.07722111
 10
35266.49503412
 20
-1598.2529999
 10
35247.46122362
 20
-1609.87876878
  0
HATCH
  5
369
100
AcDbEntity
  8
Ech.1_5
 62
     7
  6
CONTINUOUS
100
AcDbHatch
 10
0.0
 20
0.0
 30
0.0
210
0.0
220
0.0
230
1.0
  2
SOLID
 70
     1
 71
     1
 91
        1
 92
        7
 72
     0
 73
     1
 93
        3
 10
35244.7195586
 20
-1603.07722111
 10
35266.49503412
 20
-1598.2529999
 10
35247.46122362
 20
-1609.87876878
 97
        1
330
368
 75
     0
 76
     2
 47
0.775229
 98
        1
 10
0.0
 20
0.0
  0
ARC
  5
36A
100
AcDbEntity
  8
Ech.1_5
 62
     7
100
AcDbCircle
 10
35614.46812
 20
-2429.50673766
 30
0.0
 40
901.70863502
100
AcDbArc
 50
114.11271308
 51
118.22750414
  0
ARC
  5
36B
100
AcDbEntity
  8
Ech.1_5
 62
     7
100
AcDbCircle
 10
35139.87162527
 20
-1541.41234364
 30
0.0
 40
105.25912681
100
AcDbArc
 50
263.48671375
 51
297.1989192
  0
LWPOLYLINE
  5
36C
100
AcDbEntity
  8
Ech.1_5
 62
     7
100
AcDbPolyline
 90
        2
 70
     1
 43
0.0
 10
35721.18410834
 20
-1718.02680449
 42
1.0
 10
35721.18410834
 20
-1716.41100503
 42
1.0
  0
LWPOLYLINE
  5
36D
100
AcDbEntity
  8
Ech.1_5
 62
     7
100
AcDbPolyline
 90
        2
 70
     1
 43
0.0
 10
35721.18410834
 20
-1733.35364402
 42
1.0
 10
35721.18410834
 20
-1731.73784456
 42
1.0
  0
LWPOLYLINE
  5
36E
100
AcDbEntity
  8
Ech.1_5
 62
     7
100
AcDbPolyline
 90
        2
 70
     1
 43
0.0
 10
35698.96124565
 20
-1733.35364402
 42
1.0
 10
35698.96124565
 20
-1731.73784456
 42
1.0
  0
LWPOLYLINE
  5
36F
100
AcDbEntity
  8
Ech.1_5
 62
     7
100
AcDbPolyline
 90
        2
 70
     1
 43
0.0
 10
35698.96124565
 20
-1718.02680449
 42
1.0
 10
35698.96124565
 20
-1716.41100503
 42
1.0
  0
LWPOLYLINE
  5
370
100
AcDbEntity
  8
Ech.1_5
 62
     7
100
AcDbPolyline
 90
        2
 70
     1
 43
0.0
 10
35710.57246551
 20
-1741.48538973
 42
1.0
 10
35710.57246551
 20
-1739.86959028
 42
1.0
  0
LWPOLYLINE
  5
371
100
AcDbEntity
  8
Ech.1_5
 62
     7
100
AcDbPolyline
 90
        2
 70
     1
 43
0.0
 10
35710.57246551
 20
-1726.1585502
 42
1.0
 10
35710.57246551
 20
-1724.54275075
 42
1.0
  0
LINE
  5
372
100
AcDbEntity
  8
Ech.1_5
 62
     0
  6
BYBLOCK
370
    -3
100
AcDbLine
 10
35635.38027945
 20
-1490.11759634
 30
0.0
 11
35626.40833111
 21
-1485.93380106
 31
0.0
  0
LWPOLYLINE
  5
373
102
{ACAD_REACTORS
330
374
102
}
100
AcDbEntity
  8
Ech.1_5
 62
     7
  6
CONTINUOUS
370
    -3
100
AcDbPolyline
 90
        4
 70
     1
 43
0.0
 10
35620.07458072
 20
-1778.26451119
 10
35611.07458065
 20
-1778.26451119
 10
35611.07466773
 20
-2012.70074895
 10
35620.07466779
 20
-2012.70074895
  0
HATCH
  5
374
100
AcDbEntity
  8
Ech.1_5
 62
   190
  6
CONTINUOUS
100
AcDbHatch
 10
0.0
 20
0.0
 30
0.0
210
0.0
220
0.0
230
1.0
  2
CDWK10A
 70
     0
 71
     1
 91
        1
 92
        7
 72
     0
 73
     1
 93
        4
 10
35620.07458072
 20
-1778.26451119
 10
35611.07458065
 20
-1778.26451119
 10
35611.07466773
 20
-2012.70074895
 10
35620.07466779
 20
-2012.70074895
 97
        1
330
373
 75
     0
 76
     2
 52
0.0
 41
1.0
 77
     0
 78
     3
 53
45.0
 43
0.0
 44
0.0
 45
0.0
 46
42.00000167
 79
     0
 53
45.0
 43
0.0
 44
10.80000043
 45
0.0
 46
42.00000167
 79
     0
 53
45.0
 43
0.0
 44
21.60000086
 45
0.0
 46
42.00000167
 79
     0
 47
0.775229
 98
        1
 10
0.0
 20
0.0
  0
LWPOLYLINE
  5
375
102
{ACAD_REACTORS
330
376
102
}
100
AcDbEntity
  8
Ech.1_5
 62
     7
  6
CONTINUOUS
370
    -3
100
AcDbPolyline
 90
        4
 70
     1
 43
0.0
 10
35805.40015806
 20
-1924.91030908
 10
35805.40015806
 20
-1937.91030908
 10
36828.00153806
 20
-1937.91014658
 10
36828.00153806
 20
-1924.91014658
  0
HATCH
  5
376
100
AcDbEntity
  8
Ech.1_5
 62
   190
  6
CONTINUOUS
100
AcDbHatch
 10
0.0
 20
0.0
 30
0.0
210
0.0
220
0.0
230
1.0
  2
DOTS2
 70
     0
 71
     1
 91
        1
 92
        7
 72
     0
 73
     1
 93
        4
 10
35805.40015806
 20
-1924.91030908
 10
35805.40015806
 20
-1937.91030908
 10
36828.00153806
 20
-1937.91014658
 10
36828.00153806
 20
-1924.91014658
 97
        1
330
375
 75
     0
 76
     2
 52
0.0
 41
4.72440952
 77
     0
 78
     1
 53
0.0
 43
0.0
 44
0.0
 45
3.75
 46
3.535
 79
     2
 49
0.0
 49
-3.535
 47
0.775229
 98
        1
 10
0.0
 20
0.0
  0
LWPOLYLINE
  5
377
102
{ACAD_REACTORS
330
378
102
}
100
AcDbEntity
  8
Ech.1_5
 62
     7
  6
CONTINUOUS
370
    -3
100
AcDbPolyline
 90
        4
 70
     1
 43
0.0
 10
35609.14258481
 20
-1799.91030908
 10
35609.14258481
 20
-1789.91030908
 10
35352.1189906
 20
-1789.91030908
 10
35352.1189906
 20
-1799.91030908
  0
HATCH
  5
378
100
AcDbEntity
  8
Ech.1_5
 62
   190
  6
CONTINUOUS
100
AcDbHatch
 10
0.0
 20
0.0
 30
0.0
210
0.0
220
0.0
230
1.0
  2
ANSI37
 70
     0
 71
     1
 91
        1
 92
        7
 72
     0
 73
     1
 93
        4
 10
35609.14258481
 20
-1799.91030908
 10
35609.14258481
 20
-1789.91030908
 10
35352.1189906
 20
-1789.91030908
 10
35352.1189906
 20
-1799.91030908
 97
        1
330
377
 75
     0
 76
     2
 52
0.0
 41
1.88976388
 77
     0
 78
     2
 53
45.0
 43
0.0
 44
0.0
 45
4.24264086
 46
-4.24264086
 79
     0
 53
-45.0
 43
0.0
 44
0.0
 45
4.24264086
 46
4.24264086
 79
     0
 47
0.775229
 98
        1
 10
0.0
 20
0.0
  0
LWPOLYLINE
  5
379
102
{ACAD_REACTORS
330
37A
102
}
100
AcDbEntity
  8
Ech.1_5
 62
     7
  6
CONTINUOUS
370
    -3
100
AcDbPolyline
 90
        4
 70
     1
 43
0.0
 10
35293.35642365
 20
-1799.91030908
 10
35293.35642365
 20
-1789.91030908
 10
35165.847382
 20
-1789.91030908
 10
35165.847382
 20
-1799.91030908
  0
HATCH
  5
37A
100
AcDbEntity
  8
Ech.1_5
 62
   190
  6
CONTINUOUS
100
AcDbHatch
 10
0.0
 20
0.0
 30
0.0
210
0.0
220
0.0
230
1.0
  2
ANSI37
 70
     0
 71
     1
 91
        1
 92
        7
 72
     0
 73
     1
 93
        4
 10
35293.35642365
 20
-1799.91030908
 10
35293.35642365
 20
-1789.91030908
 10
35165.847382
 20
-1789.91030908
 10
35165.847382
 20
-1799.91030908
 97
        1
330
379
 75
     0
 76
     2
 52
0.0
 41
1.88976388
 77
     0
 78
     2
 53
45.0
 43
0.0
 44
0.0
 45
4.24264086
 46
-4.24264086
 79
     0
 53
-45.0
 43
0.0
 44
0.0
 45
4.24264086
 46
4.24264086
 79
     0
 47
0.775229
 98
        1
 10
0.0
 20
0.0
  0
LWPOLYLINE
  5
37B
100
AcDbEntity
  8
Ech.1_5
100
AcDbPolyline
 90
        4
 70
     0
 43
0.0
 10
35293.35642365
 20
-1799.91030908
 10
35609.14258481
 20
-1799.91030908
 10
35609.14258481
 20
-1789.91030908
 10
35293.35642365
 20
-1789.91030908
  0
LWPOLYLINE
  5
37C
100
AcDbEntity
  8
Ech.1_5
100
AcDbPolyline
 90
        4
 70
     0
 43
0.0
 10
35293.35642365
 20
-1789.91030908
 10
35165.847382
 20
-1789.91030908
 10
35165.847382
 20
-1799.91030908
 10
35293.35642365
 20
-1799.91030908
  0
LWPOLYLINE
  5
37D
100
AcDbEntity
  8
Ech.1_5
100
AcDbPolyline
 90
        4
 70
     0
 43
0.0
 10
36828.00153806
 20
-1762.91030908
 10
35169.07473342
 20
-1762.91030908
 10
35169.07473342
 20
-1662.91030908
 10
36828.00153806
 20
-1662.91030908
  0
LWPOLYLINE
  5
37E
100
AcDbEntity
  8
Ech.1_5
100
AcDbPolyline
 90
        5
 70
     0
 43
0.0
 10
35760.22116765
 20
-1547.75060293
 10
35660.22116765
 20
-1584.14762635
 10
35660.22116765
 20
-1662.91030908
 10
35760.22116765
 20
-1662.91030908
 10
35760.22116765
 20
-1547.75060293
  0
LWPOLYLINE
  5
37F
102
{ACAD_REACTORS
330
380
102
}
100
AcDbEntity
  8
Ech.1_5
 62
     7
  6
CONTINUOUS
370
    -3
100
AcDbPolyline
 90
        4
 70
     1
 43
0.0
 10
35800.07062057
 20
-1762.91030908
 10
35620.07473342
 20
-1762.91030908
 10
35620.07473342
 20
-1807.91030908
 10
35800.07062057
 20
-1807.91030908
  0
HATCH
  5
380
100
AcDbEntity
  8
Ech.1_5
 62
    25
  6
CONTINUOUS
100
AcDbHatch
 10
0.0
 20
0.0
 30
0.0
210
0.0
220
0.0
230
1.0
  2
SOLID
 70
     1
 71
     1
 91
        1
 92
        7
 72
     0
 73
     1
 93
        4
 10
35800.07062057
 20
-1762.91030908
 10
35620.07473342
 20
-1762.91030908
 10
35620.07473342
 20
-1807.91030908
 10
35800.07062057
 20
-1807.91030908
 97
        1
330
37F
 75
     0
 76
     2
 47
0.775229
 98
        1
 10
0.0
 20
0.0
  0
LWPOLYLINE
  5
381
102
{ACAD_REACTORS
330
382
102
}
100
AcDbEntity
  8
Ech.1_5
 62
     7
  6
CONTINUOUS
370
    -3
100
AcDbPolyline
 90
        4
 70
     1
 43
0.0
 10
35800.07062057
 20
-1807.91030908
 10
35620.07473342
 20
-1807.91030908
 10
35620.07473342
 20
-1852.91030908
 10
35800.07062057
 20
-1852.91030908
  0
HATCH
  5
382
100
AcDbEntity
  8
Ech.1_5
 62
    25
  6
CONTINUOUS
100
AcDbHatch
 10
0.0
 20
0.0
 30
0.0
210
0.0
220
0.0
230
1.0
  2
SOLID
 70
     1
 71
     1
 91
        1
 92
        7
 72
     0
 73
     1
 93
        4
 10
35800.07062057
 20
-1807.91030908
 10
35620.07473342
 20
-1807.91030908
 10
35620.07473342
 20
-1852.91030908
 10
35800.07062057
 20
-1852.91030908
 97
        1
330
381
 75
     0
 76
     2
 47
0.775229
 98
        1
 10
0.0
 20
0.0
  0
LWPOLYLINE
  5
383
102
{ACAD_REACTORS
330
384
102
}
100
AcDbEntity
  8
Ech.1_5
 62
     7
  6
CONTINUOUS
370
    -3
100
AcDbPolyline
 90
        5
 70
     1
 43
0.0
 10
35620.07473342
 20
-1762.91030908
 10
35665.07473342
 20
-1762.91030908
 10
35665.07473342
 20
-1672.91030908
 10
35641.49337441
 20
-1672.91030908
 10
35620.07473342
 20
-1672.91030908
  0
HATCH
  5
384
100
AcDbEntity
  8
Ech.1_5
 62
    25
  6
CONTINUOUS
100
AcDbHatch
 10
0.0
 20
0.0
 30
0.0
210
0.0
220
0.0
230
1.0
  2
SOLID
 70
     1
 71
     1
 91
        1
 92
        7
 72
     0
 73
     1
 93
        5
 10
35620.07473342
 20
-1762.91030908
 10
35665.07473342
 20
-1762.91030908
 10
35665.07473342
 20
-1672.91030908
 10
35641.49337441
 20
-1672.91030908
 10
35620.07473342
 20
-1672.91030908
 97
        1
330
383
 75
     0
 76
     2
 47
0.775229
 98
        1
 10
0.0
 20
0.0
  0
LWPOLYLINE
  5
385
100
AcDbEntity
  8
Ech.1_5
 62
   190
  6
CONTINUOUS
370
    -3
100
AcDbPolyline
 90
        4
 70
     0
 43
0.0
 10
35620.07473342
 20
-1807.91030908
 10
35800.07062057
 20
-1852.91030908
 10
35800.07062057
 20
-1808.97001786
 10
35620.07473342
 20
-1852.91030908
  0
LWPOLYLINE
  5
386
100
AcDbEntity
  8
Ech.1_5
 62
   190
  6
CONTINUOUS
370
    -3
100
AcDbPolyline
 90
        4
 70
     0
 43
0.0
 10
35620.07473342
 20
-1762.91030908
 10
35665.07473342
 20
-1672.91030908
 10
35620.07473342
 20
-1672.91030908
 10
35665.07473342
 20
-1762.91030908
  0
LWPOLYLINE
  5
387
100
AcDbEntity
  8
Ech.1_5
 62
   190
  6
CONTINUOUS
370
    -3
100
AcDbPolyline
 90
        4
 70
     0
 43
0.0
 10
35620.07473342
 20
-1762.91030908
 10
35800.07062057
 20
-1807.91030908
 10
35800.07062057
 20
-1763.97001786
 10
35620.07473342
 20
-1807.91030908
  0
LWPOLYLINE
  5
388
102
{ACAD_REACTORS
330
389
102
}
100
AcDbEntity
  8
Ech.1_5
 62
     7
  6
CONTINUOUS
370
    -3
100
AcDbPolyline
 90
        3
 70
     1
 43
0.0
 10
35576.57458065
 20
-2012.40492313
 10
35576.42666774
 20
-2012.70074895
 10
35576.72249356
 20
-2012.70074895
  0
HATCH
  5
389
100
AcDbEntity
  8
Ech.1_5
 62
    25
  6
CONTINUOUS
100
AcDbHatch
 10
0.0
 20
0.0
 30
0.0
210
0.0
220
0.0
230
1.0
  2
SOLID
 70
     1
 71
     1
 91
        1
 92
        7
 72
     0
 73
     1
 93
        3
 10
35576.57458065
 20
-2012.40492313
 10
35576.42666774
 20
-2012.70074895
 10
35576.72249356
 20
-2012.70074895
 97
        1
330
388
 75
     0
 76
     2
 47
0.775229
 98
        1
 10
0.0
 20
0.0
  0
LWPOLYLINE
  5
38A
100
AcDbEntity
  8
Ech.1_5
100
AcDbPolyline
 90
        3
 70
     0
 43
0.0
 10
35576.72249356
 20
-2012.70074895
 10
35576.57458065
 20
-2012.40492313
 10
35576.42666774
 20
-2012.70074895
  0
LWPOLYLINE
  5
38B
100
AcDbEntity
  8
Ech.1_5
100
AcDbPolyline
 90
        4
 70
     0
 43
0.0
 10
35573.07458065
 20
-2012.70074895
 10
35573.07458065
 20
-2011.40492313
 10
35580.07458065
 20
-2011.40492313
 10
35580.07458065
 20
-2012.70074895
  0
LWPOLYLINE
  5
38C
100
AcDbEntity
  8
Ech.1_5
100
AcDbPolyline
 90
        4
 70
     0
 43
0.0
 10
35611.07546521
 20
-2012.70074895
 10
35611.07473335
 20
-1778.26451119
 10
35620.07473342
 20
-1778.26451119
 10
35620.07482049
 20
-2012.70074895
  0
LWPOLYLINE
  5
38D
100
AcDbEntity
  8
Ech.1_5
100
AcDbPolyline
 90
        4
 70
     0
 43
0.0
 10
35620.07468927
 20
-2012.70074895
 10
35620.07473342
 20
-1852.91030908
 10
35800.07062057
 20
-1852.91030908
 10
35800.0782595
 20
-2012.70074895
  0
LWPOLYLINE
  5
38E
100
AcDbEntity
  8
Ech.1_5
100
AcDbPolyline
 90
        4
 70
     0
 43
0.0
 10
35665.27658372
 20
-1761.30960234
 10
35665.27658372
 20
-1551.76001229
 10
35674.27658379
 20
-1551.76001229
 10
35674.27662624
 20
-1761.30960234
  0
LWPOLYLINE
  5
38F
102
{ACAD_REACTORS
330
390
102
}
100
AcDbEntity
  8
Ech.1_5
 62
   190
  6
CONTINUOUS
370
    -3
100
AcDbPolyline
 90
        9
 70
     1
 43
0.0
 10
35234.83091376
 20
-1632.18052985
 10
35234.14687347
 20
-1630.30114461
 10
35183.05800071
 20
-1648.8959736
 10
35125.79429167
 20
-1656.42500605
 10
35125.79429167
 20
-1685.03282565
 10
35130.51101771
 20
-1679.77172885
 10
35127.79429167
 20
-1679.77172885
 10
35127.79429167
 20
-1658.17925897
 10
35183.53605359
 20
-1650.85033212
  0
HATCH
  5
390
100
AcDbEntity
  8
Ech.1_5
 62
   177
  6
CONTINUOUS
100
AcDbHatch
 10
0.0
 20
0.0
 30
0.0
210
0.0
220
0.0
230
1.0
  2
SOLID
 70
     1
 71
     1
 91
        1
 92
        7
 72
     0
 73
     1
 93
        9
 10
35234.83091376
 20
-1632.18052985
 10
35234.14687347
 20
-1630.30114461
 10
35183.05800071
 20
-1648.8959736
 10
35125.79429167
 20
-1656.42500605
 10
35125.79429167
 20
-1685.03282565
 10
35130.51101771
 20
-1679.77172885
 10
35127.79429167
 20
-1679.77172885
 10
35127.79429167
 20
-1658.17925897
 10
35183.53605359
 20
-1650.85033212
 97
        1
330
38F
 75
     0
 76
     2
 47
0.775229
 98
        1
 10
0.0
 20
0.0
  0
LWPOLYLINE
  5
391
100
AcDbEntity
  8
Ech.1_5
100
AcDbPolyline
 90
       10
 70
     0
 43
0.0
 10
35234.83091376
 20
-1632.18052985
 10
35234.14687347
 20
-1630.30114461
 10
35183.05800071
 20
-1648.8959736
 10
35125.79429167
 20
-1656.42500605
 10
35125.79429167
 20
-1685.03282565
 10
35130.51101771
 20
-1679.77172885
 10
35127.79429167
 20
-1679.77172885
 10
35127.79429167
 20
-1658.17925897
 10
35183.53605359
 20
-1650.85033212
 10
35234.83091376
 20
-1632.18052985
  0
LWPOLYLINE
  5
392
102
{ACAD_REACTORS
330
393
102
}
100
AcDbEntity
  8
Ech.1_5
 62
   190
  6
CONTINUOUS
370
    -3
100
AcDbPolyline
 90
        4
 70
     1
 43
0.0
 10
36312.96001768
 20
-1822.91030908
 10
36312.96001768
 20
-1762.91030908
 10
36270.96001768
 20
-1762.91030908
 10
36270.96001768
 20
-1822.91030908
  0
HATCH
  5
393
100
AcDbEntity
  8
Ech.1_5
 62
   254
  6
CONTINUOUS
100
AcDbHatch
 10
0.0
 20
0.0
 30
0.0
210
0.0
220
0.0
230
1.0
  2
SOLID
 70
     1
 71
     1
 91
        1
 92
        7
 72
     0
 73
     1
 93
        4
 10
36312.96001768
 20
-1822.91030908
 10
36312.96001768
 20
-1762.91030908
 10
36270.96001768
 20
-1762.91030908
 10
36270.96001768
 20
-1822.91030908
 97
        1
330
392
 75
     0
 76
     2
 47
0.775229
 98
        1
 10
0.0
 20
0.0
  0
LWPOLYLINE
  5
394
100
AcDbEntity
  8
Ech.1_5
 62
   190
  6
CONTINUOUS
370
    -3
100
AcDbPolyline
 90
        4
 70
     0
 43
0.0
 10
36270.96001768
 20
-1822.91030908
 10
36312.96001768
 20
-1762.91030908
 10
36312.96001768
 20
-1822.91030908
 10
36270.96001768
 20
-1762.91030908
  0
LWPOLYLINE
  5
395
100
AcDbEntity
  8
Ech.1_5
100
AcDbPolyline
 90
        4
 70
     0
 43
0.0
 10
36828.00153806
 20
-1924.91014658
 10
35805.40015806
 20
-1924.91014658
 10
35805.40015806
 20
-1900.22797648
 10
36828.00153806
 20
-1900.22797648
  0
LWPOLYLINE
  5
396
100
AcDbEntity
  8
Ech.1_5
100
AcDbPolyline
 90
        5
 70
     0
 43
0.0
 10
36828.00153806
 20
-1924.91014658
 10
35805.40015806
 20
-1924.91014658
 10
35805.40015806
 20
-1937.91014658
 10
36828.00153806
 20
-1937.91014658
 10
36828.00153806
 20
-1924.91014658
  0
LWPOLYLINE
  5
397
102
{ACAD_REACTORS
330
398
102
}
100
AcDbEntity
  8
Ech.1_5
 62
     7
  6
CONTINUOUS
370
    -3
100
AcDbPolyline
 90
       10
 70
     1
 43
0.0
 10
35147.07473342
 20
-1656.49253183
 10
35147.07473342
 20
-1812.6880617
 42
-0.41421356
 10
35159.93875852
 20
-1825.55208681
 10
35169.07473342
 20
-1825.55208681
 10
35169.07473342
 20
-1804.24744346
 10
35162.79077395
 20
-1804.24744346
 10
35162.79077395
 20
-1793.18172309
 10
35162.79077395
 20
-1789.91030908
 10
35169.07473342
 20
-1789.91030908
 10
35169.07473342
 20
-1656.49253183
  0
HATCH
  5
398
100
AcDbEntity
  8
Ech.1_5
 62
    25
  6
CONTINUOUS
100
AcDbHatch
 10
0.0
 20
0.0
 30
0.0
210
0.0
220
0.0
230
1.0
  2
SOLID
 70
     1
 71
     1
 91
        1
 92
        7
 72
     1
 73
     1
 93
       10
 10
35147.07473342
 20
-1656.49253183
 42
0.0
 10
35147.07473342
 20
-1812.6880617
 42
-0.41421356
 10
35159.93875852
 20
-1825.55208681
 42
0.0
 10
35169.07473342
 20
-1825.55208681
 42
0.0
 10
35169.07473342
 20
-1804.24744346
 42
0.0
 10
35162.79077395
 20
-1804.24744346
 42
0.0
 10
35162.79077395
 20
-1793.18172309
 42
0.0
 10
35162.79077395
 20
-1789.91030908
 42
0.0
 10
35169.07473342
 20
-1789.91030908
 42
0.0
 10
35169.07473342
 20
-1656.49253183
 42
0.0
 97
        1
330
397
 75
     0
 76
     2
 47
0.775229
 98
        1
 10
0.0
 20
0.0
  0
LWPOLYLINE
  5
399
102
{ACAD_REACTORS
330
39A
102
}
100
AcDbEntity
  8
Ech.1_5
 62
     7
  6
CONTINUOUS
370
    -3
100
AcDbPolyline
 90
        4
 70
     1
 43
0.0
 10
35183.27720402
 20
-1762.91030908
 10
35223.27720402
 20
-1762.91030908
 10
35223.27720402
 20
-1789.91030908
 10
35183.27720402
 20
-1789.91030908
  0
HATCH
  5
39A
100
AcDbEntity
  8
Ech.1_5
 62
    25
  6
CONTINUOUS
100
AcDbHatch
 10
0.0
 20
0.0
 30
0.0
210
0.0
220
0.0
230
1.0
  2
SOLID
 70
     1
 71
     1
 91
        1
 92
        7
 72
     0
 73
     1
 93
        4
 10
35183.27720402
 20
-1762.91030908
 10
35223.27720402
 20
-1762.91030908
 10
35223.27720402
 20
-1789.91030908
 10
35183.27720402
 20
-1789.91030908
 97
        1
330
399
 75
     0
 76
     2
 47
0.775229
 98
        1
 10
0.0
 20
0.0
  0
LWPOLYLINE
  5
39B
100
AcDbEntity
  8
Ech.1_5
 62
   190
  6
CONTINUOUS
370
    -3
100
AcDbPolyline
 90
        4
 70
     0
 43
0.0
 10
35223.27720402
 20
-1762.91030908
 10
35183.27720402
 20
-1789.91030908
 10
35223.27720402
 20
-1789.91030908
 10
35183.27720402
 20
-1762.91030908
  0
LWPOLYLINE
  5
39C
102
{ACAD_REACTORS
330
39D
102
}
100
AcDbEntity
  8
Ech.1_5
 62
     7
  6
CONTINUOUS
370
    -3
100
AcDbPolyline
 90
        4
 70
     1
 43
0.0
 10
35507.75490351
 20
-1762.91030908
 10
35547.75490351
 20
-1762.91030908
 10
35547.75490351
 20
-1789.91030908
 10
35507.75490351
 20
-1789.91030908
  0
HATCH
  5
39D
100
AcDbEntity
  8
Ech.1_5
 62
    25
  6
CONTINUOUS
100
AcDbHatch
 10
0.0
 20
0.0
 30
0.0
210
0.0
220
0.0
230
1.0
  2
SOLID
 70
     1
 71
     1
 91
        1
 92
        7
 72
     0
 73
     1
 93
        4
 10
35507.75490351
 20
-1762.91030908
 10
35547.75490351
 20
-1762.91030908
 10
35547.75490351
 20
-1789.91030908
 10
35507.75490351
 20
-1789.91030908
 97
        1
330
39C
 75
     0
 76
     2
 47
0.775229
 98
        1
 10
0.0
 20
0.0
  0
LWPOLYLINE
  5
39E
100
AcDbEntity
  8
Ech.1_5
 62
   190
  6
CONTINUOUS
370
    -3
100
AcDbPolyline
 90
        4
 70
     0
 43
0.0
 10
35547.75490351
 20
-1762.91030908
 10
35507.75490351
 20
-1789.91030908
 10
35547.75490351
 20
-1789.91030908
 10
35507.75490351
 20
-1762.91030908
  0
LINE
  5
39F
100
AcDbEntity
  8
Ech.1_5
 62
   140
100
AcDbLine
 10
35611.07669195
 20
-1762.91030908
 30
0.0
 11
35658.51735322
 21
-1762.91030908
 31
0.0
  0
LWPOLYLINE
  5
3A0
100
AcDbEntity
  8
Ech.1_5
100
AcDbPolyline
 90
        5
 70
     0
 43
0.0
 10
35689.07267699
 20
-1707.30958733
 10
35731.07267699
 20
-1707.30959264
 10
35731.07267699
 20
-1762.91031878
 10
35689.07267699
 20
-1762.91029938
 10
35689.07267699
 20
-1707.30959264
  0
LWPOLYLINE
  5
3A1
100
AcDbEntity
  8
Ech.1_5
 62
     3
370
    70
100
AcDbPolyline
 90
        4
 70
     0
 43
0.0
 10
35807.10004955
 20
-1822.56161746
 10
35807.10004955
 20
-1809.57248404
 10
35812.78066251
 20
-1805.6377519
 10
35812.78066251
 20
-1792.1593219
  0
ARC
  5
3A2
100
AcDbEntity
  8
Ech.1_5
 62
     7
100
AcDbCircle
 10
35071.26021565
 20
-1671.00635248
 30
0.0
 40
62.81757614
100
AcDbArc
 50
180.12287567
 51
11.68289665
  0
ARC
  5
3A3
100
AcDbEntity
  8
Ech.1_5
 62
     7
100
AcDbCircle
 10
35071.26021565
 20
-1671.00635248
 30
0.0
 40
65.31757614
100
AcDbArc
 50
182.93511954
 51
11.68289665
  0
CIRCLE
  5
3A4
100
AcDbEntity
  8
Ech.1_5
 62
     7
100
AcDbCircle
 10
35002.78314947
 20
-1669.39692225
 30
0.0
 40
5.9222896
  0
LINE
  5
3A5
100
AcDbEntity
  8
Ech.1_5
 62
     7
100
AcDbLine
 10
35343.99980612
 20
-1762.91030908
 30
0.0
 11
35620.07473342
 21
-1762.91030908
 31
0.0
  0
LINE
  5
3A6
100
AcDbEntity
  8
Ech.1_5
 62
     7
100
AcDbLine
 10
35259.77694451
 20
-1762.91030908
 30
0.0
 11
35343.99980612
 21
-1762.91030908
 31
0.0
  0
LINE
  5
3A7
100
AcDbEntity
  8
Ech.1_5
 62
     7
100
AcDbLine
 10
35132.77641898
 20
-1658.28610873
 30
0.0
 11
35135.22462723
 21
-1657.77987128
 31
0.0
  0
LINE
  5
3A8
100
AcDbEntity
  8
Ech.1_5
 62
     7
100
AcDbLine
 10
35623.57147111
 20
-1762.91030908
 30
0.0
 11
35648.80283111
 21
-1762.91030908
 31
0.0
  0
LINE
  5
3A9
100
AcDbEntity
  8
Ech.1_5
 62
     7
100
AcDbLine
 10
35586.07458065
 20
-1824.44602414
 30
0.0
 11
35586.07458065
 21
-1852.44602414
 31
0.0
  0
LINE
  5
3AA
100
AcDbEntity
  8
Ech.1_5
 62
     7
100
AcDbLine
 10
35586.07458065
 20
-1897.44602414
 30
0.0
 11
35586.07458065
 21
-1961.44602414
 31
0.0
  0
LINE
  5
3AB
100
AcDbEntity
  8
Ech.1_5
 62
     7
100
AcDbLine
 10
35586.07458065
 20
-1853.44602414
 30
0.0
 11
35586.07458065
 21
-1889.44602414
 31
0.0
  0
LINE
  5
3AC
100
AcDbEntity
  8
Ech.1_5
 62
     7
100
AcDbLine
 10
35586.07458065
 20
-1998.44602414
 30
0.0
 11
35586.07458065
 21
-2012.70074895
 31
0.0
  0
LINE
  5
3AD
100
AcDbEntity
  8
Ech.1_5
 62
     7
100
AcDbLine
 10
35586.07458065
 20
-1969.44602414
 30
0.0
 11
35586.07458065
 21
-1997.44602414
 31
0.0
  0
LWPOLYLINE
  5
3AE
100
AcDbEntity
  8
Ech.1_5
 62
     7
100
AcDbPolyline
 90
        5
 70
     0
 43
0.0
 10
35696.33232515
 20
-1760.40993618
 42
-1.0
 10
35701.68915159
 20
-1760.40993618
 10
35701.68915159
 20
-1741.82845304
 42
1.0
 10
35696.33232515
 20
-1741.82845304
 10
35696.33232515
 20
-1760.40993618
  0
LWPOLYLINE
  5
3AF
100
AcDbEntity
  8
Ech.1_5
 62
     7
100
AcDbPolyline
 90
        5
 70
     0
 43
0.0
 10
35723.81302884
 20
-1760.40993618
 10
35723.81302884
 20
-1741.82845304
 42
1.0
 10
35718.45620239
 20
-1741.82845304
 10
35718.45620239
 20
-1760.40993618
 42
-1.0
 10
35723.81302884
 20
-1760.40993618
  0
LWPOLYLINE
  5
3B0
100
AcDbEntity
  8
Ech.1_5
 62
     7
100
AcDbPolyline
 90
       12
 70
     0
 43
0.0
 10
35147.07473342
 20
-1683.49253183
 10
35147.07473342
 20
-1812.6880617
 42
-0.41421356
 10
35159.93875852
 20
-1825.55208681
 10
35169.07473342
 20
-1825.55208681
 10
35169.07473342
 20
-1804.24744346
 10
35162.79077395
 20
-1804.24744346
 10
35162.79077395
 20
-1793.18172309
 10
35162.79077395
 20
-1789.91030908
 10
35169.07473342
 20
-1789.91030908
 10
35169.07473342
 20
-1656.49253183
 10
35147.07473342
 20
-1656.49253183
 10
35147.07473342
 20
-1786.85202827
  0
LWPOLYLINE
  5
3B1
100
AcDbEntity
  8
Ech.1_5
 62
     7
  6
CONTINUOUS
370
    -3
100
AcDbPolyline
 90
        5
 70
     0
 43
0.0
 10
35800.07062057
 20
-1762.91030908
 10
35620.07473342
 20
-1762.91030908
 10
35620.07473342
 20
-1807.91030908
 10
35800.07062057
 20
-1807.91030908
 10
35800.07062057
 20
-1762.91030908
  0
LWPOLYLINE
  5
3B2
100
AcDbEntity
  8
Ech.1_5
 62
     7
  6
CONTINUOUS
370
    -3
100
AcDbPolyline
 90
        5
 70
     0
 43
0.0
 10
35800.07062057
 20
-1807.91030908
 10
35620.07473342
 20
-1807.91030908
 10
35620.07473342
 20
-1852.91030908
 10
35800.07062057
 20
-1852.91030908
 10
35800.07062057
 20
-1807.91030908
  0
LINE
  5
3B3
100
AcDbEntity
  8
Ech.1_5
 62
     7
100
AcDbLine
 10
35176.88172411
 20
-1567.98417741
 30
0.0
 11
35176.74454628
 21
-1568.00773051
 31
0.0
  0
LINE
  5
3B4
100
AcDbEntity
  8
Ech.1_5
 62
     7
100
AcDbLine
 10
35125.82493185
 20
-1684.9986492
 30
0.0
 11
35130.51101771
 21
-1679.77172885
 31
0.0
  0
LINE
  5
3B5
100
AcDbEntity
  8
Ech.1_5
 62
     7
100
AcDbLine
 10
35127.82493185
 20
-1679.77172885
 30
0.0
 11
35130.51101771
 21
-1679.77172885
 31
0.0
  0
LWPOLYLINE
  5
3B6
100
AcDbEntity
  8
Ech.1_5
 62
   190
  6
CONTINUOUS
370
    -3
100
AcDbPolyline
 90
        4
 70
     0
 43
0.0
 10
35800.07062057
 20
-1957.91014658
 10
35840.07062057
 20
-2002.91014658
 10
35840.07062057
 20
-1957.91014658
 10
35800.07062057
 20
-2002.91014658
  0
LWPOLYLINE
  5
3B7
102
{ACAD_REACTORS
330
3B8
102
}
100
AcDbEntity
  8
Ech.1_5
 62
     7
  6
CONTINUOUS
370
    -3
100
AcDbPolyline
 90
        4
 70
     1
 43
0.0
 10
35840.07062057
 20
-2012.70074895
 10
35853.07062057
 20
-2012.70074895
 10
35853.07062057
 20
-1937.91014658
 10
35840.07062057
 20
-1937.91014658
  0
HATCH
  5
3B8
100
AcDbEntity
  8
Ech.1_5
 62
   190
  6
CONTINUOUS
100
AcDbHatch
 10
0.0
 20
0.0
 30
0.0
210
0.0
220
0.0
230
1.0
  2
DOTS2
 70
     0
 71
     1
 91
        1
 92
        7
 72
     0
 73
     1
 93
        4
 10
35840.07062057
 20
-2012.70074895
 10
35853.07062057
 20
-2012.70074895
 10
35853.07062057
 20
-1937.91014658
 10
35840.07062057
 20
-1937.91014658
 97
        1
330
3B7
 75
     0
 76
     2
 52
0.0
 41
4.72440952
 77
     0
 78
     1
 53
0.0
 43
0.0
 44
0.0
 45
3.75
 46
3.535
 79
     2
 49
0.0
 49
-3.535
 47
0.775229
 98
        1
 10
0.0
 20
0.0
  0
LWPOLYLINE
  5
3B9
100
AcDbEntity
  8
Ech.1_5
100
AcDbPolyline
 90
        9
 70
     0
 43
0.0
 10
36828.00153806
 20
-1052.69255412
 10
36318.2799715
 20
-1238.21603211
 10
35518.17735246
 20
-1529.4295698
 10
35169.07473342
 20
-1656.49253183
 10
35169.07473342
 20
-1662.91030908
 10
35443.82247536
 20
-1662.91030908
 10
35518.17735246
 20
-1635.84734704
 10
36318.2799715
 20
-1344.63380935
 10
36828.00153806
 20
-1159.11033137
  0
LWPOLYLINE
  5
3BA
102
{ACAD_REACTORS
330
3BB
102
}
100
AcDbEntity
  8
Ech.1_5
 62
   190
  6
CONTINUOUS
370
    -3
100
AcDbPolyline
 90
        4
 70
     1
 43
0.0
 10
35674.27643109
 20
-1551.76001229
 10
35665.27643102
 20
-1551.76001229
 10
35665.27666405
 20
-1761.30960234
 10
35674.27666412
 20
-1761.30960234
  0
HATCH
  5
3BB
100
AcDbEntity
  8
Ech.1_5
 62
    30
  6
CONTINUOUS
100
AcDbHatch
 10
0.0
 20
0.0
 30
0.0
210
0.0
220
0.0
230
1.0
  2
SOLID
 70
     1
 71
     1
 91
        1
 92
        7
 72
     0
 73
     1
 93
        4
 10
35674.27643109
 20
-1551.76001229
 10
35665.27643102
 20
-1551.76001229
 10
35665.27666405
 20
-1761.30960234
 10
35674.27666412
 20
-1761.30960234
 97
        1
330
3BA
 75
     0
 76
     2
 47
0.775229
 98
        1
 10
0.0
 20
0.0
  0
LWPOLYLINE
  5
3BC
102
{ACAD_REACTORS
330
3BD
102
}
100
AcDbEntity
  8
Ech.1_5
 62
     7
  6
CONTINUOUS
370
    -3
100
AcDbPolyline
 90
        4
 70
     1
 43
0.0
 10
35665.27666405
 20
-1761.30960234
 10
35674.27666412
 20
-1761.30960234
 10
35674.27643109
 20
-1551.76001229
 10
35665.27643102
 20
-1551.76001229
  0
HATCH
  5
3BD
100
AcDbEntity
  8
Ech.1_5
 62
   190
  6
CONTINUOUS
100
AcDbHatch
 10
0.0
 20
0.0
 30
0.0
210
0.0
220
0.0
230
1.0
  2
CDWK10A
 70
     0
 71
     1
 91
        1
 92
        7
 72
     0
 73
     1
 93
        4
 10
35665.27666405
 20
-1761.30960234
 10
35674.27666412
 20
-1761.30960234
 10
35674.27643109
 20
-1551.76001229
 10
35665.27643102
 20
-1551.76001229
 97
        1
330
3BC
 75
     0
 76
     2
 52
0.0
 41
1.0
 77
     0
 78
     3
 53
45.0
 43
0.0
 44
0.0
 45
0.0
 46
42.00000167
 79
     0
 53
45.0
 43
0.0
 44
10.80000043
 45
0.0
 46
42.00000167
 79
     0
 53
45.0
 43
0.0
 44
21.60000086
 45
0.0
 46
42.00000167
 79
     0
 47
0.775229
 98
        1
 10
0.0
 20
0.0
  0
LWPOLYLINE
  5
3BE
102
{ACAD_REACTORS
330
3BF
102
}
100
AcDbEntity
  8
Ech.1_5
 62
   190
  6
CONTINUOUS
370
    -3
100
AcDbPolyline
 90
        4
 70
     1
 43
0.0
 10
35674.27662685
 20
-1562.9103056
 10
36828.00153806
 20
-1562.9103056
 10
36828.00153806
 20
-1662.9103056
 10
35674.27662685
 20
-1662.9103056
  0
HATCH
  5
3BF
100
AcDbEntity
  8
Ech.1_5
 62
    41
  6
CONTINUOUS
100
AcDbHatch
 10
0.0
 20
0.0
 30
0.0
210
0.0
220
0.0
230
1.0
  2
SOLID
 70
     1
 71
     1
 91
        1
 92
        7
 72
     0
 73
     1
 93
        4
 10
35674.27662685
 20
-1562.9103056
 10
36828.00153806
 20
-1562.9103056
 10
36828.00153806
 20
-1662.9103056
 10
35674.27662685
 20
-1662.9103056
 97
        1
330
3BE
 75
     0
 76
     2
 47
0.775229
 98
        1
 10
0.0
 20
0.0
  0
LWPOLYLINE
  5
3C0
100
AcDbEntity
  8
Ech.1_5
 62
   190
  6
CONTINUOUS
370
    -3
100
AcDbPolyline
 90
        5
 70
     0
 43
0.0
 10
35674.27662685
 20
-1562.9103056
 10
36828.00153806
 20
-1562.9103056
 10
36828.00153806
 20
-1662.9103056
 10
35674.27662685
 20
-1662.9103056
 10
35674.27662685
 20
-1562.9103056
  0
LWPOLYLINE
  5
3C1
100
AcDbEntity
  8
Ech.1_5
 62
   190
  6
CONTINUOUS
370
    -3
100
AcDbPolyline
 90
        5
 70
     0
 43
0.0
 10
35805.40015806
 20
-1824.91030908
 10
36828.00153806
 20
-1824.91030908
 10
36828.00153806
 20
-1924.91030908
 10
35805.40015806
 20
-1924.91030908
 10
35805.40015806
 20
-1824.91030908
  0
LWPOLYLINE
  5
3C2
100
AcDbEntity
  8
Ech.1_5
370
    50
100
AcDbPolyline
 90
        3
 70
     0
 43
0.0
 10
35805.40015806
 20
-1900.1559842
 10
35805.40015806
 20
-1923.23450111
 10
35831.26234258
 20
-1923.23450111
  0
LINE
  5
3C3
100
AcDbEntity
  8
Ech.1_5
 48
0.2
100
AcDbLine
 10
36316.20455446
 20
-1900.97868054
 30
0.0
 11
36316.20455446
 21
-1770.41865794
 31
0.0
  0
LINE
  5
3C4
100
AcDbEntity
  8
Ech.1_5
  6
DASHEDX2
 48
0.2
100
AcDbLine
 10
36316.20455446
 20
-1900.97868054
 30
0.0
 11
36316.20455446
 21
-1924.91014658
 31
0.0
  0
LWPOLYLINE
  5
3C5
102
{ACAD_REACTORS
330
3C6
102
}
100
AcDbEntity
  8
Ech.1_5
 62
   190
  6
CONTINUOUS
370
    -3
100
AcDbPolyline
 90
        8
 70
     1
 43
0.0
 10
35800.07062057
 20
-1852.91030908
 10
35620.07473342
 20
-1852.91030908
 10
35620.07485152
 20
-2012.70074895
 10
35726.77822583
 20
-2012.70074895
 10
35743.26372899
 20
-1994.72340054
 10
35729.15378897
 20
-2030.67910056
 10
35745.64014305
 20
-2012.70074895
 10
35800.07062057
 20
-2012.70074895
  0
HATCH
  5
3C6
100
AcDbEntity
  8
Ech.1_5
 62
    41
  6
CONTINUOUS
100
AcDbHatch
 10
0.0
 20
0.0
 30
0.0
210
0.0
220
0.0
230
1.0
  2
SOLID
 70
     1
 71
     1
 91
        1
 92
        7
 72
     0
 73
     1
 93
        8
 10
35800.07062057
 20
-1852.91030908
 10
35620.07473342
 20
-1852.91030908
 10
35620.07485152
 20
-2012.70074895
 10
35726.77822583
 20
-2012.70074895
 10
35743.26372899
 20
-1994.72340054
 10
35729.15378897
 20
-2030.67910056
 10
35745.64014305
 20
-2012.70074895
 10
35800.07062057
 20
-2012.70074895
 97
        1
330
3C5
 75
     0
 76
     2
 47
0.775229
 98
        1
 10
0.0
 20
0.0
  0
LWPOLYLINE
  5
3C7
100
AcDbEntity
  8
Ech.1_5
 62
   190
  6
CONTINUOUS
370
    -3
100
AcDbPolyline
 90
        6
 70
     0
 43
0.0
 10
35546.77822584
 20
-2012.70131087
 10
35726.77822583
 20
-2012.70074895
 10
35743.26372899
 20
-1994.72340054
 10
35729.15378897
 20
-2030.67910056
 10
35745.64014305
 20
-2012.70074895
 10
35872.64014305
 20
-2012.70074895
  0
LWPOLYLINE
  5
3C8
100
AcDbEntity
  8
Ech.1_5
 62
   190
  6
CONTINUOUS
370
    -3
100
AcDbPolyline
 90
       10
 70
     0
 43
0.0
 10
35650.07402826
 20
-1852.91028691
 42
1.14028181
 10
35657.83847818
 20
-1911.88666498
 10
35762.30682423
 20
-1883.93170466
 42
-1.30322619
 10
35762.30686706
 20
-1941.88588261
 10
35657.83847969
 20
-1913.93107672
 42
1.30322619
 10
35657.83852252
 20
-1971.88525467
 10
35762.30686857
 20
-1943.93029434
 42
-1.30322619
 10
35762.30691141
 20
-2001.88447229
 10
35657.83852404
 20
-1973.9296664
 42
0.60118662
 10
35621.71861908
 20
-2012.70074774
  0
LWPOLYLINE
  5
3C9
100
AcDbEntity
  8
Ech.1_5
 62
   190
100
AcDbPolyline
 90
        5
 70
     0
 43
0.0
 10
35065.32561312
 20
-2036.38939787
 10
35199.75439211
 20
-2036.38939787
 10
35199.75439211
 20
-2093.11235668
 10
35065.32561312
 20
-2093.11235668
 10
35065.32561312
 20
-2036.38939787
  0
LWPOLYLINE
  5
3CA
100
AcDbEntity
  8
Ech.1_5
 62
   190
100
AcDbPolyline
 90
        5
 70
     0
 43
0.0
 10
35083.6056589
 20
-2070.046209
 10
35133.6056589
 20
-2070.046209
 10
35133.6056589
 20
-2062.63107146
 10
35083.6056589
 20
-2062.63107146
 10
35083.6056589
 20
-2070.046209
  0
HATCH
  5
3CB
100
AcDbEntity
  8
Ech.1_5
 62
   190
100
AcDbHatch
 10
0.0
 20
0.0
 30
0.0
210
0.0
220
0.0
230
1.0
  2
SOLID
 70
     1
 71
     0
 91
        1
 92
        7
 72
     0
 73
     1
 93
        4
 10
35083.6056589
 20
-2070.046209
 10
35133.6056589
 20
-2070.046209
 10
35133.6056589
 20
-2062.63107146
 10
35083.6056589
 20
-2062.63107146
 97
        0
 75
     0
 76
     2
 47
0.775229
 98
        1
 10
0.0
 20
0.0
  0
LWPOLYLINE
  5
3CC
100
AcDbEntity
  8
Ech.1_5
 62
   190
100
AcDbPolyline
 90
        5
 70
     0
 43
0.0
 10
35133.6056589
 20
-2070.046209
 10
35183.6056589
 20
-2070.046209
 10
35183.6056589
 20
-2062.63107146
 10
35133.6056589
 20
-2062.63107146
 10
35133.6056589
 20
-2070.046209
  0
MTEXT
  5
3CD
100
AcDbEntity
  8
Ech.1_5
 62
     4
100
AcDbMText
 10
35070.20853747
 20
-2126.80961971
 30
0.0
 11
1.0
 21
0.0
 31
0.0
 40
13.50000024
 41
249.4354307
 71
     1
 72
     1
  1
\fArial|b1|i0|c0|p18;\H13.75;\W1;\C190;COMPLEMENT LEGENDE
  0
MTEXT
  5
3CE
100
AcDbEntity
  8
Ech.1_5
 62
     4
100
AcDbMText
 10
35070.20853747
 20
-2154.30961971
 30
0.0
 11
1.0
 21
0.0
 31
0.0
 40
13.50000024
 41
195.59876666
 71
     1
 72
     1
  1
\fArial|b0|i0|c0|p18;\H13.75;\W1;\C190;Bande adhésive
  0
LWPOLYLINE
  5
3CF
100
AcDbEntity
  8
Ech.1_5
 62
     3
370
    70
100
AcDbPolyline
 90
        4
 70
     0
 43
0.0
 10
35058.91837266
 20
-2162.73122362
 10
35045.92923924
 20
-2162.73122362
 10
35041.99450709
 20
-2157.05061066
 10
35028.51607709
 20
-2157.05061066
  0
MTEXT
  5
3D0
100
AcDbEntity
  8
Ech.1_5
 62
     4
100
AcDbMText
 10
35872.01897057
 20
-1954.34130255
 30
0.0
 11
1.0
 21
0.0
 31
0.0
 40
13.50000024
 41
343.15079242
 71
     1
 72
     1
  1
\fArial|b0|i0|c0|p18;\H13.75;\W1;\C190;Ossature secondaire support de plafond
  0
MTEXT
  5
3D1
100
AcDbEntity
  8
Ech.1_5
 62
     4
100
AcDbMText
 10
35064.77746688
 20
-1873.23364543
 30
0.0
 11
1.0
 21
0.0
 31
0.0
 40
13.50000024
 41
109.02475581
 71
     1
 72
     1
  1
\fArial|b0|i0|c0|p18;\H13.75;\W1;\C190;Habillage de sous-face
  0
MTEXT
  5
3D2
100
AcDbEntity
  8
Ech.1_5
 62
     4
100
AcDbMText
 10
35889.40011777
 20
-1782.003792
 30
0.0
 11
1.0
 21
0.0
 31
0.0
 40
13.50000024
 41
205.08866712
 71
     1
 72
     1
  1
\fArial|b0|i0|c0|p18;\H13.75;\W1;\C190;Lame d'air non ventilée
  0
MTEXT
  5
3D3
100
AcDbEntity
  8
Ech.1_5
 62
     4
100
AcDbMText
 10
36048.53371381
 20
-1498.06388644
 30
0.0
 11
1.0
 21
0.0
 31
0.0
 40
13.50000024
 41
113.61716846
 71
     1
 72
     1
  1
\fArial|b0|i0|c0|p18;\H13.75;\W1;\C190;Pare-vapeur
  0
MTEXT
  5
3D4
100
AcDbEntity
  8
Ech.1_5
 62
     4
100
AcDbMText
 10
35017.90447635
 20
-1412.68535808
 30
0.0
 11
1.0
 21
0.0
 31
0.0
 40
13.50000024
 41
205.62765554
 71
     1
 72
     1
  1
\fArial|b0|i0|c0|p18;\H13.75;\W1;\C190;Ecran de sous-toiture ventilé en sous-face
  0
MTEXT
  5
3D5
100
AcDbEntity
  8
Ech.1_5
 62
     4
100
AcDbMText
 10
35199.25814197
 20
-1335.92205863
 30
0.0
 11
1.0
 21
0.0
 31
0.0
 40
13.50000024
 41
186.30221326
 71
     1
 72
     1
  1
\fArial|b0|i0|c0|p18;\H13.75;\W1;\C190;Blocage de l'isolant en bas de pente
  0
MTEXT
  5
3D6
100
AcDbEntity
  8
Ech.1_5
 62
     4
100
AcDbMText
 10
36059.8798862
 20
-1983.09030195
 30
0.0
 11
1.0
 21
0.0
 31
0.0
 40
13.50000024
 41
193.81091927
 71
     1
 72
     1
  1
\fArial|b0|i0|c0|p18;\H13.75;\W1;\C190;Suspentes, fourrures et plaque de plâtre
  0
LINE
  5
3D7
100
AcDbEntity
  8
Ech.1_5
 62
     1
100
AcDbLine
 10
35805.80549197
 20
-1762.91030908
 30
0.0
 11
36682.73581507
 21
-1762.91030908
 31
0.0
  0
LINE
  5
3D8
100
AcDbEntity
  8
Ech.1_5
 62
     1
100
AcDbLine
 10
35800.07062057
 20
-1762.91030908
 30
0.0
 11
35800.07062057
 21
-2012.70074895
 31
0.0
  0
LWPOLYLINE
  5
3D9
102
{ACAD_REACTORS
330
3DA
102
}
100
AcDbEntity
  8
Ech.1_5
 62
   190
  6
CONTINUOUS
370
    -3
100
AcDbPolyline
 90
       25
 70
     1
 43
0.0
 10
35836.90410267
 20
-1355.71819224
 10
35843.01301743
 20
-1378.49337552
 10
35866.74568172
 20
-1372.12763868
 10
35854.14142306
 20
-1319.93183173
 10
35844.6970046
 20
-1322.21247265
 10
35847.27470413
 20
-1332.88704785
 10
35830.3221838
 20
-1336.9807474
 10
35827.74448427
 20
-1326.30617219
 10
35818.30006581
 20
-1328.58681311
 10
35820.87776534
 20
-1339.26138832
 10
35797.81141655
 20
-1344.83145694
 10
35797.37457277
 20
-1343.02243236
 10
35797.31944804
 20
-1343.0357439
 10
35788.27711533
 20
-1305.59031648
 10
35784.62579198
 20
-1290.46973117
 10
35458.24553269
 20
-1369.28413121
 42
0.41421356
 10
35441.79770979
 20
-1396.20452329
 10
35446.02521318
 20
-1413.71114204
 10
35458.73425775
 20
-1466.34088052
 10
35479.03681109
 20
-1461.43821403
 10
35476.50355842
 20
-1450.9476988
 10
35492.28821549
 20
-1446.77688072
 10
35494.78363261
 20
-1457.11071422
 10
35505.24283044
 20
-1454.30527695
 10
35503.05959792
 20
-1445.26423883
  0
HATCH
  5
3DA
100
AcDbEntity
  8
Ech.1_5
 62
    15
  6
CONTINUOUS
100
AcDbHatch
 10
0.0
 20
0.0
 30
0.0
210
0.0
220
0.0
230
1.0
  2
SOLID
 70
     1
 71
     1
 91
        1
 92
        7
 72
     1
 73
     1
 93
       25
 10
35836.90410267
 20
-1355.71819224
 42
0.0
 10
35843.01301743
 20
-1378.49337552
 42
0.0
 10
35866.74568172
 20
-1372.12763868
 42
0.0
 10
35854.14142306
 20
-1319.93183173
 42
0.0
 10
35844.6970046
 20
-1322.21247265
 42
0.0
 10
35847.27470413
 20
-1332.88704785
 42
0.0
 10
35830.3221838
 20
-1336.9807474
 42
0.0
 10
35827.74448427
 20
-1326.30617219
 42
0.0
 10
35818.30006581
 20
-1328.58681311
 42
0.0
 10
35820.87776534
 20
-1339.26138832
 42
0.0
 10
35797.81141655
 20
-1344.83145694
 42
0.0
 10
35797.37457277
 20
-1343.02243236
 42
0.0
 10
35797.31944804
 20
-1343.0357439
 42
0.0
 10
35788.27711533
 20
-1305.59031648
 42
0.0
 10
35784.62579198
 20
-1290.46973117
 42
0.0
 10
35458.24553269
 20
-1369.28413121
 42
0.41421356
 10
35441.79770979
 20
-1396.20452329
 42
0.0
 10
35446.02521318
 20
-1413.71114204
 42
0.0
 10
35458.73425775
 20
-1466.34088052
 42
0.0
 10
35479.03681109
 20
-1461.43821403
 42
0.0
 10
35476.50355842
 20
-1450.9476988
 42
0.0
 10
35492.28821549
 20
-1446.77688072
 42
0.0
 10
35494.78363261
 20
-1457.11071422
 42
0.0
 10
35505.24283044
 20
-1454.30527695
 42
0.0
 10
35503.05959792
 20
-1445.26423883
 42
0.0
 97
        1
330
3D9
 75
     0
 76
     2
 47
0.775229
 98
        1
 10
0.0
 20
0.0
  0
LWPOLYLINE
  5
3DB
102
{ACAD_REACTORS
330
3DC
102
}
100
AcDbEntity
  8
Ech.1_5
 62
   190
  6
CONTINUOUS
370
    -3
100
AcDbPolyline
 90
       26
 70
     1
 43
0.0
 10
36175.48929296
 20
-1232.41305561
 10
36181.59820772
 20
-1255.1882389
 10
36205.33087202
 20
-1248.82250206
 10
36192.72661336
 20
-1196.6266951
 10
36183.28219489
 20
-1198.90733602
 10
36185.85989442
 20
-1209.58191123
 10
36168.90737409
 20
-1213.67561078
 10
36166.32967456
 20
-1203.00103557
 10
36156.8852561
 20
-1205.28167649
 10
36159.46295563
 20
-1215.9562517
 10
36136.39660685
 20
-1221.52632032
 10
36135.97515158
 20
-1219.78102149
 10
36135.92720198
 20
-1219.79260037
 10
36126.88486926
 20
-1182.34717296
 10
36123.21815741
 20
-1167.16286189
 10
35796.83072299
 20
-1245.97899458
 42
0.41421356
 10
35780.38290008
 20
-1272.89938667
 10
35784.62579198
 20
-1290.46973117
 10
35784.68091671
 20
-1290.45641963
 10
35797.37457277
 20
-1343.02243236
 10
35817.62200138
 20
-1338.1330774
 10
35815.08874871
 20
-1327.64256218
 10
35830.87340578
 20
-1323.4717441
 10
35833.3688229
 20
-1333.80557759
 10
35843.82802073
 20
-1331.00014032
 10
35841.64478821
 20
-1321.95910221
  0
HATCH
  5
3DC
100
AcDbEntity
  8
Ech.1_5
 62
    15
  6
CONTINUOUS
100
AcDbHatch
 10
0.0
 20
0.0
 30
0.0
210
0.0
220
0.0
230
1.0
  2
SOLID
 70
     1
 71
     1
 91
        1
 92
        7
 72
     1
 73
     1
 93
       26
 10
36175.48929296
 20
-1232.41305561
 42
0.0
 10
36181.59820772
 20
-1255.1882389
 42
0.0
 10
36205.33087202
 20
-1248.82250206
 42
0.0
 10
36192.72661336
 20
-1196.6266951
 42
0.0
 10
36183.28219489
 20
-1198.90733602
 42
0.0
 10
36185.85989442
 20
-1209.58191123
 42
0.0
 10
36168.90737409
 20
-1213.67561078
 42
0.0
 10
36166.32967456
 20
-1203.00103557
 42
0.0
 10
36156.8852561
 20
-1205.28167649
 42
0.0
 10
36159.46295563
 20
-1215.9562517
 42
0.0
 10
36136.39660685
 20
-1221.52632032
 42
0.0
 10
36135.97515158
 20
-1219.78102149
 42
0.0
 10
36135.92720198
 20
-1219.79260037
 42
0.0
 10
36126.88486926
 20
-1182.34717296
 42
0.0
 10
36123.21815741
 20
-1167.16286189
 42
0.0
 10
35796.83072299
 20
-1245.97899458
 42
0.41421356
 10
35780.38290008
 20
-1272.89938667
 42
0.0
 10
35784.62579198
 20
-1290.46973117
 42
0.0
 10
35784.68091671
 20
-1290.45641963
 42
0.0
 10
35797.37457277
 20
-1343.02243236
 42
0.0
 10
35817.62200138
 20
-1338.1330774
 42
0.0
 10
35815.08874871
 20
-1327.64256218
 42
0.0
 10
35830.87340578
 20
-1323.4717441
 42
0.0
 10
35833.3688229
 20
-1333.80557759
 42
0.0
 10
35843.82802073
 20
-1331.00014032
 42
0.0
 10
35841.64478821
 20
-1321.95910221
 42
0.0
 97
        1
330
3DB
 75
     0
 76
     2
 47
0.775229
 98
        1
 10
0.0
 20
0.0
  0
LWPOLYLINE
  5
3DD
102
{ACAD_REACTORS
330
3DE
102
}
100
AcDbEntity
  8
Ech.1_5
 62
   190
  6
CONTINUOUS
370
    -3
100
AcDbPolyline
 90
       23
 70
     1
 43
0.0
 10
36514.0970469
 20
-1109.16991209
 10
36520.20596166
 20
-1131.94509537
 10
36543.93862595
 20
-1125.57935853
 10
36531.33436729
 20
-1073.38355158
 10
36521.88994883
 20
-1075.6641925
 10
36524.46764836
 20
-1086.33876771
 10
36507.51512803
 20
-1090.43246725
 10
36504.9374285
 20
-1079.75789204
 10
36495.49301004
 20
-1082.03853296
 10
36498.07070956
 20
-1092.71310817
 10
36475.00436078
 20
-1098.28317679
 10
36461.87386094
 20
-1043.90813949
 10
36135.43847692
 20
-1122.73585106
 42
0.41421356
 10
36118.99065402
 20
-1149.65624315
 10
36123.21815741
 20
-1167.16286189
 10
36123.26610701
 20
-1167.15128301
 10
36135.97515158
 20
-1219.78102149
 10
36156.22975532
 20
-1214.88993388
 10
36153.69650265
 20
-1204.39941865
 10
36169.48115972
 20
-1200.22860058
 10
36171.97657684
 20
-1210.56243407
 10
36182.43577466
 20
-1207.7569968
 10
36180.25254215
 20
-1198.71595869
  0
HATCH
  5
3DE
100
AcDbEntity
  8
Ech.1_5
 62
    15
  6
CONTINUOUS
100
AcDbHatch
 10
0.0
 20
0.0
 30
0.0
210
0.0
220
0.0
230
1.0
  2
SOLID
 70
     1
 71
     1
 91
        1
 92
        7
 72
     1
 73
     1
 93
       23
 10
36514.0970469
 20
-1109.16991209
 42
0.0
 10
36520.20596166
 20
-1131.94509537
 42
0.0
 10
36543.93862595
 20
-1125.57935853
 42
0.0
 10
36531.33436729
 20
-1073.38355158
 42
0.0
 10
36521.88994883
 20
-1075.6641925
 42
0.0
 10
36524.46764836
 20
-1086.33876771
 42
0.0
 10
36507.51512803
 20
-1090.43246725
 42
0.0
 10
36504.9374285
 20
-1079.75789204
 42
0.0
 10
36495.49301004
 20
-1082.03853296
 42
0.0
 10
36498.07070956
 20
-1092.71310817
 42
0.0
 10
36475.00436078
 20
-1098.28317679
 42
0.0
 10
36461.87386094
 20
-1043.90813949
 42
0.0
 10
36135.43847692
 20
-1122.73585106
 42
0.41421356
 10
36118.99065402
 20
-1149.65624315
 42
0.0
 10
36123.21815741
 20
-1167.16286189
 42
0.0
 10
36123.26610701
 20
-1167.15128301
 42
0.0
 10
36135.97515158
 20
-1219.78102149
 42
0.0
 10
36156.22975532
 20
-1214.88993388
 42
0.0
 10
36153.69650265
 20
-1204.39941865
 42
0.0
 10
36169.48115972
 20
-1200.22860058
 42
0.0
 10
36171.97657684
 20
-1210.56243407
 42
0.0
 10
36182.43577466
 20
-1207.7569968
 42
0.0
 10
36180.25254215
 20
-1198.71595869
 42
0.0
 97
        1
330
3DD
 75
     0
 76
     2
 47
0.775229
 98
        1
 10
0.0
 20
0.0
  0
LINE
  5
3DF
100
AcDbEntity
  8
Ech.1_5
 62
   190
  6
CONTINUOUS
370
    -3
100
AcDbLine
 10
35111.0841711
 20
-1552.13859663
 30
0.0
 11
35459.15571302
 21
-1468.08617934
 31
0.0
  0
LWPOLYLINE
  5
3E0
100
AcDbEntity
  8
Ech.1_5
 62
   190
  6
CONTINUOUS
370
    -3
100
AcDbPolyline
 90
       23
 70
     0
 43
0.0
 10
35506.08925067
 20
-1445.45561617
 10
35515.53366913
 20
-1443.17497525
 10
35528.13792779
 20
-1495.3707822
 10
35504.4052635
 20
-1501.73651904
 10
35498.29634873
 20
-1478.96133576
 10
35164.45184398
 20
-1568.50738236
 10
35166.6350765
 20
-1577.54842047
 10
35156.17587868
 20
-1580.35385774
 10
35153.68046156
 20
-1570.02002425
 10
35137.89580448
 20
-1574.19084232
 10
35140.42905716
 20
-1584.68135755
 10
35120.12650382
 20
-1589.58402404
 10
35111.0841711
 20
-1552.13859663
 10
35103.18995585
 20
-1519.44766682
 42
-0.41421356
 10
35119.63777876
 20
-1492.52727473
 10
35446.02521318
 20
-1413.71114204
 10
35459.15571302
 20
-1468.08617934
 10
35482.2700114
 20
-1462.50453184
 10
35479.69231187
 20
-1451.82995663
 10
35489.13673034
 20
-1449.54931571
 10
35491.71442986
 20
-1460.22389092
 10
35508.6669502
 20
-1456.13019138
 10
35506.08925067
 20
-1445.45561617
  0
LINE
  5
3E1
100
AcDbEntity
  8
Ech.1_5
 62
   190
  6
CONTINUOUS
370
    -3
100
AcDbLine
 10
35449.69192504
 20
-1428.8954531
 30
0.0
 11
35797.76346695
 21
-1344.84303582
 31
0.0
  0
LWPOLYLINE
  5
3E2
100
AcDbEntity
  8
Ech.1_5
 62
   190
  6
CONTINUOUS
370
    -3
100
AcDbPolyline
 90
       23
 70
     0
 43
0.0
 10
35844.6970046
 20
-1322.21247265
 10
35854.14142306
 20
-1319.93183173
 10
35866.74568172
 20
-1372.12763868
 10
35843.01301743
 20
-1378.49337552
 10
35836.90410267
 20
-1355.71819224
 10
35503.05959792
 20
-1445.26423883
 10
35505.24283044
 20
-1454.30527695
 10
35494.78363261
 20
-1457.11071422
 10
35492.28821549
 20
-1446.77688072
 10
35476.50355842
 20
-1450.9476988
 10
35479.03681109
 20
-1461.43821403
 10
35458.73425775
 20
-1466.34088052
 10
35449.69192504
 20
-1428.8954531
 10
35441.79770979
 20
-1396.20452329
 42
-0.41421356
 10
35458.24553269
 20
-1369.28413121
 10
35784.68091671
 20
-1290.45641963
 10
35797.81141655
 20
-1344.83145694
 10
35820.87776534
 20
-1339.26138832
 10
35818.30006581
 20
-1328.58681311
 10
35827.74448427
 20
-1326.30617219
 10
35830.3221838
 20
-1336.9807474
 10
35847.27470413
 20
-1332.88704785
 10
35844.6970046
 20
-1322.21247265
  0
LINE
  5
3E3
100
AcDbEntity
  8
Ech.1_5
 62
   190
  6
CONTINUOUS
370
    -3
100
AcDbLine
 10
35788.27711533
 20
-1305.59031648
 30
0.0
 11
36136.34865725
 21
-1221.5378992
 31
0.0
  0
LWPOLYLINE
  5
3E4
100
AcDbEntity
  8
Ech.1_5
 62
   190
  6
CONTINUOUS
370
    -3
100
AcDbPolyline
 90
       23
 70
     0
 43
0.0
 10
36183.28219489
 20
-1198.90733602
 10
36192.72661336
 20
-1196.6266951
 10
36205.33087202
 20
-1248.82250206
 10
36181.59820772
 20
-1255.1882389
 10
36175.48929296
 20
-1232.41305561
 10
35841.64478821
 20
-1321.95910221
 10
35843.82802073
 20
-1331.00014032
 10
35833.3688229
 20
-1333.80557759
 10
35830.87340578
 20
-1323.4717441
 10
35815.08874871
 20
-1327.64256218
 10
35817.62200138
 20
-1338.1330774
 10
35797.31944804
 20
-1343.0357439
 10
35788.27711533
 20
-1305.59031648
 10
35780.38290008
 20
-1272.89938667
 42
-0.41421356
 10
35796.83072299
 20
-1245.97899458
 10
36123.26610701
 20
-1167.15128301
 10
36136.39660685
 20
-1221.52632032
 10
36159.46295563
 20
-1215.9562517
 10
36156.8852561
 20
-1205.28167649
 10
36166.32967456
 20
-1203.00103557
 10
36168.90737409
 20
-1213.67561078
 10
36185.85989442
 20
-1209.58191123
 10
36183.28219489
 20
-1198.90733602
  0
LINE
  5
3E5
100
AcDbEntity
  8
Ech.1_5
 62
     7
100
AcDbLine
 10
36126.88486926
 20
-1182.34717296
 30
0.0
 11
36474.95641118
 21
-1098.29475567
 31
0.0
  0
LWPOLYLINE
  5
3E6
100
AcDbEntity
  8
Ech.1_5
 62
   190
  6
CONTINUOUS
370
    -3
100
AcDbPolyline
 90
       23
 70
     0
 43
0.0
 10
36521.88994883
 20
-1075.6641925
 10
36531.33436729
 20
-1073.38355158
 10
36543.93862595
 20
-1125.57935853
 10
36520.20596166
 20
-1131.94509537
 10
36514.0970469
 20
-1109.16991209
 10
36180.25254215
 20
-1198.71595869
 10
36182.43577466
 20
-1207.7569968
 10
36171.97657684
 20
-1210.56243407
 10
36169.48115972
 20
-1200.22860058
 10
36153.69650265
 20
-1204.39941865
 10
36156.22975532
 20
-1214.88993388
 10
36135.92720198
 20
-1219.79260037
 10
36126.88486926
 20
-1182.34717296
 10
36118.99065402
 20
-1149.65624315
 42
-0.41421356
 10
36135.43847692
 20
-1122.73585106
 10
36461.87386094
 20
-1043.90813949
 10
36475.00436078
 20
-1098.28317679
 10
36498.07070956
 20
-1092.71310817
 10
36495.49301004
 20
-1082.03853296
 10
36504.9374285
 20
-1079.75789204
 10
36507.51512803
 20
-1090.43246725
 10
36524.46764836
 20
-1086.33876771
 10
36521.88994883
 20
-1075.6641925
  0
LINE
  5
3E7
100
AcDbEntity
  8
Ech.1_5
 62
   190
  6
CONTINUOUS
370
    -3
100
AcDbLine
 10
36126.87769413
 20
-1182.34890561
 30
0.0
 11
36474.94923605
 21
-1098.29648833
 31
0.0
  0
LWPOLYLINE
  5
3E8
100
AcDbEntity
  8
Ech.1_5
 62
     7
100
AcDbPolyline
 90
        5
 70
     0
 43
0.0
 10
35795.56541724
 20
-1371.00297116
 10
35833.15312207
 20
-1357.32216543
 10
35842.38766594
 20
-1382.69386619
 10
35804.79996111
 20
-1396.37467192
 10
35795.56541724
 20
-1371.00297116
  0
LWPOLYLINE
  5
3E9
102
{ACAD_REACTORS
330
3EA
102
}
100
AcDbEntity
  8
Ech.1_5
 62
   190
  6
CONTINUOUS
370
    -3
100
AcDbPolyline
 90
        6
 70
     1
 43
0.0
 10
36510.37697122
 20
-1110.72316801
 10
36519.59802053
 20
-1136.05779278
 10
36482.01169226
 20
-1149.74238058
 10
36476.28518552
 20
-1134.00893263
 10
36472.78926639
 20
-1124.40397374
 10
36476.28518552
 20
-1123.13156323
  0
HATCH
  5
3EA
100
AcDbEntity
  8
Ech.1_5
 62
   254
  6
CONTINUOUS
100
AcDbHatch
 10
0.0
 20
0.0
 30
0.0
210
0.0
220
0.0
230
1.0
  2
SOLID
 70
     1
 71
     1
 91
        1
 92
        7
 72
     0
 73
     1
 93
        6
 10
36510.37697122
 20
-1110.72316801
 10
36519.59802053
 20
-1136.05779278
 10
36482.01169226
 20
-1149.74238058
 10
36476.28518552
 20
-1134.00893263
 10
36472.78926639
 20
-1124.40397374
 10
36476.28518552
 20
-1123.13156323
 97
        1
330
3E9
 75
     0
 76
     2
 47
0.775229
 98
        1
 10
0.0
 20
0.0
  0
LWPOLYLINE
  5
3EB
102
{ACAD_REACTORS
330
3EC
102
}
100
AcDbEntity
  8
Ech.1_5
 62
   190
  6
CONTINUOUS
370
    -3
100
AcDbPolyline
 90
        4
 70
     1
 43
0.0
 10
36171.77639241
 20
-1233.96457888
 10
36134.18868758
 20
-1247.64538461
 10
36143.42323145
 20
-1273.01708537
 10
36181.00955972
 20
-1259.33249757
  0
HATCH
  5
3EC
100
AcDbEntity
  8
Ech.1_5
 62
   254
  6
CONTINUOUS
100
AcDbHatch
 10
0.0
 20
0.0
 30
0.0
210
0.0
220
0.0
230
1.0
  2
SOLID
 70
     1
 71
     1
 91
        1
 92
        7
 72
     0
 73
     1
 93
        4
 10
36171.77639241
 20
-1233.96457888
 10
36134.18868758
 20
-1247.64538461
 10
36143.42323145
 20
-1273.01708537
 10
36181.00955972
 20
-1259.33249757
 97
        1
330
3EB
 75
     0
 76
     2
 47
0.775229
 98
        1
 10
0.0
 20
0.0
  0
LWPOLYLINE
  5
3ED
102
{ACAD_REACTORS
330
3EE
102
}
100
AcDbEntity
  8
Ech.1_5
 62
   190
  6
CONTINUOUS
370
    -3
100
AcDbPolyline
 90
        4
 70
     1
 43
0.0
 10
35833.15312207
 20
-1357.32216543
 10
35795.61589985
 20
-1370.98459699
 10
35804.82787823
 20
-1396.29429958
 10
35842.36372574
 20
-1382.62809102
  0
HATCH
  5
3EE
100
AcDbEntity
  8
Ech.1_5
 62
   254
  6
CONTINUOUS
100
AcDbHatch
 10
0.0
 20
0.0
 30
0.0
210
0.0
220
0.0
230
1.0
  2
SOLID
 70
     1
 71
     1
 91
        1
 92
        7
 72
     0
 73
     1
 93
        4
 10
35833.15312207
 20
-1357.32216543
 10
35795.61589985
 20
-1370.98459699
 10
35804.82787823
 20
-1396.29429958
 10
35842.36372574
 20
-1382.62809102
 97
        1
330
3ED
 75
     0
 76
     2
 47
0.775229
 98
        1
 10
0.0
 20
0.0
  0
LWPOLYLINE
  5
3EF
102
{ACAD_REACTORS
330
3F0
102
}
100
AcDbEntity
  8
Ech.1_5
 62
   190
  6
CONTINUOUS
370
    -3
100
AcDbPolyline
 90
        4
 70
     1
 43
0.0
 10
35494.54536814
 20
-1480.56530895
 10
35456.95766331
 20
-1494.24611469
 10
35466.18204425
 20
-1519.58989303
 10
35503.76837252
 20
-1505.90530523
  0
HATCH
  5
3F0
100
AcDbEntity
  8
Ech.1_5
 62
   254
  6
CONTINUOUS
100
AcDbHatch
 10
0.0
 20
0.0
 30
0.0
210
0.0
220
0.0
230
1.0
  2
SOLID
 70
     1
 71
     1
 91
        1
 92
        7
 72
     0
 73
     1
 93
        4
 10
35494.54536814
 20
-1480.56530895
 10
35456.95766331
 20
-1494.24611469
 10
35466.18204425
 20
-1519.58989303
 10
35503.76837252
 20
-1505.90530523
 97
        1
330
3EF
 75
     0
 76
     2
 47
0.775229
 98
        1
 10
0.0
 20
0.0
  0
LWPOLYLINE
  5
3F1
102
{ACAD_REACTORS
330
3F2
102
}
100
AcDbEntity
  8
Ech.1_5
 62
   190
  6
CONTINUOUS
370
    -3
100
AcDbPolyline
 90
        4
 70
     1
 43
0.0
 10
35210.9551736
 20
-1559.2991708
 10
35174.87863692
 20
-1568.97586516
 10
35174.89576133
 20
-1625.64096099
 10
35227.62672914
 20
-1606.4424494
  0
HATCH
  5
3F2
100
AcDbEntity
  8
Ech.1_5
 62
   254
  6
CONTINUOUS
100
AcDbHatch
 10
0.0
 20
0.0
 30
0.0
210
0.0
220
0.0
230
1.0
  2
SOLID
 70
     1
 71
     1
 91
        1
 92
        7
 72
     0
 73
     1
 93
        4
 10
35210.9551736
 20
-1559.2991708
 10
35174.87863692
 20
-1568.97586516
 10
35174.89576133
 20
-1625.64096099
 10
35227.62672914
 20
-1606.4424494
 97
        1
330
3F1
 75
     0
 76
     2
 47
0.775229
 98
        1
 10
0.0
 20
0.0
  0
LWPOLYLINE
  5
3F3
100
AcDbEntity
  8
Ech.1_5
 62
   190
  6
CONTINUOUS
370
    -3
100
AcDbPolyline
 90
        4
 70
     0
 43
0.0
 10
35210.9551736
 20
-1559.2991708
 10
35174.89576135
 20
-1625.64105107
 10
35227.62421979
 20
-1606.4494617
 10
35174.87863692
 20
-1568.97586516
  0
LWPOLYLINE
  5
3F4
100
AcDbEntity
  8
Ech.1_5
 62
   190
  6
CONTINUOUS
370
    -3
100
AcDbPolyline
 90
        4
 70
     0
 43
0.0
 10
35494.54536814
 20
-1480.56530895
 10
35466.19220718
 20
-1519.61781545
 10
35503.77991201
 20
-1505.93700971
 10
35456.95766331
 20
-1494.24611469
  0
LWPOLYLINE
  5
3F5
100
AcDbEntity
  8
Ech.1_5
 62
   190
  6
CONTINUOUS
370
    -3
100
AcDbPolyline
 90
        4
 70
     0
 43
0.0
 10
35833.15312207
 20
-1357.32216543
 10
35804.79996111
 20
-1396.37467192
 10
35842.38766594
 20
-1382.69386619
 10
35795.56541724
 20
-1371.00297116
  0
LWPOLYLINE
  5
3F6
100
AcDbEntity
  8
Ech.1_5
 62
   190
  6
CONTINUOUS
370
    -3
100
AcDbPolyline
 90
        4
 70
     0
 43
0.0
 10
36171.73831237
 20
-1234.01702881
 10
36143.3851514
 20
-1273.0695353
 10
36180.97285624
 20
-1259.38872957
 10
36134.15060753
 20
-1247.69783454
  0
LWPOLYLINE
  5
3F7
100
AcDbEntity
  8
Ech.1_5
 62
   190
  6
CONTINUOUS
370
    -3
100
AcDbPolyline
 90
        4
 70
     0
 43
0.0
 10
36510.33889117
 20
-1110.77561794
 10
36481.98573021
 20
-1149.82812443
 10
36519.57343504
 20
-1136.1473187
 10
36472.75118634
 20
-1124.45642367
  0
LWPOLYLINE
  5
3F8
102
{ACAD_REACTORS
330
3F9
102
}
100
AcDbEntity
  8
Ech.1_5
 62
   190
  6
CONTINUOUS
370
    -3
100
AcDbPolyline
 90
       23
 70
     1
 43
0.0
 10
35498.29634873
 20
-1478.96133576
 10
35504.4052635
 20
-1501.73651904
 10
35528.13792779
 20
-1495.3707822
 10
35515.53366913
 20
-1443.17497525
 10
35506.08925067
 20
-1445.45561617
 10
35508.6669502
 20
-1456.13019138
 10
35491.71442986
 20
-1460.22389092
 10
35489.13673034
 20
-1449.54931571
 10
35479.69231187
 20
-1451.82995663
 10
35482.2700114
 20
-1462.50453184
 10
35459.15571302
 20
-1468.08617934
 10
35449.69192504
 20
-1428.8954531
 10
35446.02521318
 20
-1413.71114204
 10
35119.63777876
 20
-1492.52727473
 42
0.41421356
 10
35103.18995585
 20
-1519.44766682
 10
35111.0841711
 20
-1552.13859663
 10
35120.12650382
 20
-1589.58402404
 10
35140.42905716
 20
-1584.68135755
 10
35137.89580448
 20
-1574.19084232
 10
35153.68046156
 20
-1570.02002425
 10
35156.17587868
 20
-1580.35385774
 10
35166.6350765
 20
-1577.54842047
 10
35164.45184398
 20
-1568.50738236
  0
HATCH
  5
3F9
100
AcDbEntity
  8
Ech.1_5
 62
    15
  6
CONTINUOUS
100
AcDbHatch
 10
0.0
 20
0.0
 30
0.0
210
0.0
220
0.0
230
1.0
  2
SOLID
 70
     1
 71
     1
 91
        1
 92
        7
 72
     1
 73
     1
 93
       23
 10
35498.29634873
 20
-1478.96133576
 42
0.0
 10
35504.4052635
 20
-1501.73651904
 42
0.0
 10
35528.13792779
 20
-1495.3707822
 42
0.0
 10
35515.53366913
 20
-1443.17497525
 42
0.0
 10
35506.08925067
 20
-1445.45561617
 42
0.0
 10
35508.6669502
 20
-1456.13019138
 42
0.0
 10
35491.71442986
 20
-1460.22389092
 42
0.0
 10
35489.13673034
 20
-1449.54931571
 42
0.0
 10
35479.69231187
 20
-1451.82995663
 42
0.0
 10
35482.2700114
 20
-1462.50453184
 42
0.0
 10
35459.15571302
 20
-1468.08617934
 42
0.0
 10
35449.69192504
 20
-1428.8954531
 42
0.0
 10
35446.02521318
 20
-1413.71114204
 42
0.0
 10
35119.63777876
 20
-1492.52727473
 42
0.41421356
 10
35103.18995585
 20
-1519.44766682
 42
0.0
 10
35111.0841711
 20
-1552.13859663
 42
0.0
 10
35120.12650382
 20
-1589.58402404
 42
0.0
 10
35140.42905716
 20
-1584.68135755
 42
0.0
 10
35137.89580448
 20
-1574.19084232
 42
0.0
 10
35153.68046156
 20
-1570.02002425
 42
0.0
 10
35156.17587868
 20
-1580.35385774
 42
0.0
 10
35166.6350765
 20
-1577.54842047
 42
0.0
 10
35164.45184398
 20
-1568.50738236
 42
0.0
 97
        1
330
3F8
 75
     0
 76
     2
 47
0.775229
 98
        1
 10
0.0
 20
0.0
  0
LINE
  5
3FA
100
AcDbEntity
  8
Ech.1_5
 62
   190
  6
CONTINUOUS
370
    -3
100
AcDbLine
 10
35111.0841711
 20
-1552.13859663
 30
0.0
 11
35459.15571302
 21
-1468.08617934
 31
0.0
  0
LWPOLYLINE
  5
3FB
102
{ACAD_REACTORS
330
3FC
102
}
100
AcDbEntity
  8
Ech.1_5
 62
   190
  6
CONTINUOUS
100
AcDbPolyline
 90
        3
 70
     1
 43
0.0
 10
35534.64379617
 20
-1882.23446135
 10
35521.41828719
 20
-1898.70187233
 10
35538.41987867
 20
-1886.91478946
  0
HATCH
  5
3FC
100
AcDbEntity
  8
Ech.1_5
 62
   190
  6
CONTINUOUS
100
AcDbHatch
 10
0.0
 20
0.0
 30
0.0
210
0.0
220
0.0
230
1.0
  2
SOLID
 70
     1
 71
     1
 91
        1
 92
        7
 72
     0
 73
     1
 93
        3
 10
35534.64379617
 20
-1882.23446135
 10
35521.41828719
 20
-1898.70187233
 10
35538.41987867
 20
-1886.91478946
 97
        1
330
3FB
 75
     0
 76
     2
 47
0.775229
 98
        1
 10
0.0
 20
0.0
  0
LWPOLYLINE
  5
3FD
100
AcDbEntity
  8
Ech.1_5
 62
     5
  6
CONTINUOUS
370
    -3
100
AcDbPolyline
 90
        5
 70
     0
 43
0.0
 10
35800.07062057
 20
-2002.91014658
 10
35840.07062057
 20
-2002.91014658
 10
35840.07062057
 20
-1957.91014658
 10
35800.07062057
 20
-1957.91014658
 10
35800.07062057
 20
-2002.91014658
  0
LWPOLYLINE
  5
3FE
100
AcDbEntity
  8
Ech.1_5
 62
     5
  6
CONTINUOUS
370
    -3
100
AcDbPolyline
 90
        5
 70
     0
 43
0.0
 10
36312.96001768
 20
-1822.91030908
 10
36312.96001768
 20
-1762.91030908
 10
36270.96001768
 20
-1762.91030908
 10
36270.96001768
 20
-1822.91030908
 10
36312.96001768
 20
-1822.91030908
  0
LWPOLYLINE
  5
3FF
100
AcDbEntity
  8
Ech.1_5
 62
     5
  6
CONTINUOUS
370
    -3
100
AcDbPolyline
 90
        7
 70
     0
 43
0.0
 10
35620.07473342
 20
-1762.91030908
 10
35665.07473342
 20
-1762.91030908
 10
35665.07473342
 20
-1672.91030908
 10
35641.49337441
 20
-1672.91030908
 10
35620.07473342
 20
-1672.91030908
 10
35620.07473342
 20
-1762.91030908
 10
35641.09755694
 20
-1762.91030908
  0
LWPOLYLINE
  5
400
100
AcDbEntity
  8
Ech.1_5
 62
     5
  6
CONTINUOUS
370
    -3
100
AcDbPolyline
 90
        5
 70
     0
 43
0.0
 10
35183.27720402
 20
-1762.91030908
 10
35223.27720402
 20
-1762.91030908
 10
35223.27720402
 20
-1789.91030908
 10
35183.27720402
 20
-1789.91030908
 10
35183.27720402
 20
-1762.91030908
  0
LWPOLYLINE
  5
401
100
AcDbEntity
  8
Ech.1_5
 62
     5
  6
CONTINUOUS
370
    -3
100
AcDbPolyline
 90
        5
 70
     0
 43
0.0
 10
35507.75490351
 20
-1762.91030908
 10
35547.75490351
 20
-1762.91030908
 10
35547.75490351
 20
-1789.91030908
 10
35507.75490351
 20
-1789.91030908
 10
35507.75490351
 20
-1762.91030908
  0
LWPOLYLINE
  5
402
100
AcDbEntity
  8
Ech.1_5
 62
     5
  6
CONTINUOUS
370
    -3
100
AcDbPolyline
 90
        5
 70
     0
 43
0.0
 10
35456.95766331
 20
-1494.24611469
 10
35494.54536814
 20
-1480.56530895
 10
35503.77991201
 20
-1505.93700971
 10
35466.19220718
 20
-1519.61781545
 10
35456.95766331
 20
-1494.24611469
  0
LWPOLYLINE
  5
403
100
AcDbEntity
  8
Ech.1_5
 62
     5
  6
CONTINUOUS
370
    -3
100
AcDbPolyline
 90
        5
 70
     0
 43
0.0
 10
35174.87863692
 20
-1568.97586516
 10
35210.9551736
 20
-1559.2991708
 10
35227.62864001
 20
-1606.44785288
 10
35174.89576135
 20
-1625.64105107
 10
35174.87863692
 20
-1568.97586516
  0
LWPOLYLINE
  5
404
100
AcDbEntity
  8
Ech.1_5
 62
     5
  6
CONTINUOUS
370
    -3
100
AcDbPolyline
 90
        5
 70
     0
 43
0.0
 10
35795.60349729
 20
-1370.95052123
 10
35833.19120212
 20
-1357.2697155
 10
35842.42574599
 20
-1382.64141626
 10
35804.83804116
 20
-1396.32222199
 10
35795.60349729
 20
-1370.95052123
  0
LWPOLYLINE
  5
405
100
AcDbEntity
  8
Ech.1_5
 62
     5
  6
CONTINUOUS
370
    -3
100
AcDbPolyline
 90
        5
 70
     0
 43
0.0
 10
36134.18868758
 20
-1247.64538461
 10
36171.77639241
 20
-1233.96457888
 10
36181.01093628
 20
-1259.33627964
 10
36143.42323145
 20
-1273.01708537
 10
36134.18868758
 20
-1247.64538461
  0
LWPOLYLINE
  5
406
100
AcDbEntity
  8
Ech.1_5
 62
     5
  6
CONTINUOUS
370
    -3
100
AcDbPolyline
 90
        5
 70
     0
 43
0.0
 10
36472.78926639
 20
-1124.40397374
 10
36510.37697122
 20
-1110.72316801
 10
36519.61151509
 20
-1136.09486877
 10
36482.02381026
 20
-1149.7756745
 10
36472.78926639
 20
-1124.40397374
  0
LINE
  5
407
100
AcDbEntity
  8
Ech.1_5
 62
     1
  6
CADWORK_22
 48
-5.0
370
    35
100
AcDbLine
 10
35801.57062057
 20
-2012.70074895
 30
0.0
 11
35801.57062057
 21
-1762.91030908
 31
0.0
  0
LWPOLYLINE
  5
408
100
AcDbEntity
  8
Ech.1_5
 62
     1
  6
CADWORK_22
 48
-5.0
370
    35
100
AcDbPolyline
 90
        3
 70
     0
 43
0.0
 10
35807.30549197
 20
-1798.50898601
 10
35807.30549197
 20
-1764.91030908
 10
36828.00153806
 20
-1764.91030908
  0
LWPOLYLINE
  5
409
100
AcDbEntity
  8
Ech.1_5
 62
   150
  6
CADWORK_22
370
    35
100
AcDbPolyline
 90
        4
 70
     0
 43
0.0
 38
2500.0
 10
35181.65425794
 20
-1647.68714758
 10
35232.69971769
 20
-1628.83218194
 10
35239.62802553
 20
-1629.21696692
 10
36828.00153806
 20
-1051.09628746
  0
LWPOLYLINE
  5
40A
100
AcDbEntity
  8
Ech.1_5
 62
   190
  6
CONTINUOUS
370
    -3
100
AcDbPolyline
 90
        3
 70
     0
 43
0.0
 10
36291.96001768
 20
-1792.91030908
 10
36241.16976299
 20
-1962.129274
 10
36221.16976299
 20
-1962.129274
  0
INSERT
  5
40B
100
AcDbEntity
  8
Ech.1_5
 62
   190
  6
CONTINUOUS
370
    -3
100
AcDbBlockReference
  2
CDWK_EXTR_4
 10
36291.96001768
 20
-1792.91030908
 30
0.0
 41
5.0
 42
5.0
 43
5.0
 50
253.29312532
  0
LWPOLYLINE
  5
40C
100
AcDbEntity
  8
Ech.1_5
 62
   190
  6
CONTINUOUS
370
    -3
100
AcDbPolyline
 90
        3
 70
     0
 43
0.0
 10
35253.7618467
 20
-1795.5152609
 10
35199.80222268
 20
-1881.02161687
 10
35179.80222268
 20
-1881.02161687
  0
INSERT
  5
40D
100
AcDbEntity
  8
Ech.1_5
 62
   190
  6
CONTINUOUS
370
    -3
100
AcDbBlockReference
  2
CDWK_EXTR_4
 10
35253.7618467
 20
-1795.5152609
 30
0.0
 41
5.0
 42
5.0
 43
5.0
 50
237.74562384
  0
LWPOLYLINE
  5
40E
100
AcDbEntity
  8
Ech.1_5
 62
   190
  6
CONTINUOUS
370
    -3
100
AcDbPolyline
 90
        3
 70
     0
 43
0.0
 10
36311.07558276
 20
-1932.50668561
 10
36279.69080547
 20
-1990.72471722
 10
36259.69080547
 20
-1990.72471722
  0
INSERT
  5
40F
100
AcDbEntity
  8
Ech.1_5
 62
   190
  6
CONTINUOUS
370
    -3
100
AcDbBlockReference
  2
CDWK_EXTR_4
 10
36311.07558276
 20
-1932.50668561
 30
0.0
 41
5.0
 42
5.0
 43
5.0
 50
241.67132275
  0
LWPOLYLINE
  5
410
100
AcDbEntity
  8
Ech.1_5
 62
   190
  6
CONTINUOUS
370
    -3
100
AcDbPolyline
 90
        3
 70
     0
 43
0.0
 10
35879.14252188
 20
-1762.72445696
 10
36022.53371381
 20
-1505.85185789
 10
36042.53371381
 20
-1505.85185789
  0
INSERT
  5
411
100
AcDbEntity
  8
Ech.1_5
 62
   190
  6
CONTINUOUS
370
    -3
100
AcDbBlockReference
  2
CDWK_EXTR_4
 10
35879.14252188
 20
-1762.72445696
 30
0.0
 41
5.0
 42
5.0
 43
5.0
 50
60.82891067
  0
LWPOLYLINE
  5
412
100
AcDbEntity
  8
Ech.1_5
 62
   190
  6
CONTINUOUS
370
    -3
100
AcDbPolyline
 90
        3
 70
     0
 43
0.0
 10
35377.49060501
 20
-1577.38854827
 10
35249.53213189
 20
-1420.47332953
 10
35229.53213189
 20
-1420.47332953
  0
INSERT
  5
413
100
AcDbEntity
  8
Ech.1_5
 62
   190
  6
CONTINUOUS
370
    -3
100
AcDbBlockReference
  2
CDWK_EXTR_4
 10
35377.49060501
 20
-1577.38854827
 30
0.0
 41
5.0
 42
5.0
 43
5.0
 50
129.19595263
  0
LWPOLYLINE
  5
414
100
AcDbEntity
  8
Ech.1_5
 62
   190
  6
CONTINUOUS
370
    -3
100
AcDbPolyline
 90
        3
 70
     0
 43
0.0
 10
35668.34848856
 20
-1602.78881895
 10
35411.56035523
 20
-1356.00783588
 10
35391.56035523
 20
-1356.00783588
  0
INSERT
  5
415
100
AcDbEntity
  8
Ech.1_5
 62
   190
  6
CONTINUOUS
370
    -3
100
AcDbBlockReference
  2
CDWK_EXTR_4
 10
35668.34848856
 20
-1602.78881895
 30
0.0
 41
5.0
 42
5.0
 43
5.0
 50
136.13845746
  0
MTEXT
  5
416
100
AcDbEntity
  8
Ech.1_5
 62
     4
100
AcDbMText
 10
36193.17443547
 20
-1604.6578597
 30
0.0
 11
1.0
 21
0.0
 31
0.0
 40
11.49999976
 41
118.53297396
 71
     1
 72
     1
  1
\fArial|b1|i0|c0|p18;\H11.25;\W1;\C190;* en résistance thermique
  0
LINE
  5
417
100
AcDbEntity
  8
Ech.1_5
 48
0.2
100
AcDbLine
 10
35848.03498051
 20
-1900.97868054
 30
0.0
 11
35848.03498051
 21
-1770.41865794
 31
0.0
  0
LINE
  5
418
100
AcDbEntity
  8
Ech.1_5
  6
DASHEDX2
 48
0.2
100
AcDbLine
 10
35848.03498051
 20
-1900.97868054
 30
0.0
 11
35848.03498051
 21
-1924.91014658
 31
0.0
  0
LWPOLYLINE
  5
419
100
AcDbEntity
  8
Ech.1_5
 62
   190
  6
CONTINUOUS
370
    -3
100
AcDbPolyline
 90
        5
 70
     0
 43
0.0
 10
36349.8209162
 20
-2269.29641299
 10
36349.8209162
 20
-1284.29641299
 10
34994.8209162
 20
-1284.29641299
 10
34994.8209162
 20
-2269.29641299
 10
36349.8209162
 20
-2269.29641299
  0
LWPOLYLINE
  5
41A
100
AcDbEntity
  8
Ech.1_5
 62
   190
  6
CONTINUOUS
370
    -3
100
AcDbPolyline
 90
      175
 70
     0
 43
0.0
 10
35311.85080045
 20
-1947.00624992
 10
35314.62372473
 20
-1942.52397866
 10
35317.3507378
 20
-1938.0359338
 10
35319.98592845
 20
-1933.53634172
 10
35322.48338547
 20
-1929.01942883
 10
35324.79719767
 20
-1924.47942153
 10
35326.88145381
 20
-1919.9105462
 10
35328.69024271
 20
-1915.30702924
 10
35330.17765315
 20
-1910.66309705
 10
35331.29777391
 20
-1905.97297603
 10
35332.0046938
 20
-1901.23089256
 10
35332.26768549
 20
-1896.43323694
 10
35332.12358142
 20
-1891.58602749
 10
35331.62799746
 20
-1886.69795943
 10
35330.83655025
 20
-1881.77772807
 10
35329.80485642
 20
-1876.83402871
 10
35328.58853261
 20
-1871.87555668
 10
35327.24319545
 20
-1866.91100728
 10
35325.82446157
 20
-1861.94907583
 10
35324.3879476
 20
-1856.99845763
 10
35322.98927018
 20
-1852.06784801
 10
35321.67710673
 20
-1847.16297306
 10
35320.46893066
 20
-1842.27620701
 10
35319.37344811
 20
-1837.3961727
 10
35318.39936478
 20
-1832.51149275
 10
35317.55538636
 20
-1827.61078979
 10
35316.85021856
 20
-1822.68268646
 10
35316.29253145
 20
-1817.71594434
 10
35315.88886593
 20
-1812.70763348
 10
35315.64246696
 20
-1807.66768515
 10
35315.5562965
 20
-1802.60713501
 10
35315.63331651
 20
-1797.53701874
 10
35315.87648893
 20
-1792.46837199
 10
35316.28877571
 20
-1787.41223042
 10
35316.87313881
 20
-1782.3796297
 10
35317.63254017
 20
-1777.38160549
 10
35318.56994176
 20
-1772.42919345
 10
35319.68830553
 20
-1767.53342925
 10
35320.99059341
 20
-1762.70534854
 10
35322.47976738
 20
-1757.95598699
 10
35324.15812196
 20
-1753.29551193
 10
35326.02144585
 20
-1748.72562606
 10
35328.06185754
 20
-1744.24325695
 10
35330.27143421
 20
-1739.84527842
 10
35332.64225305
 20
-1735.52856427
 10
35335.16639125
 20
-1731.28998831
 10
35337.83592598
 20
-1727.12642434
 10
35340.64293443
 20
-1723.03474617
 10
35343.57949379
 20
-1719.01182761
 10
35346.63768125
 20
-1715.05454247
 10
35349.80957397
 20
-1711.15976455
 10
35353.08724916
 20
-1707.32436766
 10
35356.46278399
 20
-1703.54522562
 10
35359.92825565
 20
-1699.81921222
 10
35363.47574132
 20
-1696.14320127
 10
35367.09731818
 20
-1692.51406659
 10
35370.78506343
 20
-1688.92868197
 10
35374.53105424
 20
-1685.38392123
 10
35378.32736781
 20
-1681.87665818
 10
35382.1660813
 20
-1678.40376662
 10
35386.03927192
 20
-1674.96212035
 10
35389.93901683
 20
-1671.5485932
 10
35393.85739324
 20
-1668.16005895
 10
35397.78647831
 20
-1664.79339143
 10
35401.71834924
 20
-1661.44546444
 10
35405.64549822
 20
-1658.11333926
 10
35409.56567982
 20
-1654.79645433
 10
35413.48026391
 20
-1651.49588126
 10
35417.39069137
 20
-1648.21272369
 10
35421.29840304
 20
-1644.94808529
 10
35425.20483977
 20
-1641.70306971
 10
35429.11144242
 20
-1638.4787806
 10
35433.01965185
 20
-1635.27632161
 10
35436.93090891
 20
-1632.09679641
 10
35440.84665445
 20
-1628.94130864
 10
35444.76832933
 20
-1625.81096197
 10
35448.69737441
 20
-1622.70686004
 10
35452.63523053
 20
-1619.63010651
 10
35456.58333855
 20
-1616.58180503
 10
35460.54313933
 20
-1613.56305926
 10
35464.51607372
 20
-1610.57497286
 10
35468.50358258
 20
-1607.61864947
 10
35472.50710675
 20
-1604.69519276
 10
35476.5280871
 20
-1601.80570637
 10
35480.56796448
 20
-1598.95129397
 10
35484.62817974
 20
-1596.1330592
 10
35488.71017374
 20
-1593.35210572
 10
35492.81538734
 20
-1590.60953718
 10
35496.94526137
 20
-1587.90645725
 10
35501.10123671
 20
-1585.24396957
 10
35505.28475421
 20
-1582.6231778
 10
35509.49725471
 20
-1580.0451856
 10
35513.73989627
 20
-1577.5107928
 10
35518.01212437
 20
-1575.01895954
 10
35522.31274319
 20
-1572.56795701
 10
35526.64055578
 20
-1570.1560552
 10
35530.99436521
 20
-1567.78152412
 10
35535.37297453
 20
-1565.44263375
 10
35539.77518679
 20
-1563.13765409
 10
35544.19980507
 20
-1560.86485513
 10
35548.6456324
 20
-1558.62250687
 10
35553.11147186
 20
-1556.4088793
 10
35557.5961265
 20
-1554.22224242
 10
35562.09839937
 20
-1552.06086622
 10
35566.61709354
 20
-1549.9230207
 10
35571.15101206
 20
-1547.80697584
 10
35575.69895799
 20
-1545.71100165
 10
35580.25973438
 20
-1543.63336812
 10
35584.8321443
 20
-1541.57234525
 10
35589.41499081
 20
-1539.52620302
 10
35594.00707695
 20
-1537.49321143
 10
35598.60720579
 20
-1535.47164048
 10
35603.21418038
 20
-1533.45976016
 10
35607.82680379
 20
-1531.45584047
 10
35612.44387906
 20
-1529.45815139
 10
35617.06420927
 20
-1527.46496293
 10
35621.68659746
 20
-1525.47454508
 10
35626.30984669
 20
-1523.48516783
 10
35630.93276002
 20
-1521.49510118
 10
35635.55414051
 20
-1519.50261513
 10
35640.17279122
 20
-1517.50597965
 10
35644.7875152
 20
-1515.50346476
 10
35649.39711551
 20
-1513.49334045
 10
35654.00039521
 20
-1511.4738767
 10
35658.59615735
 20
-1509.44334352
 10
35663.18320547
 20
-1507.40001174
 10
35667.76097393
 20
-1505.34329096
 10
35672.33077321
 20
-1503.27597737
 10
35676.89426097
 20
-1501.20149386
 10
35681.45309486
 20
-1499.12326333
 10
35686.00893256
 20
-1497.0447087
 10
35690.56343172
 20
-1494.96925287
 10
35695.11825
 20
-1492.90031872
 10
35699.67504507
 20
-1490.84132918
 10
35704.23547459
 20
-1488.79570714
 10
35708.80119621
 20
-1486.7668755
 10
35713.3738676
 20
-1484.75825717
 10
35717.95514642
 20
-1482.77327504
 10
35722.54669033
 20
-1480.81535203
 10
35727.15015699
 20
-1478.88791103
 10
35731.76720407
 20
-1476.99437494
 10
35736.39948922
 20
-1475.13816667
 10
35741.04866814
 20
-1473.32270504
 10
35745.71567181
 20
-1471.54990658
 10
35750.39962865
 20
-1469.81795119
 10
35755.09939152
 20
-1468.12444757
 10
35759.81381328
 20
-1466.46700442
 10
35764.54174681
 20
-1464.84323046
 10
35769.28204499
 20
-1463.25073437
 10
35774.03356066
 20
-1461.68712487
 10
35778.79514671
 20
-1460.15001066
 10
35783.565656
 20
-1458.63700044
 10
35788.3439414
 20
-1457.14570293
 10
35793.12885578
 20
-1455.67372681
 10
35797.919252
 20
-1454.2186808
 10
35802.71398294
 20
-1452.7781736
 10
35807.51190147
 20
-1451.34981391
 10
35812.31190494
 20
-1449.93128991
 10
35817.11347754
 20
-1448.52133782
 10
35821.91651792
 20
-1447.11943407
 10
35826.72093343
 20
-1445.72507067
 10
35831.52663143
 20
-1444.3377396
 10
35836.33351926
 20
-1442.95693286
 10
35841.1415043
 20
-1441.58214246
 10
35845.95049388
 20
-1440.21286038
 10
35850.76039537
 20
-1438.84857863
 10
35855.57111613
 20
-1437.48878921
 10
35860.38256351
 20
-1436.1329841
 10
35865.19464486
 20
-1434.78065531
 10
35870.00726754
 20
-1433.43129484
 10
35874.82033891
 20
-1432.08439468
 10
35879.63376632
 20
-1430.73944682
 10
35884.44745713
 20
-1429.39594328
 10
35889.26131869
 20
-1428.05337604
 10
35893.3199838
 20
-1426.92180154
  0
LINE
  5
41B
100
AcDbEntity
  8
Ech.1_5
 62
   190
  6
CONTINUOUS
370
    -3
100
AcDbLine
 10
35893.3199838
 20
-1426.92180154
 30
0.0
 11
35876.11423014
 21
-1439.51643748
 31
0.0
  0
LINE
  5
41C
100
AcDbEntity
  8
Ech.1_5
 62
   190
  6
CONTINUOUS
370
    -3
100
AcDbLine
 10
35893.3199838
 20
-1426.92180154
 30
0.0
 11
35871.46582466
 21
-1426.23525639
 31
0.0
  0
LWPOLYLINE
  5
41D
100
AcDbEntity
  8
Ech.1_5
 62
   190
  6
CONTINUOUS
370
    -3
100
AcDbPolyline
 90
        4
 70
     1
 43
0.0
 10
35364.8209162
 20
-2036.36637792
 10
36349.8209162
 20
-2036.36637792
 10
36349.8209162
 20
-2269.29641299
 10
35364.8209162
 20
-2269.29641299
  0
MTEXT
  5
41E
100
AcDbEntity
  8
Ech.1_5
 62
     4
100
AcDbMText
 10
35715.18069616
 20
-2135.32227372
 30
0.0
 11
1.0
 21
0.0
 31
0.0
 40
12.5
 41
488.84288464
 71
     1
 72
     1
  1
\fArial|b0|i0|c0|p18;\H12.5;\W1;\C190;Vue en coupe verticale
  0
MTEXT
  5
41F
100
AcDbEntity
  8
Ech.1_5
 62
     4
100
AcDbMText
 10
36216.0235808
 20
-2135.15509723
 30
0.0
 11
1.0
 21
0.0
 31
0.0
 40
12.5
 41
127.79733541
 71
     1
 72
     1
  1
\fArial|b0|i0|c0|p18;\H12.5;\W1;\C190;Ech 1/5
  0
MTEXT
  5
420
100
AcDbEntity
  8
Ech.1_5
 62
     4
100
AcDbMText
 10
35559.02547817
 20
-2134.88334092
 30
0.0
 11
1.0
 21
0.0
 31
0.0
 40
12.5
 41
144.155218
 71
     1
 72
     1
  1
\fArial|b0|i0|c0|p18;\H12.5;\W1;\C190;CI04-03
  0
MTEXT
  5
421
100
AcDbEntity
  8
Ech.1_5
 62
     4
100
AcDbMText
 10
35370.8209162
 20
-2134.98922359
 30
0.0
 11
1.0
 21
0.0
 31
0.0
 40
12.5
 41
176.20456196
 71
     1
 72
     1
  1
\fArial|b0|i0|c0|p18;\H12.5;\W1;\C190;13/04/2017
  0
MTEXT
  5
422
100
AcDbEntity
  8
Ech.1_5
 62
     4
100
AcDbMText
 10
35368.8209162
 20
-2157.77745826
 30
0.0
 11
1.0
 21
0.0
 31
0.0
 40
8.99999976
 41
977.0
 71
     1
 72
     1
  3
\fArial|b0|i1|c0|p18;\H8.75;\W1;\C190; Il est rappelé à l'utilisateur qui consulte le site et utilise les informations qu'il contient, qu'il doit les utiliser sous sa seule responsabilité en vérifiant leur pertinence, leur cohérence et leur non obsol
  1
\fArial|b0|i1|c0|p18;\H8.75;\W1;\C190;escence.
  0
MTEXT
  5
423
100
AcDbEntity
  8
Ech.1_5
 62
     4
100
AcDbMText
 10
35369.8209162
 20
-2192.00448615
 30
0.0
 11
1.0
 21
0.0
 31
0.0
 40
12.00000048
 41
975.0
 71
     1
 72
     1
  1
\fArial|b0|i1|c0|p18;\H11.875;\W1;\C190;www.catalogue-construction-bois.fr
  0
LWPOLYLINE
  5
424
100
AcDbEntity
  8
Ech.1_5
 62
   190
  6
CONTINUOUS
370
    -3
100
AcDbPolyline
 90
        5
 70
     0
 43
0.0
 10
36349.8209162
 20
-2131.88334092
 10
35364.8209162
 20
-2131.88334092
 10
35364.8209162
 20
-2036.36637792
 10
36349.8209162
 20
-2036.36637792
 10
36349.8209162
 20
-2131.88334092
  0
LWPOLYLINE
  5
425
100
AcDbEntity
  8
Ech.1_5
 62
   190
  6
CONTINUOUS
370
    -3
100
AcDbPolyline
 90
        5
 70
     0
 43
0.0
 10
36349.8209162
 20
-2153.88334092
 10
35364.8209162
 20
-2153.88334092
 10
35364.8209162
 20
-2131.88334092
 10
36349.8209162
 20
-2131.88334092
 10
36349.8209162
 20
-2153.88334092
  0
LWPOLYLINE
  5
426
100
AcDbEntity
  8
Ech.1_5
 62
   190
  6
CONTINUOUS
370
    -3
100
AcDbPolyline
 90
        5
 70
     0
 43
0.0
 10
36349.8209162
 20
-2210.75448615
 10
35364.8209162
 20
-2210.75448615
 10
35364.8209162
 20
-2187.02745784
 10
36349.8209162
 20
-2187.02745784
 10
36349.8209162
 20
-2210.75448615
  0
LINE
  5
427
100
AcDbEntity
  8
Ech.1_5
 62
   190
  6
CONTINUOUS
370
    -3
100
AcDbLine
 10
35553.02547817
 20
-2131.88334092
 30
0.0
 11
35553.02547817
 21
-2153.88334092
 31
0.0
  0
LINE
  5
428
100
AcDbEntity
  8
Ech.1_5
 62
   190
  6
CONTINUOUS
370
    -3
100
AcDbLine
 10
36210.0235808
 20
-2131.88334092
 30
0.0
 11
36210.0235808
 21
-2153.88334092
 31
0.0
  0
LINE
  5
429
100
AcDbEntity
  8
Ech.1_5
 62
   190
  6
CONTINUOUS
370
    -3
100
AcDbLine
 10
35709.18069616
 20
-2131.88334092
 30
0.0
 11
35709.18069616
 21
-2153.88334092
 31
0.0
  0
MTEXT
  5
42A
100
AcDbEntity
  8
Ech.1_5
 62
     4
100
AcDbMText
 10
35372.8209162
 20
-2044.36637792
 30
0.0
 11
1.0
 21
0.0
 31
0.0
 40
16.49999976
 41
969.0
 71
     1
 72
     1
  1
\fArial|b1|i0|c0|p18;\H16.25;\W1;\C190;CHARPENTE INDUSTRIELLE TYPE 4: Combles perdus
  0
MTEXT
  5
42B
100
AcDbEntity
  8
Ech.1_5
 62
     4
100
AcDbMText
 10
35372.8209162
 20
-2075.72334108
 30
0.0
 11
1.0
 21
0.0
 31
0.0
 40
16.49999976
 41
969.0
 71
     1
 72
     1
  1
\fArial|b0|i0|c0|p18;\H16.25;\W1;\C190;Débord droit
  0
MTEXT
  5
42C
100
AcDbEntity
  8
Ech.1_5
 62
     4
100
AcDbMText
 10
35372.8209162
 20
-2107.38334092
 30
0.0
 11
1.0
 21
0.0
 31
0.0
 40
16.49999976
 41
969.0
 71
     1
 72
     1
  1
\fArial|b0|i0|c0|p18;\H16.25;\W1;\C190;Débord de toit
  0
MTEXT
  5
42D
100
AcDbEntity
  8
Ech.1_5
 62
     4
100
AcDbMText
 10
35055.84725921
 20
-1621.12694211
 30
0.0
 11
1.0
 21
0.0
 31
0.0
 40
13.50000024
 41
89.49013227
 71
     1
 72
     1
  1
\fArial|b0|i0|c0|p18;\H13.75;\W1;\C190;Ventilation
  0
MTEXT
  5
42E
100
AcDbEntity
  8
Ech.1_5
 62
     4
100
AcDbMText
 10
35343.86159866
 20
-1889.50829704
 30
0.0
 11
1.0
 21
0.0
 31
0.0
 40
13.50000024
 41
90.45548754
 71
     1
 72
     1
  1
\fArial|b0|i0|c0|p18;\H13.75;\W1;\C190;Ventilation
  0
LWPOLYLINE
  5
42F
102
{ACAD_REACTORS
330
430
102
}
100
AcDbEntity
  8
Ech.1_5
 62
     7
  6
CONTINUOUS
370
    -3
100
AcDbPolyline
 90
       17
 70
     1
 43
0.0
 10
35586.07458065
 20
-2001.07381168
 10
35586.07458065
 20
-1937.07381168
 10
35582.07458065
 20
-1933.07381168
 10
35586.07458065
 20
-1929.07381168
 10
35586.07458065
 20
-1894.07381168
 10
35579.07458065
 20
-1894.07381168
 10
35579.07458065
 20
-1888.07381168
 10
35576.57458065
 20
-1883.07381168
 10
35574.07458065
 20
-1888.07381168
 10
35574.07458065
 20
-1919.00274387
 10
35573.69397832
 20
-1920.91616103
 10
35567.53904675
 20
-1927.60934559
 10
35566.07458065
 20
-1931.1448795
 10
35566.07458065
 20
-2012.70131087
 10
35586.07458065
 20
-2012.70131087
 10
35586.07458065
 20
-2009.07381168
 10
35582.07458065
 20
-2005.07381168
  0
HATCH
  5
430
100
AcDbEntity
  8
Ech.1_5
 62
    25
  6
CONTINUOUS
100
AcDbHatch
 10
0.0
 20
0.0
 30
0.0
210
0.0
220
0.0
230
1.0
  2
SOLID
 70
     1
 71
     1
 91
        1
 92
        7
 72
     0
 73
     1
 93
       17
 10
35586.07458065
 20
-2001.07381168
 10
35586.07458065
 20
-1937.07381168
 10
35582.07458065
 20
-1933.07381168
 10
35586.07458065
 20
-1929.07381168
 10
35586.07458065
 20
-1894.07381168
 10
35579.07458065
 20
-1894.07381168
 10
35579.07458065
 20
-1888.07381168
 10
35576.57458065
 20
-1883.07381168
 10
35574.07458065
 20
-1888.07381168
 10
35574.07458065
 20
-1919.00274387
 10
35573.69397832
 20
-1920.91616103
 10
35567.53904675
 20
-1927.60934559
 10
35566.07458065
 20
-1931.1448795
 10
35566.07458065
 20
-2012.70131087
 10
35586.07458065
 20
-2012.70131087
 10
35586.07458065
 20
-2009.07381168
 10
35582.07458065
 20
-2005.07381168
 97
        1
330
42F
 75
     0
 76
     2
 47
0.775229
 98
        1
 10
0.0
 20
0.0
  0
LWPOLYLINE
  5
431
102
{ACAD_REACTORS
330
432
102
}
100
AcDbEntity
  8
Ech.1_5
 62
     7
  6
CONTINUOUS
370
    -3
100
AcDbPolyline
 90
       16
 70
     1
 43
0.0
 10
35586.07458065
 20
-1823.16341459
 10
35566.07458065
 20
-1823.16341459
 10
35566.07458065
 20
-1905.23162391
 10
35567.03490305
 20
-1906.86149255
 10
35571.77102391
 20
-1909.83284249
 10
35572.18302527
 20
-1910.07381168
 10
35572.49684276
 20
-1910.07381168
 10
35572.94796353
 20
-1909.79174957
 10
35573.07458065
 20
-1909.45727578
 10
35573.07458065
 20
-1882.07381168
 10
35580.07458065
 20
-1882.07381168
 10
35580.07458065
 20
-1891.07381168
 10
35586.07458065
 20
-1891.07381168
 10
35586.07458065
 20
-1864.07381168
 10
35582.07458065
 20
-1860.07381168
 10
35586.07458065
 20
-1856.07381168
  0
HATCH
  5
432
100
AcDbEntity
  8
Ech.1_5
 62
    25
  6
CONTINUOUS
100
AcDbHatch
 10
0.0
 20
0.0
 30
0.0
210
0.0
220
0.0
230
1.0
  2
SOLID
 70
     1
 71
     1
 91
        1
 92
        7
 72
     0
 73
     1
 93
       16
 10
35586.07458065
 20
-1823.16341459
 10
35566.07458065
 20
-1823.16341459
 10
35566.07458065
 20
-1905.23162391
 10
35567.03490305
 20
-1906.86149255
 10
35571.77102391
 20
-1909.83284249
 10
35572.18302527
 20
-1910.07381168
 10
35572.49684276
 20
-1910.07381168
 10
35572.94796353
 20
-1909.79174957
 10
35573.07458065
 20
-1909.45727578
 10
35573.07458065
 20
-1882.07381168
 10
35580.07458065
 20
-1882.07381168
 10
35580.07458065
 20
-1891.07381168
 10
35586.07458065
 20
-1891.07381168
 10
35586.07458065
 20
-1864.07381168
 10
35582.07458065
 20
-1860.07381168
 10
35586.07458065
 20
-1856.07381168
 97
        1
330
431
 75
     0
 76
     2
 47
0.775229
 98
        1
 10
0.0
 20
0.0
  0
LWPOLYLINE
  5
433
100
AcDbEntity
  8
Ech.1_5
100
AcDbPolyline
 90
       17
 70
     0
 43
0.0
 10
35586.07458065
 20
-2012.70131087
 10
35586.07458065
 20
-2009.07381168
 10
35582.07458065
 20
-2005.07381168
 10
35586.07458065
 20
-2001.07381168
 10
35586.07458065
 20
-1937.07381168
 10
35582.07458065
 20
-1933.07381168
 10
35586.07458065
 20
-1929.07381168
 10
35586.07458065
 20
-1894.07381168
 10
35579.07458065
 20
-1894.07381168
 10
35579.07458065
 20
-1888.07381168
 10
35576.57458065
 20
-1883.07381168
 10
35574.07458065
 20
-1888.07381168
 10
35574.07458065
 20
-1919.00274387
 10
35573.69397832
 20
-1920.91616103
 10
35567.53904675
 20
-1927.60934559
 10
35566.07458065
 20
-1931.1448795
 10
35566.07458065
 20
-2012.70131087
  0
LWPOLYLINE
  5
434
100
AcDbEntity
  8
Ech.1_5
100
AcDbPolyline
 90
       17
 70
     0
 43
0.0
 10
35586.07458065
 20
-1823.16341459
 10
35586.07458065
 20
-1856.07381168
 10
35582.07458065
 20
-1860.07381168
 10
35586.07458065
 20
-1864.07381168
 10
35586.07458065
 20
-1891.07381168
 10
35580.07458065
 20
-1891.07381168
 10
35580.07458065
 20
-1882.07381168
 10
35573.07458065
 20
-1882.07381168
 10
35573.07458065
 20
-1909.45727578
 10
35572.94796353
 20
-1909.79174957
 10
35572.49684276
 20
-1910.07381168
 10
35572.18302527
 20
-1910.07381168
 10
35571.77102391
 20
-1909.83284249
 10
35567.03490305
 20
-1906.86149255
 10
35566.07458065
 20
-1905.23162391
 10
35566.07458065
 20
-1823.16341459
 10
35586.07458065
 20
-1823.16341459
  0
LWPOLYLINE
  5
435
102
{ACAD_REACTORS
330
436
102
}
100
AcDbEntity
  8
Ech.1_5
 62
   190
  6
CONTINUOUS
370
    -3
100
AcDbPolyline
 90
        4
 70
     1
 43
0.0
 10
35611.07458065
 20
-1817.41173812
 10
35586.07458065
 20
-1817.41173812
 10
35586.07463231
 20
-2012.70131087
 10
35611.07463231
 20
-2012.70131087
  0
HATCH
  5
436
100
AcDbEntity
  8
Ech.1_5
 62
   254
  6
CONTINUOUS
100
AcDbHatch
 10
0.0
 20
0.0
 30
0.0
210
0.0
220
0.0
230
1.0
  2
SOLID
 70
     1
 71
     1
 91
        1
 92
        7
 72
     0
 73
     1
 93
        4
 10
35611.07458065
 20
-1817.41173812
 10
35586.07458065
 20
-1817.41173812
 10
35586.07463231
 20
-2012.70131087
 10
35611.07463231
 20
-2012.70131087
 97
        1
330
435
 75
     0
 76
     2
 47
0.775229
 98
        1
 10
0.0
 20
0.0
  0
LWPOLYLINE
  5
437
100
AcDbEntity
  8
Ech.1_5
 62
   190
  6
CONTINUOUS
370
    -3
100
AcDbPolyline
 90
       41
 70
     0
 43
0.0
 10
35599.8460149
 20
-1891.55324312
 10
35599.96001055
 20
-1886.51872173
 10
35600.07640224
 20
-1881.48870934
 10
35600.19758604
 20
-1876.46771493
 10
35600.32595798
 20
-1871.4602475
 10
35600.46391412
 20
-1866.47081605
 10
35600.6138505
 20
-1861.50392957
 10
35600.77816317
 20
-1856.56409705
 10
35600.95697818
 20
-1851.65063038
 10
35601.14073734
 20
-1846.74066959
 10
35601.31730039
 20
-1841.80544322
 10
35601.47452707
 20
-1836.81617973
 10
35601.60027714
 20
-1831.74410761
 10
35601.68236669
 20
-1826.5604856
 10
35601.59138185
 20
-1821.31789279
 10
35600.82571844
 20
-1816.32709014
 10
35598.81115514
 20
-1811.9496926
 10
35595.2805509
 20
-1808.47140884
 10
35590.69535839
 20
-1805.99784852
 10
35585.62210506
 20
-1804.60857953
 10
35580.52579903
 20
-1804.39694676
 10
35575.65777026
 20
-1805.48529299
 10
35571.24594258
 20
-1807.93317822
 10
35567.53565882
 20
-1811.48017518
 10
35564.7774973
 20
-1815.76966033
 10
35563.11282767
 20
-1820.48249962
 10
35562.27472234
 20
-1825.43978991
 10
35561.90088019
 20
-1830.49541856
 10
35561.65866858
 20
-1835.53225474
 10
35561.30220531
 20
-1840.5179104
 10
35560.60137989
 20
-1845.43540421
 10
35559.37075888
 20
-1850.26525387
 10
35557.63321624
 20
-1854.97631622
 10
35555.4722886
 20
-1859.5340523
 10
35552.97137677
 20
-1863.90423529
 10
35550.20243335
 20
-1868.07769954
 10
35547.21777454
 20
-1872.08826537
 10
35544.06778511
 20
-1875.97398106
 10
35540.80284987
 20
-1879.77289492
 10
35537.4733536
 20
-1883.52305524
 10
35536.53183742
 20
-1884.57462541
  0
LWPOLYLINE
  5
438
100
AcDbEntity
  8
Ech.1_5
 62
   177
  6
CONTINUOUS
370
    70
100
AcDbPolyline
 90
        6
 70
     0
 43
0.0
 10
35611.07458065
 20
-1817.41173812
 10
35611.07473335
 20
-1800.85005358
 10
35598.74986632
 20
-1800.85000469
 10
35611.07473335
 20
-1800.85005358
 10
35611.07473335
 20
-1788.9706138
 10
35598.75000487
 20
-1788.9706138
  0
LWPOLYLINE
  5
439
100
AcDbEntity
  8
Ech.1_5
 62
   150
  6
CADWORK_22
370
    35
100
AcDbPolyline
 90
        3
 70
     0
 43
0.0
 38
2500.0
 10
35609.57452084
 20
-2012.70074895
 10
35609.57458065
 20
-1760.91030908
 10
35659.01508922
 20
-1760.91030908
  0
LWPOLYLINE
  5
43A
100
AcDbEntity
  8
Ech.1_5
 62
   190
  6
CONTINUOUS
370
    -3
100
AcDbPolyline
 90
        5
 70
     0
 43
0.0
 10
35674.27662685
 20
-1662.9103056
 10
36828.00153806
 20
-1662.9103056
 10
36828.00153806
 20
-1762.9103056
 10
35674.27662685
 20
-1762.9103056
 10
35674.27662685
 20
-1662.9103056
  0
LWPOLYLINE
  5
43B
100
AcDbEntity
  8
Ech.1_5
 62
   190
  6
CONTINUOUS
370
    -3
100
AcDbPolyline
 90
      138
 70
     0
 43
0.0
 10
35674.27662685
 20
-1646.24363893
 42
1.14028181
 10
35707.04205469
 20
-1641.92997846
 10
35691.51119902
 20
-1583.89063273
 42
-1.30322619
 10
35723.70872135
 20
-1583.89063273
 10
35708.17786568
 20
-1641.92997846
 42
1.30322619
 10
35740.37538802
 20
-1641.92997846
 10
35724.84453235
 20
-1583.89063273
 42
-1.30322619
 10
35757.04205469
 20
-1583.89063273
 10
35741.51119902
 20
-1641.92997846
 42
1.30322619
 10
35773.70872135
 20
-1641.92997846
 10
35758.17786568
 20
-1583.89063273
 42
-1.30322619
 10
35790.37538802
 20
-1583.89063273
 10
35774.84453235
 20
-1641.92997846
 42
1.30322619
 10
35807.04205469
 20
-1641.92997846
 10
35791.51119902
 20
-1583.89063273
 42
-1.30322619
 10
35823.70872135
 20
-1583.89063273
 10
35808.17786568
 20
-1641.92997846
 42
1.30322619
 10
35840.37538802
 20
-1641.92997846
 10
35824.84453235
 20
-1583.89063273
 42
-1.30322619
 10
35857.04205469
 20
-1583.89063273
 10
35841.51119902
 20
-1641.92997846
 42
1.30322619
 10
35873.70872135
 20
-1641.92997846
 10
35858.17786568
 20
-1583.89063273
 42
-1.30322619
 10
35890.37538802
 20
-1583.89063273
 10
35874.84453235
 20
-1641.92997846
 42
1.30322619
 10
35907.04205469
 20
-1641.92997846
 10
35891.51119902
 20
-1583.89063273
 42
-1.30322619
 10
35923.70872135
 20
-1583.89063273
 10
35908.17786568
 20
-1641.92997846
 42
1.30322619
 10
35940.37538802
 20
-1641.92997846
 10
35924.84453235
 20
-1583.89063273
 42
-1.30322619
 10
35957.04205469
 20
-1583.89063273
 10
35941.51119902
 20
-1641.92997846
 42
1.30322619
 10
35973.70872135
 20
-1641.92997846
 10
35958.17786568
 20
-1583.89063273
 42
-1.30322619
 10
35990.37538802
 20
-1583.89063273
 10
35974.84453235
 20
-1641.92997846
 42
1.30322619
 10
36007.04205469
 20
-1641.92997846
 10
35991.51119902
 20
-1583.89063273
 42
-1.30322619
 10
36023.70872135
 20
-1583.89063273
 10
36008.17786568
 20
-1641.92997846
 42
1.30322619
 10
36040.37538802
 20
-1641.92997846
 10
36024.84453235
 20
-1583.89063273
 42
-1.30322619
 10
36057.04205469
 20
-1583.89063273
 10
36041.51119902
 20
-1641.92997846
 42
1.30322619
 10
36073.70872135
 20
-1641.92997846
 10
36058.17786568
 20
-1583.89063273
 42
-1.30322619
 10
36090.37538802
 20
-1583.89063273
 10
36074.84453235
 20
-1641.92997846
 42
1.30322619
 10
36107.04205469
 20
-1641.92997846
 10
36091.51119902
 20
-1583.89063273
 42
-1.30322619
 10
36123.70872135
 20
-1583.89063273
 10
36108.17786568
 20
-1641.92997846
 42
1.30322619
 10
36140.37538802
 20
-1641.92997846
 10
36124.84453235
 20
-1583.89063273
 42
-1.30322619
 10
36157.04205469
 20
-1583.89063273
 10
36141.51119902
 20
-1641.92997846
 42
1.30322619
 10
36173.70872135
 20
-1641.92997846
 10
36158.17786568
 20
-1583.89063273
 42
-1.30322619
 10
36190.37538802
 20
-1583.89063273
 10
36174.84453235
 20
-1641.92997846
 42
1.30322619
 10
36207.04205469
 20
-1641.92997846
 10
36191.51119902
 20
-1583.89063273
 42
-1.30322619
 10
36223.70872135
 20
-1583.89063273
 10
36208.17786568
 20
-1641.92997846
 42
1.30322619
 10
36240.37538802
 20
-1641.92997846
 10
36224.84453235
 20
-1583.89063273
 42
-1.30322619
 10
36257.04205469
 20
-1583.89063273
 10
36241.51119902
 20
-1641.92997846
 42
1.30322619
 10
36273.70872135
 20
-1641.92997846
 10
36258.17786568
 20
-1583.89063273
 42
-1.30322619
 10
36290.37538802
 20
-1583.89063273
 10
36274.84453235
 20
-1641.92997846
 42
1.30322619
 10
36307.04205469
 20
-1641.92997846
 10
36291.51119902
 20
-1583.89063273
 42
-1.30322619
 10
36323.70872135
 20
-1583.89063273
 10
36308.17786568
 20
-1641.92997846
 42
1.30322619
 10
36340.37538802
 20
-1641.92997846
 10
36324.84453235
 20
-1583.89063273
 42
-1.30322619
 10
36357.04205469
 20
-1583.89063273
 10
36341.51119902
 20
-1641.92997846
 42
1.30322619
 10
36373.70872135
 20
-1641.92997846
 10
36358.17786568
 20
-1583.89063273
 42
-1.30322619
 10
36390.37538802
 20
-1583.89063273
 10
36374.84453235
 20
-1641.92997846
 42
1.30322619
 10
36407.04205469
 20
-1641.92997846
 10
36391.51119902
 20
-1583.89063273
 42
-1.30322619
 10
36423.70872135
 20
-1583.89063273
 10
36408.17786568
 20
-1641.92997846
 42
1.30322619
 10
36440.37538802
 20
-1641.92997846
 10
36424.84453235
 20
-1583.89063273
 42
-1.30322619
 10
36457.04205469
 20
-1583.89063273
 10
36441.51119902
 20
-1641.92997846
 42
1.30322619
 10
36473.70872135
 20
-1641.92997846
 10
36458.17786568
 20
-1583.89063273
 42
-1.30322619
 10
36490.37538802
 20
-1583.89063273
 10
36474.84453235
 20
-1641.92997846
 42
1.30322619
 10
36507.04205469
 20
-1641.92997846
 10
36491.51119902
 20
-1583.89063273
 42
-1.30322619
 10
36523.70872135
 20
-1583.89063273
 10
36508.17786568
 20
-1641.92997846
 42
1.30322619
 10
36540.37538802
 20
-1641.92997846
 10
36524.84453235
 20
-1583.89063273
 42
-1.30322619
 10
36557.04205469
 20
-1583.89063273
 10
36541.51119902
 20
-1641.92997846
 42
1.30322619
 10
36573.70872135
 20
-1641.92997846
 10
36558.17786568
 20
-1583.89063273
 42
-1.30322619
 10
36590.37538802
 20
-1583.89063273
 10
36574.84453235
 20
-1641.92997846
 42
1.30322619
 10
36607.04205469
 20
-1641.92997846
 10
36591.51119902
 20
-1583.89063273
 42
-1.30322619
 10
36623.70872135
 20
-1583.89063273
 10
36608.17786568
 20
-1641.92997846
 42
1.30322619
 10
36640.37538802
 20
-1641.92997846
 10
36624.84453235
 20
-1583.89063273
 42
-1.30322619
 10
36657.04205469
 20
-1583.89063273
 10
36641.51119902
 20
-1641.92997846
 42
1.30322619
 10
36673.70872135
 20
-1641.92997846
 10
36658.17786568
 20
-1583.89063273
 42
-1.30322619
 10
36690.37538802
 20
-1583.89063273
 10
36674.84453235
 20
-1641.92997846
 42
1.30322619
 10
36707.04205469
 20
-1641.92997846
 10
36691.51119902
 20
-1583.89063273
 42
-1.30322619
 10
36723.70872135
 20
-1583.89063273
 10
36708.17786568
 20
-1641.92997846
 42
1.30322619
 10
36740.37538802
 20
-1641.92997846
 10
36724.84453235
 20
-1583.89063273
 42
-1.30322619
 10
36757.04205469
 20
-1583.89063273
 10
36741.51119902
 20
-1641.92997846
 42
1.30322619
 10
36773.70872135
 20
-1641.92997846
 10
36758.17786568
 20
-1583.89063273
 42
-1.30322619
 10
36790.37538802
 20
-1583.89063273
 10
36774.84453235
 20
-1641.92997846
 42
1.30322619
 10
36807.04205469
 20
-1641.92997846
 10
36791.51119902
 20
-1583.89063273
 42
-1.30322619
 10
36823.70872135
 20
-1583.89063273
 10
36808.17786568
 20
-1641.92997846
 42
0.56527988
 10
36828.00153806
 20
-1662.48872478
  0
LWPOLYLINE
  5
43C
100
AcDbEntity
  8
Ech.1_5
 62
   190
  6
CONTINUOUS
370
    -3
100
AcDbPolyline
 90
      122
 70
     0
 43
0.0
 10
35805.40016071
 20
-1908.24347991
 42
1.14028181
 10
35838.16558923
 20
-1903.92982466
 10
35822.63474278
 20
-1845.89047645
 42
-1.30322619
 10
35854.83226512
 20
-1845.89048157
 10
35839.30140022
 20
-1903.92982484
 42
1.30322619
 10
35871.49892256
 20
-1903.92982995
 10
35855.96807611
 20
-1845.89048175
 42
-1.30322619
 10
35888.16559845
 20
-1845.89048686
 10
35872.63473356
 20
-1903.92983013
 42
1.30322619
 10
35904.83225589
 20
-1903.92983525
 10
35889.30140945
 20
-1845.89048704
 42
-1.30322619
 10
35921.49893178
 20
-1845.89049216
 10
35905.96806689
 20
-1903.92983543
 42
1.30322619
 10
35938.16558923
 20
-1903.92984055
 10
35922.63474278
 20
-1845.89049234
 42
-1.30322619
 10
35954.83226512
 20
-1845.89049746
 10
35939.30140022
 20
-1903.92984073
 42
1.30322619
 10
35971.49892256
 20
-1903.92984584
 10
35955.96807611
 20
-1845.89049764
 42
-1.30322619
 10
35988.16559845
 20
-1845.89050275
 10
35972.63473356
 20
-1903.92984602
 42
1.30322619
 10
36004.83225589
 20
-1903.92985114
 10
35989.30140945
 20
-1845.89050293
 42
-1.30322619
 10
36021.49893178
 20
-1845.89050805
 10
36005.96806689
 20
-1903.92985132
 42
1.30322619
 10
36038.16558923
 20
-1903.92985644
 10
36022.63474278
 20
-1845.89050823
 42
-1.30322619
 10
36054.83226512
 20
-1845.89051335
 10
36039.30140022
 20
-1903.92985662
 42
1.30322619
 10
36071.49892256
 20
-1903.92986173
 10
36055.96807611
 20
-1845.89051353
 42
-1.30322619
 10
36088.16559845
 20
-1845.89051865
 10
36072.63473356
 20
-1903.92986191
 42
1.30322619
 10
36104.83225589
 20
-1903.92986703
 10
36089.30140945
 20
-1845.89051883
 42
-1.30322619
 10
36121.49893178
 20
-1845.89052394
 10
36105.96806689
 20
-1903.92986721
 42
1.30322619
 10
36138.16558923
 20
-1903.92987233
 10
36122.63474278
 20
-1845.89052412
 42
-1.30322619
 10
36154.83226512
 20
-1845.89052924
 10
36139.30140022
 20
-1903.92987251
 42
1.30322619
 10
36171.49892256
 20
-1903.92987762
 10
36155.96807611
 20
-1845.89052942
 42
-1.30322619
 10
36188.16559845
 20
-1845.89053454
 10
36172.63473356
 20
-1903.92987781
 42
1.30322619
 10
36204.83225589
 20
-1903.92988292
 10
36189.30140945
 20
-1845.89053472
 42
-1.30322619
 10
36221.49893178
 20
-1845.89053983
 10
36205.96806689
 20
-1903.9298831
 42
1.30322619
 10
36238.16558923
 20
-1903.92988822
 10
36222.63474278
 20
-1845.89054001
 42
-1.30322619
 10
36254.83226512
 20
-1845.89054513
 10
36239.30140022
 20
-1903.9298884
 42
1.30322619
 10
36271.49892256
 20
-1903.92989352
 10
36255.96807611
 20
-1845.89054531
 42
-1.30322619
 10
36288.16559845
 20
-1845.89055043
 10
36272.63473356
 20
-1903.9298937
 42
1.30322619
 10
36304.83225589
 20
-1903.92989881
 10
36289.30140945
 20
-1845.89055061
 42
-1.30322619
 10
36321.49893178
 20
-1845.89055572
 10
36305.96806689
 20
-1903.92989899
 42
1.30322619
 10
36338.16558923
 20
-1903.92990411
 10
36322.63474278
 20
-1845.8905559
 42
-1.30322619
 10
36354.83226512
 20
-1845.89056102
 10
36339.30140022
 20
-1903.92990429
 42
1.30322619
 10
36371.49892256
 20
-1903.92990941
 10
36355.96807611
 20
-1845.8905612
 42
-1.30322619
 10
36388.16559845
 20
-1845.89056632
 10
36372.63473356
 20
-1903.92990959
 42
1.30322619
 10
36404.83225589
 20
-1903.9299147
 10
36389.30140945
 20
-1845.8905665
 42
-1.30322619
 10
36421.49893178
 20
-1845.89057161
 10
36405.96806689
 20
-1903.92991488
 42
1.30322619
 10
36438.16558923
 20
-1903.92992
 10
36422.63474278
 20
-1845.8905718
 42
-1.30322619
 10
36454.83226512
 20
-1845.89057691
 10
36439.30140022
 20
-1903.92992018
 42
1.30322619
 10
36471.49892256
 20
-1903.9299253
 10
36455.96807611
 20
-1845.89057709
 42
-1.30322619
 10
36488.16559845
 20
-1845.89058221
 10
36472.63473356
 20
-1903.92992548
 42
1.30322619
 10
36504.83225589
 20
-1903.92993059
 10
36489.30140945
 20
-1845.89058239
 42
-1.30322619
 10
36521.49893178
 20
-1845.89058751
 10
36505.96806689
 20
-1903.92993078
 42
1.30322619
 10
36538.16558923
 20
-1903.92993589
 10
36522.63474278
 20
-1845.89058769
 42
-1.30322619
 10
36554.83226512
 20
-1845.8905928
 10
36539.30140022
 20
-1903.92993607
 42
1.30322619
 10
36571.49892256
 20
-1903.92994119
 10
36555.96807611
 20
-1845.89059298
 42
-1.30322619
 10
36588.16559845
 20
-1845.8905981
 10
36572.63473356
 20
-1903.92994137
 42
1.30322619
 10
36604.83225589
 20
-1903.92994649
 10
36589.30140945
 20
-1845.89059828
 42
-1.30322619
 10
36621.49893178
 20
-1845.8906034
 10
36605.96806689
 20
-1903.92994667
 42
1.30322619
 10
36638.16558923
 20
-1903.92995178
 10
36622.63474278
 20
-1845.89060358
 42
-1.30322619
 10
36654.83226512
 20
-1845.89060869
 10
36639.30140022
 20
-1903.92995196
 42
1.30322619
 10
36671.49892256
 20
-1903.92995708
 10
36655.96807611
 20
-1845.89060887
 42
-1.30322619
 10
36688.16559845
 20
-1845.89061399
 10
36672.63473356
 20
-1903.92995726
 42
1.30322619
 10
36704.83225589
 20
-1903.92996238
 10
36689.30140945
 20
-1845.89061417
 42
-1.30322619
 10
36721.49893178
 20
-1845.89061929
 10
36705.96806689
 20
-1903.92996256
 42
1.30322619
 10
36738.16558923
 20
-1903.92996767
 10
36722.63474278
 20
-1845.89061947
 42
-1.30322619
 10
36754.83226512
 20
-1845.89062458
 10
36739.30140022
 20
-1903.92996785
 42
1.30322619
 10
36771.49892256
 20
-1903.92997297
 10
36755.96807611
 20
-1845.89062477
 42
-1.30322619
 10
36788.16559845
 20
-1845.89062988
 10
36772.63473356
 20
-1903.92997315
 42
1.30322619
 10
36804.83225589
 20
-1903.92997827
 10
36789.30140945
 20
-1845.89063006
 42
-1.30322619
 10
36821.49893178
 20
-1845.89063518
 10
36805.96806689
 20
-1903.92997845
 42
0.61195998
 10
36828.00153823
 20
-1923.81788254
  0
LWPOLYLINE
  5
43D
100
AcDbEntity
  8
Ech.1_5
 62
   190
  6
CONTINUOUS
370
    -3
100
AcDbPolyline
 90
      138
 70
     0
 43
0.0
 10
35674.27662685
 20
-1746.24363893
 42
1.14028181
 10
35707.04205469
 20
-1741.92997846
 10
35691.51119902
 20
-1683.89063273
 42
-1.30322619
 10
35723.70872135
 20
-1683.89063273
 10
35708.17786568
 20
-1741.92997846
 42
1.30322619
 10
35740.37538802
 20
-1741.92997846
 10
35724.84453235
 20
-1683.89063273
 42
-1.30322619
 10
35757.04205469
 20
-1683.89063273
 10
35741.51119902
 20
-1741.92997846
 42
1.30322619
 10
35773.70872135
 20
-1741.92997846
 10
35758.17786568
 20
-1683.89063273
 42
-1.30322619
 10
35790.37538802
 20
-1683.89063273
 10
35774.84453235
 20
-1741.92997846
 42
1.30322619
 10
35807.04205469
 20
-1741.92997846
 10
35791.51119902
 20
-1683.89063273
 42
-1.30322619
 10
35823.70872135
 20
-1683.89063273
 10
35808.17786568
 20
-1741.92997846
 42
1.30322619
 10
35840.37538802
 20
-1741.92997846
 10
35824.84453235
 20
-1683.89063273
 42
-1.30322619
 10
35857.04205469
 20
-1683.89063273
 10
35841.51119902
 20
-1741.92997846
 42
1.30322619
 10
35873.70872135
 20
-1741.92997846
 10
35858.17786568
 20
-1683.89063273
 42
-1.30322619
 10
35890.37538802
 20
-1683.89063273
 10
35874.84453235
 20
-1741.92997846
 42
1.30322619
 10
35907.04205469
 20
-1741.92997846
 10
35891.51119902
 20
-1683.89063273
 42
-1.30322619
 10
35923.70872135
 20
-1683.89063273
 10
35908.17786568
 20
-1741.92997846
 42
1.30322619
 10
35940.37538802
 20
-1741.92997846
 10
35924.84453235
 20
-1683.89063273
 42
-1.30322619
 10
35957.04205469
 20
-1683.89063273
 10
35941.51119902
 20
-1741.92997846
 42
1.30322619
 10
35973.70872135
 20
-1741.92997846
 10
35958.17786568
 20
-1683.89063273
 42
-1.30322619
 10
35990.37538802
 20
-1683.89063273
 10
35974.84453235
 20
-1741.92997846
 42
1.30322619
 10
36007.04205469
 20
-1741.92997846
 10
35991.51119902
 20
-1683.89063273
 42
-1.30322619
 10
36023.70872135
 20
-1683.89063273
 10
36008.17786568
 20
-1741.92997846
 42
1.30322619
 10
36040.37538802
 20
-1741.92997846
 10
36024.84453235
 20
-1683.89063273
 42
-1.30322619
 10
36057.04205469
 20
-1683.89063273
 10
36041.51119902
 20
-1741.92997846
 42
1.30322619
 10
36073.70872135
 20
-1741.92997846
 10
36058.17786568
 20
-1683.89063273
 42
-1.30322619
 10
36090.37538802
 20
-1683.89063273
 10
36074.84453235
 20
-1741.92997846
 42
1.30322619
 10
36107.04205469
 20
-1741.92997846
 10
36091.51119902
 20
-1683.89063273
 42
-1.30322619
 10
36123.70872135
 20
-1683.89063273
 10
36108.17786568
 20
-1741.92997846
 42
1.30322619
 10
36140.37538802
 20
-1741.92997846
 10
36124.84453235
 20
-1683.89063273
 42
-1.30322619
 10
36157.04205469
 20
-1683.89063273
 10
36141.51119902
 20
-1741.92997846
 42
1.30322619
 10
36173.70872135
 20
-1741.92997846
 10
36158.17786568
 20
-1683.89063273
 42
-1.30322619
 10
36190.37538802
 20
-1683.89063273
 10
36174.84453235
 20
-1741.92997846
 42
1.30322619
 10
36207.04205469
 20
-1741.92997846
 10
36191.51119902
 20
-1683.89063273
 42
-1.30322619
 10
36223.70872135
 20
-1683.89063273
 10
36208.17786568
 20
-1741.92997846
 42
1.30322619
 10
36240.37538802
 20
-1741.92997846
 10
36224.84453235
 20
-1683.89063273
 42
-1.30322619
 10
36257.04205469
 20
-1683.89063273
 10
36241.51119902
 20
-1741.92997846
 42
1.30322619
 10
36273.70872135
 20
-1741.92997846
 10
36258.17786568
 20
-1683.89063273
 42
-1.30322619
 10
36290.37538802
 20
-1683.89063273
 10
36274.84453235
 20
-1741.92997846
 42
1.30322619
 10
36307.04205469
 20
-1741.92997846
 10
36291.51119902
 20
-1683.89063273
 42
-1.30322619
 10
36323.70872135
 20
-1683.89063273
 10
36308.17786568
 20
-1741.92997846
 42
1.30322619
 10
36340.37538802
 20
-1741.92997846
 10
36324.84453235
 20
-1683.89063273
 42
-1.30322619
 10
36357.04205469
 20
-1683.89063273
 10
36341.51119902
 20
-1741.92997846
 42
1.30322619
 10
36373.70872135
 20
-1741.92997846
 10
36358.17786568
 20
-1683.89063273
 42
-1.30322619
 10
36390.37538802
 20
-1683.89063273
 10
36374.84453235
 20
-1741.92997846
 42
1.30322619
 10
36407.04205469
 20
-1741.92997846
 10
36391.51119902
 20
-1683.89063273
 42
-1.30322619
 10
36423.70872135
 20
-1683.89063273
 10
36408.17786568
 20
-1741.92997846
 42
1.30322619
 10
36440.37538802
 20
-1741.92997846
 10
36424.84453235
 20
-1683.89063273
 42
-1.30322619
 10
36457.04205469
 20
-1683.89063273
 10
36441.51119902
 20
-1741.92997846
 42
1.30322619
 10
36473.70872135
 20
-1741.92997846
 10
36458.17786568
 20
-1683.89063273
 42
-1.30322619
 10
36490.37538802
 20
-1683.89063273
 10
36474.84453235
 20
-1741.92997846
 42
1.30322619
 10
36507.04205469
 20
-1741.92997846
 10
36491.51119902
 20
-1683.89063273
 42
-1.30322619
 10
36523.70872135
 20
-1683.89063273
 10
36508.17786568
 20
-1741.92997846
 42
1.30322619
 10
36540.37538802
 20
-1741.92997846
 10
36524.84453235
 20
-1683.89063273
 42
-1.30322619
 10
36557.04205469
 20
-1683.89063273
 10
36541.51119902
 20
-1741.92997846
 42
1.30322619
 10
36573.70872135
 20
-1741.92997846
 10
36558.17786568
 20
-1683.89063273
 42
-1.30322619
 10
36590.37538802
 20
-1683.89063273
 10
36574.84453235
 20
-1741.92997846
 42
1.30322619
 10
36607.04205469
 20
-1741.92997846
 10
36591.51119902
 20
-1683.89063273
 42
-1.30322619
 10
36623.70872135
 20
-1683.89063273
 10
36608.17786568
 20
-1741.92997846
 42
1.30322619
 10
36640.37538802
 20
-1741.92997846
 10
36624.84453235
 20
-1683.89063273
 42
-1.30322619
 10
36657.04205469
 20
-1683.89063273
 10
36641.51119902
 20
-1741.92997846
 42
1.30322619
 10
36673.70872135
 20
-1741.92997846
 10
36658.17786568
 20
-1683.89063273
 42
-1.30322619
 10
36690.37538802
 20
-1683.89063273
 10
36674.84453235
 20
-1741.92997846
 42
1.30322619
 10
36707.04205469
 20
-1741.92997846
 10
36691.51119902
 20
-1683.89063273
 42
-1.30322619
 10
36723.70872135
 20
-1683.89063273
 10
36708.17786568
 20
-1741.92997846
 42
1.30322619
 10
36740.37538802
 20
-1741.92997846
 10
36724.84453235
 20
-1683.89063273
 42
-1.30322619
 10
36757.04205469
 20
-1683.89063273
 10
36741.51119902
 20
-1741.92997846
 42
1.30322619
 10
36773.70872135
 20
-1741.92997846
 10
36758.17786568
 20
-1683.89063273
 42
-1.30322619
 10
36790.37538802
 20
-1683.89063273
 10
36774.84453235
 20
-1741.92997846
 42
1.30322619
 10
36807.04205469
 20
-1741.92997846
 10
36791.51119902
 20
-1683.89063273
 42
-1.30322619
 10
36823.70872135
 20
-1683.89063273
 10
36808.17786568
 20
-1741.92997846
 42
0.56527988
 10
36828.00153806
 20
-1762.48872478
  0
TEXT
  5
43E
100
AcDbEntity
  8
Ech.1_5
 62
   190
100
AcDbText
 10
35094.89995153
 20
-2053.04506838
 30
0.0
 40
8.00000012
  1
Echelle en mm
  7
ARIAL
 50
0.0
 41
1.0
 51
0.0
100
AcDbText
  0
TEXT
  5
43F
100
AcDbEntity
  8
Ech.1_5
 62
   190
100
AcDbText
 10
35080.91936678
 20
-2081.25490391
 30
0.0
 40
8.00000012
  1
0
  7
ARIAL
 50
0.0
 41
1.0
 51
0.0
100
AcDbText
  0
TEXT
  5
440
100
AcDbEntity
  8
Ech.1_5
 62
   190
100
AcDbText
 10
35167.51642467
 20
-2081.25490391
 30
0.0
 40
8.00000012
  1
100
  7
ARIAL
 50
0.0
 41
1.0
 51
0.0
100
AcDbText
  0
TEXT
  5
441
100
AcDbEntity
  8
Ech.1_5
 62
   190
100
AcDbText
 10
35128.77599311
 20
-2081.25490391
 30
0.0
 40
8.00000012
  1
50
  7
ARIAL
 50
0.0
 41
1.0
 51
0.0
100
AcDbText
  0
POINT
  5
442
100
AcDbEntity
  8
Ech.1_5
 62
     7
100
AcDbPoint
 10
35721.99200807
 20
-1716.15795944
 30
0.0
  0
POINT
  5
443
100
AcDbEntity
  8
Ech.1_5
 62
     7
100
AcDbPoint
 10
35698.15334592
 20
-1716.15795944
 30
0.0
  0
POINT
  5
444
100
AcDbEntity
  8
Ech.1_5
 62
     7
100
AcDbPoint
 10
35711.38036524
 20
-1724.28970516
 30
0.0
  0
INSERT
  5
445
100
AcDbEntity
  8
Ech.1_5
 62
     0
370
    -3
100
AcDbBlockReference
  2
*D25
 10
0.0
 20
0.0
 30
0.0
  0
INSERT
  5
446
100
AcDbEntity
  8
Ech.1_5
 62
     0
370
    -3
100
AcDbBlockReference
  2
*D26
 10
0.0
 20
0.0
 30
0.0
  0
ENDSEC
  0
SECTION
  2
OBJECTS
  0
DICTIONARY
  5
1
100
AcDbDictionary
  3
ACAD_GROUP
350
2
  3
ACAD_MLINESTYLE
350
3
  0
DICTIONARY
  5
2
102
{CDWK_REACTORS
330
1
102
}
100
AcDbDictionary
  0
DICTIONARY
  5
3
102
{CDWK_REACTORS
330
1
102
}
100
AcDbDictionary
  3
STANDARD
350
4
  0
MLINESTYLE
  5
4
102
{CDWK_REACTORS
330
3
102
}
100
AcDbMlineStyle
  2
STANDARD
 70
     0
  3

 62
     0
 51
90.0
 52
90.0
 71
     2
 49
0.5
 62
   256
  6
BYLAYER
 49
-0.5
 62
   256
  6
BYLAYER
  0
ENDSEC
  0
EOF
