  0
SECTION
  2
HEADER
  9
$ACADVER
  1
AC1015
  9
$ACADMAINTVER
 70
    20
  9
$DWGCODEPAGE
  3
ANSI_1252
  9
$INSBASE
 10
0.0
 20
0.0
 30
0.0
  9
$EXTMIN
 10
34992.62173763133
 20
-499.0620009782069
 30
-0.0762881246355391
  9
$EXTMAX
 10
36768.63394000974
 20
725.3158544274628
 30
2500.076299766167
  9
$LIMMIN
 10
564.5
 20
-14720.93576433
  9
$LIMMAX
 10
36767.52902695
 20
724.84445066
  9
$ORTHOMODE
 70
     0
  9
$REGENMODE
 70
     1
  9
$FILLMODE
 70
     1
  9
$QTEXTMODE
 70
     0
  9
$MIRRTEXT
 70
     1
  9
$LTSCALE
 40
5.0
  9
$ATTMODE
 70
     1
  9
$TEXTSIZE
 40
3.5
  9
$TRACEWID
 40
1.0
  9
$TEXTSTYLE
  7
STANDARD
  9
$CLAYER
  8
0
  9
$CELTYPE
  6
BYLAYER
  9
$CECOLOR
 62
   256
  9
$CELTSCALE
 40
1.0
  9
$DISPSILH
 70
     0
  9
$DIMSCALE
 40
1.0
  9
$DIMASZ
 40
2.0
  9
$DIMEXO
 40
5.0
  9
$DIMDLI
 40
10.0
  9
$DIMRND
 40
0.0
  9
$DIMDLE
 40
2.0
  9
$DIMEXE
 40
2.0
  9
$DIMTP
 40
0.0
  9
$DIMTM
 40
0.0
  9
$DIMTXT
 40
2.5
  9
$DIMCEN
 40
1.5
  9
$DIMTSZ
 40
0.0
  9
$DIMTOL
 70
     0
  9
$DIMLIM
 70
     0
  9
$DIMTIH
 70
     1
  9
$DIMTOH
 70
     0
  9
$DIMSE1
 70
     0
  9
$DIMSE2
 70
     0
  9
$DIMTAD
 70
     1
  9
$DIMZIN
 70
     8
  9
$DIMBLK
  1

  9
$DIMASO
 70
     1
  9
$DIMSHO
 70
     1
  9
$DIMPOST
  1

  9
$DIMAPOST
  1

  9
$DIMALT
 70
     0
  9
$DIMALTD
 70
     2
  9
$DIMALTF
 40
25.4
  9
$DIMLFAC
 40
1.0
  9
$DIMTOFL
 70
     0
  9
$DIMTVP
 40
0.0
  9
$DIMTIX
 70
     0
  9
$DIMSOXD
 70
     0
  9
$DIMSAH
 70
     0
  9
$DIMBLK1
  1

  9
$DIMBLK2
  1

  9
$DIMSTYLE
  2
Standard
  9
$DIMCLRD
 70
   190
  9
$DIMCLRE
 70
   190
  9
$DIMCLRT
 70
   190
  9
$DIMTFAC
 40
1.0
  9
$DIMGAP
 40
0.09
  9
$DIMJUST
 70
     0
  9
$DIMSD1
 70
     0
  9
$DIMSD2
 70
     0
  9
$DIMTOLJ
 70
     1
  9
$DIMTZIN
 70
     0
  9
$DIMALTZ
 70
     0
  9
$DIMALTTZ
 70
     0
  9
$DIMUPT
 70
     0
  9
$DIMDEC
 70
     4
  9
$DIMTDEC
 70
     4
  9
$DIMALTU
 70
     2
  9
$DIMALTTD
 70
     2
  9
$DIMTXSTY
  7
STANDARD
  9
$DIMAUNIT
 70
     0
  9
$DIMADEC
 70
     0
  9
$DIMALTRND
 40
0.0
  9
$DIMAZIN
 70
     0
  9
$DIMDSEP
 70
    46
  9
$DIMATFIT
 70
     3
  9
$DIMFRAC
 70
     0
  9
$DIMLDRBLK
  1

  9
$DIMLUNIT
 70
     2
  9
$DIMLWD
 70
    -2
  9
$DIMLWE
 70
    -2
  9
$DIMTMOVE
 70
     0
  9
$LUNITS
 70
     2
  9
$LUPREC
 70
     6
  9
$SKETCHINC
 40
0.1
  9
$FILLETRAD
 40
0.0
  9
$AUNITS
 70
     0
  9
$AUPREC
 70
     0
  9
$MENU
  1
ACAD
  9
$ELEVATION
 40
0.0
  9
$PELEVATION
 40
0.0
  9
$THICKNESS
 40
0.0
  9
$LIMCHECK
 70
     0
  9
$CHAMFERA
 40
0.0
  9
$CHAMFERB
 40
0.0
  9
$CHAMFERC
 40
0.0
  9
$CHAMFERD
 40
0.0
  9
$SKPOLY
 70
     1
  9
$TDCREATE
 40
2456467.000000000
  9
$TDUCREATE
 40
2456466.916666667
  9
$TDUPDATE
 40
2456468.462214456
  9
$TDUUPDATE
 40
2456468.378881123
  9
$TDINDWG
 40
0.0012972454
  9
$TDUSRTIMER
 40
0.0012972454
  9
$USRTIMER
 70
     1
  9
$ANGBASE
 50
0.0
  9
$ANGDIR
 70
     0
  9
$PDMODE
 70
     0
  9
$PDSIZE
 40
0.0
  9
$PLINEWID
 40
0.0
  9
$SPLFRAME
 70
     0
  9
$SPLINETYPE
 70
     6
  9
$SPLINESEGS
 70
     8
  9
$HANDSEED
  5
2F9
  9
$SURFTAB1
 70
     6
  9
$SURFTAB2
 70
     6
  9
$SURFTYPE
 70
     6
  9
$SURFU
 70
     6
  9
$SURFV
 70
     6
  9
$UCSBASE
  2

  9
$UCSNAME
  2

  9
$UCSORG
 10
0.0
 20
0.0
 30
0.0
  9
$UCSXDIR
 10
1.0
 20
0.0
 30
0.0
  9
$UCSYDIR
 10
0.0
 20
1.0
 30
0.0
  9
$UCSORTHOREF
  2

  9
$UCSORTHOVIEW
 70
     0
  9
$UCSORGTOP
 10
0.0
 20
0.0
 30
0.0
  9
$UCSORGBOTTOM
 10
0.0
 20
0.0
 30
0.0
  9
$UCSORGLEFT
 10
0.0
 20
0.0
 30
0.0
  9
$UCSORGRIGHT
 10
0.0
 20
0.0
 30
0.0
  9
$UCSORGFRONT
 10
0.0
 20
0.0
 30
0.0
  9
$UCSORGBACK
 10
0.0
 20
0.0
 30
0.0
  9
$PUCSBASE
  2

  9
$PUCSNAME
  2

  9
$PUCSORG
 10
0.0
 20
0.0
 30
0.0
  9
$PUCSXDIR
 10
1.0
 20
0.0
 30
0.0
  9
$PUCSYDIR
 10
0.0
 20
1.0
 30
0.0
  9
$PUCSORTHOREF
  2

  9
$PUCSORTHOVIEW
 70
     0
  9
$PUCSORGTOP
 10
0.0
 20
0.0
 30
0.0
  9
$PUCSORGBOTTOM
 10
0.0
 20
0.0
 30
0.0
  9
$PUCSORGLEFT
 10
0.0
 20
0.0
 30
0.0
  9
$PUCSORGRIGHT
 10
0.0
 20
0.0
 30
0.0
  9
$PUCSORGFRONT
 10
0.0
 20
0.0
 30
0.0
  9
$PUCSORGBACK
 10
0.0
 20
0.0
 30
0.0
  9
$USERI1
 70
     0
  9
$USERI2
 70
     0
  9
$USERI3
 70
     0
  9
$USERI4
 70
     0
  9
$USERI5
 70
     0
  9
$USERR1
 40
0.0
  9
$USERR2
 40
0.0
  9
$USERR3
 40
0.0
  9
$USERR4
 40
0.0
  9
$USERR5
 40
0.0
  9
$WORLDVIEW
 70
     1
  9
$SHADEDGE
 70
     3
  9
$SHADEDIF
 70
    70
  9
$TILEMODE
 70
     1
  9
$MAXACTVP
 70
    16
  9
$PINSBASE
 10
0.0
 20
0.0
 30
0.0
  9
$PLIMCHECK
 70
     0
  9
$PEXTMIN
 10
1.000000000000000E+20
 20
1.000000000000000E+20
 30
1.000000000000000E+20
  9
$PEXTMAX
 10
-1.000000000000000E+20
 20
-1.000000000000000E+20
 30
-1.000000000000000E+20
  9
$PLIMMIN
 10
0.0
 20
0.0
  9
$PLIMMAX
 10
12.0
 20
9.0
  9
$UNITMODE
 70
     0
  9
$VISRETAIN
 70
     0
  9
$PLINEGEN
 70
     0
  9
$PSLTSCALE
 70
     1
  9
$TREEDEPTH
 70
  3020
  9
$CMLSTYLE
  2
STANDARD
  9
$CMLJUST
 70
     0
  9
$CMLSCALE
 40
1.0
  9
$PROXYGRAPHICS
 70
     1
  9
$MEASUREMENT
 70
     1
  9
$CELWEIGHT
370
    -1
  9
$ENDCAPS
280
     0
  9
$JOINSTYLE
280
     0
  9
$LWDISPLAY
290
     0
  9
$INSUNITS
 70
     0
  9
$HYPERLINKBASE
  1

  9
$STYLESHEET
  1

  9
$XEDIT
290
     1
  9
$CEPSNTYPE
380
     0
  9
$PSTYLEMODE
290
     1
  9
$FINGERPRINTGUID
  2
{BA3072DA-5C22-4EA3-A7CA-C25A3EE1BE1A}
  9
$VERSIONGUID
  2
{DC917487-8ADB-4884-A0D4-678BF1295C2A}
  9
$EXTNAMES
290
     1
  9
$PSVPSCALE
 40
0.0
  9
$OLESTARTUP
290
     0
  0
ENDSEC
  0
SECTION
  2
CLASSES
  0
CLASS
  1
ACDBDICTIONARYWDFLT
  2
AcDbDictionaryWithDefault
  3
ObjectDBX Classes
 90
        0
280
     0
281
     0
  0
CLASS
  1
MATERIAL
  2
AcDbMaterial
  3
ObjectDBX Classes
 90
     1153
280
     0
281
     0
  0
CLASS
  1
VISUALSTYLE
  2
AcDbVisualStyle
  3
ObjectDBX Classes
 90
     4095
280
     0
281
     0
  0
CLASS
  1
TABLESTYLE
  2
AcDbTableStyle
  3
ObjectDBX Classes
 90
     4095
280
     0
281
     0
  0
CLASS
  1
SCALE
  2
AcDbScale
  3
ObjectDBX Classes
 90
     1153
280
     0
281
     0
  0
CLASS
  1
MLEADERSTYLE
  2
AcDbMLeaderStyle
  3
ACDB_MLEADERSTYLE_CLASS
 90
     4095
280
     0
281
     0
  0
CLASS
  1
SORTENTSTABLE
  2
AcDbSortentsTable
  3
ObjectDBX Classes
 90
        0
280
     0
281
     0
  0
CLASS
  1
DICTIONARYVAR
  2
AcDbDictionaryVar
  3
ObjectDBX Classes
 90
        0
280
     0
281
     0
  0
CLASS
  1
CELLSTYLEMAP
  2
AcDbCellStyleMap
  3
ObjectDBX Classes
 90
     1152
280
     0
281
     0
  0
CLASS
  1
ACDBPLACEHOLDER
  2
AcDbPlaceHolder
  3
ObjectDBX Classes
 90
        0
280
     0
281
     0
  0
CLASS
  1
LAYOUT
  2
AcDbLayout
  3
ObjectDBX Classes
 90
        0
280
     0
281
     0
  0
ENDSEC
  0
SECTION
  2
TABLES
  0
TABLE
  2
VPORT
  5
29
330
0
100
AcDbSymbolTable
 70
     1
  0
VPORT
  5
264
330
29
100
AcDbSymbolTableRecord
100
AcDbViewportTableRecord
  2
*Active
 70
     0
 10
0.0
 20
0.0
 11
1.0
 21
1.0
 12
35880.62783882053
 22
113.126926724628
 13
0.0
 23
0.0
 14
1.0
 24
1.0
 15
0.0
 25
0.0
 16
0.0
 26
0.0
 36
1.0
 17
0.0
 27
0.0
 37
0.0
 40
1233.760061194219
 41
2.015345268542199
 42
50.0
 43
0.0
 44
0.0
 50
0.0
 51
0.0
 71
     0
 72
  1000
 73
     1
 74
     3
 75
     0
 76
     0
 77
     0
 78
     0
281
     0
 65
     1
110
0.0
120
0.0
130
0.0
111
1.0
121
0.0
131
0.0
112
0.0
122
1.0
132
0.0
 79
     0
146
0.0
  0
ENDTAB
  0
TABLE
  2
LTYPE
  5
2F
330
0
100
AcDbSymbolTable
 70
    11
  0
LTYPE
  5
30
330
2F
100
AcDbSymbolTableRecord
100
AcDbLinetypeTableRecord
  2
BYBLOCK
 70
     0
  3

 72
    65
 73
     0
 40
0.0
  0
LTYPE
  5
31
330
2F
100
AcDbSymbolTableRecord
100
AcDbLinetypeTableRecord
  2
BYLAYER
 70
     0
  3

 72
    65
 73
     0
 40
0.0
  0
LTYPE
  5
32
330
2F
100
AcDbSymbolTableRecord
100
AcDbLinetypeTableRecord
  2
CONTINUOUS
 70
     0
  3
Solid line
 72
    65
 73
     0
 40
0.0
  0
LTYPE
  5
33
330
2F
100
AcDbSymbolTableRecord
100
AcDbLinetypeTableRecord
  2
DOT
 70
     0
  3
. . . . . . . . . . . . . . . . . . . . . . . .
 72
    65
 73
     2
 40
2.5
 49
0.0
 74
     0
 49
-2.5
 74
     0
  0
LTYPE
  5
34
330
2F
100
AcDbSymbolTableRecord
100
AcDbLinetypeTableRecord
  2
HIDDEN
 70
     0
  3
__ __ __ __ __ __ __ __ __ __ __ __ __ __ __ __
 72
    65
 73
     2
 40
1.875
 49
1.25
 74
     0
 49
-0.625
 74
     0
  0
LTYPE
  5
35
330
2F
100
AcDbSymbolTableRecord
100
AcDbLinetypeTableRecord
  2
DASHEDX2
 70
     0
  3
____  ____  ____  ____  ____  ____  ____  ____
 72
    65
 73
     2
 40
3.75
 49
2.5
 74
     0
 49
-1.25
 74
     0
  0
LTYPE
  5
36
330
2F
100
AcDbSymbolTableRecord
100
AcDbLinetypeTableRecord
  2
CADWORK_22
 70
     0
  3
22 =======================================
 72
    65
 73
     0
 40
0.0
  0
LTYPE
  5
37
330
2F
100
AcDbSymbolTableRecord
100
AcDbLinetypeTableRecord
  2
DAL
 70
     0
  3
Solid line (for MAPS)
 72
    65
 73
     0
 40
0.0
  0
LTYPE
  5
38
330
2F
100
AcDbSymbolTableRecord
100
AcDbLinetypeTableRecord
  2
MUR
 70
     0
  3
Solid line (for MAPS)
 72
    65
 73
     0
 40
0.0
  0
LTYPE
  5
39
330
2F
100
AcDbSymbolTableRecord
100
AcDbLinetypeTableRecord
  2
SOM
 70
     0
  3
Solid line (for MAPS)
 72
    65
 73
     0
 40
0.0
  0
LTYPE
  5
3A
330
2F
100
AcDbSymbolTableRecord
100
AcDbLinetypeTableRecord
  2
COL
 70
     0
  3
Solid line (for MAPS)
 72
    65
 73
     0
 40
0.0
  0
LTYPE
  5
3B
330
2F
100
AcDbSymbolTableRecord
100
AcDbLinetypeTableRecord
  2
LGN
 70
     0
  3
Solid line (for MAPS)
 72
    65
 73
     0
 40
0.0
  0
LTYPE
  5
3C
330
2F
100
AcDbSymbolTableRecord
100
AcDbLinetypeTableRecord
  2
PNT
 70
     0
  3
Solid line (for MAPS)
 72
    65
 73
     0
 40
0.0
  0
ENDTAB
  0
TABLE
  2
LAYER
  5
3D
330
0
100
AcDbSymbolTable
 70
    32
  0
LAYER
  5
3E
102
{ACAD_XDICTIONARY
360
278
102
}
330
3D
100
AcDbSymbolTableRecord
100
AcDbLayerTableRecord
  2
STANDARD
 70
     0
 62
     7
  6
CONTINUOUS
370
    -3
390
213
  0
LAYER
  5
3F
102
{ACAD_XDICTIONARY
360
27A
102
}
330
3D
100
AcDbSymbolTableRecord
100
AcDbLayerTableRecord
  2
Ech.1_1
 70
     0
 62
     7
  6
CONTINUOUS
370
    -3
390
213
  0
LAYER
  5
40
102
{ACAD_XDICTIONARY
360
27C
102
}
330
3D
100
AcDbSymbolTableRecord
100
AcDbLayerTableRecord
  2
Ech.1_2
 70
     0
 62
     7
  6
CONTINUOUS
370
    -3
390
213
  0
LAYER
  5
41
102
{ACAD_XDICTIONARY
360
27E
102
}
330
3D
100
AcDbSymbolTableRecord
100
AcDbLayerTableRecord
  2
Ech.1_5
 70
     0
 62
     7
  6
CONTINUOUS
370
    -3
390
213
  0
LAYER
  5
42
102
{ACAD_XDICTIONARY
360
280
102
}
330
3D
100
AcDbSymbolTableRecord
100
AcDbLayerTableRecord
  2
Ech.1_10
 70
     0
 62
     7
  6
CONTINUOUS
370
    -3
390
213
  0
LAYER
  5
43
102
{ACAD_XDICTIONARY
360
282
102
}
330
3D
100
AcDbSymbolTableRecord
100
AcDbLayerTableRecord
  2
Ech.1_20
 70
     0
 62
     7
  6
CONTINUOUS
370
    -3
390
213
  0
LAYER
  5
44
102
{ACAD_XDICTIONARY
360
284
102
}
330
3D
100
AcDbSymbolTableRecord
100
AcDbLayerTableRecord
  2
Ech.1_25
 70
     0
 62
     7
  6
CONTINUOUS
370
    -3
390
213
  0
LAYER
  5
45
102
{ACAD_XDICTIONARY
360
286
102
}
330
3D
100
AcDbSymbolTableRecord
100
AcDbLayerTableRecord
  2
Ech.1_33
 70
     0
 62
     7
  6
CONTINUOUS
370
    -3
390
213
  0
LAYER
  5
46
102
{ACAD_XDICTIONARY
360
288
102
}
330
3D
100
AcDbSymbolTableRecord
100
AcDbLayerTableRecord
  2
Ech.1_50
 70
     0
 62
     7
  6
CONTINUOUS
370
    -3
390
213
  0
LAYER
  5
47
102
{ACAD_XDICTIONARY
360
28A
102
}
330
3D
100
AcDbSymbolTableRecord
100
AcDbLayerTableRecord
  2
Ech.1_75
 70
     0
 62
     7
  6
CONTINUOUS
370
    -3
390
213
  0
LAYER
  5
48
102
{ACAD_XDICTIONARY
360
28C
102
}
330
3D
100
AcDbSymbolTableRecord
100
AcDbLayerTableRecord
  2
Ech.1_100
 70
     0
 62
     7
  6
CONTINUOUS
370
    -3
390
213
  0
LAYER
  5
49
102
{ACAD_XDICTIONARY
360
28E
102
}
330
3D
100
AcDbSymbolTableRecord
100
AcDbLayerTableRecord
  2
Ech.1_200
 70
     0
 62
     7
  6
CONTINUOUS
370
    -3
390
213
  0
LAYER
  5
4A
102
{ACAD_XDICTIONARY
360
290
102
}
330
3D
100
AcDbSymbolTableRecord
100
AcDbLayerTableRecord
  2
Ech.1_500
 70
     0
 62
     7
  6
CONTINUOUS
370
    -3
390
213
  0
LAYER
  5
4B
102
{ACAD_XDICTIONARY
360
292
102
}
330
3D
100
AcDbSymbolTableRecord
100
AcDbLayerTableRecord
  2
Ech.1_1000
 70
     0
 62
     7
  6
CONTINUOUS
370
    -3
390
213
  0
LAYER
  5
4C
102
{ACAD_XDICTIONARY
360
294
102
}
330
3D
100
AcDbSymbolTableRecord
100
AcDbLayerTableRecord
  2
Cadres traceur
 70
     0
 62
     7
  6
CONTINUOUS
370
    -3
390
213
  0
LAYER
  5
4D
102
{ACAD_XDICTIONARY
360
296
102
}
330
3D
100
AcDbSymbolTableRecord
100
AcDbLayerTableRecord
  2
Cadres laser
 70
     0
 62
     7
  6
CONTINUOUS
370
    -3
390
213
  0
LAYER
  5
4E
102
{ACAD_XDICTIONARY
360
298
102
}
330
3D
100
AcDbSymbolTableRecord
100
AcDbLayerTableRecord
  2
Légende d_aide
 70
     0
 62
     7
  6
CONTINUOUS
370
    -3
390
213
  0
LAYER
  5
4F
102
{ACAD_XDICTIONARY
360
29A
102
}
330
3D
100
AcDbSymbolTableRecord
100
AcDbLayerTableRecord
  2
hachures ok
 70
     0
 62
     7
  6
CONTINUOUS
370
    -3
390
213
  0
LAYER
  5
50
102
{ACAD_XDICTIONARY
360
29C
102
}
330
3D
100
AcDbSymbolTableRecord
100
AcDbLayerTableRecord
  2
ossature bois
 70
     0
 62
     7
  6
CONTINUOUS
370
    -3
390
213
  0
LAYER
  5
51
102
{ACAD_XDICTIONARY
360
29E
102
}
330
3D
100
AcDbSymbolTableRecord
100
AcDbLayerTableRecord
  2
VR
 70
     0
 62
     7
  6
CONTINUOUS
370
    -3
390
213
  0
LAYER
  5
52
102
{ACAD_XDICTIONARY
360
2A0
102
}
330
3D
100
AcDbSymbolTableRecord
100
AcDbLayerTableRecord
  2
CALQUE1
 70
     0
 62
     7
  6
CONTINUOUS
370
    -3
390
213
  0
LAYER
  5
53
330
3D
100
AcDbSymbolTableRecord
100
AcDbLayerTableRecord
  2
0
 70
     0
 62
     7
  6
CONTINUOUS
370
    -3
390
213
  0
LAYER
  5
54
102
{ACAD_XDICTIONARY
360
2A2
102
}
330
3D
100
AcDbSymbolTableRecord
100
AcDbLayerTableRecord
  2
MENUISERIE
 70
     0
 62
     7
  6
CONTINUOUS
370
    -3
390
213
  0
LAYER
  5
55
102
{ACAD_XDICTIONARY
360
2A4
102
}
330
3D
100
AcDbSymbolTableRecord
100
AcDbLayerTableRecord
  2
COTATION
 70
     0
 62
   250
  6
CONTINUOUS
370
    -3
390
213
  0
LAYER
  5
56
330
3D
100
AcDbSymbolTableRecord
100
AcDbLayerTableRecord
  2
DEFPOINTS
 70
     0
 62
    10
  6
CONTINUOUS
290
     0
370
    -3
390
213
  0
LAYER
  5
57
102
{ACAD_XDICTIONARY
360
2A6
102
}
330
3D
100
AcDbSymbolTableRecord
100
AcDbLayerTableRecord
  2
HACHURE
 70
     0
 62
   254
  6
CONTINUOUS
370
    -3
390
213
  0
LAYER
  5
58
102
{ACAD_XDICTIONARY
360
2A8
102
}
330
3D
100
AcDbSymbolTableRecord
100
AcDbLayerTableRecord
  2
MAT1
 70
     0
 62
     7
  6
CONTINUOUS
370
    -3
390
213
  0
LAYER
  5
59
102
{ACAD_XDICTIONARY
360
2AA
102
}
330
3D
100
AcDbSymbolTableRecord
100
AcDbLayerTableRecord
  2
MAT2
 70
     0
 62
     7
  6
CONTINUOUS
370
    -3
390
213
  0
LAYER
  5
5A
102
{ACAD_XDICTIONARY
360
2AC
102
}
330
3D
100
AcDbSymbolTableRecord
100
AcDbLayerTableRecord
  2
HACH
 70
     0
 62
     8
  6
CONTINUOUS
370
    -3
390
213
  0
LAYER
  5
5B
102
{ACAD_XDICTIONARY
360
2AE
102
}
330
3D
100
AcDbSymbolTableRecord
100
AcDbLayerTableRecord
  2
MENUISERIES
 70
     0
 62
     7
  6
CONTINUOUS
370
    -3
390
213
  0
LAYER
  5
5C
102
{ACAD_XDICTIONARY
360
2B0
102
}
330
3D
100
AcDbSymbolTableRecord
100
AcDbLayerTableRecord
  2
BÉTONMÉTAL
 70
     0
 62
     7
  6
CONTINUOUS
370
    -3
390
213
  0
LAYER
  5
5D
102
{ACAD_XDICTIONARY
360
2B2
102
}
330
3D
100
AcDbSymbolTableRecord
100
AcDbLayerTableRecord
  2
BOIS
 70
     0
 62
     7
  6
CONTINUOUS
370
    -3
390
213
  0
ENDTAB
  0
TABLE
  2
STYLE
  5
2A
330
0
100
AcDbSymbolTable
 70
     4
  0
STYLE
  5
2B
330
2A
100
AcDbSymbolTableRecord
100
AcDbTextStyleTableRecord
  2
STANDARD
 70
     0
 40
0.0
 41
1.0
 50
0.0
 71
     0
 42
3.5
  3
MONOTXT
  4

  0
STYLE
  5
2C
330
2A
100
AcDbSymbolTableRecord
100
AcDbTextStyleTableRecord
  2
CADWORK1
 70
     0
 40
0.0
 41
1.0
 50
0.0
 71
     0
 42
3.5
  3
MONOTXT
  4

  0
STYLE
  5
2D
330
2A
100
AcDbSymbolTableRecord
100
AcDbTextStyleTableRecord
  2
MONOTXT
 70
     0
 40
0.0
 41
1.0
 50
0.0
 71
     0
 42
3.5
  3
MONOTXT
  4

  0
STYLE
  5
2E
330
2A
100
AcDbSymbolTableRecord
100
AcDbTextStyleTableRecord
  2
ARIAL
 70
     0
 40
0.0
 41
1.0
 50
0.0
 71
     0
 42
3.5
  3

  4

1001
ACAD
1000
Arial
1071
        0
  0
ENDTAB
  0
TABLE
  2
VIEW
  5
5E
330
0
100
AcDbSymbolTable
 70
     3
  0
ENDTAB
  0
TABLE
  2
UCS
  5
5F
330
0
100
AcDbSymbolTable
 70
     0
  0
ENDTAB
  0
TABLE
  2
APPID
  5
60
330
0
100
AcDbSymbolTable
 70
     2
  0
APPID
  5
61
330
60
100
AcDbSymbolTableRecord
100
AcDbRegAppTableRecord
  2
ACAD
 70
     0
  0
APPID
  5
2F4
330
60
100
AcDbSymbolTableRecord
100
AcDbRegAppTableRecord
  2
ACAD_MLEADERVER
 70
     0
  0
ENDTAB
  0
TABLE
  2
DIMSTYLE
  5
62
330
0
100
AcDbSymbolTable
 70
     1
100
AcDbDimStyleTable
 71
     0
  0
DIMSTYLE
105
25D
330
62
100
AcDbSymbolTableRecord
100
AcDbDimStyleTableRecord
  2
Standard
 70
     0
340
2B
  0
ENDTAB
  0
TABLE
  2
BLOCK_RECORD
  5
63
330
0
100
AcDbSymbolTable
 70
    45
  0
BLOCK_RECORD
  5
64
102
{ACAD_XDICTIONARY
360
270
102
}
330
63
100
AcDbSymbolTableRecord
100
AcDbBlockTableRecord
  2
*MODEL_SPACE
340
260
  0
BLOCK_RECORD
  5
65
330
63
100
AcDbSymbolTableRecord
100
AcDbBlockTableRecord
  2
*PAPER_SPACE
340
261
  0
BLOCK_RECORD
  5
66
330
63
100
AcDbSymbolTableRecord
100
AcDbBlockTableRecord
  2
CDWK_EXTR_0
340
0
  0
BLOCK_RECORD
  5
67
330
63
100
AcDbSymbolTableRecord
100
AcDbBlockTableRecord
  2
CDWK_EXTR_1D
340
0
  0
BLOCK_RECORD
  5
68
330
63
100
AcDbSymbolTableRecord
100
AcDbBlockTableRecord
  2
CDWK_EXTR_1G
340
0
  0
BLOCK_RECORD
  5
69
330
63
100
AcDbSymbolTableRecord
100
AcDbBlockTableRecord
  2
CDWK_EXTR_2
340
0
  0
BLOCK_RECORD
  5
6A
330
63
100
AcDbSymbolTableRecord
100
AcDbBlockTableRecord
  2
CDWK_EXTR_3
340
0
  0
BLOCK_RECORD
  5
6B
330
63
100
AcDbSymbolTableRecord
100
AcDbBlockTableRecord
  2
CDWK_EXTR_4
340
0
  0
BLOCK_RECORD
  5
6C
330
63
100
AcDbSymbolTableRecord
100
AcDbBlockTableRecord
  2
CDWK_PTTYP0
340
0
  0
BLOCK_RECORD
  5
6D
330
63
100
AcDbSymbolTableRecord
100
AcDbBlockTableRecord
  2
CDWK_PTTYP1
340
0
  0
BLOCK_RECORD
  5
6E
330
63
100
AcDbSymbolTableRecord
100
AcDbBlockTableRecord
  2
CDWK_PTTYP2
340
0
  0
BLOCK_RECORD
  5
6F
330
63
100
AcDbSymbolTableRecord
100
AcDbBlockTableRecord
  2
CDWK_PTTYP3
340
0
  0
BLOCK_RECORD
  5
70
330
63
100
AcDbSymbolTableRecord
100
AcDbBlockTableRecord
  2
CDWK_PTTYP4
340
0
  0
BLOCK_RECORD
  5
71
330
63
100
AcDbSymbolTableRecord
100
AcDbBlockTableRecord
  2
CDWK_PTTYP5
340
0
  0
BLOCK_RECORD
  5
72
330
63
100
AcDbSymbolTableRecord
100
AcDbBlockTableRecord
  2
CDWK_PTTYP6
340
0
  0
BLOCK_RECORD
  5
73
330
63
100
AcDbSymbolTableRecord
100
AcDbBlockTableRecord
  2
CDWK_PTTYP7
340
0
  0
BLOCK_RECORD
  5
74
330
63
100
AcDbSymbolTableRecord
100
AcDbBlockTableRecord
  2
CDWK_PTTYP8
340
0
  0
BLOCK_RECORD
  5
75
330
63
100
AcDbSymbolTableRecord
100
AcDbBlockTableRecord
  2
CDWK_PTTYP9
340
0
  0
BLOCK_RECORD
  5
76
330
63
100
AcDbSymbolTableRecord
100
AcDbBlockTableRecord
  2
CDWK_PTTYP10
340
0
  0
BLOCK_RECORD
  5
77
330
63
100
AcDbSymbolTableRecord
100
AcDbBlockTableRecord
  2
CDWK_PTTYP11
340
0
  0
BLOCK_RECORD
  5
78
330
63
100
AcDbSymbolTableRecord
100
AcDbBlockTableRecord
  2
CDWK_PTTYP12
340
0
  0
BLOCK_RECORD
  5
79
330
63
100
AcDbSymbolTableRecord
100
AcDbBlockTableRecord
  2
CDWK_PTTYP13
340
0
  0
BLOCK_RECORD
  5
7A
330
63
100
AcDbSymbolTableRecord
100
AcDbBlockTableRecord
  2
CDWK_PTTYP14
340
0
  0
BLOCK_RECORD
  5
7B
330
63
100
AcDbSymbolTableRecord
100
AcDbBlockTableRecord
  2
CDWK_PTTYP15
340
0
  0
BLOCK_RECORD
  5
7C
330
63
100
AcDbSymbolTableRecord
100
AcDbBlockTableRecord
  2
CDWK_PTTYP16
340
0
  0
BLOCK_RECORD
  5
7D
330
63
100
AcDbSymbolTableRecord
100
AcDbBlockTableRecord
  2
CDWK_PTTYP17
340
0
  0
BLOCK_RECORD
  5
7E
330
63
100
AcDbSymbolTableRecord
100
AcDbBlockTableRecord
  2
CDWK_PTTYP18
340
0
  0
BLOCK_RECORD
  5
7F
330
63
100
AcDbSymbolTableRecord
100
AcDbBlockTableRecord
  2
CDWK_PTTYP19
340
0
  0
BLOCK_RECORD
  5
80
330
63
100
AcDbSymbolTableRecord
100
AcDbBlockTableRecord
  2
CDWK_PTTYP20
340
0
  0
BLOCK_RECORD
  5
81
330
63
100
AcDbSymbolTableRecord
100
AcDbBlockTableRecord
  2
CDWK_PTTYP21
340
0
  0
BLOCK_RECORD
  5
82
330
63
100
AcDbSymbolTableRecord
100
AcDbBlockTableRecord
  2
CDWK_PTTYP22
340
0
  0
BLOCK_RECORD
  5
83
330
63
100
AcDbSymbolTableRecord
100
AcDbBlockTableRecord
  2
CDWK_PTTYP23
340
0
  0
BLOCK_RECORD
  5
84
330
63
100
AcDbSymbolTableRecord
100
AcDbBlockTableRecord
  2
CDWK_PTTYP24
340
0
  0
BLOCK_RECORD
  5
85
330
63
100
AcDbSymbolTableRecord
100
AcDbBlockTableRecord
  2
CDWK_PTTYP25
340
0
  0
BLOCK_RECORD
  5
86
330
63
100
AcDbSymbolTableRecord
100
AcDbBlockTableRecord
  2
CDWK_PTTYP26
340
0
  0
BLOCK_RECORD
  5
87
330
63
100
AcDbSymbolTableRecord
100
AcDbBlockTableRecord
  2
CDWK_PTTYP27
340
0
  0
BLOCK_RECORD
  5
88
330
63
100
AcDbSymbolTableRecord
100
AcDbBlockTableRecord
  2
CDWK_PTTYP28
340
0
  0
BLOCK_RECORD
  5
89
330
63
100
AcDbSymbolTableRecord
100
AcDbBlockTableRecord
  2
CDWK_PTTYP29
340
0
  0
BLOCK_RECORD
  5
8A
330
63
100
AcDbSymbolTableRecord
100
AcDbBlockTableRecord
  2
CDWK_PTTYP30
340
0
  0
BLOCK_RECORD
  5
8B
330
63
100
AcDbSymbolTableRecord
100
AcDbBlockTableRecord
  2
CDWK_PTTYP31
340
0
  0
BLOCK_RECORD
  5
8C
330
63
100
AcDbSymbolTableRecord
100
AcDbBlockTableRecord
  2
CDWK_PTTYP32
340
0
  0
BLOCK_RECORD
  5
8D
330
63
100
AcDbSymbolTableRecord
100
AcDbBlockTableRecord
  2
CDWK_PTTYP33
340
0
  0
BLOCK_RECORD
  5
8E
330
63
100
AcDbSymbolTableRecord
100
AcDbBlockTableRecord
  2
CDWK_PTTYP34
340
0
  0
BLOCK_RECORD
  5
8F
330
63
100
AcDbSymbolTableRecord
100
AcDbBlockTableRecord
  2
CDWK_PTTYP35
340
0
  0
BLOCK_RECORD
  5
90
330
63
100
AcDbSymbolTableRecord
100
AcDbBlockTableRecord
  2
CDWK_PTTYP36
340
0
  0
BLOCK_RECORD
  5
91
330
63
100
AcDbSymbolTableRecord
100
AcDbBlockTableRecord
  2
CDWK_PTTYP37
340
0
  0
BLOCK_RECORD
  5
92
330
63
100
AcDbSymbolTableRecord
100
AcDbBlockTableRecord
  2
CDWK_PTTYP38
340
0
  0
ENDTAB
  0
ENDSEC
  0
SECTION
  2
BLOCKS
  0
BLOCK
  5
93
330
64
100
AcDbEntity
  8
0
100
AcDbBlockBegin
  2
*MODEL_SPACE
 70
     0
 10
0.0
 20
0.0
 30
0.0
  3
*MODEL_SPACE
  1

  0
ENDBLK
  5
94
330
64
100
AcDbEntity
  8
0
100
AcDbBlockEnd
  0
BLOCK
  5
95
330
65
100
AcDbEntity
 67
     1
  8
0
100
AcDbBlockBegin
  2
*PAPER_SPACE
 70
     0
 10
0.0
 20
0.0
 30
0.0
  3
*PAPER_SPACE
  1

  0
ENDBLK
  5
96
330
65
100
AcDbEntity
 67
     1
  8
0
100
AcDbBlockEnd
  0
BLOCK
  5
97
330
66
100
AcDbEntity
  8
0
100
AcDbBlockBegin
  2
CDWK_EXTR_0
 70
     0
 10
0.0
 20
0.0
 30
0.0
  3
CDWK_EXTR_0
  1

  0
LINE
  5
98
330
66
100
AcDbEntity
  8
0
 62
     0
370
    -2
100
AcDbLine
 10
0.0
 20
0.0
 30
0.0
 11
2.0
 21
0.5
 31
0.0
  0
LINE
  5
99
330
66
100
AcDbEntity
  8
0
 62
     0
370
    -2
100
AcDbLine
 10
0.0
 20
0.0
 30
0.0
 11
2.0
 21
-0.5
 31
0.0
  0
LINE
  5
9A
330
66
100
AcDbEntity
  8
0
 62
     0
370
    -2
100
AcDbLine
 10
2.0
 20
0.5
 30
0.0
 11
2.0
 21
-0.5
 31
0.0
  0
ENDBLK
  5
9B
330
66
100
AcDbEntity
  8
0
100
AcDbBlockEnd
  0
BLOCK
  5
9C
330
67
100
AcDbEntity
  8
0
100
AcDbBlockBegin
  2
CDWK_EXTR_1D
 70
     0
 10
0.0
 20
0.0
 30
0.0
  3
CDWK_EXTR_1D
  1

  0
LINE
  5
9D
330
67
100
AcDbEntity
  8
0
 62
     0
370
    -2
100
AcDbLine
 10
0.0
 20
0.0
 30
0.0
 11
0.0
 21
1.0
 31
0.0
  0
LINE
  5
9E
330
67
100
AcDbEntity
  8
0
 62
     0
370
    -2
100
AcDbLine
 10
0.0
 20
1.0
 30
0.0
 11
0.5
 21
1.5
 31
0.0
  0
LINE
  5
9F
330
67
100
AcDbEntity
  8
0
 62
     0
370
    -2
100
AcDbLine
 10
0.5
 20
1.5
 30
0.0
 11
1.5
 21
1.5
 31
0.0
  0
ENDBLK
  5
A0
330
67
100
AcDbEntity
  8
0
100
AcDbBlockEnd
  0
BLOCK
  5
A1
330
68
100
AcDbEntity
  8
0
100
AcDbBlockBegin
  2
CDWK_EXTR_1G
 70
     0
 10
0.0
 20
0.0
 30
0.0
  3
CDWK_EXTR_1G
  1

  0
LINE
  5
A2
330
68
100
AcDbEntity
  8
0
 62
     0
370
    -2
100
AcDbLine
 10
0.0
 20
0.0
 30
0.0
 11
0.0
 21
-1.0
 31
0.0
  0
LINE
  5
A3
330
68
100
AcDbEntity
  8
0
 62
     0
370
    -2
100
AcDbLine
 10
0.0
 20
-1.0
 30
0.0
 11
0.5
 21
-1.5
 31
0.0
  0
LINE
  5
A4
330
68
100
AcDbEntity
  8
0
 62
     0
370
    -2
100
AcDbLine
 10
0.5
 20
-1.5
 30
0.0
 11
1.5
 21
-1.5
 31
0.0
  0
ENDBLK
  5
A5
330
68
100
AcDbEntity
  8
0
100
AcDbBlockEnd
  0
BLOCK
  5
A6
330
69
100
AcDbEntity
  8
0
100
AcDbBlockBegin
  2
CDWK_EXTR_2
 70
     0
 10
0.0
 20
0.0
 30
0.0
  3
CDWK_EXTR_2
  1

  0
SOLID
  5
A7
330
69
100
AcDbEntity
  8
0
 62
     0
100
AcDbTrace
 10
0.0
 20
0.0
 30
0.0
 11
2.0
 21
0.5
 31
0.0
 12
2.0
 22
-0.5
 32
0.0
 13
2.0
 23
-0.5
 33
0.0
  0
ENDBLK
  5
A8
330
69
100
AcDbEntity
  8
0
100
AcDbBlockEnd
  0
BLOCK
  5
A9
330
6A
100
AcDbEntity
  8
0
100
AcDbBlockBegin
  2
CDWK_EXTR_3
 70
     0
 10
0.0
 20
0.0
 30
0.0
  3
CDWK_EXTR_3
  1

  0
SOLID
  5
AA
330
6A
100
AcDbEntity
  8
0
 62
     0
100
AcDbTrace
 10
0.0
 20
0.0
 30
0.0
 11
2.0
 21
0.5
 31
0.0
 12
2.0
 22
-0.5
 32
0.0
 13
2.0
 23
-0.5
 33
0.0
  0
LINE
  5
AB
330
6A
100
AcDbEntity
  8
0
 62
     0
370
    -2
100
AcDbLine
 10
0.0
 20
1.0
 30
0.0
 11
0.0
 21
-1.0
 31
0.0
  0
ENDBLK
  5
AC
330
6A
100
AcDbEntity
  8
0
100
AcDbBlockEnd
  0
BLOCK
  5
AD
330
6B
100
AcDbEntity
  8
0
100
AcDbBlockBegin
  2
CDWK_EXTR_4
 70
     0
 10
0.0
 20
0.0
 30
0.0
  3
CDWK_EXTR_4
  1

  0
HATCH
  5
AE
330
6B
100
AcDbEntity
  8
0
 62
     0
370
    20
100
AcDbHatch
 10
0.0
 20
0.0
 30
0.0
210
0.0
220
0.0
230
1.0
  2
SOLID
 70
     1
 71
     0
 91
        1
 92
        1
 93
        1
 72
     2
 10
0.0
 20
0.0
 40
0.5
 50
0.0
 51
360.0
 73
     1
 97
        0
 75
     0
 76
     1
 98
        1
 10
0.0
 20
0.0
  0
ENDBLK
  5
AF
330
6B
100
AcDbEntity
  8
0
100
AcDbBlockEnd
  0
BLOCK
  5
B0
330
6C
100
AcDbEntity
  8
0
100
AcDbBlockBegin
  2
CDWK_PTTYP0
 70
     0
 10
0.0
 20
0.0
 30
0.0
  3
CDWK_PTTYP0
  1

  0
POINT
  5
B1
330
6C
100
AcDbEntity
  8
0
 62
     0
100
AcDbPoint
 10
0.0
 20
0.0
 30
0.0
  0
ENDBLK
  5
B2
330
6C
100
AcDbEntity
  8
0
100
AcDbBlockEnd
  0
BLOCK
  5
B3
330
6D
100
AcDbEntity
  8
0
100
AcDbBlockBegin
  2
CDWK_PTTYP1
 70
     0
 10
0.0
 20
0.0
 30
0.0
  3
CDWK_PTTYP1
  1

  0
LINE
  5
B4
330
6D
100
AcDbEntity
  8
0
 62
     0
370
    -2
100
AcDbLine
 10
-0.5
 20
0.5
 30
0.0
 11
0.5
 21
0.5
 31
0.0
  0
LINE
  5
B5
330
6D
100
AcDbEntity
  8
0
 62
     0
370
    -2
100
AcDbLine
 10
0.5
 20
0.5
 30
0.0
 11
0.5
 21
-0.5
 31
0.0
  0
LINE
  5
B6
330
6D
100
AcDbEntity
  8
0
 62
     0
370
    -2
100
AcDbLine
 10
0.5
 20
-0.5
 30
0.0
 11
-0.5
 21
-0.5
 31
0.0
  0
LINE
  5
B7
330
6D
100
AcDbEntity
  8
0
 62
     0
370
    -2
100
AcDbLine
 10
-0.5
 20
-0.5
 30
0.0
 11
-0.5
 21
0.5
 31
0.0
  0
ENDBLK
  5
B8
330
6D
100
AcDbEntity
  8
0
100
AcDbBlockEnd
  0
BLOCK
  5
B9
330
6E
100
AcDbEntity
  8
0
100
AcDbBlockBegin
  2
CDWK_PTTYP2
 70
     0
 10
0.0
 20
0.0
 30
0.0
  3
CDWK_PTTYP2
  1

  0
LINE
  5
BA
330
6E
100
AcDbEntity
  8
0
 62
     0
370
    -2
100
AcDbLine
 10
0.0
 20
0.5
 30
0.0
 11
0.0
 21
-0.5
 31
0.0
  0
LINE
  5
BB
330
6E
100
AcDbEntity
  8
0
 62
     0
370
    -2
100
AcDbLine
 10
-0.5
 20
0.0
 30
0.0
 11
0.5
 21
0.0
 31
0.0
  0
ENDBLK
  5
BC
330
6E
100
AcDbEntity
  8
0
100
AcDbBlockEnd
  0
BLOCK
  5
BD
330
6F
100
AcDbEntity
  8
0
100
AcDbBlockBegin
  2
CDWK_PTTYP3
 70
     0
 10
0.0
 20
0.0
 30
0.0
  3
CDWK_PTTYP3
  1

  0
CIRCLE
  5
BE
330
6F
100
AcDbEntity
  8
0
 62
     0
370
    -2
100
AcDbCircle
 10
0.0
 20
0.0
 30
0.0
 40
0.5
  0
ENDBLK
  5
BF
330
6F
100
AcDbEntity
  8
0
100
AcDbBlockEnd
  0
BLOCK
  5
C0
330
70
100
AcDbEntity
  8
0
100
AcDbBlockBegin
  2
CDWK_PTTYP4
 70
     0
 10
0.0
 20
0.0
 30
0.0
  3
CDWK_PTTYP4
  1

  0
HATCH
  5
C1
330
70
100
AcDbEntity
  8
0
 62
     0
370
    20
100
AcDbHatch
 10
0.0
 20
0.0
 30
0.0
210
0.0
220
0.0
230
1.0
  2
SOLID
 70
     1
 71
     0
 91
        1
 92
        1
 93
        1
 72
     2
 10
0.0
 20
0.0
 40
0.5
 50
0.0
 51
360.0
 73
     1
 97
        0
 75
     0
 76
     1
 98
        1
 10
0.0
 20
0.0
  0
ENDBLK
  5
C2
330
70
100
AcDbEntity
  8
0
100
AcDbBlockEnd
  0
BLOCK
  5
C3
330
71
100
AcDbEntity
  8
0
100
AcDbBlockBegin
  2
CDWK_PTTYP5
 70
     0
 10
0.0
 20
0.0
 30
0.0
  3
CDWK_PTTYP5
  1

  0
LINE
  5
C4
330
71
100
AcDbEntity
  8
0
 62
     0
370
    -2
100
AcDbLine
 10
-0.5
 20
0.5
 30
0.0
 11
0.5
 21
0.5
 31
0.0
  0
LINE
  5
C5
330
71
100
AcDbEntity
  8
0
 62
     0
370
    -2
100
AcDbLine
 10
0.5
 20
0.5
 30
0.0
 11
0.5
 21
-0.5
 31
0.0
  0
LINE
  5
C6
330
71
100
AcDbEntity
  8
0
 62
     0
370
    -2
100
AcDbLine
 10
0.5
 20
-0.5
 30
0.0
 11
-0.5
 21
-0.5
 31
0.0
  0
LINE
  5
C7
330
71
100
AcDbEntity
  8
0
 62
     0
370
    -2
100
AcDbLine
 10
-0.5
 20
-0.5
 30
0.0
 11
-0.5
 21
0.5
 31
0.0
  0
SOLID
  5
C8
330
71
100
AcDbEntity
  8
0
 62
     0
100
AcDbTrace
 10
-0.5
 20
-0.5
 30
0.0
 11
-0.5
 21
0.0
 31
0.0
 12
0.0
 22
-0.5
 32
0.0
 13
0.0
 23
0.0
 33
0.0
  0
SOLID
  5
C9
330
71
100
AcDbEntity
  8
0
 62
     0
100
AcDbTrace
 10
0.0
 20
0.0
 30
0.0
 11
0.0
 21
0.5
 31
0.0
 12
0.5
 22
0.0
 32
0.0
 13
0.5
 23
0.5
 33
0.0
  0
ENDBLK
  5
CA
330
71
100
AcDbEntity
  8
0
100
AcDbBlockEnd
  0
BLOCK
  5
CB
330
72
100
AcDbEntity
  8
0
100
AcDbBlockBegin
  2
CDWK_PTTYP6
 70
     0
 10
0.0
 20
0.0
 30
0.0
  3
CDWK_PTTYP6
  1

  0
LINE
  5
CC
330
72
100
AcDbEntity
  8
0
 62
     0
370
    -2
100
AcDbLine
 10
-0.5
 20
0.5
 30
0.0
 11
0.5
 21
0.5
 31
0.0
  0
LINE
  5
CD
330
72
100
AcDbEntity
  8
0
 62
     0
370
    -2
100
AcDbLine
 10
0.5
 20
0.5
 30
0.0
 11
0.5
 21
-0.5
 31
0.0
  0
LINE
  5
CE
330
72
100
AcDbEntity
  8
0
 62
     0
370
    -2
100
AcDbLine
 10
0.5
 20
-0.5
 30
0.0
 11
-0.5
 21
-0.5
 31
0.0
  0
LINE
  5
CF
330
72
100
AcDbEntity
  8
0
 62
     0
370
    -2
100
AcDbLine
 10
-0.5
 20
-0.5
 30
0.0
 11
-0.5
 21
0.5
 31
0.0
  0
SOLID
  5
D0
330
72
100
AcDbEntity
  8
0
 62
     0
100
AcDbTrace
 10
-0.5
 20
-0.5
 30
0.0
 11
-0.5
 21
0.5
 31
0.0
 12
0.5
 22
0.5
 32
0.0
 13
0.5
 23
0.5
 33
0.0
  0
ENDBLK
  5
D1
330
72
100
AcDbEntity
  8
0
100
AcDbBlockEnd
  0
BLOCK
  5
D2
330
73
100
AcDbEntity
  8
0
100
AcDbBlockBegin
  2
CDWK_PTTYP7
 70
     0
 10
0.0
 20
0.0
 30
0.0
  3
CDWK_PTTYP7
  1

  0
LINE
  5
D3
330
73
100
AcDbEntity
  8
0
 62
     0
370
    -2
100
AcDbLine
 10
-0.5
 20
0.5
 30
0.0
 11
0.5
 21
0.5
 31
0.0
  0
LINE
  5
D4
330
73
100
AcDbEntity
  8
0
 62
     0
370
    -2
100
AcDbLine
 10
0.5
 20
0.5
 30
0.0
 11
0.5
 21
-0.5
 31
0.0
  0
LINE
  5
D5
330
73
100
AcDbEntity
  8
0
 62
     0
370
    -2
100
AcDbLine
 10
0.5
 20
-0.5
 30
0.0
 11
-0.5
 21
-0.5
 31
0.0
  0
LINE
  5
D6
330
73
100
AcDbEntity
  8
0
 62
     0
370
    -2
100
AcDbLine
 10
-0.5
 20
-0.5
 30
0.0
 11
-0.5
 21
0.5
 31
0.0
  0
LINE
  5
D7
330
73
100
AcDbEntity
  8
0
 62
     0
370
    -2
100
AcDbLine
 10
0.0
 20
0.5
 30
0.0
 11
0.0
 21
-0.5
 31
0.0
  0
LINE
  5
D8
330
73
100
AcDbEntity
  8
0
 62
     0
370
    -2
100
AcDbLine
 10
-0.5
 20
0.0
 30
0.0
 11
0.5
 21
0.0
 31
0.0
  0
ENDBLK
  5
D9
330
73
100
AcDbEntity
  8
0
100
AcDbBlockEnd
  0
BLOCK
  5
DA
330
74
100
AcDbEntity
  8
0
100
AcDbBlockBegin
  2
CDWK_PTTYP8
 70
     0
 10
0.0
 20
0.0
 30
0.0
  3
CDWK_PTTYP8
  1

  0
SOLID
  5
DB
330
74
100
AcDbEntity
  8
0
 62
     0
100
AcDbTrace
 10
-0.5
 20
0.5
 30
0.0
 11
0.5
 21
0.5
 31
0.0
 12
-0.5
 22
-0.5
 32
0.0
 13
0.5
 23
-0.5
 33
0.0
  0
ENDBLK
  5
DC
330
74
100
AcDbEntity
  8
0
100
AcDbBlockEnd
  0
BLOCK
  5
DD
330
75
100
AcDbEntity
  8
0
100
AcDbBlockBegin
  2
CDWK_PTTYP9
 70
     0
 10
0.0
 20
0.0
 30
0.0
  3
CDWK_PTTYP9
  1

  0
CIRCLE
  5
DE
330
75
100
AcDbEntity
  8
0
 62
     0
370
    -2
100
AcDbCircle
 10
0.0
 20
0.0
 30
0.0
 40
0.5
  0
CIRCLE
  5
DF
330
75
100
AcDbEntity
  8
0
 62
     0
370
    -2
100
AcDbCircle
 10
0.0
 20
0.0
 30
0.0
 40
0.16666667
  0
ENDBLK
  5
E0
330
75
100
AcDbEntity
  8
0
100
AcDbBlockEnd
  0
BLOCK
  5
E1
330
76
100
AcDbEntity
  8
0
100
AcDbBlockBegin
  2
CDWK_PTTYP10
 70
     0
 10
0.0
 20
0.0
 30
0.0
  3
CDWK_PTTYP10
  1

  0
CIRCLE
  5
E2
330
76
100
AcDbEntity
  8
0
 62
     0
370
    -2
100
AcDbCircle
 10
0.0
 20
0.0
 30
0.0
 40
0.5
  0
ENDBLK
  5
E3
330
76
100
AcDbEntity
  8
0
100
AcDbBlockEnd
  0
BLOCK
  5
E4
330
77
100
AcDbEntity
  8
0
100
AcDbBlockBegin
  2
CDWK_PTTYP11
 70
     0
 10
0.0
 20
0.0
 30
0.0
  3
CDWK_PTTYP11
  1

  0
CIRCLE
  5
E5
330
77
100
AcDbEntity
  8
0
 62
     0
370
    -2
100
AcDbCircle
 10
0.0
 20
0.0
 30
0.0
 40
0.5
  0
CIRCLE
  5
E6
330
77
100
AcDbEntity
  8
0
 62
     0
370
    -2
100
AcDbCircle
 10
0.0
 20
0.0
 30
0.0
 40
0.25
  0
ENDBLK
  5
E7
330
77
100
AcDbEntity
  8
0
100
AcDbBlockEnd
  0
BLOCK
  5
E8
330
78
100
AcDbEntity
  8
0
100
AcDbBlockBegin
  2
CDWK_PTTYP12
 70
     0
 10
0.0
 20
0.0
 30
0.0
  3
CDWK_PTTYP12
  1

  0
CIRCLE
  5
E9
330
78
100
AcDbEntity
  8
0
 62
     0
370
    -2
100
AcDbCircle
 10
0.0
 20
0.0
 30
0.0
 40
0.5
  0
CIRCLE
  5
EA
330
78
100
AcDbEntity
  8
0
 62
     0
370
    -2
100
AcDbCircle
 10
0.25
 20
0.0
 30
0.0
 40
0.25
  0
ENDBLK
  5
EB
330
78
100
AcDbEntity
  8
0
100
AcDbBlockEnd
  0
BLOCK
  5
EC
330
79
100
AcDbEntity
  8
0
100
AcDbBlockBegin
  2
CDWK_PTTYP13
 70
     0
 10
0.0
 20
0.0
 30
0.0
  3
CDWK_PTTYP13
  1

  0
CIRCLE
  5
ED
330
79
100
AcDbEntity
  8
0
 62
     0
370
    -2
100
AcDbCircle
 10
0.0
 20
0.0
 30
0.0
 40
0.5
  0
CIRCLE
  5
EE
330
79
100
AcDbEntity
  8
0
 62
     0
370
    -2
100
AcDbCircle
 10
0.25
 20
0.0
 30
0.0
 40
0.25
  0
CIRCLE
  5
EF
330
79
100
AcDbEntity
  8
0
 62
     0
370
    -2
100
AcDbCircle
 10
-0.25
 20
0.0
 30
0.0
 40
0.25
  0
ENDBLK
  5
F0
330
79
100
AcDbEntity
  8
0
100
AcDbBlockEnd
  0
BLOCK
  5
F1
330
7A
100
AcDbEntity
  8
0
100
AcDbBlockBegin
  2
CDWK_PTTYP14
 70
     0
 10
0.0
 20
0.0
 30
0.0
  3
CDWK_PTTYP14
  1

  0
POINT
  5
F2
330
7A
100
AcDbEntity
  8
0
 62
     0
100
AcDbPoint
 10
0.0
 20
0.0
 30
0.0
  0
ENDBLK
  5
F3
330
7A
100
AcDbEntity
  8
0
100
AcDbBlockEnd
  0
BLOCK
  5
F4
330
7B
100
AcDbEntity
  8
0
100
AcDbBlockBegin
  2
CDWK_PTTYP15
 70
     0
 10
0.0
 20
0.0
 30
0.0
  3
CDWK_PTTYP15
  1

  0
POINT
  5
F5
330
7B
100
AcDbEntity
  8
0
 62
     0
100
AcDbPoint
 10
0.0
 20
0.0
 30
0.0
  0
ENDBLK
  5
F6
330
7B
100
AcDbEntity
  8
0
100
AcDbBlockEnd
  0
BLOCK
  5
F7
330
7C
100
AcDbEntity
  8
0
100
AcDbBlockBegin
  2
CDWK_PTTYP16
 70
     0
 10
0.0
 20
0.0
 30
0.0
  3
CDWK_PTTYP16
  1

  0
LINE
  5
F8
330
7C
100
AcDbEntity
  8
0
 62
     0
370
    -2
100
AcDbLine
 10
-0.5
 20
-0.28867513
 30
0.0
 11
0.5
 21
-0.28867513
 31
0.0
  0
LINE
  5
F9
330
7C
100
AcDbEntity
  8
0
 62
     0
370
    -2
100
AcDbLine
 10
0.5
 20
-0.28867513
 30
0.0
 11
0.0
 21
0.5773502700000001
 31
0.0
  0
LINE
  5
FA
330
7C
100
AcDbEntity
  8
0
 62
     0
370
    -2
100
AcDbLine
 10
0.0
 20
0.5773502700000001
 30
0.0
 11
-0.5
 21
-0.28867513
 31
0.0
  0
CIRCLE
  5
FB
330
7C
100
AcDbEntity
  8
0
 62
     0
370
    -2
100
AcDbCircle
 10
0.0
 20
0.0
 30
0.0
 40
0.28867513
  0
ENDBLK
  5
FC
330
7C
100
AcDbEntity
  8
0
100
AcDbBlockEnd
  0
BLOCK
  5
FD
330
7D
100
AcDbEntity
  8
0
100
AcDbBlockBegin
  2
CDWK_PTTYP17
 70
     0
 10
0.0
 20
0.0
 30
0.0
  3
CDWK_PTTYP17
  1

  0
CIRCLE
  5
FE
330
7D
100
AcDbEntity
  8
0
 62
     0
370
    -2
100
AcDbCircle
 10
0.0
 20
0.0
 30
0.0
 40
0.5
  0
HATCH
  5
FF
330
7D
100
AcDbEntity
  8
0
 62
     0
370
   211
100
AcDbHatch
 10
0.0
 20
0.0
 30
0.0
210
0.0
220
0.0
230
1.0
  2
SOLID
 70
     1
 71
     0
 91
        1
 92
        1
 93
        1
 72
     2
 10
0.0
 20
0.0
 40
0.25
 50
0.0
 51
360.0
 73
     1
 97
        0
 75
     0
 76
     1
 98
        1
 10
0.0
 20
0.0
  0
ENDBLK
  5
100
330
7D
100
AcDbEntity
  8
0
100
AcDbBlockEnd
  0
BLOCK
  5
101
330
7E
100
AcDbEntity
  8
0
100
AcDbBlockBegin
  2
CDWK_PTTYP18
 70
     0
 10
0.0
 20
0.0
 30
0.0
  3
CDWK_PTTYP18
  1

  0
CIRCLE
  5
102
330
7E
100
AcDbEntity
  8
0
 62
     0
370
    -2
100
AcDbCircle
 10
0.0
 20
0.0
 30
0.0
 40
0.5
  0
CIRCLE
  5
103
330
7E
100
AcDbEntity
  8
0
 62
     0
370
    -2
100
AcDbCircle
 10
0.0
 20
0.0
 30
0.0
 40
0.2
  0
ENDBLK
  5
104
330
7E
100
AcDbEntity
  8
0
100
AcDbBlockEnd
  0
BLOCK
  5
105
330
7F
100
AcDbEntity
  8
0
100
AcDbBlockBegin
  2
CDWK_PTTYP19
 70
     0
 10
0.0
 20
0.0
 30
0.0
  3
CDWK_PTTYP19
  1

  0
CIRCLE
  5
106
330
7F
100
AcDbEntity
  8
0
 62
     0
370
    -2
100
AcDbCircle
 10
0.0
 20
0.0
 30
0.0
 40
0.4
  0
CIRCLE
  5
107
330
7F
100
AcDbEntity
  8
0
 62
     0
370
    -2
100
AcDbCircle
 10
0.0
 20
0.0
 30
0.0
 40
0.25
  0
LINE
  5
108
330
7F
100
AcDbEntity
  8
0
 62
     0
370
    -2
100
AcDbLine
 10
-0.25
 20
0.0
 30
0.0
 11
0.25
 21
0.0
 31
0.0
  0
ENDBLK
  5
109
330
7F
100
AcDbEntity
  8
0
100
AcDbBlockEnd
  0
BLOCK
  5
10A
330
80
100
AcDbEntity
  8
0
100
AcDbBlockBegin
  2
CDWK_PTTYP20
 70
     0
 10
0.0
 20
0.0
 30
0.0
  3
CDWK_PTTYP20
  1

  0
CIRCLE
  5
10B
330
80
100
AcDbEntity
  8
0
 62
     0
370
    -2
100
AcDbCircle
 10
0.0
 20
0.0
 30
0.0
 40
0.5
  0
CIRCLE
  5
10C
330
80
100
AcDbEntity
  8
0
 62
     0
370
    -2
100
AcDbCircle
 10
0.0
 20
0.0
 30
0.0
 40
0.3
  0
ENDBLK
  5
10D
330
80
100
AcDbEntity
  8
0
100
AcDbBlockEnd
  0
BLOCK
  5
10E
330
81
100
AcDbEntity
  8
0
100
AcDbBlockBegin
  2
CDWK_PTTYP21
 70
     0
 10
0.0
 20
0.0
 30
0.0
  3
CDWK_PTTYP21
  1

  0
CIRCLE
  5
10F
330
81
100
AcDbEntity
  8
0
 62
     0
370
    -2
100
AcDbCircle
 10
0.0
 20
0.0
 30
0.0
 40
0.5
  0
LINE
  5
110
330
81
100
AcDbEntity
  8
0
 62
     0
370
    -2
100
AcDbLine
 10
-0.5
 20
0.0
 30
0.0
 11
0.5
 21
0.0
 31
0.0
  0
ENDBLK
  5
111
330
81
100
AcDbEntity
  8
0
100
AcDbBlockEnd
  0
BLOCK
  5
112
330
82
100
AcDbEntity
  8
0
100
AcDbBlockBegin
  2
CDWK_PTTYP22
 70
     0
 10
0.0
 20
0.0
 30
0.0
  3
CDWK_PTTYP22
  1

  0
POINT
  5
113
330
82
100
AcDbEntity
  8
0
 62
     0
100
AcDbPoint
 10
0.0
 20
0.0
 30
0.0
  0
ENDBLK
  5
114
330
82
100
AcDbEntity
  8
0
100
AcDbBlockEnd
  0
BLOCK
  5
115
330
83
100
AcDbEntity
  8
0
100
AcDbBlockBegin
  2
CDWK_PTTYP23
 70
     0
 10
0.0
 20
0.0
 30
0.0
  3
CDWK_PTTYP23
  1

  0
POINT
  5
116
330
83
100
AcDbEntity
  8
0
 62
     0
100
AcDbPoint
 10
0.0
 20
0.0
 30
0.0
  0
ENDBLK
  5
117
330
83
100
AcDbEntity
  8
0
100
AcDbBlockEnd
  0
BLOCK
  5
118
330
84
100
AcDbEntity
  8
0
100
AcDbBlockBegin
  2
CDWK_PTTYP24
 70
     0
 10
0.0
 20
0.0
 30
0.0
  3
CDWK_PTTYP24
  1

  0
POINT
  5
119
330
84
100
AcDbEntity
  8
0
 62
     0
100
AcDbPoint
 10
0.0
 20
0.0
 30
0.0
  0
ENDBLK
  5
11A
330
84
100
AcDbEntity
  8
0
100
AcDbBlockEnd
  0
BLOCK
  5
11B
330
85
100
AcDbEntity
  8
0
100
AcDbBlockBegin
  2
CDWK_PTTYP25
 70
     0
 10
0.0
 20
0.0
 30
0.0
  3
CDWK_PTTYP25
  1

  0
LINE
  5
11C
330
85
100
AcDbEntity
  8
0
 62
     0
370
    -2
100
AcDbLine
 10
-0.43290044
 20
-0.25
 30
0.0
 11
0.43290044
 21
-0.25
 31
0.0
  0
LINE
  5
11D
330
85
100
AcDbEntity
  8
0
 62
     0
370
    -2
100
AcDbLine
 10
-0.43290044
 20
-0.25
 30
0.0
 11
0.0
 21
0.5
 31
0.0
  0
LINE
  5
11E
330
85
100
AcDbEntity
  8
0
 62
     0
370
    -2
100
AcDbLine
 10
0.43290044
 20
-0.25
 30
0.0
 11
0.0
 21
0.5
 31
0.0
  0
CIRCLE
  5
11F
330
85
100
AcDbEntity
  8
0
 62
     0
370
    -2
100
AcDbCircle
 10
0.0
 20
0.0
 30
0.0
 40
0.5
  0
ENDBLK
  5
120
330
85
100
AcDbEntity
  8
0
100
AcDbBlockEnd
  0
BLOCK
  5
121
330
86
100
AcDbEntity
  8
0
100
AcDbBlockBegin
  2
CDWK_PTTYP26
 70
     0
 10
0.0
 20
0.0
 30
0.0
  3
CDWK_PTTYP26
  1

  0
LINE
  5
122
330
86
100
AcDbEntity
  8
0
 62
     0
370
    -2
100
AcDbLine
 10
-0.5
 20
-0.28850001
 30
0.0
 11
0.5
 21
-0.28850001
 31
0.0
  0
LINE
  5
123
330
86
100
AcDbEntity
  8
0
 62
     0
370
    -2
100
AcDbLine
 10
-0.5
 20
-0.28850001
 30
0.0
 11
0.0
 21
0.5773672100000001
 31
0.0
  0
LINE
  5
124
330
86
100
AcDbEntity
  8
0
 62
     0
370
    -2
100
AcDbLine
 10
0.5
 20
-0.28850001
 30
0.0
 11
0.0
 21
0.5773672100000001
 31
0.0
  0
CIRCLE
  5
125
330
86
100
AcDbEntity
  8
0
 62
     0
370
    -2
100
AcDbCircle
 10
0.0
 20
0.0
 30
0.0
 40
0.1312336
  0
ENDBLK
  5
126
330
86
100
AcDbEntity
  8
0
100
AcDbBlockEnd
  0
BLOCK
  5
127
330
87
100
AcDbEntity
  8
0
100
AcDbBlockBegin
  2
CDWK_PTTYP27
 70
     0
 10
0.0
 20
0.0
 30
0.0
  3
CDWK_PTTYP27
  1

  0
LINE
  5
128
330
87
100
AcDbEntity
  8
0
 62
     0
370
    -2
100
AcDbLine
 10
-0.43290044
 20
-0.25
 30
0.0
 11
0.43290044
 21
-0.25
 31
0.0
  0
LINE
  5
129
330
87
100
AcDbEntity
  8
0
 62
     0
370
    -2
100
AcDbLine
 10
-0.43290044
 20
-0.25
 30
0.0
 11
0.0
 21
0.5
 31
0.0
  0
LINE
  5
12A
330
87
100
AcDbEntity
  8
0
 62
     0
370
    -2
100
AcDbLine
 10
0.43290044
 20
-0.25
 30
0.0
 11
0.0
 21
0.5
 31
0.0
  0
CIRCLE
  5
12B
330
87
100
AcDbEntity
  8
0
 62
     0
370
    -2
100
AcDbCircle
 10
0.0
 20
0.0
 30
0.0
 40
0.5
  0
CIRCLE
  5
12C
330
87
100
AcDbEntity
  8
0
 62
     0
370
    -2
100
AcDbCircle
 10
0.0
 20
0.0
 30
0.0
 40
0.1312336
  0
ENDBLK
  5
12D
330
87
100
AcDbEntity
  8
0
100
AcDbBlockEnd
  0
BLOCK
  5
12E
330
88
100
AcDbEntity
  8
0
100
AcDbBlockBegin
  2
CDWK_PTTYP28
 70
     0
 10
0.0
 20
0.0
 30
0.0
  3
CDWK_PTTYP28
  1

  0
POINT
  5
12F
330
88
100
AcDbEntity
  8
0
 62
     0
100
AcDbPoint
 10
0.0
 20
0.0
 30
0.0
  0
ENDBLK
  5
130
330
88
100
AcDbEntity
  8
0
100
AcDbBlockEnd
  0
BLOCK
  5
131
330
89
100
AcDbEntity
  8
0
100
AcDbBlockBegin
  2
CDWK_PTTYP29
 70
     0
 10
0.0
 20
0.0
 30
0.0
  3
CDWK_PTTYP29
  1

  0
CIRCLE
  5
132
330
89
100
AcDbEntity
  8
0
 62
     0
370
    -2
100
AcDbCircle
 10
0.0
 20
0.0
 30
0.0
 40
0.5
  0
CIRCLE
  5
133
330
89
100
AcDbEntity
  8
0
 62
     0
370
    -2
100
AcDbCircle
 10
0.0
 20
0.0
 30
0.0
 40
0.375
  0
CIRCLE
  5
134
330
89
100
AcDbEntity
  8
0
 62
     0
370
    -2
100
AcDbCircle
 10
0.0
 20
0.0
 30
0.0
 40
0.21875
  0
ENDBLK
  5
135
330
89
100
AcDbEntity
  8
0
100
AcDbBlockEnd
  0
BLOCK
  5
136
330
8A
100
AcDbEntity
  8
0
100
AcDbBlockBegin
  2
CDWK_PTTYP30
 70
     0
 10
0.0
 20
0.0
 30
0.0
  3
CDWK_PTTYP30
  1

  0
LINE
  5
137
330
8A
100
AcDbEntity
  8
0
 62
     0
370
    -2
100
AcDbLine
 10
0.17680339
 20
0.17680339
 30
0.0
 11
0.5
 21
0.5
 31
0.0
  0
LINE
  5
138
330
8A
100
AcDbEntity
  8
0
 62
     0
370
    -2
100
AcDbLine
 10
-0.17680339
 20
0.17680339
 30
0.0
 11
-0.5
 21
0.5
 31
0.0
  0
LINE
  5
139
330
8A
100
AcDbEntity
  8
0
 62
     0
370
    -2
100
AcDbLine
 10
0.17680339
 20
-0.17680339
 30
0.0
 11
0.5
 21
-0.5
 31
0.0
  0
LINE
  5
13A
330
8A
100
AcDbEntity
  8
0
 62
     0
370
    -2
100
AcDbLine
 10
-0.17680339
 20
-0.17680339
 30
0.0
 11
-0.5
 21
-0.5
 31
0.0
  0
ENDBLK
  5
13B
330
8A
100
AcDbEntity
  8
0
100
AcDbBlockEnd
  0
BLOCK
  5
13C
330
8B
100
AcDbEntity
  8
0
100
AcDbBlockBegin
  2
CDWK_PTTYP31
 70
     0
 10
0.0
 20
0.0
 30
0.0
  3
CDWK_PTTYP31
  1

  0
CIRCLE
  5
13D
330
8B
100
AcDbEntity
  8
0
 62
     0
370
    -2
100
AcDbCircle
 10
0.0
 20
0.0
 30
0.0
 40
0.075
  0
LINE
  5
13E
330
8B
100
AcDbEntity
  8
0
 62
     0
370
    -2
100
AcDbLine
 10
0.075
 20
0.0
 30
0.0
 11
0.5
 21
0.0
 31
0.0
  0
LINE
  5
13F
330
8B
100
AcDbEntity
  8
0
 62
     0
370
    -2
100
AcDbLine
 10
-0.075
 20
0.0
 30
0.0
 11
-0.5
 21
0.0
 31
0.0
  0
LINE
  5
140
330
8B
100
AcDbEntity
  8
0
 62
     0
370
    -2
100
AcDbLine
 10
0.0
 20
0.075
 30
0.0
 11
0.0
 21
0.5
 31
0.0
  0
LINE
  5
141
330
8B
100
AcDbEntity
  8
0
 62
     0
370
    -2
100
AcDbLine
 10
0.0
 20
-0.075
 30
0.0
 11
0.0
 21
-0.5
 31
0.0
  0
ENDBLK
  5
142
330
8B
100
AcDbEntity
  8
0
100
AcDbBlockEnd
  0
BLOCK
  5
143
330
8C
100
AcDbEntity
  8
0
100
AcDbBlockBegin
  2
CDWK_PTTYP32
 70
     0
 10
0.0
 20
0.0
 30
0.0
  3
CDWK_PTTYP32
  1

  0
CIRCLE
  5
144
330
8C
100
AcDbEntity
  8
0
 62
     0
370
    -2
100
AcDbCircle
 10
0.0
 20
0.0
 30
0.0
 40
0.5
  0
CIRCLE
  5
145
330
8C
100
AcDbEntity
  8
0
 62
     0
370
    -2
100
AcDbCircle
 10
0.0
 20
0.0
 30
0.0
 40
0.16666667
  0
LINE
  5
146
330
8C
100
AcDbEntity
  8
0
 62
     0
370
    -2
100
AcDbLine
 10
0.11786893
 20
0.11786893
 30
0.0
 11
0.35360678
 21
0.35360678
 31
0.0
  0
LINE
  5
147
330
8C
100
AcDbEntity
  8
0
 62
     0
370
    -2
100
AcDbLine
 10
-0.11786893
 20
0.11786893
 30
0.0
 11
-0.35360678
 21
0.35360678
 31
0.0
  0
LINE
  5
148
330
8C
100
AcDbEntity
  8
0
 62
     0
370
    -2
100
AcDbLine
 10
0.11786893
 20
-0.11786893
 30
0.0
 11
0.35360678
 21
-0.35360678
 31
0.0
  0
LINE
  5
149
330
8C
100
AcDbEntity
  8
0
 62
     0
370
    -2
100
AcDbLine
 10
-0.11786893
 20
-0.11786893
 30
0.0
 11
-0.35360678
 21
-0.35360678
 31
0.0
  0
ENDBLK
  5
14A
330
8C
100
AcDbEntity
  8
0
100
AcDbBlockEnd
  0
BLOCK
  5
14B
330
8D
100
AcDbEntity
  8
0
100
AcDbBlockBegin
  2
CDWK_PTTYP33
 70
     0
 10
0.0
 20
0.0
 30
0.0
  3
CDWK_PTTYP33
  1

  0
CIRCLE
  5
14C
330
8D
100
AcDbEntity
  8
0
 62
     0
370
    -2
100
AcDbCircle
 10
0.0
 20
0.0
 30
0.0
 40
0.5
  0
LINE
  5
14D
330
8D
100
AcDbEntity
  8
0
 62
     0
370
    -2
100
AcDbLine
 10
0.0
 20
0.5
 30
0.0
 11
0.0
 21
-0.5
 31
0.0
  0
LINE
  5
14E
330
8D
100
AcDbEntity
  8
0
 62
     0
370
    -2
100
AcDbLine
 10
-0.5
 20
0.0
 30
0.0
 11
0.5
 21
0.0
 31
0.0
  0
ENDBLK
  5
14F
330
8D
100
AcDbEntity
  8
0
100
AcDbBlockEnd
  0
BLOCK
  5
150
330
8E
100
AcDbEntity
  8
0
100
AcDbBlockBegin
  2
CDWK_PTTYP34
 70
     0
 10
0.0
 20
0.0
 30
0.0
  3
CDWK_PTTYP34
  1

  0
CIRCLE
  5
151
330
8E
100
AcDbEntity
  8
0
 62
     0
370
    -2
100
AcDbCircle
 10
0.0
 20
0.0
 30
0.0
 40
0.5
  0
LINE
  5
152
330
8E
100
AcDbEntity
  8
0
 62
     0
370
    -2
100
AcDbLine
 10
-0.30360678
 20
-0.40360678
 30
0.0
 11
0.40360678
 21
0.30360678
 31
0.0
  0
LINE
  5
153
330
8E
100
AcDbEntity
  8
0
 62
     0
370
    -2
100
AcDbLine
 10
-0.40360678
 20
-0.30360678
 30
0.0
 11
0.30360678
 21
0.40360678
 31
0.0
  0
ENDBLK
  5
154
330
8E
100
AcDbEntity
  8
0
100
AcDbBlockEnd
  0
BLOCK
  5
155
330
8F
100
AcDbEntity
  8
0
100
AcDbBlockBegin
  2
CDWK_PTTYP35
 70
     0
 10
0.0
 20
0.0
 30
0.0
  3
CDWK_PTTYP35
  1

  0
CIRCLE
  5
156
330
8F
100
AcDbEntity
  8
0
 62
     0
370
    -2
100
AcDbCircle
 10
0.0
 20
0.0
 30
0.0
 40
0.21431634
  0
LINE
  5
157
330
8F
100
AcDbEntity
  8
0
 62
     0
370
    -2
100
AcDbLine
 10
0.0
 20
0.21431634
 30
0.0
 11
0.0
 21
0.5
 31
0.0
  0
LINE
  5
158
330
8F
100
AcDbEntity
  8
0
 62
     0
370
    -2
100
AcDbLine
 10
0.0
 20
-0.21431634
 30
0.0
 11
0.0
 21
-0.5
 31
0.0
  0
ENDBLK
  5
159
330
8F
100
AcDbEntity
  8
0
100
AcDbBlockEnd
  0
BLOCK
  5
15A
330
90
100
AcDbEntity
  8
0
100
AcDbBlockBegin
  2
CDWK_PTTYP36
 70
     0
 10
0.0
 20
0.0
 30
0.0
  3
CDWK_PTTYP36
  1

  0
LINE
  5
15B
330
90
100
AcDbEntity
  8
0
 62
     0
370
    -2
100
AcDbLine
 10
-0.5
 20
-0.16666667
 30
0.0
 11
0.5
 21
-0.16666667
 31
0.0
  0
LINE
  5
15C
330
90
100
AcDbEntity
  8
0
 62
     0
370
    -2
100
AcDbLine
 10
0.5
 20
-0.16666667
 30
0.0
 11
0.5
 21
0.16666667
 31
0.0
  0
LINE
  5
15D
330
90
100
AcDbEntity
  8
0
 62
     0
370
    -2
100
AcDbLine
 10
0.5
 20
0.16666667
 30
0.0
 11
-0.5
 21
0.16666667
 31
0.0
  0
LINE
  5
15E
330
90
100
AcDbEntity
  8
0
 62
     0
370
    -2
100
AcDbLine
 10
-0.5
 20
0.16666667
 30
0.0
 11
-0.5
 21
-0.16666667
 31
0.0
  0
SOLID
  5
15F
330
90
100
AcDbEntity
  8
0
 62
     0
100
AcDbTrace
 10
-0.5
 20
-0.16666667
 30
0.0
 11
0.5
 21
0.16666667
 31
0.0
 12
0.5
 22
-0.16666667
 32
0.0
 13
0.5
 23
-0.16666667
 33
0.0
  0
ENDBLK
  5
160
330
90
100
AcDbEntity
  8
0
100
AcDbBlockEnd
  0
BLOCK
  5
161
330
91
100
AcDbEntity
  8
0
100
AcDbBlockBegin
  2
CDWK_PTTYP37
 70
     0
 10
0.0
 20
0.0
 30
0.0
  3
CDWK_PTTYP37
  1

  0
CIRCLE
  5
162
330
91
100
AcDbEntity
  8
0
 62
     0
370
    -2
100
AcDbCircle
 10
0.0
 20
0.0
 30
0.0
 40
0.5
  0
SOLID
  5
163
330
91
100
AcDbEntity
  8
0
 62
     0
100
AcDbTrace
 10
0.0
 20
0.0
 30
0.0
 11
0.3535000099999999
 21
0.3535000099999999
 31
0.0
 12
0.5
 22
0.0
 32
0.0
 13
0.4620000100000001
 23
0.19149999
 33
0.0
  0
SOLID
  5
164
330
91
100
AcDbEntity
  8
0
 62
     0
100
AcDbTrace
 10
0.0
 20
0.0
 30
0.0
 11
0.3535000099999999
 21
-0.3535000099999999
 31
0.0
 12
0.5
 22
0.0
 32
0.0
 13
0.4620000100000001
 23
-0.19149999
 33
0.0
  0
SOLID
  5
165
330
91
100
AcDbEntity
  8
0
 62
     0
100
AcDbTrace
 10
0.0
 20
0.0
 30
0.0
 11
0.0
 21
-0.5
 31
0.0
 12
0.3535000099999999
 22
-0.3535000099999999
 32
0.0
 13
0.19149999
 23
-0.4620000100000001
 33
0.0
  0
SOLID
  5
166
330
91
100
AcDbEntity
  8
0
 62
     0
100
AcDbTrace
 10
0.0
 20
0.0
 30
0.0
 11
0.0
 21
-0.5
 31
0.0
 12
-0.3535000099999999
 22
-0.3535000099999999
 32
0.0
 13
-0.19149999
 23
-0.4620000100000001
 33
0.0
  0
ENDBLK
  5
167
330
91
100
AcDbEntity
  8
0
100
AcDbBlockEnd
  0
BLOCK
  5
168
330
92
100
AcDbEntity
  8
0
100
AcDbBlockBegin
  2
CDWK_PTTYP38
 70
     0
 10
0.0
 20
0.0
 30
0.0
  3
CDWK_PTTYP38
  1

  0
CIRCLE
  5
169
330
92
100
AcDbEntity
  8
0
 62
     0
370
    -2
100
AcDbCircle
 10
0.0
 20
0.0
 30
0.0
 40
0.5
  0
SOLID
  5
16A
330
92
100
AcDbEntity
  8
0
 62
     0
100
AcDbTrace
 10
0.0
 20
0.0
 30
0.0
 11
0.3535000099999999
 21
0.3535000099999999
 31
0.0
 12
0.0
 22
0.5
 32
0.0
 13
0.19149999
 23
0.4620000100000001
 33
0.0
  0
SOLID
  5
16B
330
92
100
AcDbEntity
  8
0
 62
     0
100
AcDbTrace
 10
0.0
 20
0.0
 30
0.0
 11
0.5
 21
0.0
 31
0.0
 12
0.3535000099999999
 22
0.3535000099999999
 32
0.0
 13
0.4620000100000001
 23
0.19149999
 33
0.0
  0
SOLID
  5
16C
330
92
100
AcDbEntity
  8
0
 62
     0
100
AcDbTrace
 10
0.0
 20
0.0
 30
0.0
 11
0.0
 21
-0.5
 31
0.0
 12
-0.3535000099999999
 22
-0.3535000099999999
 32
0.0
 13
-0.19149999
 23
-0.4620000100000001
 33
0.0
  0
SOLID
  5
16D
330
92
100
AcDbEntity
  8
0
 62
     0
100
AcDbTrace
 10
0.0
 20
0.0
 30
0.0
 11
-0.5
 21
0.0
 31
0.0
 12
-0.3535000099999999
 22
-0.3535000099999999
 32
0.0
 13
-0.4620000100000001
 23
-0.19149999
 33
0.0
  0
ENDBLK
  5
16E
330
92
100
AcDbEntity
  8
0
100
AcDbBlockEnd
  0
ENDSEC
  0
SECTION
  2
ENTITIES
  0
LWPOLYLINE
  5
16F
330
64
100
AcDbEntity
  8
Ech.1_5
  6
Continuous
 62
     7
370
    -3
100
AcDbPolyline
 90
        4
 70
     0
 43
0.0
 10
35800.27527157
 20
-54.15771894
 10
35842.27527157
 20
5.84228106
 10
35842.27527157
 20
-54.15771894
 10
35800.27527157
 20
5.84228106
  0
LWPOLYLINE
  5
170
330
64
100
AcDbEntity
  8
Ech.1_5
  6
Continuous
 62
     7
370
    -3
100
AcDbPolyline
 90
        5
 70
     0
 43
0.0
 10
35842.27527157
 20
-54.15771894
 10
35842.27527157
 20
5.84228106
 10
35800.27527157
 20
5.84228106
 10
35800.27527157
 20
-54.15771894
 10
35842.27527157
 20
-54.15771894
  0
LINE
  5
171
330
64
100
AcDbEntity
  8
Ech.1_5
  6
Continuous
 62
     7
370
    -3
100
AcDbLine
 10
35111.08417109999
 20
216.61399352
 30
0.0
 11
35459.15571302
 21
300.6664108
 31
0.0
  0
LWPOLYLINE
  5
172
330
64
100
AcDbEntity
  8
Ech.1_5
  6
Continuous
 62
     7
370
    -3
100
AcDbPolyline
 90
       23
 70
     0
 43
0.0
 10
35506.08925067
 20
323.29697398
 10
35515.53366913001
 20
325.5776148999999
 10
35528.13792779
 20
273.38180794
 10
35504.4052635
 20
267.0160711
 10
35498.29634873
 20
289.79125439
 10
35164.45184398
 20
200.24520779
 10
35166.6350765
 20
191.20416968
 10
35156.17587868
 20
188.39873241
 10
35153.68046156
 20
198.7325659
 10
35137.89580448
 20
194.56174782
 10
35140.42905716
 20
184.07123259
 10
35120.12650382
 20
179.1685661
 10
35111.08417109999
 20
216.61399352
 10
35103.18995585
 20
249.30492333
 42
-0.41421356
 10
35119.63777876
 20
276.22531541
 10
35446.02521318
 20
355.04144811
 10
35459.15571302
 20
300.6664108
 10
35482.2700114
 20
306.2480583
 10
35479.69231187
 20
316.92263351
 10
35489.13673034
 20
319.20327443
 10
35491.71442986001
 20
308.52869922
 10
35508.6669502
 20
312.62239877
 10
35506.08925067
 20
323.29697398
  0
LINE
  5
173
330
64
100
AcDbEntity
  8
Ech.1_5
  6
Continuous
 62
     7
370
    -3
100
AcDbLine
 10
35449.69192504
 20
339.85713704
 30
0.0
 11
35797.76346695
 21
423.9095543199999
 31
0.0
  0
LWPOLYLINE
  5
174
330
64
100
AcDbEntity
  8
Ech.1_5
  6
Continuous
 62
     7
370
    -3
100
AcDbPolyline
 90
       23
 70
     0
 43
0.0
 10
35844.6970046
 20
446.5401175
 10
35854.14142306
 20
448.82075842
 10
35866.74568172
 20
396.62495147
 10
35843.01301743
 20
390.25921463
 10
35836.90410267
 20
413.03439791
 10
35503.05959792
 20
323.48835131
 10
35505.24283044
 20
314.4473132
 10
35494.78363261
 20
311.64187593
 10
35492.28821549
 20
321.97570942
 10
35476.50355842
 20
317.80489135
 10
35479.03681109001
 20
307.31437612
 10
35458.73425775
 20
302.41170963
 10
35449.69192504
 20
339.85713704
 10
35441.79770979
 20
372.54806685
 42
-0.41421356
 10
35458.24553269
 20
399.46845894
 10
35784.68091671
 20
478.2961705099999
 10
35797.81141655
 20
423.92113321
 10
35820.87776534001
 20
429.49120183
 10
35818.30006581
 20
440.1657770299999
 10
35827.74448427
 20
442.44641795
 10
35830.3221838
 20
431.77184275
 10
35847.27470413
 20
435.86554229
 10
35844.6970046
 20
446.5401175
  0
LINE
  5
175
330
64
100
AcDbEntity
  8
Ech.1_5
  6
Continuous
 62
     7
370
    -3
100
AcDbLine
 10
35788.27711533
 20
463.1622736599999
 30
0.0
 11
36136.34865725
 21
547.21469095
 31
0.0
  0
LWPOLYLINE
  5
176
330
64
100
AcDbEntity
  8
Ech.1_5
  6
Continuous
 62
     7
370
    -3
100
AcDbPolyline
 90
       23
 70
     0
 43
0.0
 10
36183.28219489
 20
569.84525412
 10
36192.72661336
 20
572.12589504
 10
36205.33087202
 20
519.93008809
 10
36181.59820772
 20
513.5643512499999
 10
36175.48929296
 20
536.33953453
 10
35841.64478821
 20
446.79348793
 10
35843.82802073
 20
437.7524498199999
 10
35833.36882290001
 20
434.9470125499999
 10
35830.87340578
 20
445.28084604
 10
35815.08874871
 20
441.11002797
 10
35817.62200138
 20
430.61951274
 10
35797.31944804
 20
425.71684625
 10
35788.27711533
 20
463.1622736599999
 10
35780.38290008
 20
495.85320347
 42
-0.41421356
 10
35796.83072299
 20
522.77359556
 10
36123.26610701
 20
601.60130713
 10
36136.39660685
 20
547.2262698299999
 10
36159.46295563
 20
552.79633845
 10
36156.8852561
 20
563.4709136599999
 10
36166.32967456
 20
565.7515545799999
 10
36168.90737409
 20
555.0769793699999
 10
36185.85989442
 20
559.1706789099999
 10
36183.28219489
 20
569.84525412
  0
LINE
  5
177
330
64
100
AcDbEntity
  8
Ech.1_5
 62
     7
100
AcDbLine
 10
36126.88486926
 20
586.40541719
 30
0.0
 11
36474.95641118
 21
670.4578344699999
 31
0.0
  0
LWPOLYLINE
  5
178
330
64
100
AcDbEntity
  8
Ech.1_5
  6
Continuous
 62
     7
370
    -3
100
AcDbPolyline
 90
       23
 70
     0
 43
0.0
 10
36521.88994883
 20
693.08839765
 10
36531.33436729
 20
695.36903857
 10
36543.93862595
 20
643.17323161
 10
36520.20596166
 20
636.8074947699999
 10
36514.0970469
 20
659.58267806
 10
36180.25254215
 20
570.03663146
 10
36182.43577466
 20
560.99559335
 10
36171.97657684001
 20
558.1901560799999
 10
36169.48115972
 20
568.52398957
 10
36153.69650265
 20
564.3531714899999
 10
36156.22975532
 20
553.86265626
 10
36135.92720198
 20
548.9599897699999
 10
36126.88486926
 20
586.40541719
 10
36118.99065402
 20
619.0963469999999
 42
-0.41421356
 10
36135.43847692
 20
646.0167390799999
 10
36461.87386094001
 20
724.84445066
 10
36475.00436078
 20
670.4694133499999
 10
36498.07070956
 20
676.03948197
 10
36495.49301004
 20
686.71405718
 10
36504.9374285
 20
688.9946981
 10
36507.51512803
 20
678.32012289
 10
36524.46764836
 20
682.41382244
 10
36521.88994883
 20
693.08839765
  0
LINE
  5
179
330
64
100
AcDbEntity
  8
Ech.1_5
  6
Continuous
 62
     7
370
    -3
100
AcDbLine
 10
36126.87769413
 20
586.40368454
 30
0.0
 11
36474.94923605
 21
670.4561018199999
 31
0.0
  0
LWPOLYLINE
  5
17A
330
64
100
AcDbEntity
  8
Ech.1_5
 62
     7
100
AcDbPolyline
 90
        5
 70
     0
 43
0.0
 10
35795.56541724
 20
397.74961898
 10
35833.15312207
 20
411.43042472
 10
35842.38766594
 20
386.05872395
 10
35804.79996111
 20
372.37791822
 10
35795.56541724
 20
397.74961898
  0
LWPOLYLINE
  5
17B
330
64
100
AcDbEntity
  8
Ech.1_5
  6
Continuous
 62
     7
370
    -3
100
AcDbPolyline
 90
        4
 70
     0
 43
0.0
 10
35210.9551736
 20
209.45341934
 10
35174.89576135
 20
143.11153907
 10
35227.62421979
 20
162.30312844
 10
35174.87863692001
 20
199.77672499
  0
LWPOLYLINE
  5
17C
330
64
100
AcDbEntity
  8
Ech.1_5
  6
Continuous
 62
     7
370
    -3
100
AcDbPolyline
 90
        4
 70
     0
 43
0.0
 10
35494.54536814001
 20
288.18728119
 10
35466.19220718
 20
249.1347747
 10
35503.77991201
 20
262.81558043
 10
35456.95766331
 20
274.50647546
  0
LWPOLYLINE
  5
17D
330
64
100
AcDbEntity
  8
Ech.1_5
  6
Continuous
 62
     7
370
    -3
100
AcDbPolyline
 90
        4
 70
     0
 43
0.0
 10
35833.15312207
 20
411.43042472
 10
35804.79996111
 20
372.37791822
 10
35842.38766594
 20
386.05872395
 10
35795.56541724
 20
397.74961898
  0
LWPOLYLINE
  5
17E
330
64
100
AcDbEntity
  8
Ech.1_5
  6
Continuous
 62
     7
370
    -3
100
AcDbPolyline
 90
        4
 70
     0
 43
0.0
 10
36171.73831237
 20
534.73556134
 10
36143.3851514
 20
495.68305484
 10
36180.97285624
 20
509.3638605799999
 10
36134.15060753
 20
521.0547556
  0
LWPOLYLINE
  5
17F
330
64
100
AcDbEntity
  8
Ech.1_5
  6
Continuous
 62
     7
370
    -3
100
AcDbPolyline
 90
        4
 70
     0
 43
0.0
 10
36510.33889117
 20
657.9769722099999
 10
36481.98573021
 20
618.9244657199999
 10
36519.57343504
 20
632.60527145
 10
36472.75118634
 20
644.29616648
  0
LWPOLYLINE
  5
180
330
64
100
AcDbEntity
  8
Ech.1_5
 62
     7
100
AcDbPolyline
 90
       57
 70
     0
 43
0.0
 10
35080.76722573
 20
22.65768084
 10
35082.16231289
 20
22.86040706
 10
35083.55850745
 20
23.06504715
 10
35084.95691683
 20
23.27351498
 10
35086.35864842
 20
23.48772441
 10
35087.76480963001
 20
23.70958932
 10
35089.17650786
 20
23.94102357
 10
35090.59485052
 20
24.18394104
 10
35092.02094502
 20
24.44025558
 10
35093.45589875
 20
24.71188108
 10
35094.90081913
 20
25.0007314
 10
35096.35681356
 20
25.3087204
 10
35097.82498944
 20
25.63776196
 10
35099.30645418
 20
25.98976995
 10
35100.80231518
 20
26.36665824
 10
35102.31366041
 20
26.77029603
 10
35103.83972413
 20
27.19829198
 10
35105.37638092
 20
27.64053313
 10
35106.919151
 20
28.08609192
 10
35108.46355454
 20
28.5240408
 10
35110.00511175
 20
28.94345222
 10
35111.5393428
 20
29.33339864
 10
35113.06176791
 20
29.68295251
 10
35114.56790726001
 20
29.98118627
 10
35116.05328104
 20
30.21717239
 10
35117.51340944
 20
30.3799833
 10
35118.94381267
 20
30.45869146
 10
35120.3400109
 20
30.44236933
 10
35121.69752434
 20
30.32008935
 10
35123.01187318001
 20
30.08092397
 10
35124.27857761
 20
29.71394565
 10
35125.49315869
 20
29.20823057
 10
35126.65233285
 20
28.55797881
 10
35127.75638128
 20
27.77267085
 10
35128.80624676
 20
26.86462298
 10
35129.80287205
 20
25.8461515
 10
35130.74719994
 20
24.7295727
 10
35131.64017318
 20
23.52720289
 10
35132.48273456
 20
22.25135835
 10
35133.27582684
 20
20.91435539
 10
35134.02039279
 20
19.52851029
 10
35134.71737518
 20
18.10613936
 10
35135.36771679
 20
16.65955889
 10
35135.97236039
 20
15.20108518
 10
35136.53224875
 20
13.74303453
 10
35137.04836088
 20
12.29745641
 10
35137.52268992
 20
10.86893539
 10
35137.95835485
 20
9.453768829999999
 10
35138.35853328
 20
8.047822289999999
 10
35138.72640286
 20
6.646961319999999
 10
35139.06514121
 20
5.247051459999999
 10
35139.37792596
 20
3.843958259999999
 10
35139.66793474
 20
2.433547279999999
 10
35139.93836383
 20
1.01175988
 10
35140.19322773
 20
-0.42213768
 10
35140.4376609
 20
-1.8643278
 10
35140.67687872
 20
-3.3106642
  0
ARC
  5
181
330
64
100
AcDbEntity
  8
Ech.1_5
 62
     7
100
AcDbCircle
 10
35072.06639090001
 20
89.88687459999999
 30
0.0
 40
67.78988877
100
AcDbArc
 50
176.81519387
 51
17.9333216
  0
LINE
  5
182
330
64
100
AcDbEntity
  8
Ech.1_5
 62
     7
100
AcDbLine
 10
35169.07473342
 20
5.84228106
 30
0.0
 11
35253.00594764
 21
5.84228106
 31
0.0
  0
LINE
  5
183
330
64
100
AcDbEntity
  8
Ech.1_5
 62
     7
100
AcDbLine
 10
35183.05800071
 20
119.85661655
 30
0.0
 11
35125.79429167
 21
112.32758409
 31
0.0
  0
LINE
  5
184
330
64
100
AcDbEntity
  8
Ech.1_5
 62
     7
100
AcDbLine
 10
35183.53605359
 20
117.90225802
 30
0.0
 11
35127.79429167
 21
110.57333117
 31
0.0
  0
LINE
  5
185
330
64
100
AcDbEntity
  8
Ech.1_5
 62
     7
100
AcDbLine
 10
35125.79429167
 20
112.32758409
 30
0.0
 11
35125.79429167
 21
83.71976448999999
 31
0.0
  0
LINE
  5
186
330
64
100
AcDbEntity
  8
Ech.1_5
 62
     7
100
AcDbLine
 10
35127.79429167
 20
110.57333117
 30
0.0
 11
35127.79429167
 21
88.98086129000001
 31
0.0
  0
LINE
  5
187
330
64
100
AcDbEntity
  8
Ech.1_5
 62
     7
100
AcDbLine
 10
35135.26823254
 20
110.76005831
 30
0.0
 11
35147.07473342
 21
110.76005831
 31
0.0
  0
ARC
  5
188
330
64
100
AcDbEntity
  8
Ech.1_5
 62
     7
100
AcDbCircle
 10
35144.05520438
 20
-2.69628675
 30
0.0
 40
3.43373615
100
AcDbArc
 50
190.30709612
 51
331.56662714
  0
LINE
  5
189
330
64
100
AcDbEntity
  8
Ech.1_5
 62
     7
100
AcDbLine
 10
35234.14687347
 20
138.45144554
 30
0.0
 11
35234.83091376
 21
136.57206029
 31
0.0
  0
LINE
  5
18A
330
64
100
AcDbEntity
  8
Ech.1_5
 62
     7
100
AcDbLine
 10
35183.05800071
 20
119.85661655
 30
0.0
 11
35234.14687347
 21
138.45144554
 31
0.0
  0
LINE
  5
18B
330
64
100
AcDbEntity
  8
Ech.1_5
 62
     7
100
AcDbLine
 10
35649.19095392
 20
7.4429878
 30
0.0
 11
35691.19095392
 21
7.4429878
 31
0.0
  0
LINE
  5
18C
330
64
100
AcDbEntity
  8
Ech.1_5
 62
     7
100
AcDbLine
 10
35694.55405932
 20
5.84228106
 30
0.0
 11
35851.76207118
 21
5.84228106
 31
0.0
  0
LINE
  5
18D
330
64
100
AcDbEntity
  8
Ech.1_5
 62
     7
100
AcDbLine
 10
35586.07458065
 20
-159.26915536
 30
0.0
 11
35586.07458065
 21
-149.83676083
 31
0.0
  0
LWPOLYLINE
  5
18E
330
64
100
AcDbEntity
  8
Ech.1_5
 62
     7
100
AcDbPolyline
 90
        5
 70
     0
 43
0.0
 10
36765.68099371
 20
693.55848867
 10
36765.68099371
 20
722.2912885299999
 10
35174.89576135
 20
143.11153907
 10
35184.13030522
 20
117.73983831
 10
36765.68099371
 20
693.55848867
  0
ARC
  5
18F
330
64
100
AcDbEntity
  8
Ech.1_5
 62
     7
100
AcDbCircle
 10
35614.46812
 20
-660.75414751
 30
0.0
 40
901.7086350199999
100
AcDbArc
 50
114.11271308
 51
118.22750414
  0
ARC
  5
190
330
64
100
AcDbEntity
  8
Ech.1_5
 62
     7
100
AcDbCircle
 10
35139.87162527
 20
227.3402465
 30
0.0
 40
105.25912681
100
AcDbArc
 50
263.48672377
 51
297.19892922
  0
LWPOLYLINE
  5
191
330
64
100
AcDbEntity
  8
Ech.1_5
 62
     7
100
AcDbPolyline
 90
        5
 70
     0
 43
0.0
 10
35165.847382
 20
-31.15771894
 10
35609.14258481
 20
-31.15771894
 10
35609.14258481
 20
-21.15771894
 10
35165.847382
 20
-21.15771894
 10
35165.847382
 20
-31.15771894
  0
LWPOLYLINE
  5
192
330
64
100
AcDbEntity
  8
Ech.1_5
 62
     7
100
AcDbPolyline
 90
        4
 70
     0
 43
0.0
 10
36765.68099371
 20
5.84228106
 10
35169.07473342
 20
5.84228106
 10
35169.07473342
 20
105.84228106
 10
36765.68099371
 20
105.84228106
  0
LWPOLYLINE
  5
193
330
64
100
AcDbEntity
  8
Ech.1_5
 62
     7
100
AcDbPolyline
 90
        2
 70
     0
 43
0.0
 10
35674.27662685
 20
189.720732568217
 10
35674.27651399475
 20
189.7206914922664
  0
LWPOLYLINE
  5
194
330
64
100
AcDbEntity
  8
Ech.1_5
  6
Continuous
 62
     7
370
    -3
100
AcDbPolyline
 90
        4
 70
     0
 43
0.0
 10
35620.07473342
 20
-39.15771894
 10
35800.07062057
 20
-84.15771894
 10
35800.07062057
 20
-40.21742771
 10
35620.07473342
 20
-84.15771894
  0
LWPOLYLINE
  5
195
330
64
100
AcDbEntity
  8
Ech.1_5
  6
Continuous
 62
     7
370
    -3
100
AcDbPolyline
 90
        4
 70
     0
 43
0.0
 10
35620.07473342
 20
5.84228106
 10
35665.07473342
 20
95.84228106000001
 10
35620.07473342
 20
95.84228106000001
 10
35665.07473342
 20
5.84228106
  0
LWPOLYLINE
  5
196
330
64
100
AcDbEntity
  8
Ech.1_5
  6
Continuous
 62
     7
370
    -3
100
AcDbPolyline
 90
        4
 70
     0
 43
0.0
 10
35620.07473342
 20
5.84228106
 10
35800.07062057
 20
-39.15771894
 10
35800.07062057
 20
4.78257229
 10
35620.07473342
 20
-39.15771894
  0
LWPOLYLINE
  5
197
330
64
100
AcDbEntity
  8
Ech.1_5
 62
     7
100
AcDbPolyline
 90
       17
 70
     0
 43
0.0
 10
35586.07458065
 20
-243.94872073
 10
35586.07458065
 20
-240.32122154
 10
35582.07458065
 20
-236.32122154
 10
35586.07458065
 20
-232.32122154
 10
35586.07458065
 20
-168.32122154
 10
35582.07458065
 20
-164.32122154
 10
35586.07458065
 20
-160.32122154
 10
35586.07458065
 20
-125.32122154
 10
35579.07458065
 20
-125.32122154
 10
35579.07458065
 20
-119.32122154
 10
35576.57458065
 20
-114.32122154
 10
35574.07458065
 20
-119.32122154
 10
35574.07458065
 20
-150.25015373
 10
35573.69397832
 20
-152.16357089
 10
35567.53904675
 20
-158.85675545
 10
35566.07458065
 20
-162.39228935
 10
35566.07458065
 20
-243.94872073
  0
LWPOLYLINE
  5
198
330
64
100
AcDbEntity
  8
Ech.1_5
 62
     7
100
AcDbPolyline
 90
       17
 70
     0
 43
0.0
 10
35586.07458065
 20
-54.41082444
 10
35586.07458065
 20
-87.32122154
 10
35582.07458065
 20
-91.32122153999999
 10
35586.07458065
 20
-95.32122153999999
 10
35586.07458065
 20
-122.32122154
 10
35580.07458065
 20
-122.32122154
 10
35580.07458065
 20
-113.32122154
 10
35573.07458065
 20
-113.32122154
 10
35573.07458065
 20
-140.70468563
 10
35572.94796353
 20
-141.03915943
 10
35572.49684276
 20
-141.32122154
 10
35572.18302527
 20
-141.32122154
 10
35571.77102391
 20
-141.08025234
 10
35567.03490305
 20
-138.10890241
 10
35566.07458065
 20
-136.47903377
 10
35566.07458065
 20
-54.41082444
 10
35586.07458065
 20
-54.41082444
  0
LWPOLYLINE
  5
199
330
64
100
AcDbEntity
  8
Ech.1_5
 62
     7
100
AcDbPolyline
 90
        4
 70
     0
 43
0.0
 10
35586.07478500001
 20
-243.94872073
 10
35586.07473335
 20
-48.65914798
 10
35611.07473335
 20
-48.65914798
 10
35611.07470866
 20
-243.94872073
  0
LWPOLYLINE
  5
19A
330
64
100
AcDbEntity
  8
Ech.1_5
 62
     7
100
AcDbPolyline
 90
        4
 70
     0
 43
0.0
 10
35611.07546521
 20
-243.94815881
 10
35611.07473335
 20
-9.511921049999999
 10
35620.07473342
 20
-9.511921049999999
 10
35620.07482049
 20
-243.94815881
  0
LWPOLYLINE
  5
19B
330
64
100
AcDbEntity
  8
Ech.1_5
 62
     7
100
AcDbPolyline
 90
        4
 70
     0
 43
0.0
 10
35620.07468927
 20
-243.94815881
 10
35620.07473342
 20
-84.15771894
 10
35800.07062057
 20
-84.15771894
 10
35800.0782595
 20
-243.94815881
  0
LWPOLYLINE
  5
19C
330
64
100
AcDbEntity
  8
Ech.1_5
 62
     7
370
    50
100
AcDbPolyline
 90
        3
 70
     0
 43
0.0
 10
35805.40015806
 20
-78.23648396
 10
35805.40015806
 20
-101.31500086
 10
35831.26234258
 20
-101.31500086
  0
LWPOLYLINE
  5
19D
330
64
100
AcDbEntity
  8
Ech.1_5
 62
     7
100
AcDbPolyline
 90
        4
 70
     0
 43
0.0
 10
35665.27658372
 20
7.4429878
 10
35665.27658372
 20
271.01467269
 10
35674.27658379
 20
271.01467269
 10
35674.27662624
 20
7.4429878
  0
LWPOLYLINE
  5
19E
330
64
100
AcDbEntity
  8
Ech.1_5
 62
     7
100
AcDbPolyline
 90
       10
 70
     0
 43
0.0
 10
35234.83091376
 20
136.57206029
 10
35234.14687347
 20
138.45144554
 10
35183.05800071
 20
119.85661655
 10
35125.79429167
 20
112.32758409
 10
35125.79429167
 20
83.71976448999999
 10
35130.51101771
 20
88.98086129000001
 10
35127.79429167
 20
88.98086129000001
 10
35127.79429167
 20
110.57333117
 10
35183.53605359
 20
117.90225802
 10
35234.83091376
 20
136.57206029
  0
LWPOLYLINE
  5
19F
330
64
100
AcDbEntity
  8
Ech.1_5
  6
Continuous
 62
     7
370
    -3
100
AcDbPolyline
 90
        4
 70
     0
 43
0.0
 10
36270.96001768
 20
-54.15771894
 10
36312.96001768
 20
5.84228106
 10
36312.96001768
 20
-54.15771894
 10
36270.96001768
 20
5.84228106
  0
LWPOLYLINE
  5
1A0
330
64
100
AcDbEntity
  8
Ech.1_5
 62
     7
100
AcDbPolyline
 90
        4
 70
     0
 43
0.0
 10
36767.52902695
 20
-102.6660678
 10
35805.40015806
 20
-102.6660678
 10
35805.40015806
 20
-77.98389770000001
 10
36767.52902695
 20
-77.98389770000001
  0
LWPOLYLINE
  5
1A1
330
64
100
AcDbEntity
  8
Ech.1_5
 62
     7
100
AcDbPolyline
 90
        5
 70
     0
 43
0.0
 10
36767.52902695
 20
-102.6660678
 10
35805.40015806
 20
-102.6660678
 10
35805.40015806
 20
-115.6660678
 10
36767.52902695
 20
-115.6660678
 10
36767.52902695
 20
-102.6660678
  0
LWPOLYLINE
  5
1A2
330
64
100
AcDbEntity
  8
Ech.1_5
  6
Continuous
 62
     7
370
    -3
100
AcDbPolyline
 90
        4
 70
     0
 43
0.0
 10
35223.27720402
 20
5.84228106
 10
35183.27720402
 20
-21.15771894
 10
35223.27720402
 20
-21.15771894
 10
35183.27720402
 20
5.84228106
  0
LWPOLYLINE
  5
1A3
330
64
100
AcDbEntity
  8
Ech.1_5
  6
Continuous
 62
     7
370
    -3
100
AcDbPolyline
 90
        4
 70
     0
 43
0.0
 10
35547.75490351
 20
5.84228106
 10
35507.75490351
 20
-21.15771894
 10
35547.75490351
 20
-21.15771894
 10
35507.75490351
 20
5.84228106
  0
LINE
  5
1A4
330
64
100
AcDbEntity
  8
Ech.1_5
 62
     7
100
AcDbLine
 10
35611.07669195
 20
5.84228106
 30
0.0
 11
35658.51735322
 21
5.84228106
 31
0.0
  0
LWPOLYLINE
  5
1A5
330
64
100
AcDbEntity
  8
Ech.1_5
 62
     7
100
AcDbPolyline
 90
        5
 70
     0
 43
0.0
 10
35689.07267699
 20
61.44300281999999
 10
35731.07267699
 20
61.4429975
 10
35731.07267699
 20
5.842271369999999
 10
35689.07267699
 20
5.84229076
 10
35689.07267699
 20
61.4429975
  0
LWPOLYLINE
  5
1A6
330
64
100
AcDbEntity
  8
Ech.1_5
 62
     3
370
    70
100
AcDbPolyline
 90
        4
 70
     0
 43
0.0
 10
35807.10004955
 20
-53.80902730999999
 10
35807.10004955
 20
-40.81989389
 10
35812.78066251
 20
-36.88516175
 10
35812.78066251
 20
-23.40673175
  0
LWPOLYLINE
  5
1A7
330
64
100
AcDbEntity
  8
Ech.1_5
  6
Continuous
 62
     7
370
    -3
100
AcDbPolyline
 90
        5
 70
     0
 43
0.0
 10
35674.27662685
 20
105.84228455
 10
36767.52902695
 20
105.84228455
 10
36767.52902695
 20
5.842284549999999
 10
35674.27662685
 20
5.842284549999999
 10
35674.27662685
 20
105.84228455
  0
ARC
  5
1A8
330
64
100
AcDbEntity
  8
Ech.1_5
 62
     7
100
AcDbCircle
 10
35071.26021565
 20
97.74623767000001
 30
0.0
 40
62.81757613999999
100
AcDbArc
 50
180.12288569
 51
11.68289665
  0
ARC
  5
1A9
330
64
100
AcDbEntity
  8
Ech.1_5
 62
     7
100
AcDbCircle
 10
35071.26021565
 20
97.74623767000001
 30
0.0
 40
65.31757613999999
100
AcDbArc
 50
182.93512956
 51
11.68289665
  0
LINE
  5
1AA
330
64
100
AcDbEntity
  8
Ech.1_5
 62
     7
100
AcDbLine
 10
35343.99980612001
 20
5.84228106
 30
0.0
 11
35620.07473342
 21
5.84228106
 31
0.0
  0
LINE
  5
1AB
330
64
100
AcDbEntity
  8
Ech.1_5
 62
     7
100
AcDbLine
 10
35259.77694451
 20
5.84228106
 30
0.0
 11
35343.99980612001
 21
5.84228106
 31
0.0
  0
LINE
  5
1AC
330
64
100
AcDbEntity
  8
Ech.1_5
 62
     7
100
AcDbLine
 10
35132.77641898
 20
110.46648141
 30
0.0
 11
35135.22462723
 21
110.97271886
 31
0.0
  0
LINE
  5
1AD
330
64
100
AcDbEntity
  8
Ech.1_5
 62
     7
100
AcDbLine
 10
35623.57147111
 20
5.84228106
 30
0.0
 11
35648.80283111
 21
5.84228106
 31
0.0
  0
LWPOLYLINE
  5
1AE
330
64
100
AcDbEntity
  8
Ech.1_5
 62
     7
100
AcDbPolyline
 90
        5
 70
     0
 43
0.0
 10
35696.33232515
 20
8.342653959999999
 42
-1.0
 10
35701.68915159
 20
8.342653959999999
 10
35701.68915159
 20
26.92413711
 42
1.0
 10
35696.33232515
 20
26.92413711
 10
35696.33232515
 20
8.342653959999999
  0
LWPOLYLINE
  5
1AF
330
64
100
AcDbEntity
  8
Ech.1_5
 62
     7
100
AcDbPolyline
 90
        5
 70
     0
 43
0.0
 10
35723.81302884
 20
8.342653959999999
 10
35723.81302884
 20
26.92413711
 42
1.0
 10
35718.45620239
 20
26.92413711
 10
35718.45620239
 20
8.342653959999999
 42
-1.0
 10
35723.81302884
 20
8.342653959999999
  0
LWPOLYLINE
  5
1B0
330
64
100
AcDbEntity
  8
Ech.1_5
 62
     7
100
AcDbPolyline
 90
       12
 70
     0
 43
0.0
 10
35147.07473342
 20
85.26005831
 10
35147.07473342
 20
-43.93547156
 42
-0.41421356
 10
35159.93875852
 20
-56.79949666
 10
35169.07473342
 20
-56.79949666
 10
35169.07473342
 20
-35.49485331
 10
35162.79077395
 20
-35.49485331
 10
35162.79077395
 20
-24.42913295
 10
35162.79077395
 20
-21.15771894
 10
35169.07473342
 20
-21.15771894
 10
35169.07473342
 20
112.26005831
 10
35147.07473342
 20
112.26005831
 10
35147.07473342
 20
-18.09943812
  0
LINE
  5
1B1
330
64
100
AcDbEntity
  8
Ech.1_5
 62
     7
100
AcDbLine
 10
35176.88172411
 20
200.76841273
 30
0.0
 11
35176.74454628
 21
200.74485964
 31
0.0
  0
LINE
  5
1B2
330
64
100
AcDbEntity
  8
Ech.1_5
 62
     7
100
AcDbLine
 10
35125.82493185
 20
83.75394094
 30
0.0
 11
35130.51101771
 21
88.98086129000001
 31
0.0
  0
LINE
  5
1B3
330
64
100
AcDbEntity
  8
Ech.1_5
 62
     7
100
AcDbLine
 10
35127.82493185
 20
88.98086129000001
 30
0.0
 11
35130.51101771
 21
88.98086129000001
 31
0.0
  0
LWPOLYLINE
  5
1B4
330
64
100
AcDbEntity
  8
Ech.1_5
  6
Continuous
 62
     7
370
    -3
100
AcDbPolyline
 90
        4
 70
     0
 43
0.0
 10
35800.07062057
 20
-135.6660678
 10
35840.07062057
 20
-180.6660678
 10
35840.07062057
 20
-135.6660678
 10
35800.07062057
 20
-180.6660678
  0
LWPOLYLINE
  5
1B5
330
64
100
AcDbEntity
  8
Ech.1_5
 62
     7
100
AcDbPolyline
 90
        8
 70
     0
 43
0.0
 10
36765.68099371
 20
693.3772129
 10
36318.2799715
 20
530.53655804
 10
35518.17735246
 20
239.32302035
 10
35169.07473342
 20
112.26005831
 10
35169.07473342
 20
105.84228106
 10
35443.82247536
 20
105.84228106
 10
35518.17735246
 20
132.9052431
 10
35665.27651662267
 20
186.4449603408342
  0
LWPOLYLINE
  5
1B6
330
64
100
AcDbEntity
  8
Ech.1_5
  6
Continuous
 62
     7
370
    -3
100
AcDbPolyline
 90
        6
 70
     0
 43
0.0
 10
35546.77822584
 20
-243.94872073
 10
35726.77822583
 20
-243.94815881
 10
35743.26372899
 20
-225.9708104
 10
35729.15378897
 20
-261.92651041
 10
35745.64014305
 20
-243.94815881
 10
35872.64014305
 20
-243.94815881
  0
LWPOLYLINE
  5
1B7
330
64
100
AcDbEntity
  8
Ech.1_5
 62
     7
100
AcDbPolyline
 90
        5
 70
     0
 43
0.0
 10
35049.82396833
 20
-262.3023081
 10
35184.25274731
 20
-262.3023081
 10
35184.25274731
 20
-319.02526692
 10
35049.82396833
 20
-319.02526692
 10
35049.82396833
 20
-262.3023081
  0
LWPOLYLINE
  5
1B8
330
64
100
AcDbEntity
  8
Ech.1_5
 62
     7
100
AcDbPolyline
 90
        5
 70
     0
 43
0.0
 10
35068.10401411
 20
-295.95911923
 10
35118.10401411
 20
-295.95911923
 10
35118.10401411
 20
-288.5439816999999
 10
35068.10401411
 20
-288.5439816999999
 10
35068.10401411
 20
-295.95911923
  0
LWPOLYLINE
  5
1B9
330
64
100
AcDbEntity
  8
Ech.1_5
 62
     7
100
AcDbPolyline
 90
        5
 70
     0
 43
0.0
 10
35118.10401411
 20
-295.95911923
 10
35168.10401411
 20
-295.95911923
 10
35168.10401411
 20
-288.5439816999999
 10
35118.10401411
 20
-288.5439816999999
 10
35118.10401411
 20
-295.95911923
  0
LWPOLYLINE
  5
1BA
330
64
100
AcDbEntity
  8
Ech.1_5
  6
Continuous
 62
     7
370
    -3
100
AcDbPolyline
 90
       10
 70
     0
 43
0.0
 10
35650.07402826
 20
-84.15769676
 42
1.14028181
 10
35657.83847818
 20
-143.13407484
 10
35762.30682423
 20
-115.17911452
 42
-1.303226189999999
 10
35762.30686706
 20
-173.13329246
 10
35657.83847969
 20
-145.17848657
 42
1.303226189999999
 10
35657.83852252001
 20
-203.13266452
 10
35762.30686857
 20
-175.1777042
 42
-1.303226189999999
 10
35762.30691141
 20
-233.13188215
 10
35657.83852404
 20
-205.17707626
 42
0.60118662
 10
35621.71861908
 20
-243.94815759
  0
LINE
  5
1BB
330
64
100
AcDbEntity
  8
Ech.1_5
 62
     1
100
AcDbLine
 10
35805.80549197
 20
5.84228106
 30
0.0
 11
36682.73581507
 21
5.84228106
 31
0.0
  0
LINE
  5
1BC
330
64
100
AcDbEntity
  8
Ech.1_5
 62
     1
100
AcDbLine
 10
35800.07062057
 20
5.84228106
 30
0.0
 11
35800.07062057
 21
-243.94815881
 31
0.0
  0
LINE
  5
1BD
330
64
100
AcDbEntity
  8
Ech.1_5
  6
Continuous
 62
     7
370
    -3
100
AcDbLine
 10
35111.08417109999
 20
216.61399352
 30
0.0
 11
35459.15571302
 21
300.6664108
 31
0.0
  0
LWPOLYLINE
  5
1BE
330
64
100
AcDbEntity
  8
Ech.1_5
  6
Continuous
 62
     7
370
    -3
100
AcDbPolyline
 90
        5
 70
     0
 43
0.0
 10
35456.95766331
 20
274.50647546
 10
35494.54536814001
 20
288.18728119
 10
35503.77991201
 20
262.81558043
 10
35466.19220718
 20
249.1347747
 10
35456.95766331
 20
274.50647546
  0
LWPOLYLINE
  5
1BF
330
64
100
AcDbEntity
  8
Ech.1_5
  6
Continuous
 62
     7
370
    -3
100
AcDbPolyline
 90
        5
 70
     0
 43
0.0
 10
35174.87863692001
 20
199.77672499
 10
35210.9551736
 20
209.45341934
 10
35227.62864001
 20
162.30473727
 10
35174.89576135
 20
143.11153907
 10
35174.87863692001
 20
199.77672499
  0
LWPOLYLINE
  5
1C0
330
64
100
AcDbEntity
  8
Ech.1_5
  6
Continuous
 62
     7
370
    -3
100
AcDbPolyline
 90
        5
 70
     0
 43
0.0
 10
35795.60349729
 20
397.80206891
 10
35833.19120212
 20
411.4828746499999
 10
35842.42574599
 20
386.11117388
 10
35804.83804116
 20
372.43036815
 10
35795.60349729
 20
397.80206891
  0
LWPOLYLINE
  5
1C1
330
64
100
AcDbEntity
  8
Ech.1_5
  6
Continuous
 62
     7
370
    -3
100
AcDbPolyline
 90
        5
 70
     0
 43
0.0
 10
36134.18868758
 20
521.1072055299999
 10
36171.77639241
 20
534.7880112699999
 10
36181.01093628
 20
509.41631051
 10
36143.42323145
 20
495.73550477
 10
36134.18868758
 20
521.1072055299999
  0
LWPOLYLINE
  5
1C2
330
64
100
AcDbEntity
  8
Ech.1_5
  6
Continuous
 62
     7
370
    -3
100
AcDbPolyline
 90
        5
 70
     0
 43
0.0
 10
36472.78926639
 20
644.34861641
 10
36510.37697122
 20
658.0294221399999
 10
36519.61151509
 20
632.65772138
 10
36482.02381026
 20
618.97691565
 10
36472.78926639
 20
644.34861641
  0
LWPOLYLINE
  5
1C3
330
64
100
AcDbEntity
  8
Ech.1_5
  6
Continuous
 62
     7
370
    -3
100
AcDbPolyline
 90
        5
 70
     0
 43
0.0
 10
35800.07062057
 20
-180.6660678
 10
35840.07062057
 20
-180.6660678
 10
35840.07062057
 20
-135.6660678
 10
35800.07062057
 20
-135.6660678
 10
35800.07062057
 20
-180.6660678
  0
LWPOLYLINE
  5
1C4
330
64
100
AcDbEntity
  8
Ech.1_5
  6
Continuous
 62
     7
370
    -3
100
AcDbPolyline
 90
        5
 70
     0
 43
0.0
 10
36312.96001768
 20
-54.15771894
 10
36312.96001768
 20
5.84228106
 10
36270.96001768
 20
5.84228106
 10
36270.96001768
 20
-54.15771894
 10
36312.96001768
 20
-54.15771894
  0
LWPOLYLINE
  5
1C5
330
64
100
AcDbEntity
  8
Ech.1_5
  6
Continuous
 62
     7
370
    -3
100
AcDbPolyline
 90
        5
 70
     0
 43
0.0
 10
35800.07062057
 20
5.84228106
 10
35620.07473342
 20
5.84228106
 10
35620.07473342
 20
-39.15771894
 10
35800.07062057
 20
-39.15771894
 10
35800.07062057
 20
5.84228106
  0
LWPOLYLINE
  5
1C6
330
64
100
AcDbEntity
  8
Ech.1_5
  6
Continuous
 62
     7
370
    -3
100
AcDbPolyline
 90
        5
 70
     0
 43
0.0
 10
35800.07062057
 20
-39.15771894
 10
35620.07473342
 20
-39.15771894
 10
35620.07473342
 20
-84.15771894
 10
35800.07062057
 20
-84.15771894
 10
35800.07062057
 20
-39.15771894
  0
LWPOLYLINE
  5
1C7
330
64
100
AcDbEntity
  8
Ech.1_5
  6
Continuous
 62
     7
370
    -3
100
AcDbPolyline
 90
        7
 70
     0
 43
0.0
 10
35620.07473342
 20
5.84228106
 10
35665.07473342
 20
5.84228106
 10
35665.07473342
 20
95.84228106000001
 10
35641.49337441
 20
95.84228106000001
 10
35620.07473342
 20
95.84228106000001
 10
35620.07473342
 20
5.84228106
 10
35641.09755694
 20
5.84228106
  0
LWPOLYLINE
  5
1C8
330
64
100
AcDbEntity
  8
Ech.1_5
  6
Continuous
 62
     7
370
    -3
100
AcDbPolyline
 90
        5
 70
     0
 43
0.0
 10
35183.27720402
 20
5.84228106
 10
35223.27720402
 20
5.84228106
 10
35223.27720402
 20
-21.15771894
 10
35183.27720402
 20
-21.15771894
 10
35183.27720402
 20
5.84228106
  0
LWPOLYLINE
  5
1C9
330
64
100
AcDbEntity
  8
Ech.1_5
  6
Continuous
 62
     7
370
    -3
100
AcDbPolyline
 90
        5
 70
     0
 43
0.0
 10
35507.75490351
 20
5.84228106
 10
35547.75490351
 20
5.84228106
 10
35547.75490351
 20
-21.15771894
 10
35507.75490351
 20
-21.15771894
 10
35507.75490351
 20
5.84228106
  0
LINE
  5
1CA
330
64
100
AcDbEntity
  8
Ech.1_5
 62
     7
370
    35
100
AcDbLine
 10
36316.20455446
 20
-78.73460176
 30
0.0
 11
36316.20455446
 21
-1.666067799999999
 31
0.0
  0
LINE
  5
1CB
330
64
100
AcDbEntity
  8
Ech.1_5
  6
DASHEDX2
 62
     7
370
    35
100
AcDbLine
 10
36316.20455446
 20
-78.73460176
 30
0.0
 11
36316.20455446
 21
-102.6660678
 31
0.0
  0
LINE
  5
1CC
330
64
100
AcDbEntity
  8
Ech.1_5
  6
CADWORK_22
 62
     1
370
    35
100
AcDbLine
 10
35801.57062057
 20
-243.94815881
 30
0.0
 11
35801.57062057
 21
5.84228106
 31
0.0
  0
LWPOLYLINE
  5
1CD
330
64
100
AcDbEntity
  8
Ech.1_5
  6
CADWORK_22
 62
     1
370
    35
100
AcDbPolyline
 90
        3
 70
     0
 43
0.0
 10
35807.30549197
 20
-29.75639587
 10
35807.30549197
 20
3.842281059999999
 10
36767.52902695
 20
3.842281059999999
  0
LWPOLYLINE
  5
1CE
330
64
100
AcDbEntity
  8
Ech.1_5
  6
CADWORK_22
 62
   150
370
    35
100
AcDbPolyline
 90
        4
 70
     0
 43
0.0
 38
2500.0
 10
35181.65425794
 20
121.06544257
 10
35232.69971769
 20
139.9204082
 10
35239.62802553
 20
139.53562323
 10
36765.68099371
 20
694.97347956
  0
LWPOLYLINE
  5
1CF
330
64
100
AcDbEntity
  8
Ech.1_5
  6
CADWORK_22
 62
   150
370
    35
100
AcDbPolyline
 90
        3
 70
     0
 43
0.0
 38
2500.0
 10
35609.57452084
 20
-243.94815881
 10
35609.57458065
 20
7.84228106
 10
35659.01508922
 20
7.84228106
  0
LINE
  5
1D0
330
64
100
AcDbEntity
  8
Ech.1_5
 62
     7
370
    35
100
AcDbLine
 10
35845.51980836
 20
-78.73460176
 30
0.0
 11
35845.51980836
 21
-1.666067799999999
 31
0.0
  0
LINE
  5
1D1
330
64
100
AcDbEntity
  8
Ech.1_5
  6
DASHEDX2
 62
     7
370
    35
100
AcDbLine
 10
35845.51980836
 20
-78.73460176
 30
0.0
 11
35845.51980836
 21
-102.6660678
 31
0.0
  0
LWPOLYLINE
  5
1D2
330
64
100
AcDbEntity
  8
Ech.1_5
  6
Continuous
 62
     7
370
    -3
100
AcDbPolyline
 90
        5
 70
     0
 43
0.0
 10
36349.82091619999
 20
-498.7887077699999
 10
36349.82091619999
 20
486.21129223
 10
34994.82091619999
 20
486.21129223
 10
34994.82091619999
 20
-498.7887077699999
 10
36349.82091619999
 20
-498.7887077699999
  0
LWPOLYLINE
  5
1D3
330
64
100
AcDbEntity
  8
Ech.1_5
  6
Continuous
 62
   177
370
    70
100
AcDbPolyline
 90
        6
 70
     0
 43
0.0
 10
35611.07458065
 20
-48.65914798
 10
35611.07473335
 20
-32.09746344
 10
35598.74986632
 20
-32.09741454
 10
35611.07473335
 20
-32.09746344
 10
35611.07473335
 20
-20.21802366
 10
35598.75000487001
 20
-20.21802366
  0
LWPOLYLINE
  5
1D4
330
64
100
AcDbEntity
  8
Ech.1_5
  6
Continuous
 62
     7
370
    -3
100
AcDbPolyline
 90
       64
 70
     0
 43
0.0
 10
35674.27662685
 20
139.17561872
 42
1.14028181
 10
35739.80748416
 20
147.80293986
 10
35708.74577204
 20
263.88163424
 42
-1.303226189999999
 10
35773.14081833
 20
263.88163424
 10
35742.07910621
 20
147.80293986
 42
1.303226189999999
 10
35806.47415249
 20
147.80293986
 10
35775.41244037
 20
263.88163424
 42
-1.303226189999999
 10
35839.80748666
 20
263.88163424
 10
35808.74577454
 20
147.80293986
 42
1.303226189999999
 10
35873.14082082
 20
147.80293986
 10
35842.07910871
 20
263.88163424
 42
-1.303226189999999
 10
35906.47415499
 20
263.88163424
 10
35875.41244287
 20
147.80293986
 42
1.303226189999999
 10
35939.80748916
 20
147.80293986
 10
35908.74577704
 20
263.88163424
 42
-1.303226189999999
 10
35973.14082332
 20
263.88163424
 10
35942.0791112
 20
147.80293986
 42
1.303226189999999
 10
36006.47415749
 20
147.80293986
 10
35975.41244537
 20
263.88163424
 42
-1.303226189999999
 10
36039.80749165
 20
263.88163424
 10
36008.74577954
 20
147.80293986
 42
1.303226189999999
 10
36073.14082582
 20
147.80293986
 10
36042.0791137
 20
263.88163424
 42
-1.303226189999999
 10
36106.47415999
 20
263.88163424
 10
36075.41244787
 20
147.80293986
 42
1.303226189999999
 10
36139.80749415
 20
147.80293986
 10
36108.74578203
 20
263.88163424
 42
-1.303226189999999
 10
36173.14082832
 20
263.88163424
 10
36142.0791162
 20
147.80293986
 42
1.303226189999999
 10
36206.47416248
 20
147.80293986
 10
36175.41245037
 20
263.88163424
 42
-1.303226189999999
 10
36239.80749665
 20
263.88163424
 10
36208.74578453
 20
147.80293986
 42
1.303226189999999
 10
36273.14083082
 20
147.80293986
 10
36242.0791187
 20
263.88163424
 42
-1.303226189999999
 10
36306.47416498
 20
263.88163424
 10
36275.41245286
 20
147.80293986
 42
1.303226189999999
 10
36339.80749915
 20
147.80293986
 10
36308.74578703
 20
263.88163424
 42
-1.303226189999999
 10
36373.14083332
 20
263.88163424
 10
36342.0791212
 20
147.80293986
 42
1.303226189999999
 10
36406.47416748
 20
147.80293986
 10
36375.41245536
 20
263.88163424
 42
-1.303226189999999
 10
36439.80750165
 20
263.88163424
 10
36408.74578953
 20
147.80293986
 42
1.303226189999999
 10
36473.14083581
 20
147.80293986
 10
36442.0791237
 20
263.88163424
 42
-1.303226189999999
 10
36506.47416998
 20
263.88163424
 10
36475.41245786
 20
147.80293986
 42
1.303226189999999
 10
36539.80750415
 20
147.80293986
 10
36508.74579203
 20
263.88163424
 42
-1.303226189999999
 10
36573.14083831
 20
263.88163424
 10
36542.07912619
 20
147.80293986
 42
1.303226189999999
 10
36606.47417248
 20
147.80293986
 10
36575.41246036
 20
263.88163424
 42
-1.303226189999999
 10
36639.80750664
 20
263.88163424
 10
36608.74579453
 20
147.80293986
 42
1.303226189999999
 10
36673.14084081001
 20
147.80293986
 10
36642.07912869
 20
263.88163424
 42
-1.303226189999999
 10
36706.47417498
 20
263.88163424
 10
36675.41246286
 20
147.80293986
 42
1.303226189999999
 10
36739.80750914001
 20
147.80293986
 10
36708.74579702
 20
263.88163424
 42
-0.7877227
 10
36765.68099371
 20
294.85081461
  0
LWPOLYLINE
  5
1D5
330
64
100
AcDbEntity
  8
Ech.1_5
  6
Continuous
 62
     7
370
    -3
100
AcDbPolyline
 90
      130
 70
     0
 43
0.0
 10
35674.27662685
 20
22.50895122
 42
1.14028181
 10
35707.04205469
 20
26.82261168
 10
35691.51119902
 20
84.86195741999999
 42
-1.303226189999999
 10
35723.70872135
 20
84.86195741999999
 10
35708.17786568
 20
26.82261168
 42
1.303226189999999
 10
35740.37538802
 20
26.82261168
 10
35724.84453235
 20
84.86195741999999
 42
-1.303226189999999
 10
35757.04205469
 20
84.86195741999999
 10
35741.51119902
 20
26.82261168
 42
1.303226189999999
 10
35773.70872135
 20
26.82261168
 10
35758.17786568
 20
84.86195741999999
 42
-1.303226189999999
 10
35790.37538802
 20
84.86195741999999
 10
35774.84453235
 20
26.82261168
 42
1.303226189999999
 10
35807.04205469
 20
26.82261168
 10
35791.51119902
 20
84.86195741999999
 42
-1.303226189999999
 10
35823.70872135
 20
84.86195741999999
 10
35808.17786568
 20
26.82261168
 42
1.303226189999999
 10
35840.37538802
 20
26.82261168
 10
35824.84453235
 20
84.86195741999999
 42
-1.303226189999999
 10
35857.04205469
 20
84.86195741999999
 10
35841.51119902
 20
26.82261168
 42
1.303226189999999
 10
35873.70872135
 20
26.82261168
 10
35858.17786568
 20
84.86195741999999
 42
-1.303226189999999
 10
35890.37538802
 20
84.86195741999999
 10
35874.84453235
 20
26.82261168
 42
1.303226189999999
 10
35907.04205469
 20
26.82261168
 10
35891.51119902
 20
84.86195741999999
 42
-1.303226189999999
 10
35923.70872135
 20
84.86195741999999
 10
35908.17786568
 20
26.82261168
 42
1.303226189999999
 10
35940.37538802
 20
26.82261168
 10
35924.84453235
 20
84.86195741999999
 42
-1.303226189999999
 10
35957.04205469
 20
84.86195741999999
 10
35941.51119902
 20
26.82261168
 42
1.303226189999999
 10
35973.70872135
 20
26.82261168
 10
35958.17786568
 20
84.86195741999999
 42
-1.303226189999999
 10
35990.37538802
 20
84.86195741999999
 10
35974.84453235
 20
26.82261168
 42
1.303226189999999
 10
36007.04205469
 20
26.82261168
 10
35991.51119902
 20
84.86195741999999
 42
-1.303226189999999
 10
36023.70872135
 20
84.86195741999999
 10
36008.17786568
 20
26.82261168
 42
1.303226189999999
 10
36040.37538802
 20
26.82261168
 10
36024.84453235
 20
84.86195741999999
 42
-1.303226189999999
 10
36057.04205469
 20
84.86195741999999
 10
36041.51119902
 20
26.82261168
 42
1.303226189999999
 10
36073.70872135
 20
26.82261168
 10
36058.17786568
 20
84.86195741999999
 42
-1.303226189999999
 10
36090.37538802
 20
84.86195741999999
 10
36074.84453235
 20
26.82261168
 42
1.303226189999999
 10
36107.04205469
 20
26.82261168
 10
36091.51119902
 20
84.86195741999999
 42
-1.303226189999999
 10
36123.70872135
 20
84.86195741999999
 10
36108.17786568
 20
26.82261168
 42
1.303226189999999
 10
36140.37538802
 20
26.82261168
 10
36124.84453235
 20
84.86195741999999
 42
-1.303226189999999
 10
36157.04205469
 20
84.86195741999999
 10
36141.51119902
 20
26.82261168
 42
1.303226189999999
 10
36173.70872135
 20
26.82261168
 10
36158.17786568
 20
84.86195741999999
 42
-1.303226189999999
 10
36190.37538802
 20
84.86195741999999
 10
36174.84453235
 20
26.82261168
 42
1.303226189999999
 10
36207.04205469
 20
26.82261168
 10
36191.51119902
 20
84.86195741999999
 42
-1.303226189999999
 10
36223.70872135
 20
84.86195741999999
 10
36208.17786568
 20
26.82261168
 42
1.303226189999999
 10
36240.37538802
 20
26.82261168
 10
36224.84453235
 20
84.86195741999999
 42
-1.303226189999999
 10
36257.04205469
 20
84.86195741999999
 10
36241.51119902
 20
26.82261168
 42
1.303226189999999
 10
36273.70872135
 20
26.82261168
 10
36258.17786568
 20
84.86195741999999
 42
-1.303226189999999
 10
36290.37538802
 20
84.86195741999999
 10
36274.84453235
 20
26.82261168
 42
1.303226189999999
 10
36307.04205469
 20
26.82261168
 10
36291.51119902001
 20
84.86195741999999
 42
-1.303226189999999
 10
36323.70872135
 20
84.86195741999999
 10
36308.17786568
 20
26.82261168
 42
1.303226189999999
 10
36340.37538802
 20
26.82261168
 10
36324.84453235
 20
84.86195741999999
 42
-1.303226189999999
 10
36357.04205469
 20
84.86195741999999
 10
36341.51119902
 20
26.82261168
 42
1.303226189999999
 10
36373.70872135
 20
26.82261168
 10
36358.17786568
 20
84.86195741999999
 42
-1.303226189999999
 10
36390.37538802
 20
84.86195741999999
 10
36374.84453235
 20
26.82261168
 42
1.303226189999999
 10
36407.04205469
 20
26.82261168
 10
36391.51119902
 20
84.86195741999999
 42
-1.303226189999999
 10
36423.70872135
 20
84.86195741999999
 10
36408.17786568
 20
26.82261168
 42
1.303226189999999
 10
36440.37538802
 20
26.82261168
 10
36424.84453235
 20
84.86195741999999
 42
-1.303226189999999
 10
36457.04205469
 20
84.86195741999999
 10
36441.51119902
 20
26.82261168
 42
1.303226189999999
 10
36473.70872135
 20
26.82261168
 10
36458.17786568
 20
84.86195741999999
 42
-1.303226189999999
 10
36490.37538802
 20
84.86195741999999
 10
36474.84453235
 20
26.82261168
 42
1.303226189999999
 10
36507.04205469
 20
26.82261168
 10
36491.51119902001
 20
84.86195741999999
 42
-1.303226189999999
 10
36523.70872135
 20
84.86195741999999
 10
36508.17786568
 20
26.82261168
 42
1.303226189999999
 10
36540.37538802
 20
26.82261168
 10
36524.84453235
 20
84.86195741999999
 42
-1.303226189999999
 10
36557.04205469
 20
84.86195741999999
 10
36541.51119902
 20
26.82261168
 42
1.303226189999999
 10
36573.70872135
 20
26.82261168
 10
36558.17786568
 20
84.86195741999999
 42
-1.303226189999999
 10
36590.37538802
 20
84.86195741999999
 10
36574.84453235
 20
26.82261168
 42
1.303226189999999
 10
36607.04205469
 20
26.82261168
 10
36591.51119902
 20
84.86195741999999
 42
-1.303226189999999
 10
36623.70872135
 20
84.86195741999999
 10
36608.17786568
 20
26.82261168
 42
1.303226189999999
 10
36640.37538802
 20
26.82261168
 10
36624.84453235
 20
84.86195741999999
 42
-1.303226189999999
 10
36657.04205469
 20
84.86195741999999
 10
36641.51119902
 20
26.82261168
 42
1.303226189999999
 10
36673.70872135
 20
26.82261168
 10
36658.17786568
 20
84.86195741999999
 42
-1.303226189999999
 10
36690.37538802
 20
84.86195741999999
 10
36674.84453235
 20
26.82261168
 42
1.303226189999999
 10
36707.04205469
 20
26.82261168
 10
36691.51119902001
 20
84.86195741999999
 42
-1.303226189999999
 10
36723.70872135
 20
84.86195741999999
 10
36708.17786568
 20
26.82261168
 42
1.303226189999999
 10
36740.37538802001
 20
26.82261168
 10
36724.84453235
 20
84.86195741999999
 42
-1.303226189999999
 10
36757.04205469
 20
84.86195741999999
 10
36741.51119902
 20
26.82261168
 42
0.71015703
 10
36767.52902695
 20
9.115300019999999
  0
LWPOLYLINE
  5
1D6
330
64
100
AcDbEntity
  8
Ech.1_5
  6
Continuous
 62
     7
370
    -3
100
AcDbPolyline
 90
        5
 70
     0
 43
0.0
 10
35674.27643109
 20
290.38122516
 10
35665.27643102
 20
290.38122516
 10
35665.27666405
 20
7.4429878
 10
35674.27666412
 20
7.4429878
 10
35674.27643109
 20
290.38122516
  0
LWPOLYLINE
  5
1D7
330
64
100
AcDbEntity
  8
Ech.1_5
  6
Continuous
 62
     7
370
    -3
100
AcDbPolyline
 90
        5
 70
     0
 43
0.0
 10
35674.27662685
 20
105.84228455
 10
36767.52902695
 20
105.84228455
 10
36767.52902695
 20
5.842284549999999
 10
35674.27662685
 20
5.842284549999999
 10
35674.27662685
 20
105.84228455
  0
LWPOLYLINE
  5
1D8
330
64
100
AcDbEntity
  8
Ech.1_5
  6
Continuous
 62
     7
370
    -3
100
AcDbPolyline
 90
       10
 70
     0
 43
0.0
 10
35234.83091376
 20
136.57206029
 10
35234.14687347
 20
138.45144554
 10
35183.05800071
 20
119.85661655
 10
35125.79429167
 20
112.32758409
 10
35125.79429167
 20
83.71976448999999
 10
35130.51101771
 20
88.98086129000001
 10
35127.79429167
 20
88.98086129000001
 10
35127.79429167
 20
110.57333117
 10
35183.53605359
 20
117.90225802
 10
35234.83091376
 20
136.57206029
  0
LWPOLYLINE
  5
1D9
330
64
100
AcDbEntity
  8
Ech.1_5
  6
Continuous
 62
     7
370
    -3
100
AcDbPolyline
 90
        5
 70
     0
 43
0.0
 10
36312.96001768
 20
-54.15771894
 10
36312.96001768
 20
5.84228106
 10
36270.96001768
 20
5.84228106
 10
36270.96001768
 20
-54.15771894
 10
36312.96001768
 20
-54.15771894
  0
LWPOLYLINE
  5
1DA
330
64
100
AcDbEntity
  8
Ech.1_5
  6
Continuous
 62
     7
370
    -3
100
AcDbPolyline
 90
        5
 70
     0
 43
0.0
 10
35165.847382
 20
-31.15771894
 10
35609.14258481
 20
-31.15771894
 10
35609.14258481
 20
-21.15771894
 10
35165.847382
 20
-21.15771894
 10
35165.847382
 20
-31.15771894
  0
LWPOLYLINE
  5
1DB
330
64
100
AcDbEntity
  8
Ech.1_5
  6
Continuous
 62
     7
370
    -3
100
AcDbPolyline
 90
        5
 70
     0
 43
0.0
 10
35800.07062057
 20
-180.6660678
 10
35840.07062057
 20
-180.6660678
 10
35840.07062057
 20
-135.6660678
 10
35800.07062057
 20
-135.6660678
 10
35800.07062057
 20
-180.6660678
  0
LWPOLYLINE
  5
1DC
330
64
100
AcDbEntity
  8
Ech.1_5
  6
Continuous
 62
     7
370
    -3
100
AcDbPolyline
 90
        2
 70
     0
 43
0.0
 10
35674.27662685
 20
189.720732568217
 10
35674.27651399475
 20
189.7206914922664
  0
LWPOLYLINE
  5
1DD
330
64
100
AcDbEntity
  8
Ech.1_5
  6
Continuous
 62
     7
370
    -3
100
AcDbPolyline
 90
        5
 70
     0
 43
0.0
 10
36767.52902695
 20
-102.6660678
 10
35805.40015806
 20
-102.6660678
 10
35805.40015806
 20
-115.6660678
 10
36767.52902695
 20
-115.6660678
 10
36767.52902695
 20
-102.6660678
  0
LWPOLYLINE
  5
1DE
330
64
100
AcDbEntity
  8
Ech.1_5
  6
Continuous
 62
     7
370
    -3
100
AcDbPolyline
 90
        9
 70
     0
 43
0.0
 10
35800.07062057
 20
-84.15771894
 10
35620.07473342
 20
-84.15771894
 10
35620.07485152
 20
-243.94815881
 10
35726.77822583
 20
-243.94815881
 10
35743.26372899
 20
-225.9708104
 10
35729.15378897
 20
-261.92651041
 10
35745.64014305
 20
-243.94815881
 10
35800.07062057
 20
-243.94815881
 10
35800.07062057
 20
-84.15771894
  0
LWPOLYLINE
  5
1DF
330
64
100
AcDbEntity
  8
Ech.1_5
  6
Continuous
 62
     7
370
     5
100
AcDbPolyline
 90
        5
 70
     0
 43
0.0
 10
35068.10401411
 20
-295.95911923
 10
35118.10401411
 20
-295.95911923
 10
35118.10401411
 20
-288.5439816999999
 10
35068.10401411
 20
-288.5439816999999
 10
35068.10401411
 20
-295.95911923
  0
LWPOLYLINE
  5
1E0
330
64
100
AcDbEntity
  8
Ech.1_5
  6
Continuous
 62
     7
370
    -3
100
AcDbPolyline
 90
        5
 70
     0
 43
0.0
 10
35840.07049795
 20
-243.94815881
 10
35853.07049795
 20
-243.94815881
 10
35853.07045807
 20
-115.6660678
 10
35840.07045807
 20
-115.6660678
 10
35840.07049795
 20
-243.94815881
  0
LWPOLYLINE
  5
1E1
330
64
100
AcDbEntity
  8
Ech.1_5
  6
Continuous
 62
     7
370
    -3
100
AcDbPolyline
 90
        5
 70
     0
 43
0.0
 10
35611.07466773
 20
-243.94815881
 10
35620.07466779
 20
-243.94815881
 10
35620.07458072
 20
-9.511921049999999
 10
35611.07458065
 20
-9.511921049999999
 10
35611.07466773
 20
-243.94815881
  0
LWPOLYLINE
  5
1E2
330
64
100
AcDbEntity
  8
Ech.1_5
  6
Continuous
 62
     7
370
    -3
100
AcDbPolyline
 90
        6
 70
     0
 43
0.0
 10
36765.68099371
 20
305.84228955
 10
35700.93754254
 20
305.84228955
 10
35674.27662685
 20
296.1946898999999
 10
35674.27662685
 20
105.84228455
 10
36765.68099371
 20
105.84228455
 10
36765.68099371
 20
305.84228955
  0
LWPOLYLINE
  5
1E3
330
64
100
AcDbEntity
  8
Ech.1_5
  6
Continuous
 62
     7
370
    -3
100
AcDbPolyline
 90
       26
 70
     0
 43
0.0
 10
35836.90410267
 20
413.03439791
 10
35843.01301743
 20
390.25921463
 10
35866.74568172
 20
396.62495147
 10
35854.14142306
 20
448.82075842
 10
35844.6970046
 20
446.5401175
 10
35847.27470413
 20
435.86554229
 10
35830.3221838
 20
431.77184275
 10
35827.74448427
 20
442.44641795
 10
35818.30006581
 20
440.1657770299999
 10
35820.87776534001
 20
429.49120183
 10
35797.81141655
 20
423.92113321
 10
35797.37457277
 20
425.7301577799999
 10
35797.31944804
 20
425.71684625
 10
35788.27711533
 20
463.1622736599999
 10
35784.62579198
 20
478.28285898
 10
35458.24553269
 20
399.46845894
 42
0.41421356
 10
35441.79770979
 20
372.54806685
 10
35446.02521318
 20
355.04144811
 10
35458.73425775
 20
302.41170963
 10
35479.03681109001
 20
307.31437612
 10
35476.50355842
 20
317.80489135
 10
35492.28821549
 20
321.97570942
 10
35494.78363261
 20
311.64187593
 10
35505.24283044
 20
314.4473132
 10
35503.05959792
 20
323.48835131
 10
35836.90410267
 20
413.03439791
  0
LWPOLYLINE
  5
1E4
330
64
100
AcDbEntity
  8
Ech.1_5
  6
Continuous
 62
     7
370
    -3
100
AcDbPolyline
 90
       27
 70
     0
 43
0.0
 10
36175.48929296
 20
536.33953453
 10
36181.59820772
 20
513.5643512499999
 10
36205.33087202
 20
519.93008809
 10
36192.72661336
 20
572.12589504
 10
36183.28219489
 20
569.84525412
 10
36185.85989442
 20
559.1706789099999
 10
36168.90737409
 20
555.0769793699999
 10
36166.32967456
 20
565.7515545799999
 10
36156.8852561
 20
563.4709136599999
 10
36159.46295563
 20
552.79633845
 10
36136.39660685
 20
547.2262698299999
 10
36135.97515158
 20
548.97156866
 10
36135.92720198
 20
548.9599897699999
 10
36126.88486926
 20
586.40541719
 10
36123.21815741001
 20
601.58972825
 10
35796.83072299
 20
522.77359556
 42
0.41421356
 10
35780.38290008
 20
495.85320347
 10
35784.62579198
 20
478.28285898
 10
35784.68091671
 20
478.2961705099999
 10
35797.37457277
 20
425.7301577799999
 10
35817.62200138
 20
430.61951274
 10
35815.08874871
 20
441.11002797
 10
35830.87340578
 20
445.28084604
 10
35833.36882290001
 20
434.9470125499999
 10
35843.82802073
 20
437.7524498199999
 10
35841.64478821
 20
446.79348793
 10
36175.48929296
 20
536.33953453
  0
LWPOLYLINE
  5
1E5
330
64
100
AcDbEntity
  8
Ech.1_5
  6
Continuous
 62
     7
370
    -3
100
AcDbPolyline
 90
       24
 70
     0
 43
0.0
 10
36514.0970469
 20
659.58267806
 10
36520.20596166
 20
636.8074947699999
 10
36543.93862595
 20
643.17323161
 10
36531.33436729
 20
695.36903857
 10
36521.88994883
 20
693.08839765
 10
36524.46764836
 20
682.41382244
 10
36507.51512803
 20
678.32012289
 10
36504.9374285
 20
688.9946981
 10
36495.49301004
 20
686.71405718
 10
36498.07070956
 20
676.03948197
 10
36475.00436078
 20
670.4694133499999
 10
36461.87386094001
 20
724.84445066
 10
36135.43847692
 20
646.0167390799999
 42
0.41421356
 10
36118.99065402
 20
619.0963469999999
 10
36123.21815741001
 20
601.58972825
 10
36123.26610701
 20
601.60130713
 10
36135.97515158
 20
548.97156866
 10
36156.22975532
 20
553.86265626
 10
36153.69650265
 20
564.3531714899999
 10
36169.48115972
 20
568.52398957
 10
36171.97657684001
 20
558.1901560799999
 10
36182.43577466
 20
560.99559335
 10
36180.25254215
 20
570.03663146
 10
36514.0970469
 20
659.58267806
  0
LWPOLYLINE
  5
1E6
330
64
100
AcDbEntity
  8
Ech.1_5
  6
Continuous
 62
     7
370
    -3
100
AcDbPolyline
 90
        7
 70
     0
 43
0.0
 10
36510.37697122
 20
658.0294221399999
 10
36519.59802053
 20
632.6947973699999
 10
36482.01169226
 20
619.01020956
 10
36476.28518552
 20
634.74365752
 10
36472.78926639
 20
644.34861641
 10
36476.28518552
 20
645.6210269099999
 10
36510.37697122
 20
658.0294221399999
  0
LWPOLYLINE
  5
1E7
330
64
100
AcDbEntity
  8
Ech.1_5
  6
Continuous
 62
     7
370
    -3
100
AcDbPolyline
 90
        5
 70
     0
 43
0.0
 10
36171.77639241
 20
534.7880112699999
 10
36134.18868758
 20
521.1072055299999
 10
36143.42323145
 20
495.73550477
 10
36181.00955972
 20
509.42009258
 10
36171.77639241
 20
534.7880112699999
  0
LWPOLYLINE
  5
1E8
330
64
100
AcDbEntity
  8
Ech.1_5
  6
Continuous
 62
     7
370
    -3
100
AcDbPolyline
 90
        5
 70
     0
 43
0.0
 10
35833.15312207
 20
411.43042472
 10
35795.61589985
 20
397.76799315
 10
35804.82787823
 20
372.45829057
 10
35842.36372574
 20
386.12449912
 10
35833.15312207
 20
411.43042472
  0
LWPOLYLINE
  5
1E9
330
64
100
AcDbEntity
  8
Ech.1_5
  6
Continuous
 62
     7
370
    -3
100
AcDbPolyline
 90
        5
 70
     0
 43
0.0
 10
35494.54536814001
 20
288.18728119
 10
35456.95766331
 20
274.50647546
 10
35466.18204425
 20
249.16269711
 10
35503.76837252
 20
262.84728492
 10
35494.54536814001
 20
288.18728119
  0
LWPOLYLINE
  5
1EA
330
64
100
AcDbEntity
  8
Ech.1_5
  6
Continuous
 62
     7
370
    -3
100
AcDbPolyline
 90
        5
 70
     0
 43
0.0
 10
35210.9551736
 20
209.45341934
 10
35174.87863692001
 20
199.77672499
 10
35174.89576133
 20
143.11162915
 10
35227.62672914
 20
162.31014075
 10
35210.9551736
 20
209.45341934
  0
LWPOLYLINE
  5
1EB
330
64
100
AcDbEntity
  8
Ech.1_5
  6
Continuous
 62
     7
370
    -3
100
AcDbPolyline
 90
       24
 70
     0
 43
0.0
 10
35498.29634873
 20
289.79125439
 10
35504.4052635
 20
267.0160711
 10
35528.13792779
 20
273.38180794
 10
35515.53366913001
 20
325.5776148999999
 10
35506.08925067
 20
323.29697398
 10
35508.6669502
 20
312.62239877
 10
35491.71442986001
 20
308.52869922
 10
35489.13673034
 20
319.20327443
 10
35479.69231187
 20
316.92263351
 10
35482.2700114
 20
306.2480583
 10
35459.15571302
 20
300.6664108
 10
35449.69192504
 20
339.85713704
 10
35446.02521318
 20
355.04144811
 10
35119.63777876
 20
276.22531541
 42
0.41421356
 10
35103.18995585
 20
249.30492333
 10
35111.08417109999
 20
216.61399352
 10
35120.12650382
 20
179.1685661
 10
35140.42905716
 20
184.07123259
 10
35137.89580448
 20
194.56174782
 10
35153.68046156
 20
198.7325659
 10
35156.17587868
 20
188.39873241
 10
35166.6350765
 20
191.20416968
 10
35164.45184398
 20
200.24520779
 10
35498.29634873
 20
289.79125439
  0
LWPOLYLINE
  5
1ED
330
64
100
AcDbEntity
  8
Ech.1_5
  6
Continuous
 62
     7
370
    -3
100
AcDbPolyline
 90
        5
 70
     0
 43
0.0
 10
35842.27527157
 20
-54.15771894
 10
35842.27527157
 20
5.84228106
 10
35800.27527157
 20
5.84228106
 10
35800.27527157
 20
-54.15771894
 10
35842.27527157
 20
-54.15771894
  0
LWPOLYLINE
  5
1EE
330
64
100
AcDbEntity
  8
Ech.1_5
  6
Continuous
 62
     7
370
    -3
100
AcDbPolyline
 90
        5
 70
     0
 43
0.0
 10
35611.07458065
 20
-48.65914798
 10
35586.07458065
 20
-48.65914798
 10
35586.07463231
 20
-243.94872073
 10
35611.07463231
 20
-243.94872073
 10
35611.07458065
 20
-48.65914798
  0
LWPOLYLINE
  5
1EF
330
64
100
AcDbEntity
  8
Ech.1_5
  6
Continuous
 62
     7
370
    -3
100
AcDbPolyline
 90
        6
 70
     0
 43
0.0
 10
35518.17735246
 20
239.32302035
 10
35169.07473342
 20
112.26005831
 10
35169.07473342
 20
105.84228106
 10
35443.82247536
 20
105.84228106
 10
35518.17735246
 20
132.9052431
 10
35665.27651662267
 20
186.4449603408342
  0
LWPOLYLINE
  5
1F0
330
64
100
AcDbEntity
  8
Ech.1_5
  6
Continuous
 62
     7
370
    -3
100
AcDbPolyline
 90
        5
 70
     0
 43
0.0
 10
36765.68099371
 20
5.84228106
 10
36765.68099371
 20
105.84228106
 10
35169.07473342
 20
105.84228106
 10
35169.07473342
 20
5.84228106
 10
36765.68099371
 20
5.84228106
  0
LWPOLYLINE
  5
1F1
330
64
100
AcDbEntity
  8
Ech.1_5
  6
Continuous
 62
     7
100
AcDbPolyline
 90
        4
 70
     0
 43
0.0
 10
35244.7195586
 20
165.67536904
 10
35266.49503412
 20
170.49959025
 10
35247.46122362
 20
158.87382136
 10
35244.7195586
 20
165.67536904
  0
LWPOLYLINE
  5
1F2
330
64
100
AcDbEntity
  8
Ech.1_5
 62
     7
100
AcDbPolyline
 90
        3
 70
     0
 43
0.0
 10
35721.18410834
 20
50.72578566
 42
1.0
 10
35721.18410834
 20
52.34158511
 42
1.0
 10
35721.18410834
 20
50.72578566
  0
LWPOLYLINE
  5
1F3
330
64
100
AcDbEntity
  8
Ech.1_5
 62
     7
100
AcDbPolyline
 90
        3
 70
     0
 43
0.0
 10
35721.18410834
 20
35.39894613
 42
1.0
 10
35721.18410834
 20
37.01474559
 42
1.0
 10
35721.18410834
 20
35.39894613
  0
LWPOLYLINE
  5
1F4
330
64
100
AcDbEntity
  8
Ech.1_5
 62
     7
100
AcDbPolyline
 90
        3
 70
     0
 43
0.0
 10
35698.96124565
 20
35.39894613
 42
1.0
 10
35698.96124565
 20
37.01474559
 42
1.0
 10
35698.96124565
 20
35.39894613
  0
LWPOLYLINE
  5
1F5
330
64
100
AcDbEntity
  8
Ech.1_5
 62
     7
100
AcDbPolyline
 90
        3
 70
     0
 43
0.0
 10
35698.96124565
 20
50.72578566
 42
1.0
 10
35698.96124565
 20
52.34158511
 42
1.0
 10
35698.96124565
 20
50.72578566
  0
LWPOLYLINE
  5
1F6
330
64
100
AcDbEntity
  8
Ech.1_5
 62
     7
100
AcDbPolyline
 90
        3
 70
     0
 43
0.0
 10
35710.57246551
 20
27.26720041
 42
1.0
 10
35710.57246551
 20
28.88299987
 42
1.0
 10
35710.57246551
 20
27.26720041
  0
LWPOLYLINE
  5
1F7
330
64
100
AcDbEntity
  8
Ech.1_5
 62
     7
100
AcDbPolyline
 90
        3
 70
     0
 43
0.0
 10
35710.57246551
 20
42.59403994
 42
1.0
 10
35710.57246551
 20
44.2098394
 42
1.0
 10
35710.57246551
 20
42.59403994
  0
LWPOLYLINE
  5
1F8
330
64
100
AcDbEntity
  8
Ech.1_5
  6
Continuous
 62
     7
370
    -3
100
AcDbPolyline
 90
        5
 70
     0
 43
0.0
 10
35665.27666405
 20
7.4429878
 10
35674.27666412
 20
7.4429878
 10
35674.27643109
 20
290.38122516
 10
35665.27643102
 20
290.38122516
 10
35665.27666405
 20
7.4429878
  0
LWPOLYLINE
  5
1F9
330
64
100
AcDbEntity
  8
Ech.1_5
  6
Continuous
 62
     7
370
    -3
100
AcDbPolyline
 90
        5
 70
     0
 43
0.0
 10
35805.40015806
 20
-102.6662303
 10
35805.40015806
 20
-115.6662303
 10
36767.52902695
 20
-115.6660678
 10
36767.52902695
 20
-102.6660678
 10
35805.40015806
 20
-102.6662303
  0
LWPOLYLINE
  5
1FA
330
64
100
AcDbEntity
  8
Ech.1_5
  6
Continuous
 62
     7
370
    -3
100
AcDbPolyline
 90
        5
 70
     0
 43
0.0
 10
35805.40015806
 20
-102.6660678
 10
35805.40015806
 20
-115.6660678
 10
36767.52902695
 20
-115.6660678
 10
36767.52902695
 20
-102.6660678
 10
35805.40015806
 20
-102.6660678
  0
LWPOLYLINE
  5
1FB
330
64
100
AcDbEntity
  8
Ech.1_5
  6
Continuous
 62
     7
370
    -3
100
AcDbPolyline
 90
        5
 70
     0
 43
0.0
 10
35165.847382
 20
-31.15771894
 10
35609.14258481
 20
-31.15771894
 10
35609.14258481
 20
-21.15771894
 10
35165.847382
 20
-21.15771894
 10
35165.847382
 20
-31.15771894
  0
LWPOLYLINE
  5
1FC
330
64
100
AcDbEntity
  8
Ech.1_5
  6
Continuous
 62
     7
370
    -3
100
AcDbPolyline
 90
        5
 70
     0
 43
0.0
 10
35800.07062057
 20
5.84228106
 10
35620.07473342
 20
5.84228106
 10
35620.07473342
 20
-39.15771894
 10
35800.07062057
 20
-39.15771894
 10
35800.07062057
 20
5.84228106
  0
LWPOLYLINE
  5
1FD
330
64
100
AcDbEntity
  8
Ech.1_5
  6
Continuous
 62
     7
370
    -3
100
AcDbPolyline
 90
        5
 70
     0
 43
0.0
 10
35800.07062057
 20
-39.15771894
 10
35620.07473342
 20
-39.15771894
 10
35620.07473342
 20
-84.15771894
 10
35800.07062057
 20
-84.15771894
 10
35800.07062057
 20
-39.15771894
  0
LWPOLYLINE
  5
1FE
330
64
100
AcDbEntity
  8
Ech.1_5
  6
Continuous
 62
     7
370
    -3
100
AcDbPolyline
 90
        6
 70
     0
 43
0.0
 10
35620.07473342
 20
5.84228106
 10
35665.07473342
 20
5.84228106
 10
35665.07473342
 20
95.84228106000001
 10
35641.49337441
 20
95.84228106000001
 10
35620.07473342
 20
95.84228106000001
 10
35620.07473342
 20
5.84228106
  0
LWPOLYLINE
  5
1FF
330
64
100
AcDbEntity
  8
Ech.1_5
  6
Continuous
 62
     7
370
    -3
100
AcDbPolyline
 90
       17
 70
     0
 43
0.0
 10
35586.07458065
 20
-54.41082444
 10
35566.07458065
 20
-54.41082444
 10
35566.07458065
 20
-136.47903377
 10
35567.03490305
 20
-138.10890241
 10
35571.77102391
 20
-141.08025234
 10
35572.18302527
 20
-141.32122154
 10
35572.49684276
 20
-141.32122154
 10
35572.94796353
 20
-141.03915943
 10
35573.07458065
 20
-140.70468563
 10
35573.07458065
 20
-113.32122154
 10
35580.07458065
 20
-113.32122154
 10
35580.07458065
 20
-122.32122154
 10
35586.07458065
 20
-122.32122154
 10
35586.07458065
 20
-95.32122153999999
 10
35582.07458065
 20
-91.32122153999999
 10
35586.07458065
 20
-87.32122154
 10
35586.07458065
 20
-54.41082444
  0
LWPOLYLINE
  5
200
330
64
100
AcDbEntity
  8
Ech.1_5
  6
Continuous
 62
     7
370
    -3
100
AcDbPolyline
 90
        5
 70
     0
 43
0.0
 10
36765.68099371
 20
693.55848867
 10
36765.68099371
 20
722.2912885299999
 10
35174.89576135
 20
143.11153907
 10
35184.13030522
 20
117.73983831
 10
36765.68099371
 20
693.55848867
  0
LWPOLYLINE
  5
201
330
64
100
AcDbEntity
  8
Ech.1_5
  6
Continuous
 62
     7
370
    -3
100
AcDbPolyline
 90
       11
 70
     0
 43
0.0
 10
35147.07473342
 20
112.26005831
 10
35147.07473342
 20
-43.93547156
 42
-0.41421356
 10
35159.93875852
 20
-56.79949666
 10
35169.07473342
 20
-56.79949666
 10
35169.07473342
 20
-35.49485331
 10
35162.79077395
 20
-35.49485331
 10
35162.79077395
 20
-24.42913295
 10
35162.79077395
 20
-21.15771894
 10
35169.07473342
 20
-21.15771894
 10
35169.07473342
 20
112.26005831
 10
35147.07473342
 20
112.26005831
  0
LWPOLYLINE
  5
202
330
64
100
AcDbEntity
  8
Ech.1_5
  6
Continuous
 62
     7
370
    -3
100
AcDbPolyline
 90
        5
 70
     0
 43
0.0
 10
35183.27720402
 20
5.84228106
 10
35223.27720402
 20
5.84228106
 10
35223.27720402
 20
-21.15771894
 10
35183.27720402
 20
-21.15771894
 10
35183.27720402
 20
5.84228106
  0
LWPOLYLINE
  5
203
330
64
100
AcDbEntity
  8
Ech.1_5
  6
Continuous
 62
     7
370
    -3
100
AcDbPolyline
 90
        5
 70
     0
 43
0.0
 10
35507.75490351
 20
5.84228106
 10
35547.75490351
 20
5.84228106
 10
35547.75490351
 20
-21.15771894
 10
35507.75490351
 20
-21.15771894
 10
35507.75490351
 20
5.84228106
  0
CIRCLE
  5
204
330
64
100
AcDbEntity
  8
Ech.1_5
 62
     7
100
AcDbCircle
 10
35002.78314947
 20
99.35566790000001
 30
0.0
 40
5.922289599999999
  0
LWPOLYLINE
  5
205
330
64
100
AcDbEntity
  8
Ech.1_5
  6
Continuous
 62
     7
370
    -3
100
AcDbPolyline
 90
        5
 70
     0
 43
0.0
 10
35840.07062057
 20
-243.94815881
 10
35853.07062057
 20
-243.94815881
 10
35853.07062057
 20
-115.6660678
 10
35840.07062057
 20
-115.6660678
 10
35840.07062057
 20
-243.94815881
  0
LWPOLYLINE
  5
206
330
64
100
AcDbEntity
  8
Ech.1_5
  6
Continuous
 62
     7
370
    -3
100
AcDbPolyline
 90
        5
 70
     0
 43
0.0
 10
35620.07458072
 20
-9.511921049999999
 10
35611.07458065
 20
-9.511921049999999
 10
35611.07466773
 20
-243.94815881
 10
35620.07466779
 20
-243.94815881
 10
35620.07458072
 20
-9.511921049999999
  0
LWPOLYLINE
  5
207
330
64
100
AcDbEntity
  8
Ech.1_5
  6
Continuous
 62
     7
370
    -3
100
AcDbPolyline
 90
       18
 70
     0
 43
0.0
 10
35586.07458065
 20
-232.32122154
 10
35586.07458065
 20
-168.32122154
 10
35582.07458065
 20
-164.32122154
 10
35586.07458065
 20
-160.32122154
 10
35586.07458065
 20
-125.32122154
 10
35579.07458065
 20
-125.32122154
 10
35579.07458065
 20
-119.32122154
 10
35576.57458065
 20
-114.32122154
 10
35574.07458065
 20
-119.32122154
 10
35574.07458065
 20
-150.25015373
 10
35573.69397832
 20
-152.16357089
 10
35567.53904675
 20
-158.85675545
 10
35566.07458065
 20
-162.39228935
 10
35566.07458065
 20
-243.94872073
 10
35586.07458065
 20
-243.94872073
 10
35586.07458065
 20
-240.32122154
 10
35582.07458065
 20
-236.32122154
 10
35586.07458065
 20
-232.32122154
  0
TEXT
  5
208
330
64
100
AcDbEntity
  8
Ech.1_5
 62
     7
100
AcDbText
 10
35079.39830674
 20
-278.95797862
 30
0.0
 40
8.000000119999999
  1
Echelle en mm
  7
ARIAL
100
AcDbText
  0
TEXT
  5
209
330
64
100
AcDbEntity
  8
Ech.1_5
 62
     7
100
AcDbText
 10
35065.41772199
 20
-307.16781415
 30
0.0
 40
8.000000119999999
  1
0
  7
ARIAL
100
AcDbText
  0
TEXT
  5
20A
330
64
100
AcDbEntity
  8
Ech.1_5
 62
     7
100
AcDbText
 10
35152.01477988
 20
-307.16781415
 30
0.0
 40
8.000000119999999
  1
100
  7
ARIAL
100
AcDbText
  0
TEXT
  5
20B
330
64
100
AcDbEntity
  8
Ech.1_5
 62
     7
100
AcDbText
 10
35113.27434832
 20
-307.16781415
 30
0.0
 40
8.000000119999999
  1
50
  7
ARIAL
100
AcDbText
  0
POINT
  5
20C
330
64
100
AcDbEntity
  8
Ech.1_5
 62
     7
100
AcDbPoint
 10
35721.99200807
 20
52.59463070999999
 30
0.0
  0
POINT
  5
20D
330
64
100
AcDbEntity
  8
Ech.1_5
 62
     7
100
AcDbPoint
 10
35698.15334592
 20
52.59463070999999
 30
0.0
  0
POINT
  5
20E
330
64
100
AcDbEntity
  8
Ech.1_5
 62
     7
100
AcDbPoint
 10
35711.38036524
 20
44.46288499
 30
0.0
  0
LWPOLYLINE
  5
26F
330
64
100
AcDbEntity
  8
Ech.1_5
  6
Continuous
 62
     7
370
    -3
100
AcDbPolyline
 90
        6
 70
     0
 43
0.0
 10
35993.31798256691
 20
305.8422895500011
 10
36318.2799715
 20
424.11878079
 10
36765.68099371
 20
586.95943566
 10
36765.68099371
 20
693.3772129
 10
36318.2799715
 20
530.53655804
 10
35518.17735246
 20
239.32302035
  0
LWPOLYLINE
  5
272
330
64
100
AcDbEntity
  8
Ech.1_5
 62
     7
100
AcDbPolyline
 90
        3
 70
     0
 43
0.0
 10
35993.31798256691
 20
305.8422895500011
 10
36318.2799715
 20
424.11878079
 10
36765.68099371
 20
586.95943566
  0
LWPOLYLINE
  5
273
330
64
100
AcDbEntity
  8
Ech.1_5
  6
Continuous
 62
     7
370
    -3
100
AcDbPolyline
 90
        4
 70
     0
 43
0.0
 10
35665.27651662267
 20
186.4449603400496
 10
35660.22116765
 20
184.60496379
 10
35660.22116765
 20
105.84228106
 10
35760.22116765
 20
105.8422845499999
  0
LWPOLYLINE
  5
274
330
64
100
AcDbEntity
  8
Ech.1_5
 62
     7
100
AcDbPolyline
 90
        4
 70
     0
 43
0.0
 10
35665.27651662267
 20
186.4449603400496
 10
35660.22116765
 20
184.60496379
 10
35660.22116765
 20
105.84228106
 10
35760.22116765
 20
105.8422845499999
  0
ENDSEC
  0
SECTION
  2
OBJECTS
  0
DICTIONARY
  5
1
330
0
100
AcDbDictionary
281
     1
  3
ACAD_COLOR
350
246
  3
ACAD_GROUP
350
2
  3
ACAD_LAYOUT
350
25E
  3
ACAD_MATERIAL
350
214
  3
ACAD_MLEADERSTYLE
350
25B
  3
ACAD_MLINESTYLE
350
3
  3
ACAD_PLOTSETTINGS
350
25F
  3
ACAD_PLOTSTYLENAME
350
212
  3
ACAD_SCALELIST
350
249
  3
ACAD_TABLESTYLE
350
247
  3
ACAD_VISUALSTYLE
350
22D
  3
ACDB_RECOMPOSE_DATA
350
2BE
  3
AcDbVariableDictionary
350
2B4
  3
DWGPROPS
350
2BF
  0
DICTIONARY
  5
278
330
3E
100
AcDbDictionary
280
     1
281
     1
  3
ADSK_XREC_LAYER_RECONCILED
360
279
  0
DICTIONARY
  5
27A
330
3F
100
AcDbDictionary
280
     1
281
     1
  3
ADSK_XREC_LAYER_RECONCILED
360
27B
  0
DICTIONARY
  5
27C
330
40
100
AcDbDictionary
280
     1
281
     1
  3
ADSK_XREC_LAYER_RECONCILED
360
27D
  0
DICTIONARY
  5
27E
330
41
100
AcDbDictionary
280
     1
281
     1
  3
ADSK_XREC_LAYER_RECONCILED
360
27F
  0
DICTIONARY
  5
280
330
42
100
AcDbDictionary
280
     1
281
     1
  3
ADSK_XREC_LAYER_RECONCILED
360
281
  0
DICTIONARY
  5
282
330
43
100
AcDbDictionary
280
     1
281
     1
  3
ADSK_XREC_LAYER_RECONCILED
360
283
  0
DICTIONARY
  5
284
330
44
100
AcDbDictionary
280
     1
281
     1
  3
ADSK_XREC_LAYER_RECONCILED
360
285
  0
DICTIONARY
  5
286
330
45
100
AcDbDictionary
280
     1
281
     1
  3
ADSK_XREC_LAYER_RECONCILED
360
287
  0
DICTIONARY
  5
288
330
46
100
AcDbDictionary
280
     1
281
     1
  3
ADSK_XREC_LAYER_RECONCILED
360
289
  0
DICTIONARY
  5
28A
330
47
100
AcDbDictionary
280
     1
281
     1
  3
ADSK_XREC_LAYER_RECONCILED
360
28B
  0
DICTIONARY
  5
28C
330
48
100
AcDbDictionary
280
     1
281
     1
  3
ADSK_XREC_LAYER_RECONCILED
360
28D
  0
DICTIONARY
  5
28E
330
49
100
AcDbDictionary
280
     1
281
     1
  3
ADSK_XREC_LAYER_RECONCILED
360
28F
  0
DICTIONARY
  5
290
330
4A
100
AcDbDictionary
280
     1
281
     1
  3
ADSK_XREC_LAYER_RECONCILED
360
291
  0
DICTIONARY
  5
292
330
4B
100
AcDbDictionary
280
     1
281
     1
  3
ADSK_XREC_LAYER_RECONCILED
360
293
  0
DICTIONARY
  5
294
330
4C
100
AcDbDictionary
280
     1
281
     1
  3
ADSK_XREC_LAYER_RECONCILED
360
295
  0
DICTIONARY
  5
296
330
4D
100
AcDbDictionary
280
     1
281
     1
  3
ADSK_XREC_LAYER_RECONCILED
360
297
  0
DICTIONARY
  5
298
330
4E
100
AcDbDictionary
280
     1
281
     1
  3
ADSK_XREC_LAYER_RECONCILED
360
299
  0
DICTIONARY
  5
29A
330
4F
100
AcDbDictionary
280
     1
281
     1
  3
ADSK_XREC_LAYER_RECONCILED
360
29B
  0
DICTIONARY
  5
29C
330
50
100
AcDbDictionary
280
     1
281
     1
  3
ADSK_XREC_LAYER_RECONCILED
360
29D
  0
DICTIONARY
  5
29E
330
51
100
AcDbDictionary
280
     1
281
     1
  3
ADSK_XREC_LAYER_RECONCILED
360
29F
  0
DICTIONARY
  5
2A0
330
52
100
AcDbDictionary
280
     1
281
     1
  3
ADSK_XREC_LAYER_RECONCILED
360
2A1
  0
DICTIONARY
  5
2A2
330
54
100
AcDbDictionary
280
     1
281
     1
  3
ADSK_XREC_LAYER_RECONCILED
360
2A3
  0
DICTIONARY
  5
2A4
330
55
100
AcDbDictionary
280
     1
281
     1
  3
ADSK_XREC_LAYER_RECONCILED
360
2A5
  0
DICTIONARY
  5
2A6
330
57
100
AcDbDictionary
280
     1
281
     1
  3
ADSK_XREC_LAYER_RECONCILED
360
2A7
  0
DICTIONARY
  5
2A8
330
58
100
AcDbDictionary
280
     1
281
     1
  3
ADSK_XREC_LAYER_RECONCILED
360
2A9
  0
DICTIONARY
  5
2AA
330
59
100
AcDbDictionary
280
     1
281
     1
  3
ADSK_XREC_LAYER_RECONCILED
360
2AB
  0
DICTIONARY
  5
2AC
330
5A
100
AcDbDictionary
280
     1
281
     1
  3
ADSK_XREC_LAYER_RECONCILED
360
2AD
  0
DICTIONARY
  5
2AE
330
5B
100
AcDbDictionary
280
     1
281
     1
  3
ADSK_XREC_LAYER_RECONCILED
360
2AF
  0
DICTIONARY
  5
2B0
330
5C
100
AcDbDictionary
280
     1
281
     1
  3
ADSK_XREC_LAYER_RECONCILED
360
2B1
  0
DICTIONARY
  5
2B2
330
5D
100
AcDbDictionary
280
     1
281
     1
  3
ADSK_XREC_LAYER_RECONCILED
360
2B3
  0
DICTIONARY
  5
270
330
64
100
AcDbDictionary
280
     1
281
     1
  3
ACAD_SORTENTS
360
271
  0
DICTIONARY
  5
246
102
{ACAD_REACTORS
330
1
102
}
330
1
100
AcDbDictionary
281
     1
  0
DICTIONARY
  5
2
330
1
100
AcDbDictionary
281
     1
  0
DICTIONARY
  5
25E
102
{ACAD_REACTORS
330
1
102
}
330
1
100
AcDbDictionary
281
     1
  3
Model
350
260
  3
Présentation1
350
261
  0
DICTIONARY
  5
214
102
{ACAD_REACTORS
330
1
102
}
330
1
100
AcDbDictionary
281
     1
  3
ByBlock
350
21D
  3
ByLayer
350
215
  3
Global
350
225
  0
DICTIONARY
  5
25B
102
{ACAD_REACTORS
330
1
102
}
330
1
100
AcDbDictionary
281
     1
  3
Standard
350
25C
  0
DICTIONARY
  5
3
330
1
100
AcDbDictionary
281
     1
  3
STANDARD
350
4
  0
DICTIONARY
  5
25F
102
{ACAD_REACTORS
330
1
102
}
330
1
100
AcDbDictionary
281
     1
  0
ACDBDICTIONARYWDFLT
  5
212
102
{ACAD_REACTORS
330
1
102
}
330
1
100
AcDbDictionary
281
     1
  3
Normal
350
213
100
AcDbDictionaryWithDefault
340
213
  0
DICTIONARY
  5
249
102
{ACAD_REACTORS
330
1
102
}
330
1
100
AcDbDictionary
281
     1
  3
A0
350
24A
  3
A1
350
24B
  3
A2
350
24C
  3
A3
350
24D
  3
A4
350
24E
  3
A5
350
24F
  3
A6
350
250
  3
A7
350
251
  3
A8
350
252
  3
A9
350
253
  3
B0
350
254
  3
B1
350
255
  3
B2
350
256
  3
B3
350
257
  3
B4
350
258
  3
B5
350
259
  3
B6
350
25A
  0
DICTIONARY
  5
247
102
{ACAD_REACTORS
330
1
102
}
330
1
100
AcDbDictionary
281
     1
  3
Standard
350
248
  0
DICTIONARY
  5
22D
102
{ACAD_REACTORS
330
1
102
}
330
1
100
AcDbDictionary
281
     1
  3
2dWireframe
350
233
  3
Basic
350
232
  3
Brighten
350
239
  3
ColorChange
350
23D
  3
Conceptual
350
236
  3
Dim
350
238
  3
EdgeColorOff
350
245
  3
Facepattern
350
23C
  3
Flat
350
22E
  3
FlatWithEdges
350
22F
  3
Gouraud
350
230
  3
GouraudWithEdges
350
231
  3
Hidden
350
235
  3
JitterOff
350
243
  3
Linepattern
350
23B
  3
OverhangOff
350
244
  3
Realistic
350
237
  3
Shaded
350
242
  3
Shaded with edges
350
241
  3
Shades of Gray
350
23E
  3
Sketchy
350
23F
  3
Thicken
350
23A
  3
Wireframe
350
234
  3
X-Ray
350
240
  0
XRECORD
  5
2BE
102
{ACAD_REACTORS
330
1
102
}
330
1
100
AcDbXrecord
280
     1
 90
        1
330
248
  0
DICTIONARY
  5
2B4
102
{ACAD_REACTORS
330
1
102
}
330
1
100
AcDbDictionary
281
     1
  3
CANNOSCALE
350
2B7
  3
CMLEADERSTYLE
350
2B6
  3
CTABLESTYLE
350
2B5
  3
DIMASSOC
350
2BA
  3
INDEXCTL
350
2B9
  3
SORTENTS
350
2B8
  3
XCLIPFRAME
350
2BB
  0
XRECORD
  5
2BF
102
{ACAD_REACTORS
330
1
102
}
330
1
100
AcDbXrecord
280
     1
  1
DWGPROPS COOKIE
  2

  3

  4

  6

  7

  8
cazeaux
  9

300
=
301
=
302
=
303
=
304
=
305
=
306
=
307
=
308
=
309
=
 40
0.0012967013888889
 41
2456467.0
 42
2456468.462214456
  1

 90
        0
  0
XRECORD
  5
279
102
{ACAD_REACTORS
330
278
102
}
330
278
100
AcDbXrecord
280
     1
290
     1
  0
XRECORD
  5
27B
102
{ACAD_REACTORS
330
27A
102
}
330
27A
100
AcDbXrecord
280
     1
290
     1
  0
XRECORD
  5
27D
102
{ACAD_REACTORS
330
27C
102
}
330
27C
100
AcDbXrecord
280
     1
290
     1
  0
XRECORD
  5
27F
102
{ACAD_REACTORS
330
27E
102
}
330
27E
100
AcDbXrecord
280
     1
290
     1
  0
XRECORD
  5
281
102
{ACAD_REACTORS
330
280
102
}
330
280
100
AcDbXrecord
280
     1
290
     1
  0
XRECORD
  5
283
102
{ACAD_REACTORS
330
282
102
}
330
282
100
AcDbXrecord
280
     1
290
     1
  0
XRECORD
  5
285
102
{ACAD_REACTORS
330
284
102
}
330
284
100
AcDbXrecord
280
     1
290
     1
  0
XRECORD
  5
287
102
{ACAD_REACTORS
330
286
102
}
330
286
100
AcDbXrecord
280
     1
290
     1
  0
XRECORD
  5
289
102
{ACAD_REACTORS
330
288
102
}
330
288
100
AcDbXrecord
280
     1
290
     1
  0
XRECORD
  5
28B
102
{ACAD_REACTORS
330
28A
102
}
330
28A
100
AcDbXrecord
280
     1
290
     1
  0
XRECORD
  5
28D
102
{ACAD_REACTORS
330
28C
102
}
330
28C
100
AcDbXrecord
280
     1
290
     1
  0
XRECORD
  5
28F
102
{ACAD_REACTORS
330
28E
102
}
330
28E
100
AcDbXrecord
280
     1
290
     1
  0
XRECORD
  5
291
102
{ACAD_REACTORS
330
290
102
}
330
290
100
AcDbXrecord
280
     1
290
     1
  0
XRECORD
  5
293
102
{ACAD_REACTORS
330
292
102
}
330
292
100
AcDbXrecord
280
     1
290
     1
  0
XRECORD
  5
295
102
{ACAD_REACTORS
330
294
102
}
330
294
100
AcDbXrecord
280
     1
290
     1
  0
XRECORD
  5
297
102
{ACAD_REACTORS
330
296
102
}
330
296
100
AcDbXrecord
280
     1
290
     1
  0
XRECORD
  5
299
102
{ACAD_REACTORS
330
298
102
}
330
298
100
AcDbXrecord
280
     1
290
     1
  0
XRECORD
  5
29B
102
{ACAD_REACTORS
330
29A
102
}
330
29A
100
AcDbXrecord
280
     1
290
     1
  0
XRECORD
  5
29D
102
{ACAD_REACTORS
330
29C
102
}
330
29C
100
AcDbXrecord
280
     1
290
     1
  0
XRECORD
  5
29F
102
{ACAD_REACTORS
330
29E
102
}
330
29E
100
AcDbXrecord
280
     1
290
     1
  0
XRECORD
  5
2A1
102
{ACAD_REACTORS
330
2A0
102
}
330
2A0
100
AcDbXrecord
280
     1
290
     1
  0
XRECORD
  5
2A3
102
{ACAD_REACTORS
330
2A2
102
}
330
2A2
100
AcDbXrecord
280
     1
290
     1
  0
XRECORD
  5
2A5
102
{ACAD_REACTORS
330
2A4
102
}
330
2A4
100
AcDbXrecord
280
     1
290
     1
  0
XRECORD
  5
2A7
102
{ACAD_REACTORS
330
2A6
102
}
330
2A6
100
AcDbXrecord
280
     1
290
     1
  0
XRECORD
  5
2A9
102
{ACAD_REACTORS
330
2A8
102
}
330
2A8
100
AcDbXrecord
280
     1
290
     1
  0
XRECORD
  5
2AB
102
{ACAD_REACTORS
330
2AA
102
}
330
2AA
100
AcDbXrecord
280
     1
290
     1
  0
XRECORD
  5
2AD
102
{ACAD_REACTORS
330
2AC
102
}
330
2AC
100
AcDbXrecord
280
     1
290
     1
  0
XRECORD
  5
2AF
102
{ACAD_REACTORS
330
2AE
102
}
330
2AE
100
AcDbXrecord
280
     1
290
     1
  0
XRECORD
  5
2B1
102
{ACAD_REACTORS
330
2B0
102
}
330
2B0
100
AcDbXrecord
280
     1
290
     1
  0
XRECORD
  5
2B3
102
{ACAD_REACTORS
330
2B2
102
}
330
2B2
100
AcDbXrecord
280
     1
290
     1
  0
SORTENTSTABLE
  5
271
102
{ACAD_REACTORS
330
270
102
}
330
270
100
AcDbSortentsTable
330
64
331
1F3
  5
1F7
331
1D1
  5
1D3
331
274
  5
194
331
204
  5
208
331
1E2
  5
1E5
331
1C0
  5
1C2
331
19E
  5
19F
331
184
  5
184
331
1AF
  5
1B0
331
173
  5
173
331
1F1
  5
1F5
331
20E
  5
274
331
272
  5
1B7
331
202
  5
206
331
1E0
  5
1E3
331
1BE
  5
1C0
331
19C
  5
19D
331
182
  5
182
331
1CF
  5
1D1
331
1AD
  5
1AE
331
171
  5
171
331
20C
  5
272
331
200
  5
204
331
1DE
  5
1E1
331
1BC
  5
1BE
331
19A
  5
19B
331
180
  5
180
331
1EF
  5
1F2
331
1CD
  5
1CF
331
1AB
  5
1AC
331
16F
  5
16F
331
20A
  5
20E
331
1FE
  5
202
331
1DC
  5
1DE
331
1BA
  5
1BC
331
198
  5
199
331
1ED
  5
1F0
331
1CB
  5
1CD
331
1A9
  5
1AA
331
18F
  5
18F
331
17E
  5
17E
331
208
  5
20C
331
1FC
  5
200
331
1DA
  5
1DC
331
1B8
  5
1BA
331
196
  5
197
331
1EB
  5
1EF
331
1C9
  5
1CB
331
1A7
  5
1A8
331
18D
  5
18D
331
17C
  5
17C
331
1FA
  5
1FE
331
1D8
  5
1DA
331
1B6
  5
1B8
331
194
  5
195
331
1E9
  5
1ED
331
1C7
  5
1C9
331
1A5
  5
1A6
331
18B
  5
18B
331
17A
  5
17A
331
1F8
  5
1FC
331
1D6
  5
1D8
331
1B4
  5
1B5
331
192
  5
192
331
1E7
  5
1EA
331
1C5
  5
1C7
331
1A3
  5
1A4
331
189
  5
189
331
178
  5
178
331
1F6
  5
1FA
331
1D4
  5
1D6
331
1B2
  5
1B3
331
190
  5
190
331
207
  5
20B
331
1E5
  5
1E8
331
1C3
  5
1C5
331
1A1
  5
1A2
331
187
  5
187
331
176
  5
176
331
1F4
  5
1F8
331
1D2
  5
1D4
331
1B0
  5
1B1
331
205
  5
209
331
1E3
  5
1E6
331
1C1
  5
1C3
331
19F
  5
1A0
331
185
  5
185
331
174
  5
174
331
1F2
  5
1F6
331
1D0
  5
1D2
331
273
  5
1DF
331
203
  5
207
331
1E1
  5
1E4
331
1BF
  5
1C1
331
19D
  5
19E
331
183
  5
183
331
1AE
  5
1AF
331
172
  5
172
331
20D
  5
273
331
1F0
  5
1F4
331
201
  5
205
331
1DF
  5
1E2
331
1BD
  5
1BF
331
19B
  5
19C
331
181
  5
181
331
1CE
  5
1D0
331
1AC
  5
1AD
331
170
  5
170
331
20B
  5
26F
331
1FF
  5
203
331
1DD
  5
1E0
331
1BB
  5
1BD
331
199
  5
19A
331
26F
  5
1F3
331
1EE
  5
1F1
331
1CC
  5
1CE
331
1AA
  5
1AB
331
17F
  5
17F
331
209
  5
20D
331
1FD
  5
201
331
1DB
  5
1DD
331
1B9
  5
1BB
331
197
  5
198
331
1CA
  5
1CC
331
1A8
  5
1A9
331
18E
  5
18E
331
17D
  5
17D
331
1FB
  5
1FF
331
1D9
  5
1DB
331
1B7
  5
1B9
331
195
  5
196
331
1EA
  5
1EE
331
1C8
  5
1CA
331
1A6
  5
1A7
331
18C
  5
18C
331
17B
  5
17B
331
1F9
  5
1FD
331
1D7
  5
1D9
331
1B5
  5
1B6
331
193
  5
193
331
1E8
  5
1EB
331
1C6
  5
1C8
331
1A4
  5
1A5
331
18A
  5
18A
331
179
  5
179
331
1F7
  5
1FB
331
1D5
  5
1D7
331
1B3
  5
1B4
331
191
  5
191
331
1E6
  5
1E9
331
1C4
  5
1C6
331
1A2
  5
1A3
331
188
  5
188
331
177
  5
177
331
1F5
  5
1F9
331
1D3
  5
1D5
331
1B1
  5
1B2
331
206
  5
20A
331
1E4
  5
1E7
331
1C2
  5
1C4
331
1A0
  5
1A1
331
186
  5
186
331
175
  5
175
  0
LAYOUT
  5
260
102
{ACAD_XDICTIONARY
360
2F5
102
}
102
{ACAD_REACTORS
330
25E
102
}
330
25E
100
AcDbPlotSettings
  1

  2
Aucun(e)
  4

  6

 40
0.0
 41
0.0
 42
0.0
 43
0.0
 44
0.0
 45
0.0
 46
0.0
 47
0.0
 48
0.0
 49
0.0
140
0.0
141
0.0
142
1.0
143
1.0
 70
  1712
 72
     0
 73
     0
 74
     0
  7
acad.ctb
 75
     0
147
1.0
148
0.0
149
0.0
100
AcDbLayout
  1
Model
 70
     1
 71
     0
 10
0.0
 20
0.0
 11
12.0
 21
9.0
 12
0.0
 22
0.0
 32
0.0
 14
0.0
 24
0.0
 34
0.0
 15
0.0
 25
0.0
 35
0.0
146
0.0
 13
0.0
 23
0.0
 33
0.0
 16
1.0
 26
0.0
 36
0.0
 17
0.0
 27
1.0
 37
0.0
 76
     0
330
64
331
264
  0
LAYOUT
  5
261
102
{ACAD_XDICTIONARY
360
2F7
102
}
102
{ACAD_REACTORS
330
25E
102
}
330
25E
100
AcDbPlotSettings
  1

  2
Aucun(e)
  4

  6

 40
0.0
 41
0.0
 42
0.0
 43
0.0
 44
0.0
 45
0.0
 46
0.0
 47
0.0
 48
0.0
 49
0.0
140
0.0
141
0.0
142
1.0
143
1.0
 70
   688
 72
     0
 73
     0
 74
     5
  7
acad.ctb
 75
    16
147
1.0
148
0.0
149
0.0
100
AcDbLayout
  1
Présentation1
 70
     1
 71
     1
 10
0.0
 20
0.0
 11
12.0
 21
9.0
 12
0.0
 22
0.0
 32
0.0
 14
1.000000000000000E+20
 24
1.000000000000000E+20
 34
1.000000000000000E+20
 15
-1.000000000000000E+20
 25
-1.000000000000000E+20
 35
-1.000000000000000E+20
146
0.0
 13
0.0
 23
0.0
 33
0.0
 16
1.0
 26
0.0
 36
0.0
 17
0.0
 27
1.0
 37
0.0
 76
     0
330
65
  0
MATERIAL
  5
21D
102
{ACAD_XDICTIONARY
360
21E
102
}
102
{ACAD_REACTORS
330
214
102
}
330
214
100
AcDbMaterial
  1
ByBlock
 72
     0
 43
0.0208333333333333
 43
0.0
 43
0.0
 43
0.0
 43
0.0
 43
0.0208333333333333
 43
0.0
 43
0.0
 43
0.0
 43
0.0
 43
1.0
 43
0.0
 43
0.0
 43
0.0
 43
0.0
 43
1.0
 77
     0
 47
0.0208333333333333
 47
0.0
 47
0.0
 47
0.0
 47
0.0
 47
0.0208333333333333
 47
0.0
 47
0.0
 47
0.0
 47
0.0
 47
1.0
 47
0.0
 47
0.0
 47
0.0
 47
0.0
 47
1.0
171
     0
 49
0.0208333333333333
 49
0.0
 49
0.0
 49
0.0
 49
0.0
 49
0.0208333333333333
 49
0.0
 49
0.0
 49
0.0
 49
0.0
 49
1.0
 49
0.0
 49
0.0
 49
0.0
 49
0.0
 49
1.0
175
     0
142
0.0208333333333333
142
0.0
142
0.0
142
0.0
142
0.0
142
0.0208333333333333
142
0.0
142
0.0
142
0.0
142
0.0
142
1.0
142
0.0
142
0.0
142
0.0
142
0.0
142
1.0
179
     0
144
0.0208333333333333
144
0.0
144
0.0
144
0.0
144
0.0
144
0.0208333333333333
144
0.0
144
0.0
144
0.0
144
0.0
144
1.0
144
0.0
144
0.0
144
0.0
144
0.0
144
1.0
147
0.0208333333333333
147
0.0
147
0.0
147
0.0
147
0.0
147
0.0208333333333333
147
0.0
147
0.0
147
0.0
147
0.0
147
1.0
147
0.0
147
0.0
147
0.0
147
0.0
147
1.0
  0
MATERIAL
  5
215
102
{ACAD_XDICTIONARY
360
216
102
}
102
{ACAD_REACTORS
330
214
102
}
330
214
100
AcDbMaterial
  1
ByLayer
 72
     0
 43
0.0208333333333333
 43
0.0
 43
0.0
 43
0.0
 43
0.0
 43
0.0208333333333333
 43
0.0
 43
0.0
 43
0.0
 43
0.0
 43
1.0
 43
0.0
 43
0.0
 43
0.0
 43
0.0
 43
1.0
 77
     0
 47
0.0208333333333333
 47
0.0
 47
0.0
 47
0.0
 47
0.0
 47
0.0208333333333333
 47
0.0
 47
0.0
 47
0.0
 47
0.0
 47
1.0
 47
0.0
 47
0.0
 47
0.0
 47
0.0
 47
1.0
171
     0
 49
0.0208333333333333
 49
0.0
 49
0.0
 49
0.0
 49
0.0
 49
0.0208333333333333
 49
0.0
 49
0.0
 49
0.0
 49
0.0
 49
1.0
 49
0.0
 49
0.0
 49
0.0
 49
0.0
 49
1.0
175
     0
142
0.0208333333333333
142
0.0
142
0.0
142
0.0
142
0.0
142
0.0208333333333333
142
0.0
142
0.0
142
0.0
142
0.0
142
1.0
142
0.0
142
0.0
142
0.0
142
0.0
142
1.0
179
     0
144
0.0208333333333333
144
0.0
144
0.0
144
0.0
144
0.0
144
0.0208333333333333
144
0.0
144
0.0
144
0.0
144
0.0
144
1.0
144
0.0
144
0.0
144
0.0
144
0.0
144
1.0
147
0.0208333333333333
147
0.0
147
0.0
147
0.0
147
0.0
147
0.0208333333333333
147
0.0
147
0.0
147
0.0
147
0.0
147
1.0
147
0.0
147
0.0
147
0.0
147
0.0
147
1.0
  0
MATERIAL
  5
225
102
{ACAD_XDICTIONARY
360
226
102
}
102
{ACAD_REACTORS
330
214
102
}
330
214
100
AcDbMaterial
  1
Global
 72
     0
 43
0.0208333333333333
 43
0.0
 43
0.0
 43
0.0
 43
0.0
 43
0.0208333333333333
 43
0.0
 43
0.0
 43
0.0
 43
0.0
 43
1.0
 43
0.0
 43
0.0
 43
0.0
 43
0.0
 43
1.0
 77
     0
 47
0.0208333333333333
 47
0.0
 47
0.0
 47
0.0
 47
0.0
 47
0.0208333333333333
 47
0.0
 47
0.0
 47
0.0
 47
0.0
 47
1.0
 47
0.0
 47
0.0
 47
0.0
 47
0.0
 47
1.0
171
     0
 49
0.0208333333333333
 49
0.0
 49
0.0
 49
0.0
 49
0.0
 49
0.0208333333333333
 49
0.0
 49
0.0
 49
0.0
 49
0.0
 49
1.0
 49
0.0
 49
0.0
 49
0.0
 49
0.0
 49
1.0
175
     0
142
0.0208333333333333
142
0.0
142
0.0
142
0.0
142
0.0
142
0.0208333333333333
142
0.0
142
0.0
142
0.0
142
0.0
142
1.0
142
0.0
142
0.0
142
0.0
142
0.0
142
1.0
179
     0
144
0.0208333333333333
144
0.0
144
0.0
144
0.0
144
0.0
144
0.0208333333333333
144
0.0
144
0.0
144
0.0
144
0.0
144
1.0
144
0.0
144
0.0
144
0.0
144
0.0
144
1.0
147
0.0208333333333333
147
0.0
147
0.0
147
0.0
147
0.0
147
0.0208333333333333
147
0.0
147
0.0
147
0.0
147
0.0
147
1.0
147
0.0
147
0.0
147
0.0
147
0.0
147
1.0
  0
MLEADERSTYLE
  5
25C
102
{ACAD_REACTORS
330
25B
102
}
330
25B
100
AcDbMLeaderStyle
170
     2
171
     1
172
     0
 90
        2
 40
0.0
 41
0.0
173
     1
 91
-1056964608
340
30
 92
       -2
290
     1
 42
2.0
291
     1
 43
0.36
  3
Standard
 44
4.0
300

342
2B
174
     1
178
     6
175
     1
176
     0
 93
-1056964608
 45
4.0
292
     0
297
     0
 46
4.0
 94
-1056964608
 47
1.0
 49
1.0
140
1.0
293
     1
141
0.0
294
     1
177
     0
142
1.0
295
     0
296
     0
143
0.125
1001
ACAD_MLEADERVER
1070
     2
  0
MLINESTYLE
  5
4
330
3
100
AcDbMlineStyle
  2
STANDARD
 70
     0
  3

 62
     0
 51
90.0
 52
90.0
 71
     2
 49
0.5
 62
   256
  6
BYLAYER
 49
-0.5
 62
   256
  6
BYLAYER
  0
ACDBPLACEHOLDER
  5
213
102
{ACAD_REACTORS
330
212
102
}
330
212
  0
SCALE
  5
24A
102
{ACAD_REACTORS
330
249
102
}
330
249
100
AcDbScale
 70
     0
300
1:1
140
1.0
141
1.0
290
     1
  0
SCALE
  5
24B
102
{ACAD_REACTORS
330
249
102
}
330
249
100
AcDbScale
 70
     0
300
1:2
140
1.0
141
2.0
290
     0
  0
SCALE
  5
24C
102
{ACAD_REACTORS
330
249
102
}
330
249
100
AcDbScale
 70
     0
300
1:4
140
1.0
141
4.0
290
     0
  0
SCALE
  5
24D
102
{ACAD_REACTORS
330
249
102
}
330
249
100
AcDbScale
 70
     0
300
1:5
140
1.0
141
5.0
290
     0
  0
SCALE
  5
24E
102
{ACAD_REACTORS
330
249
102
}
330
249
100
AcDbScale
 70
     0
300
1:8
140
1.0
141
8.0
290
     0
  0
SCALE
  5
24F
102
{ACAD_REACTORS
330
249
102
}
330
249
100
AcDbScale
 70
     0
300
1:10
140
1.0
141
10.0
290
     0
  0
SCALE
  5
250
102
{ACAD_REACTORS
330
249
102
}
330
249
100
AcDbScale
 70
     0
300
1:16
140
1.0
141
16.0
290
     0
  0
SCALE
  5
251
102
{ACAD_REACTORS
330
249
102
}
330
249
100
AcDbScale
 70
     0
300
1:20
140
1.0
141
20.0
290
     0
  0
SCALE
  5
252
102
{ACAD_REACTORS
330
249
102
}
330
249
100
AcDbScale
 70
     0
300
1:30
140
1.0
141
30.0
290
     0
  0
SCALE
  5
253
102
{ACAD_REACTORS
330
249
102
}
330
249
100
AcDbScale
 70
     0
300
1:40
140
1.0
141
40.0
290
     0
  0
SCALE
  5
254
102
{ACAD_REACTORS
330
249
102
}
330
249
100
AcDbScale
 70
     0
300
1:50
140
1.0
141
50.0
290
     0
  0
SCALE
  5
255
102
{ACAD_REACTORS
330
249
102
}
330
249
100
AcDbScale
 70
     0
300
1:100
140
1.0
141
100.0
290
     0
  0
SCALE
  5
256
102
{ACAD_REACTORS
330
249
102
}
330
249
100
AcDbScale
 70
     0
300
2:1
140
2.0
141
1.0
290
     0
  0
SCALE
  5
257
102
{ACAD_REACTORS
330
249
102
}
330
249
100
AcDbScale
 70
     0
300
4:1
140
4.0
141
1.0
290
     0
  0
SCALE
  5
258
102
{ACAD_REACTORS
330
249
102
}
330
249
100
AcDbScale
 70
     0
300
8:1
140
8.0
141
1.0
290
     0
  0
SCALE
  5
259
102
{ACAD_REACTORS
330
249
102
}
330
249
100
AcDbScale
 70
     0
300
10:1
140
10.0
141
1.0
290
     0
  0
SCALE
  5
25A
102
{ACAD_REACTORS
330
249
102
}
330
249
100
AcDbScale
 70
     0
300
100:1
140
100.0
141
1.0
290
     0
  0
TABLESTYLE
  5
248
102
{ACAD_XDICTIONARY
360
2BC
102
}
102
{ACAD_REACTORS
330
247
102
}
330
247
100
AcDbTableStyle
  3
Standard
 70
     0
 71
     0
 40
1.5
 41
1.5
280
     0
281
     0
  7
STANDARD
140
4.5
170
     2
 62
     0
 63
     7
283
     0
274
    -2
284
     1
 64
     0
275
    -2
285
     1
 65
     0
276
    -2
286
     1
 66
     0
277
    -2
287
     1
 67
     0
278
    -2
288
     1
 68
     0
279
    -2
289
     1
 69
     0
  7
STANDARD
140
6.0
170
     5
 62
     0
 63
     7
283
     0
274
    -2
284
     1
 64
     0
275
    -2
285
     1
 65
     0
276
    -2
286
     1
 66
     0
277
    -2
287
     1
 67
     0
278
    -2
288
     1
 68
     0
279
    -2
289
     1
 69
     0
  7
STANDARD
140
4.5
170
     5
 62
     0
 63
     7
283
     0
274
    -2
284
     1
 64
     0
275
    -2
285
     1
 65
     0
276
    -2
286
     1
 66
     0
277
    -2
287
     1
 67
     0
278
    -2
288
     1
 68
     0
279
    -2
289
     1
 69
     0
  0
VISUALSTYLE
  5
233
102
{ACAD_XDICTIONARY
360
2CD
102
}
102
{ACAD_REACTORS
330
22D
102
}
330
22D
100
AcDbVisualStyle
  2
2dWireframe
 70
     4
 71
     0
 72
     2
 73
     0
 90
        0
 40
-0.6
 41
-30.0
 62
     5
 63
     7
 74
     1
 91
        4
 64
     7
 65
   257
 75
     1
175
     1
 42
1.0
 92
        0
 66
   257
 43
1.0
 76
     1
 77
     6
 78
     2
 67
     7
 79
     5
170
     0
171
     0
290
     0
174
     0
 93
        1
 44
0.0
173
     0
291
     0
 45
0.0
1001
ACAD
1000
AcDbSavedByObjectVersion
1070
     0
  0
VISUALSTYLE
  5
232
102
{ACAD_XDICTIONARY
360
2CB
102
}
102
{ACAD_REACTORS
330
22D
102
}
330
22D
100
AcDbVisualStyle
  2
Basic
 70
     7
 71
     1
 72
     0
 73
     1
 90
        0
 40
-0.6
 41
-30.0
 62
     5
 63
     7
 74
     0
 91
        4
 64
     7
 65
   257
 75
     1
175
     1
 42
1.0
 92
        8
 66
     7
 43
1.0
 76
     1
 77
     6
 78
     2
 67
     7
 79
     5
170
     0
171
     0
290
     0
174
     0
 93
        1
 44
0.0
173
     0
291
     1
 45
0.0
1001
ACAD
1000
AcDbSavedByObjectVersion
1070
     0
  0
VISUALSTYLE
  5
239
102
{ACAD_XDICTIONARY
360
2D9
102
}
102
{ACAD_REACTORS
330
22D
102
}
330
22D
100
AcDbVisualStyle
  2
Brighten
 70
    12
 71
     2
 72
     2
 73
     0
 90
        0
 40
-0.6
 41
-30.0
 62
     5
 63
     7
 74
     1
 91
        4
 64
     7
 65
   257
 75
     1
175
     1
 42
1.0
 92
        8
 66
     7
 43
1.0
 76
     1
 77
     6
 78
     2
 67
     7
 79
     5
170
     0
171
     0
290
     0
174
     0
 93
        1
 44
50.0
173
     0
291
     1
 45
0.0
1001
ACAD
1000
AcDbSavedByObjectVersion
1070
     0
  0
VISUALSTYLE
  5
23D
102
{ACAD_XDICTIONARY
360
2E1
102
}
102
{ACAD_REACTORS
330
22D
102
}
330
22D
100
AcDbVisualStyle
  2
ColorChange
 70
    16
 71
     2
 72
     2
 73
     3
 90
        0
 40
-0.6
 41
-30.0
 62
     5
 63
     8
 74
     1
 91
        4
 64
     7
 65
   257
 75
     1
175
     1
 42
1.0
 92
        8
 66
     8
 43
1.0
 76
     1
 77
     6
 78
     2
 67
     7
 79
     5
170
     0
171
     0
290
     0
174
     0
 93
        1
 44
0.0
173
     0
291
     1
 45
0.0
1001
ACAD
1000
AcDbSavedByObjectVersion
1070
     0
  0
VISUALSTYLE
  5
236
102
{ACAD_XDICTIONARY
360
2D3
102
}
102
{ACAD_REACTORS
330
22D
102
}
330
22D
100
AcDbVisualStyle
  2
Conceptual
 70
     9
 71
     3
 72
     2
 73
     0
 90
        0
 40
-0.6
 41
-30.0
 62
     5
 63
     7
 74
     2
 91
        2
 64
     7
 65
   257
 75
     1
175
     1
 42
179.0
 92
        8
 66
     7
 43
1.0
 76
     1
 77
     6
 78
     2
 67
     7
 79
     3
170
     0
171
     0
290
     0
174
     0
 93
        1
 44
0.0
173
     0
291
     0
 45
0.0
1001
ACAD
1000
AcDbSavedByObjectVersion
1070
     0
  0
VISUALSTYLE
  5
238
102
{ACAD_XDICTIONARY
360
2D7
102
}
102
{ACAD_REACTORS
330
22D
102
}
330
22D
100
AcDbVisualStyle
  2
Dim
 70
    11
 71
     2
 72
     2
 73
     0
 90
        0
 40
-0.6
 41
-30.0
 62
     5
 63
     7
 74
     1
 91
        4
 64
     7
 65
   257
 75
     1
175
     1
 42
1.0
 92
        8
 66
     7
 43
1.0
 76
     1
 77
     6
 78
     2
 67
     7
 79
     5
170
     0
171
     0
290
     0
174
     0
 93
        1
 44
-50.0
173
     0
291
     1
 45
0.0
1001
ACAD
1000
AcDbSavedByObjectVersion
1070
     0
  0
VISUALSTYLE
  5
245
102
{ACAD_XDICTIONARY
360
2F1
102
}
102
{ACAD_REACTORS
330
22D
102
}
330
22D
100
AcDbVisualStyle
  2
EdgeColorOff
 70
    22
 71
     2
 72
     2
 73
     0
 90
        0
 40
-0.6
 41
-30.0
 62
     5
 63
     7
 74
     1
 91
        4
 64
     7
 65
   257
 75
     1
175
     1
 42
1.0
 92
        8
 66
     7
 43
1.0
 76
     1
 77
     6
 78
     2
 67
     7
 79
     5
170
     0
171
     0
290
     0
174
     0
 93
        1
 44
0.0
173
     0
291
     1
 45
0.0
1001
ACAD
1000
AcDbSavedByObjectVersion
1070
     0
  0
VISUALSTYLE
  5
23C
102
{ACAD_XDICTIONARY
360
2DF
102
}
102
{ACAD_REACTORS
330
22D
102
}
330
22D
100
AcDbVisualStyle
  2
Facepattern
 70
    15
 71
     2
 72
     2
 73
     0
 90
        0
 40
-0.6
 41
-30.0
 62
     5
 63
     7
 74
     1
 91
        4
 64
     7
 65
   257
 75
     1
175
     1
 42
1.0
 92
        8
 66
     7
 43
1.0
 76
     1
 77
     6
 78
     2
 67
     7
 79
     5
170
     0
171
     0
290
     0
174
     0
 93
        1
 44
0.0
173
     0
291
     1
 45
0.0
1001
ACAD
1000
AcDbSavedByObjectVersion
1070
     0
  0
VISUALSTYLE
  5
22E
102
{ACAD_XDICTIONARY
360
2C3
102
}
102
{ACAD_REACTORS
330
22D
102
}
330
22D
100
AcDbVisualStyle
  2
Flat
 70
     0
 71
     2
 72
     1
 73
     1
 90
        2
 40
-0.6
 41
30.0
 62
     5
 63
     7
 74
     0
 91
        0
 64
     7
 65
   257
 75
     1
175
     1
 42
1.0
 92
        8
 66
     7
 43
1.0
 76
     1
 77
     6
 78
     2
 67
     7
 79
     5
170
     0
171
     0
290
     0
174
     0
 93
       13
 44
0.0
173
     0
291
     1
 45
0.0
1001
ACAD
1000
AcDbSavedByObjectVersion
1070
     0
  0
VISUALSTYLE
  5
22F
102
{ACAD_XDICTIONARY
360
2C5
102
}
102
{ACAD_REACTORS
330
22D
102
}
330
22D
100
AcDbVisualStyle
  2
FlatWithEdges
 70
     1
 71
     2
 72
     1
 73
     1
 90
        2
 40
-0.6
 41
30.0
 62
     5
 63
     7
 74
     1
 91
        0
 64
     7
 65
   257
 75
     1
175
     1
 42
1.0
 92
        0
 66
   257
 43
1.0
 76
     1
 77
     6
 78
     2
 67
     7
 79
     5
170
     0
171
     0
290
     0
174
     0
 93
       13
 44
0.0
173
     0
291
     1
 45
0.0
1001
ACAD
1000
AcDbSavedByObjectVersion
1070
     0
  0
VISUALSTYLE
  5
230
102
{ACAD_XDICTIONARY
360
2C7
102
}
102
{ACAD_REACTORS
330
22D
102
}
330
22D
100
AcDbVisualStyle
  2
Gouraud
 70
     2
 71
     2
 72
     2
 73
     1
 90
        2
 40
-0.6
 41
30.0
 62
     5
 63
     7
 74
     0
 91
        0
 64
     7
 65
   257
 75
     1
175
     1
 42
1.0
 92
        0
 66
     7
 43
1.0
 76
     1
 77
     6
 78
     2
 67
     7
 79
     5
170
     0
171
     0
290
     0
174
     0
 93
       13
 44
0.0
173
     0
291
     1
 45
0.0
1001
ACAD
1000
AcDbSavedByObjectVersion
1070
     0
  0
VISUALSTYLE
  5
231
102
{ACAD_XDICTIONARY
360
2C9
102
}
102
{ACAD_REACTORS
330
22D
102
}
330
22D
100
AcDbVisualStyle
  2
GouraudWithEdges
 70
     3
 71
     2
 72
     2
 73
     1
 90
        2
 40
-0.6
 41
30.0
 62
     5
 63
     7
 74
     1
 91
        0
 64
     7
 65
   257
 75
     1
175
     1
 42
1.0
 92
        0
 66
   257
 43
1.0
 76
     1
 77
     6
 78
     2
 67
     7
 79
     5
170
     0
171
     0
290
     0
174
     0
 93
       13
 44
0.0
173
     0
291
     1
 45
0.0
1001
ACAD
1000
AcDbSavedByObjectVersion
1070
     0
  0
VISUALSTYLE
  5
235
102
{ACAD_XDICTIONARY
360
2D1
102
}
102
{ACAD_REACTORS
330
22D
102
}
330
22D
100
AcDbVisualStyle
  2
Hidden
 70
     6
 71
     1
 72
     2
 73
     2
 90
        0
 40
-0.6
 41
-30.0
 62
     5
 63
     7
 74
     2
 91
        2
 64
     7
 65
   257
 75
     2
175
     1
 42
40.0
 92
        0
 66
   257
 43
1.0
 76
     1
 77
     6
 78
     2
 67
     7
 79
     3
170
     0
171
     0
290
     0
174
     0
 93
        1
 44
0.0
173
     0
291
     0
 45
0.0
1001
ACAD
1000
AcDbSavedByObjectVersion
1070
     0
  0
VISUALSTYLE
  5
243
102
{ACAD_XDICTIONARY
360
2ED
102
}
102
{ACAD_REACTORS
330
22D
102
}
330
22D
100
AcDbVisualStyle
  2
JitterOff
 70
    20
 71
     2
 72
     2
 73
     0
 90
        0
 40
-0.6
 41
-30.0
 62
     5
 63
     7
 74
     1
 91
        4
 64
     7
 65
   257
 75
     1
175
     1
 42
1.0
 92
       10
 66
     7
 43
1.0
 76
     1
 77
     6
 78
     2
 67
     7
 79
     5
170
     0
171
     0
290
     0
174
     0
 93
        1
 44
0.0
173
     0
291
     1
 45
0.0
1001
ACAD
1000
AcDbSavedByObjectVersion
1070
     0
  0
VISUALSTYLE
  5
23B
102
{ACAD_XDICTIONARY
360
2DD
102
}
102
{ACAD_REACTORS
330
22D
102
}
330
22D
100
AcDbVisualStyle
  2
Linepattern
 70
    14
 71
     2
 72
     2
 73
     0
 90
        0
 40
-0.6
 41
-30.0
 62
     5
 63
     7
 74
     1
 91
        4
 64
     7
 65
   257
 75
     7
175
     7
 42
1.0
 92
        8
 66
     7
 43
1.0
 76
     1
 77
     6
 78
     2
 67
     7
 79
     5
170
     0
171
     0
290
     0
174
     0
 93
        1
 44
0.0
173
     0
291
     1
 45
0.0
1001
ACAD
1000
AcDbSavedByObjectVersion
1070
     0
  0
VISUALSTYLE
  5
244
102
{ACAD_XDICTIONARY
360
2EF
102
}
102
{ACAD_REACTORS
330
22D
102
}
330
22D
100
AcDbVisualStyle
  2
OverhangOff
 70
    21
 71
     2
 72
     2
 73
     0
 90
        0
 40
-0.6
 41
-30.0
 62
     5
 63
     7
 74
     1
 91
        4
 64
     7
 65
   257
 75
     1
175
     1
 42
1.0
 92
        9
 66
     7
 43
1.0
 76
     1
 77
     6
 78
     2
 67
     7
 79
     5
170
     0
171
     0
290
     0
174
     0
 93
        1
 44
0.0
173
     0
291
     1
 45
0.0
1001
ACAD
1000
AcDbSavedByObjectVersion
1070
     0
  0
VISUALSTYLE
  5
237
102
{ACAD_XDICTIONARY
360
2D5
102
}
102
{ACAD_REACTORS
330
22D
102
}
330
22D
100
AcDbVisualStyle
  2
Realistic
 70
     8
 71
     2
 72
     3
 73
     0
 90
        2
 40
-0.6
 41
30.0
 62
     5
 63
     7
 74
     0
 91
        0
 64
     7
 65
   257
 75
     1
175
     1
 42
1.0
 92
        8
 66
   257
 43
1.0
 76
     1
 77
     6
 78
     2
 67
     7
 79
     3
170
     0
171
     0
290
     0
174
     0
 93
       13
 44
0.0
173
     0
291
     0
 45
0.0
1001
ACAD
1000
AcDbSavedByObjectVersion
1070
     0
  0
VISUALSTYLE
  5
242
102
{ACAD_XDICTIONARY
360
2EB
102
}
102
{ACAD_REACTORS
330
22D
102
}
330
22D
100
AcDbVisualStyle
  2
Shaded
 70
    27
 71
     2
 72
     2
 73
     1
 90
        2
 40
-0.6
 41
30.0
 62
     5
 63
     7
 74
     0
 91
        4
 64
     7
 65
   257
 75
     1
175
     1
 42
1.0
 92
        8
 66
   257
 43
1.0
 76
     1
 77
     6
 78
     2
 67
     8
 79
     3
170
     0
171
     0
290
     0
174
     0
 93
        5
 44
0.0
173
     0
291
     0
 45
0.0
1001
ACAD
1000
AcDbSavedByObjectVersion
1070
     0
  0
VISUALSTYLE
  5
241
102
{ACAD_XDICTIONARY
360
2E9
102
}
102
{ACAD_REACTORS
330
22D
102
}
330
22D
100
AcDbVisualStyle
  2
Shaded with edges
 70
    26
 71
     2
 72
     2
 73
     1
 90
        2
 40
-0.6
 41
30.0
 62
     5
 63
     7
 74
     1
 91
       10
 64
     7
 65
   257
 75
     2
175
     1
 42
1.0
 92
        8
 66
   257
 43
1.0
 76
     1
 77
     6
 78
     2
 67
     7
 79
     3
170
     0
171
     0
290
     0
174
     0
 93
        5
 44
0.0
173
     0
291
     0
 45
0.0
1001
ACAD
1000
AcDbSavedByObjectVersion
1070
     0
  0
VISUALSTYLE
  5
23E
102
{ACAD_XDICTIONARY
360
2E3
102
}
102
{ACAD_REACTORS
330
22D
102
}
330
22D
100
AcDbVisualStyle
  2
Shades of Gray
 70
    23
 71
     2
 72
     2
 73
     3
 90
        0
 40
-0.6
 41
-30.0
 62
     5
 63
     7
 74
     2
 91
        2
 64
     7
 65
     7
 75
     1
175
     1
 42
40.0
 92
        8
 66
     7
 43
1.0
 76
     1
 77
     6
 78
     2
 67
     7
 79
     3
170
     0
171
     0
290
     0
174
     0
 93
        1
 44
0.0
173
     0
291
     0
 45
0.0
1001
ACAD
1000
AcDbSavedByObjectVersion
1070
     0
  0
VISUALSTYLE
  5
23F
102
{ACAD_XDICTIONARY
360
2E5
102
}
102
{ACAD_REACTORS
330
22D
102
}
330
22D
100
AcDbVisualStyle
  2
Sketchy
 70
    24
 71
     1
 72
     2
 73
     2
 90
        0
 40
-0.6
 41
-30.0
 62
     5
 63
     7
 74
     2
 91
        2
 64
     7
 65
     7
 75
     1
175
     1
 42
40.0
 92
       11
 66
     7
 43
1.0
 76
     1
 77
     6
 78
     2
 67
     7
 79
     6
170
     0
171
     0
290
     0
174
     0
 93
        1
 44
0.0
173
     0
291
     0
 45
0.0
1001
ACAD
1000
AcDbSavedByObjectVersion
1070
     0
  0
VISUALSTYLE
  5
23A
102
{ACAD_XDICTIONARY
360
2DB
102
}
102
{ACAD_REACTORS
330
22D
102
}
330
22D
100
AcDbVisualStyle
  2
Thicken
 70
    13
 71
     2
 72
     2
 73
     0
 90
        0
 40
-0.6
 41
-30.0
 62
     5
 63
     7
 74
     1
 91
        4
 64
     7
 65
   257
 75
     1
175
     1
 42
1.0
 92
       12
 66
     7
 43
1.0
 76
     1
 77
     6
 78
     2
 67
     7
 79
     5
170
     0
171
     0
290
     0
174
     0
 93
        1
 44
0.0
173
     0
291
     1
 45
0.0
1001
ACAD
1000
AcDbSavedByObjectVersion
1070
     0
  0
VISUALSTYLE
  5
234
102
{ACAD_XDICTIONARY
360
2CF
102
}
102
{ACAD_REACTORS
330
22D
102
}
330
22D
100
AcDbVisualStyle
  2
Wireframe
 70
     5
 71
     0
 72
     2
 73
     0
 90
        0
 40
-0.6
 41
-30.0
 62
     5
 63
     7
 74
     1
 91
        4
 64
     7
 65
   257
 75
     1
175
     1
 42
1.0
 92
        0
 66
   257
 43
1.0
 76
     1
 77
     6
 78
     2
 67
     7
 79
     3
170
     0
171
     0
290
     0
174
     0
 93
        1
 44
0.0
173
     0
291
     0
 45
0.0
1001
ACAD
1000
AcDbSavedByObjectVersion
1070
     0
  0
VISUALSTYLE
  5
240
102
{ACAD_XDICTIONARY
360
2E7
102
}
102
{ACAD_REACTORS
330
22D
102
}
330
22D
100
AcDbVisualStyle
  2
X-Ray
 70
    25
 71
     2
 72
     2
 73
     1
 90
        1
 40
0.5
 41
-30.0
 62
     5
 63
     7
 74
     1
 91
        0
 64
     7
 65
   257
 75
     1
175
     1
 42
1.0
 92
        8
 66
     7
 43
1.0
 76
     1
 77
     6
 78
     2
 67
     7
 79
     3
170
     0
171
     0
290
     0
174
     0
 93
       13
 44
0.0
173
     0
291
     0
 45
0.0
1001
ACAD
1000
AcDbSavedByObjectVersion
1070
     0
  0
DICTIONARYVAR
  5
2B7
102
{ACAD_REACTORS
330
2B4
102
}
330
2B4
100
DictionaryVariables
280
     0
  1
1:1
  0
DICTIONARYVAR
  5
2B6
102
{ACAD_REACTORS
330
2B4
102
}
330
2B4
100
DictionaryVariables
280
     0
  1
STANDARD
  0
DICTIONARYVAR
  5
2B5
102
{ACAD_REACTORS
330
2B4
102
}
330
2B4
100
DictionaryVariables
280
     0
  1
STANDARD
  0
DICTIONARYVAR
  5
2BA
102
{ACAD_REACTORS
330
2B4
102
}
330
2B4
100
DictionaryVariables
280
     0
  1
1
  0
DICTIONARYVAR
  5
2B9
102
{ACAD_REACTORS
330
2B4
102
}
330
2B4
100
DictionaryVariables
280
     0
  1
0
  0
DICTIONARYVAR
  5
2B8
102
{ACAD_REACTORS
330
2B4
102
}
330
2B4
100
DictionaryVariables
280
     0
  1
127
  0
DICTIONARYVAR
  5
2BB
102
{ACAD_REACTORS
330
2B4
102
}
330
2B4
100
DictionaryVariables
280
     0
  1
2
  0
DICTIONARY
  5
2F5
330
260
100
AcDbDictionary
280
     1
281
     1
  3
ACAD_XREC_ROUNDTRIP
360
2F6
  0
DICTIONARY
  5
2F7
330
261
100
AcDbDictionary
280
     1
281
     1
  3
ACAD_XREC_ROUNDTRIP
360
2F8
  0
DICTIONARY
  5
21E
330
21D
100
AcDbDictionary
280
     1
281
     1
  3
ACAD_XREC_ROUNDTRIP
360
2C1
  3
BUMPTILE
360
220
  3
DIFFUSETILE
360
21F
  3
OPACITYTILE
360
223
  3
REFLECTIONTILE
360
222
  3
REFRACTIONTILE
360
224
  3
SPECULARTILE
360
221
  0
DICTIONARY
  5
216
330
215
100
AcDbDictionary
280
     1
281
     1
  3
ACAD_XREC_ROUNDTRIP
360
2C0
  3
BUMPTILE
360
218
  3
DIFFUSETILE
360
217
  3
OPACITYTILE
360
21B
  3
REFLECTIONTILE
360
21A
  3
REFRACTIONTILE
360
21C
  3
SPECULARTILE
360
219
  0
DICTIONARY
  5
226
330
225
100
AcDbDictionary
280
     1
281
     1
  3
ACAD_XREC_ROUNDTRIP
360
2C2
  3
BUMPTILE
360
228
  3
DIFFUSETILE
360
227
  3
OPACITYTILE
360
22B
  3
REFLECTIONTILE
360
22A
  3
REFRACTIONTILE
360
22C
  3
SPECULARTILE
360
229
  0
DICTIONARY
  5
2BC
330
248
100
AcDbDictionary
280
     1
281
     1
  3
ACAD_ROUNDTRIP_2008_TABLESTYLE_CELLSTYLEMAP
360
2BD
  3
ACAD_XREC_ROUNDTRIP
360
2F3
  0
DICTIONARY
  5
2CD
330
233
100
AcDbDictionary
280
     1
281
     1
  3
ACAD_XREC_ROUNDTRIP
360
2CE
  0
DICTIONARY
  5
2CB
330
232
100
AcDbDictionary
280
     1
281
     1
  3
ACAD_XREC_ROUNDTRIP
360
2CC
  0
DICTIONARY
  5
2D9
330
239
100
AcDbDictionary
280
     1
281
     1
  3
ACAD_XREC_ROUNDTRIP
360
2DA
  0
DICTIONARY
  5
2E1
330
23D
100
AcDbDictionary
280
     1
281
     1
  3
ACAD_XREC_ROUNDTRIP
360
2E2
  0
DICTIONARY
  5
2D3
330
236
100
AcDbDictionary
280
     1
281
     1
  3
ACAD_XREC_ROUNDTRIP
360
2D4
  0
DICTIONARY
  5
2D7
330
238
100
AcDbDictionary
280
     1
281
     1
  3
ACAD_XREC_ROUNDTRIP
360
2D8
  0
DICTIONARY
  5
2F1
330
245
100
AcDbDictionary
280
     1
281
     1
  3
ACAD_XREC_ROUNDTRIP
360
2F2
  0
DICTIONARY
  5
2DF
330
23C
100
AcDbDictionary
280
     1
281
     1
  3
ACAD_XREC_ROUNDTRIP
360
2E0
  0
DICTIONARY
  5
2C3
330
22E
100
AcDbDictionary
280
     1
281
     1
  3
ACAD_XREC_ROUNDTRIP
360
2C4
  0
DICTIONARY
  5
2C5
330
22F
100
AcDbDictionary
280
     1
281
     1
  3
ACAD_XREC_ROUNDTRIP
360
2C6
  0
DICTIONARY
  5
2C7
330
230
100
AcDbDictionary
280
     1
281
     1
  3
ACAD_XREC_ROUNDTRIP
360
2C8
  0
DICTIONARY
  5
2C9
330
231
100
AcDbDictionary
280
     1
281
     1
  3
ACAD_XREC_ROUNDTRIP
360
2CA
  0
DICTIONARY
  5
2D1
330
235
100
AcDbDictionary
280
     1
281
     1
  3
ACAD_XREC_ROUNDTRIP
360
2D2
  0
DICTIONARY
  5
2ED
330
243
100
AcDbDictionary
280
     1
281
     1
  3
ACAD_XREC_ROUNDTRIP
360
2EE
  0
DICTIONARY
  5
2DD
330
23B
100
AcDbDictionary
280
     1
281
     1
  3
ACAD_XREC_ROUNDTRIP
360
2DE
  0
DICTIONARY
  5
2EF
330
244
100
AcDbDictionary
280
     1
281
     1
  3
ACAD_XREC_ROUNDTRIP
360
2F0
  0
DICTIONARY
  5
2D5
330
237
100
AcDbDictionary
280
     1
281
     1
  3
ACAD_XREC_ROUNDTRIP
360
2D6
  0
DICTIONARY
  5
2EB
330
242
100
AcDbDictionary
280
     1
281
     1
  3
ACAD_XREC_ROUNDTRIP
360
2EC
  0
DICTIONARY
  5
2E9
330
241
100
AcDbDictionary
280
     1
281
     1
  3
ACAD_XREC_ROUNDTRIP
360
2EA
  0
DICTIONARY
  5
2E3
330
23E
100
AcDbDictionary
280
     1
281
     1
  3
ACAD_XREC_ROUNDTRIP
360
2E4
  0
DICTIONARY
  5
2E5
330
23F
100
AcDbDictionary
280
     1
281
     1
  3
ACAD_XREC_ROUNDTRIP
360
2E6
  0
DICTIONARY
  5
2DB
330
23A
100
AcDbDictionary
280
     1
281
     1
  3
ACAD_XREC_ROUNDTRIP
360
2DC
  0
DICTIONARY
  5
2CF
330
234
100
AcDbDictionary
280
     1
281
     1
  3
ACAD_XREC_ROUNDTRIP
360
2D0
  0
DICTIONARY
  5
2E7
330
240
100
AcDbDictionary
280
     1
281
     1
  3
ACAD_XREC_ROUNDTRIP
360
2E8
  0
XRECORD
  5
2F6
102
{ACAD_REACTORS
330
2F5
102
}
330
2F5
100
AcDbXrecord
280
     1
102
SHADEPLOT
 70
     0
102
SHADEPLOTRESLEVEL
 70
     2
102
SHADEPLOTCUSTOMDPI
 70
   300
  0
XRECORD
  5
2F8
102
{ACAD_REACTORS
330
2F7
102
}
330
2F7
100
AcDbXrecord
280
     1
102
SHADEPLOT
 70
     0
102
SHADEPLOTRESLEVEL
 70
     2
102
SHADEPLOTCUSTOMDPI
 70
   300
  0
XRECORD
  5
2C1
102
{ACAD_REACTORS
330
21E
102
}
330
21E
100
AcDbXrecord
280
     1
102
MATERIAL
148
0.0
149
0.0
149
0.0
 93
        0
 94
      127
282
     0
 72
     0
 77
     0
171
     0
175
     0
179
     0
273
     0
  0
XRECORD
  5
220
102
{ACAD_REACTORS
330
21E
102
}
330
21E
100
AcDbXrecord
280
     1
270
     1
271
     1
  0
XRECORD
  5
21F
102
{ACAD_REACTORS
330
21E
102
}
330
21E
100
AcDbXrecord
280
     1
270
     1
271
     1
  0
XRECORD
  5
223
102
{ACAD_REACTORS
330
21E
102
}
330
21E
100
AcDbXrecord
280
     1
270
     1
271
     1
  0
XRECORD
  5
222
102
{ACAD_REACTORS
330
21E
102
}
330
21E
100
AcDbXrecord
280
     1
270
     1
271
     1
  0
XRECORD
  5
224
102
{ACAD_REACTORS
330
21E
102
}
330
21E
100
AcDbXrecord
280
     1
270
     1
271
     1
  0
XRECORD
  5
221
102
{ACAD_REACTORS
330
21E
102
}
330
21E
100
AcDbXrecord
280
     1
270
     1
271
     1
  0
XRECORD
  5
2C0
102
{ACAD_REACTORS
330
216
102
}
330
216
100
AcDbXrecord
280
     1
102
MATERIAL
148
0.0
149
0.0
149
0.0
 93
        0
 94
      127
282
     0
 72
     0
 77
     0
171
     0
175
     0
179
     0
273
     0
  0
XRECORD
  5
218
102
{ACAD_REACTORS
330
216
102
}
330
216
100
AcDbXrecord
280
     1
270
     1
271
     1
  0
XRECORD
  5
217
102
{ACAD_REACTORS
330
216
102
}
330
216
100
AcDbXrecord
280
     1
270
     1
271
     1
  0
XRECORD
  5
21B
102
{ACAD_REACTORS
330
216
102
}
330
216
100
AcDbXrecord
280
     1
270
     1
271
     1
  0
XRECORD
  5
21A
102
{ACAD_REACTORS
330
216
102
}
330
216
100
AcDbXrecord
280
     1
270
     1
271
     1
  0
XRECORD
  5
21C
102
{ACAD_REACTORS
330
216
102
}
330
216
100
AcDbXrecord
280
     1
270
     1
271
     1
  0
XRECORD
  5
219
102
{ACAD_REACTORS
330
216
102
}
330
216
100
AcDbXrecord
280
     1
270
     1
271
     1
  0
XRECORD
  5
2C2
102
{ACAD_REACTORS
330
226
102
}
330
226
100
AcDbXrecord
280
     1
102
MATERIAL
148
0.0
149
0.0
149
0.0
 93
        0
 94
      127
282
     0
 72
     0
 77
     0
171
     0
175
     0
179
     0
273
     0
  0
XRECORD
  5
228
102
{ACAD_REACTORS
330
226
102
}
330
226
100
AcDbXrecord
280
     1
270
     1
271
     1
  0
XRECORD
  5
227
102
{ACAD_REACTORS
330
226
102
}
330
226
100
AcDbXrecord
280
     1
270
     1
271
     1
  0
XRECORD
  5
22B
102
{ACAD_REACTORS
330
226
102
}
330
226
100
AcDbXrecord
280
     1
270
     1
271
     1
  0
XRECORD
  5
22A
102
{ACAD_REACTORS
330
226
102
}
330
226
100
AcDbXrecord
280
     1
270
     1
271
     1
  0
XRECORD
  5
22C
102
{ACAD_REACTORS
330
226
102
}
330
226
100
AcDbXrecord
280
     1
270
     1
271
     1
  0
XRECORD
  5
229
102
{ACAD_REACTORS
330
226
102
}
330
226
100
AcDbXrecord
280
     1
270
     1
271
     1
  0
CELLSTYLEMAP
  5
2BD
102
{ACAD_REACTORS
330
2BC
102
}
330
2BC
100
AcDbCellStyleMap
 90
        3
300
CELLSTYLE
  1
TABLEFORMAT_BEGIN
 90
        5
170
     1
 91
        0
 92
    32768
 62
   257
 93
        1
300
CONTENTFORMAT
  1
CONTENTFORMAT_BEGIN
 90
        0
 91
        0
 92
      512
 93
        0
300

 40
0.0
140
1.0
 94
        5
 62
     0
340
2B
144
6.0
309
CONTENTFORMAT_END
171
     1
301
MARGIN
  1
CELLMARGIN_BEGIN
 40
1.5
 40
1.5
 40
1.5
 40
1.5
 40
4.5
 40
4.5
309
CELLMARGIN_END
 94
        6
 95
        1
302
GRIDFORMAT
  1
GRIDFORMAT_BEGIN
 90
        0
 91
        1
 62
     0
 92
       -2
340
0
 93
        0
 40
1.125
309
GRIDFORMAT_END
 95
        2
302
GRIDFORMAT
  1
GRIDFORMAT_BEGIN
 90
        0
 91
        1
 62
     0
 92
       -2
340
0
 93
        0
 40
1.125
309
GRIDFORMAT_END
 95
        4
302
GRIDFORMAT
  1
GRIDFORMAT_BEGIN
 90
        0
 91
        1
 62
     0
 92
       -2
340
0
 93
        0
 40
1.125
309
GRIDFORMAT_END
 95
        8
302
GRIDFORMAT
  1
GRIDFORMAT_BEGIN
 90
        0
 91
        1
 62
     0
 92
       -2
340
0
 93
        0
 40
1.125
309
GRIDFORMAT_END
 95
       16
302
GRIDFORMAT
  1
GRIDFORMAT_BEGIN
 90
        0
 91
        1
 62
     0
 92
       -2
340
0
 93
        0
 40
1.125
309
GRIDFORMAT_END
 95
       32
302
GRIDFORMAT
  1
GRIDFORMAT_BEGIN
 90
        0
 91
        1
 62
     0
 92
       -2
340
0
 93
        0
 40
1.125
309
GRIDFORMAT_END
309
TABLEFORMAT_END
  1
CELLSTYLE_BEGIN
 90
        1
 91
        1
300
_TITLE
309
CELLSTYLE_END
300
CELLSTYLE
  1
TABLEFORMAT_BEGIN
 90
        5
170
     1
 91
        0
 92
        0
 62
   257
 93
        1
300
CONTENTFORMAT
  1
CONTENTFORMAT_BEGIN
 90
        0
 91
        0
 92
      512
 93
        0
300

 40
0.0
140
1.0
 94
        5
 62
     0
340
2B
144
4.5
309
CONTENTFORMAT_END
171
     1
301
MARGIN
  1
CELLMARGIN_BEGIN
 40
1.5
 40
1.5
 40
1.5
 40
1.5
 40
4.5
 40
4.5
309
CELLMARGIN_END
 94
        6
 95
        1
302
GRIDFORMAT
  1
GRIDFORMAT_BEGIN
 90
        0
 91
        1
 62
     0
 92
       -2
340
0
 93
        0
 40
1.125
309
GRIDFORMAT_END
 95
        2
302
GRIDFORMAT
  1
GRIDFORMAT_BEGIN
 90
        0
 91
        1
 62
     0
 92
       -2
340
0
 93
        0
 40
1.125
309
GRIDFORMAT_END
 95
        4
302
GRIDFORMAT
  1
GRIDFORMAT_BEGIN
 90
        0
 91
        1
 62
     0
 92
       -2
340
0
 93
        0
 40
1.125
309
GRIDFORMAT_END
 95
        8
302
GRIDFORMAT
  1
GRIDFORMAT_BEGIN
 90
        0
 91
        1
 62
     0
 92
       -2
340
0
 93
        0
 40
1.125
309
GRIDFORMAT_END
 95
       16
302
GRIDFORMAT
  1
GRIDFORMAT_BEGIN
 90
        0
 91
        1
 62
     0
 92
       -2
340
0
 93
        0
 40
1.125
309
GRIDFORMAT_END
 95
       32
302
GRIDFORMAT
  1
GRIDFORMAT_BEGIN
 90
        0
 91
        1
 62
     0
 92
       -2
340
0
 93
        0
 40
1.125
309
GRIDFORMAT_END
309
TABLEFORMAT_END
  1
CELLSTYLE_BEGIN
 90
        2
 91
        1
300
_HEADER
309
CELLSTYLE_END
300
CELLSTYLE
  1
TABLEFORMAT_BEGIN
 90
        5
170
     1
 91
        0
 92
        0
 62
   257
 93
        1
300
CONTENTFORMAT
  1
CONTENTFORMAT_BEGIN
 90
        0
 91
        0
 92
      512
 93
        0
300

 40
0.0
140
1.0
 94
        2
 62
     0
340
2B
144
4.5
309
CONTENTFORMAT_END
171
     1
301
MARGIN
  1
CELLMARGIN_BEGIN
 40
1.5
 40
1.5
 40
1.5
 40
1.5
 40
4.5
 40
4.5
309
CELLMARGIN_END
 94
        6
 95
        1
302
GRIDFORMAT
  1
GRIDFORMAT_BEGIN
 90
        0
 91
        1
 62
     0
 92
       -2
340
0
 93
        0
 40
1.125
309
GRIDFORMAT_END
 95
        2
302
GRIDFORMAT
  1
GRIDFORMAT_BEGIN
 90
        0
 91
        1
 62
     0
 92
       -2
340
0
 93
        0
 40
1.125
309
GRIDFORMAT_END
 95
        4
302
GRIDFORMAT
  1
GRIDFORMAT_BEGIN
 90
        0
 91
        1
 62
     0
 92
       -2
340
0
 93
        0
 40
1.125
309
GRIDFORMAT_END
 95
        8
302
GRIDFORMAT
  1
GRIDFORMAT_BEGIN
 90
        0
 91
        1
 62
     0
 92
       -2
340
0
 93
        0
 40
1.125
309
GRIDFORMAT_END
 95
       16
302
GRIDFORMAT
  1
GRIDFORMAT_BEGIN
 90
        0
 91
        1
 62
     0
 92
       -2
340
0
 93
        0
 40
1.125
309
GRIDFORMAT_END
 95
       32
302
GRIDFORMAT
  1
GRIDFORMAT_BEGIN
 90
        0
 91
        1
 62
     0
 92
       -2
340
0
 93
        0
 40
1.125
309
GRIDFORMAT_END
309
TABLEFORMAT_END
  1
CELLSTYLE_BEGIN
 90
        3
 91
        2
300
_DATA
309
CELLSTYLE_END
  0
XRECORD
  5
2F3
102
{ACAD_REACTORS
330
2BC
102
}
330
2BC
100
AcDbXrecord
280
     1
102
ACAD_ROUNDTRIP_PRE2007_TABLESTYLE
 90
      512
 91
        0
  1

 92
      512
 93
        0
  2

 94
      512
 95
        0
  3

  0
XRECORD
  5
2CE
102
{ACAD_REACTORS
330
2CD
102
}
330
2CD
100
AcDbXrecord
280
     1
102
RTVSPropertyOp0
 70
     1
102
RTVSPropertyOp1
 70
     1
102
RTVSPropertyOp2
 70
     1
102
RTVSPropertyOp3
 70
     1
102
RTVSPropertyOp4
 70
     1
102
RTVSPropertyOp5
 70
     1
102
RTVSPropertyOp6
 70
     1
102
RTVSPropertyOp7
 70
     1
102
RTVSPropertyOp8
 70
     1
102
RTVSPropertyOp9
 70
     1
102
RTVSPropertyOp10
 70
     1
102
RTVSPropertyOp11
 70
     1
102
RTVSPropertyOp12
 70
     1
102
RTVSPropertyOp13
 70
     1
102
RTVSPropertyOp14
 70
     1
102
RTVSPropertyOp15
 70
     1
102
RTVSPropertyOp16
 70
     1
102
RTVSPropertyOp17
 70
     1
102
RTVSPropertyOp18
 70
     1
102
RTVSPropertyOp19
 70
     1
102
RTVSPropertyOp20
 70
     1
102
RTVSPropertyOp21
 70
     1
102
RTVSPropertyOp22
 70
     1
102
RTVSPropertyOp23
 70
     1
102
RTVSPropertyOp24
 70
     1
102
RTVSPropertyOp25
 70
     1
102
RTVSPropertyOp26
 70
     1
102
RTVSPropertyOp27
 70
     1
102
RTVSPropertyOp28
 70
     1
102
RTVSPropertyOp29
 70
     1
102
RTVSPropertyOp30
 70
     1
102
RTVSPropertyOp31
 70
     1
102
RTVSPropertyOp32
 70
     1
  0
XRECORD
  5
2CC
102
{ACAD_REACTORS
330
2CB
102
}
330
2CB
100
AcDbXrecord
280
     1
102
RTVSPropertyOp0
 70
     1
102
RTVSPropertyOp1
 70
     1
102
RTVSPropertyOp2
 70
     1
102
RTVSPropertyOp3
 70
     1
102
RTVSPropertyOp4
 70
     1
102
RTVSPropertyOp5
 70
     1
102
RTVSPropertyOp6
 70
     1
102
RTVSPropertyOp7
 70
     1
102
RTVSPropertyOp8
 70
     1
102
RTVSPropertyOp9
 70
     1
102
RTVSPropertyOp10
 70
     1
102
RTVSPropertyOp11
 70
     1
102
RTVSPropertyOp12
 70
     1
102
RTVSPropertyOp13
 70
     1
102
RTVSPropertyOp14
 70
     1
102
RTVSPropertyOp15
 70
     1
102
RTVSPropertyOp16
 70
     1
102
RTVSPropertyOp17
 70
     1
102
RTVSPropertyOp18
 70
     1
102
RTVSPropertyOp19
 70
     1
102
RTVSPropertyOp20
 70
     1
102
RTVSPropertyOp21
 70
     1
102
RTVSPropertyOp22
 70
     1
102
RTVSPropertyOp23
 70
     1
102
RTVSPropertyOp24
 70
     1
102
RTVSPropertyOp25
 70
     1
102
RTVSPropertyOp26
 70
     1
102
RTVSPropertyOp27
 70
     1
102
RTVSPropertyOp28
 70
     1
102
RTVSPropertyOp29
 70
     1
102
RTVSPropertyOp30
 70
     1
102
RTVSPropertyOp31
 70
     1
102
RTVSPropertyOp32
 70
     1
  0
XRECORD
  5
2DA
102
{ACAD_REACTORS
330
2D9
102
}
330
2D9
100
AcDbXrecord
280
     1
102
RTVSPropertyOp0
 70
     1
102
RTVSPropertyOp1
 70
     1
102
RTVSPropertyOp2
 70
     1
102
RTVSPropertyOp3
 70
     1
102
RTVSPropertyOp4
 70
     1
102
RTVSPropertyOp5
 70
     1
102
RTVSPropertyOp6
 70
     1
102
RTVSPropertyOp7
 70
     1
102
RTVSPropertyOp8
 70
     1
102
RTVSPropertyOp9
 70
     1
102
RTVSPropertyOp10
 70
     1
102
RTVSPropertyOp11
 70
     1
102
RTVSPropertyOp12
 70
     1
102
RTVSPropertyOp13
 70
     1
102
RTVSPropertyOp14
 70
     1
102
RTVSPropertyOp15
 70
     1
102
RTVSPropertyOp16
 70
     1
102
RTVSPropertyOp17
 70
     1
102
RTVSPropertyOp18
 70
     1
102
RTVSPropertyOp19
 70
     1
102
RTVSPropertyOp20
 70
     1
102
RTVSPropertyOp21
 70
     1
102
RTVSPropertyOp22
 70
     1
102
RTVSPropertyOp23
 70
     1
102
RTVSPropertyOp24
 70
     1
102
RTVSPropertyOp25
 70
     1
102
RTVSPropertyOp26
 70
     1
102
RTVSPropertyOp27
 70
     1
102
RTVSPropertyOp28
 70
     1
102
RTVSPropertyOp29
 70
     1
102
RTVSPropertyOp30
 70
     1
102
RTVSPropertyOp31
 70
     1
102
RTVSPropertyOp32
 70
     1
  0
XRECORD
  5
2E2
102
{ACAD_REACTORS
330
2E1
102
}
330
2E1
100
AcDbXrecord
280
     1
102
RTVSPropertyOp0
 70
     1
102
RTVSPropertyOp1
 70
     1
102
RTVSPropertyOp2
 70
     1
102
RTVSPropertyOp3
 70
     1
102
RTVSPropertyOp4
 70
     1
102
RTVSPropertyOp5
 70
     1
102
RTVSPropertyOp6
 70
     1
102
RTVSPropertyOp7
 70
     1
102
RTVSPropertyOp8
 70
     1
102
RTVSPropertyOp9
 70
     1
102
RTVSPropertyOp10
 70
     1
102
RTVSPropertyOp11
 70
     1
102
RTVSPropertyOp12
 70
     1
102
RTVSPropertyOp13
 70
     1
102
RTVSPropertyOp14
 70
     1
102
RTVSPropertyOp15
 70
     1
102
RTVSPropertyOp16
 70
     1
102
RTVSPropertyOp17
 70
     1
102
RTVSPropertyOp18
 70
     1
102
RTVSPropertyOp19
 70
     1
102
RTVSPropertyOp20
 70
     1
102
RTVSPropertyOp21
 70
     1
102
RTVSPropertyOp22
 70
     1
102
RTVSPropertyOp23
 70
     1
102
RTVSPropertyOp24
 70
     1
102
RTVSPropertyOp25
 70
     1
102
RTVSPropertyOp26
 70
     1
102
RTVSPropertyOp27
 70
     1
102
RTVSPropertyOp28
 70
     1
102
RTVSPropertyOp29
 70
     1
102
RTVSPropertyOp30
 70
     1
102
RTVSPropertyOp31
 70
     1
102
RTVSPropertyOp32
 70
     1
  0
XRECORD
  5
2D4
102
{ACAD_REACTORS
330
2D3
102
}
330
2D3
100
AcDbXrecord
280
     1
102
RTVSPropertyOp0
 70
     1
102
RTVSPropertyOp1
 70
     1
102
RTVSPropertyOp2
 70
     1
102
RTVSPropertyOp3
 70
     1
102
RTVSPropertyOp4
 70
     1
102
RTVSPropertyOp5
 70
     1
102
RTVSPropertyOp6
 70
     1
102
RTVSPropertyOp7
 70
     1
102
RTVSPropertyOp8
 70
     1
102
RTVSPropertyOp9
 70
     1
102
RTVSPropertyOp10
 70
     1
102
RTVSPropertyOp11
 70
     1
102
RTVSPropertyOp12
 70
     1
102
RTVSPropertyOp13
 70
     1
102
RTVSPropertyOp14
 70
     1
102
RTVSPropertyOp15
 70
     1
102
RTVSPropertyOp16
 70
     1
102
RTVSPropertyOp17
 70
     1
102
RTVSPropertyOp18
 70
     1
102
RTVSPropertyOp19
 70
     1
102
RTVSPropertyOp20
 70
     1
102
RTVSPropertyOp21
 70
     1
102
RTVSPropertyOp22
 70
     1
102
RTVSPropertyOp23
 70
     1
102
RTVSPropertyOp24
 70
     1
102
RTVSPropertyOp25
 70
     1
102
RTVSPropertyOp26
 70
     1
102
RTVSPropertyOp27
 70
     1
102
RTVSPropertyOp28
 70
     1
102
RTVSPropertyOp29
 70
     1
102
RTVSPropertyOp30
 70
     1
102
RTVSPropertyOp31
 70
     1
102
RTVSPropertyOp32
 70
     1
  0
XRECORD
  5
2D8
102
{ACAD_REACTORS
330
2D7
102
}
330
2D7
100
AcDbXrecord
280
     1
102
RTVSPropertyOp0
 70
     1
102
RTVSPropertyOp1
 70
     1
102
RTVSPropertyOp2
 70
     1
102
RTVSPropertyOp3
 70
     1
102
RTVSPropertyOp4
 70
     1
102
RTVSPropertyOp5
 70
     1
102
RTVSPropertyOp6
 70
     1
102
RTVSPropertyOp7
 70
     1
102
RTVSPropertyOp8
 70
     1
102
RTVSPropertyOp9
 70
     1
102
RTVSPropertyOp10
 70
     1
102
RTVSPropertyOp11
 70
     1
102
RTVSPropertyOp12
 70
     1
102
RTVSPropertyOp13
 70
     1
102
RTVSPropertyOp14
 70
     1
102
RTVSPropertyOp15
 70
     1
102
RTVSPropertyOp16
 70
     1
102
RTVSPropertyOp17
 70
     1
102
RTVSPropertyOp18
 70
     1
102
RTVSPropertyOp19
 70
     1
102
RTVSPropertyOp20
 70
     1
102
RTVSPropertyOp21
 70
     1
102
RTVSPropertyOp22
 70
     1
102
RTVSPropertyOp23
 70
     1
102
RTVSPropertyOp24
 70
     1
102
RTVSPropertyOp25
 70
     1
102
RTVSPropertyOp26
 70
     1
102
RTVSPropertyOp27
 70
     1
102
RTVSPropertyOp28
 70
     1
102
RTVSPropertyOp29
 70
     1
102
RTVSPropertyOp30
 70
     1
102
RTVSPropertyOp31
 70
     1
102
RTVSPropertyOp32
 70
     1
  0
XRECORD
  5
2F2
102
{ACAD_REACTORS
330
2F1
102
}
330
2F1
100
AcDbXrecord
280
     1
102
RTVSPropertyOp0
 70
     0
102
RTVSPropertyOp1
 70
     0
102
RTVSPropertyOp2
 70
     0
102
RTVSPropertyOp3
 70
     0
102
RTVSPropertyOp4
 70
     0
102
RTVSPropertyOp5
 70
     0
102
RTVSPropertyOp6
 70
     0
102
RTVSPropertyOp7
 70
     0
102
RTVSPropertyOp8
 70
     0
102
RTVSPropertyOp9
 70
     0
102
RTVSPropertyOp10
 70
     0
102
RTVSPropertyOp11
 70
     0
102
RTVSPropertyOp12
 70
     0
102
RTVSPropertyOp13
 70
     0
102
RTVSPropertyOp14
 70
     2
102
RTVSPropertyOp15
 70
     0
102
RTVSPropertyOp16
 70
     0
102
RTVSPropertyOp17
 70
     0
102
RTVSPropertyOp18
 70
     0
102
RTVSPropertyOp19
 70
     0
102
RTVSPropertyOp20
 70
     0
102
RTVSPropertyOp21
 70
     0
102
RTVSPropertyOp22
 70
     0
102
RTVSPropertyOp23
 70
     0
102
RTVSPropertyOp24
 70
     0
102
RTVSPropertyOp25
 70
     0
102
RTVSPropertyOp26
 70
     0
102
RTVSPropertyOp27
 70
     0
102
RTVSPropertyOp28
 70
     0
102
RTVSPropertyOp29
 70
     0
102
RTVSPropertyOp30
 70
     0
102
RTVSPropertyOp31
 70
     0
102
RTVSPropertyOp32
 70
     0
  0
XRECORD
  5
2E0
102
{ACAD_REACTORS
330
2DF
102
}
330
2DF
100
AcDbXrecord
280
     1
102
RTVSPropertyOp0
 70
     1
102
RTVSPropertyOp1
 70
     1
102
RTVSPropertyOp2
 70
     1
102
RTVSPropertyOp3
 70
     1
102
RTVSPropertyOp4
 70
     1
102
RTVSPropertyOp5
 70
     1
102
RTVSPropertyOp6
 70
     1
102
RTVSPropertyOp7
 70
     1
102
RTVSPropertyOp8
 70
     1
102
RTVSPropertyOp9
 70
     1
102
RTVSPropertyOp10
 70
     1
102
RTVSPropertyOp11
 70
     1
102
RTVSPropertyOp12
 70
     1
102
RTVSPropertyOp13
 70
     1
102
RTVSPropertyOp14
 70
     1
102
RTVSPropertyOp15
 70
     1
102
RTVSPropertyOp16
 70
     1
102
RTVSPropertyOp17
 70
     1
102
RTVSPropertyOp18
 70
     1
102
RTVSPropertyOp19
 70
     1
102
RTVSPropertyOp20
 70
     1
102
RTVSPropertyOp21
 70
     1
102
RTVSPropertyOp22
 70
     1
102
RTVSPropertyOp23
 70
     1
102
RTVSPropertyOp24
 70
     1
102
RTVSPropertyOp25
 70
     1
102
RTVSPropertyOp26
 70
     1
102
RTVSPropertyOp27
 70
     1
102
RTVSPropertyOp28
 70
     1
102
RTVSPropertyOp29
 70
     1
102
RTVSPropertyOp30
 70
     1
102
RTVSPropertyOp31
 70
     1
102
RTVSPropertyOp32
 70
     1
  0
XRECORD
  5
2C4
102
{ACAD_REACTORS
330
2C3
102
}
330
2C3
100
AcDbXrecord
280
     1
102
RTVSPropertyOp0
 70
     1
102
RTVSPropertyOp1
 70
     1
102
RTVSPropertyOp2
 70
     1
102
RTVSPropertyOp3
 70
     1
102
RTVSPropertyOp4
 70
     1
102
RTVSPropertyOp5
 70
     1
102
RTVSPropertyOp6
 70
     1
102
RTVSPropertyOp7
 70
     1
102
RTVSPropertyOp8
 70
     1
102
RTVSPropertyOp9
 70
     1
102
RTVSPropertyOp10
 70
     1
102
RTVSPropertyOp11
 70
     1
102
RTVSPropertyOp12
 70
     1
102
RTVSPropertyOp13
 70
     1
102
RTVSPropertyOp14
 70
     1
102
RTVSPropertyOp15
 70
     1
102
RTVSPropertyOp16
 70
     1
102
RTVSPropertyOp17
 70
     1
102
RTVSPropertyOp18
 70
     1
102
RTVSPropertyOp19
 70
     1
102
RTVSPropertyOp20
 70
     1
102
RTVSPropertyOp21
 70
     1
102
RTVSPropertyOp22
 70
     1
102
RTVSPropertyOp23
 70
     1
102
RTVSPropertyOp24
 70
     1
102
RTVSPropertyOp25
 70
     1
102
RTVSPropertyOp26
 70
     1
102
RTVSPropertyOp27
 70
     1
102
RTVSPropertyOp28
 70
     1
102
RTVSPropertyOp29
 70
     1
102
RTVSPropertyOp30
 70
     1
102
RTVSPropertyOp31
 70
     1
102
RTVSPropertyOp32
 70
     1
  0
XRECORD
  5
2C6
102
{ACAD_REACTORS
330
2C5
102
}
330
2C5
100
AcDbXrecord
280
     1
102
RTVSPropertyOp0
 70
     1
102
RTVSPropertyOp1
 70
     1
102
RTVSPropertyOp2
 70
     1
102
RTVSPropertyOp3
 70
     1
102
RTVSPropertyOp4
 70
     1
102
RTVSPropertyOp5
 70
     1
102
RTVSPropertyOp6
 70
     1
102
RTVSPropertyOp7
 70
     1
102
RTVSPropertyOp8
 70
     1
102
RTVSPropertyOp9
 70
     1
102
RTVSPropertyOp10
 70
     1
102
RTVSPropertyOp11
 70
     1
102
RTVSPropertyOp12
 70
     1
102
RTVSPropertyOp13
 70
     1
102
RTVSPropertyOp14
 70
     1
102
RTVSPropertyOp15
 70
     1
102
RTVSPropertyOp16
 70
     1
102
RTVSPropertyOp17
 70
     1
102
RTVSPropertyOp18
 70
     1
102
RTVSPropertyOp19
 70
     1
102
RTVSPropertyOp20
 70
     1
102
RTVSPropertyOp21
 70
     1
102
RTVSPropertyOp22
 70
     1
102
RTVSPropertyOp23
 70
     1
102
RTVSPropertyOp24
 70
     1
102
RTVSPropertyOp25
 70
     1
102
RTVSPropertyOp26
 70
     1
102
RTVSPropertyOp27
 70
     1
102
RTVSPropertyOp28
 70
     1
102
RTVSPropertyOp29
 70
     1
102
RTVSPropertyOp30
 70
     1
102
RTVSPropertyOp31
 70
     1
102
RTVSPropertyOp32
 70
     1
  0
XRECORD
  5
2C8
102
{ACAD_REACTORS
330
2C7
102
}
330
2C7
100
AcDbXrecord
280
     1
102
RTVSPropertyOp0
 70
     1
102
RTVSPropertyOp1
 70
     1
102
RTVSPropertyOp2
 70
     1
102
RTVSPropertyOp3
 70
     1
102
RTVSPropertyOp4
 70
     1
102
RTVSPropertyOp5
 70
     1
102
RTVSPropertyOp6
 70
     1
102
RTVSPropertyOp7
 70
     1
102
RTVSPropertyOp8
 70
     1
102
RTVSPropertyOp9
 70
     1
102
RTVSPropertyOp10
 70
     1
102
RTVSPropertyOp11
 70
     1
102
RTVSPropertyOp12
 70
     1
102
RTVSPropertyOp13
 70
     1
102
RTVSPropertyOp14
 70
     1
102
RTVSPropertyOp15
 70
     1
102
RTVSPropertyOp16
 70
     1
102
RTVSPropertyOp17
 70
     1
102
RTVSPropertyOp18
 70
     1
102
RTVSPropertyOp19
 70
     1
102
RTVSPropertyOp20
 70
     1
102
RTVSPropertyOp21
 70
     1
102
RTVSPropertyOp22
 70
     1
102
RTVSPropertyOp23
 70
     1
102
RTVSPropertyOp24
 70
     1
102
RTVSPropertyOp25
 70
     1
102
RTVSPropertyOp26
 70
     1
102
RTVSPropertyOp27
 70
     1
102
RTVSPropertyOp28
 70
     1
102
RTVSPropertyOp29
 70
     1
102
RTVSPropertyOp30
 70
     1
102
RTVSPropertyOp31
 70
     1
102
RTVSPropertyOp32
 70
     1
  0
XRECORD
  5
2CA
102
{ACAD_REACTORS
330
2C9
102
}
330
2C9
100
AcDbXrecord
280
     1
102
RTVSPropertyOp0
 70
     1
102
RTVSPropertyOp1
 70
     1
102
RTVSPropertyOp2
 70
     1
102
RTVSPropertyOp3
 70
     1
102
RTVSPropertyOp4
 70
     1
102
RTVSPropertyOp5
 70
     1
102
RTVSPropertyOp6
 70
     1
102
RTVSPropertyOp7
 70
     1
102
RTVSPropertyOp8
 70
     1
102
RTVSPropertyOp9
 70
     1
102
RTVSPropertyOp10
 70
     1
102
RTVSPropertyOp11
 70
     1
102
RTVSPropertyOp12
 70
     1
102
RTVSPropertyOp13
 70
     1
102
RTVSPropertyOp14
 70
     1
102
RTVSPropertyOp15
 70
     1
102
RTVSPropertyOp16
 70
     1
102
RTVSPropertyOp17
 70
     1
102
RTVSPropertyOp18
 70
     1
102
RTVSPropertyOp19
 70
     1
102
RTVSPropertyOp20
 70
     1
102
RTVSPropertyOp21
 70
     1
102
RTVSPropertyOp22
 70
     1
102
RTVSPropertyOp23
 70
     1
102
RTVSPropertyOp24
 70
     1
102
RTVSPropertyOp25
 70
     1
102
RTVSPropertyOp26
 70
     1
102
RTVSPropertyOp27
 70
     1
102
RTVSPropertyOp28
 70
     1
102
RTVSPropertyOp29
 70
     1
102
RTVSPropertyOp30
 70
     1
102
RTVSPropertyOp31
 70
     1
102
RTVSPropertyOp32
 70
     1
  0
XRECORD
  5
2D2
102
{ACAD_REACTORS
330
2D1
102
}
330
2D1
100
AcDbXrecord
280
     1
102
RTVSPropertyOp0
 70
     1
102
RTVSPropertyOp1
 70
     1
102
RTVSPropertyOp2
 70
     1
102
RTVSPropertyOp3
 70
     1
102
RTVSPropertyOp4
 70
     1
102
RTVSPropertyOp5
 70
     1
102
RTVSPropertyOp6
 70
     1
102
RTVSPropertyOp7
 70
     1
102
RTVSPropertyOp8
 70
     1
102
RTVSPropertyOp9
 70
     1
102
RTVSPropertyOp10
 70
     1
102
RTVSPropertyOp11
 70
     1
102
RTVSPropertyOp12
 70
     1
102
RTVSPropertyOp13
 70
     1
102
RTVSPropertyOp14
 70
     1
102
RTVSPropertyOp15
 70
     1
102
RTVSPropertyOp16
 70
     1
102
RTVSPropertyOp17
 70
     1
102
RTVSPropertyOp18
 70
     1
102
RTVSPropertyOp19
 70
     1
102
RTVSPropertyOp20
 70
     1
102
RTVSPropertyOp21
 70
     1
102
RTVSPropertyOp22
 70
     1
102
RTVSPropertyOp23
 70
     1
102
RTVSPropertyOp24
 70
     1
102
RTVSPropertyOp25
 70
     1
102
RTVSPropertyOp26
 70
     1
102
RTVSPropertyOp27
 70
     1
102
RTVSPropertyOp28
 70
     1
102
RTVSPropertyOp29
 70
     1
102
RTVSPropertyOp30
 70
     1
102
RTVSPropertyOp31
 70
     1
102
RTVSPropertyOp32
 70
     1
  0
XRECORD
  5
2EE
102
{ACAD_REACTORS
330
2ED
102
}
330
2ED
100
AcDbXrecord
280
     1
102
RTVSPropertyOp0
 70
     0
102
RTVSPropertyOp1
 70
     0
102
RTVSPropertyOp2
 70
     0
102
RTVSPropertyOp3
 70
     0
102
RTVSPropertyOp4
 70
     0
102
RTVSPropertyOp5
 70
     0
102
RTVSPropertyOp6
 70
     0
102
RTVSPropertyOp7
 70
     0
102
RTVSPropertyOp8
 70
     0
102
RTVSPropertyOp9
 70
     0
102
RTVSPropertyOp10
 70
     0
102
RTVSPropertyOp11
 70
     0
102
RTVSPropertyOp12
 70
     0
102
RTVSPropertyOp13
 70
     0
102
RTVSPropertyOp14
 70
     2
102
RTVSPropertyOp15
 70
     0
102
RTVSPropertyOp16
 70
     0
102
RTVSPropertyOp17
 70
     0
102
RTVSPropertyOp18
 70
     0
102
RTVSPropertyOp19
 70
     0
102
RTVSPropertyOp20
 70
     0
102
RTVSPropertyOp21
 70
     0
102
RTVSPropertyOp22
 70
     0
102
RTVSPropertyOp23
 70
     0
102
RTVSPropertyOp24
 70
     0
102
RTVSPropertyOp25
 70
     0
102
RTVSPropertyOp26
 70
     0
102
RTVSPropertyOp27
 70
     0
102
RTVSPropertyOp28
 70
     0
102
RTVSPropertyOp29
 70
     0
102
RTVSPropertyOp30
 70
     0
102
RTVSPropertyOp31
 70
     0
102
RTVSPropertyOp32
 70
     0
  0
XRECORD
  5
2DE
102
{ACAD_REACTORS
330
2DD
102
}
330
2DD
100
AcDbXrecord
280
     1
102
RTVSPropertyOp0
 70
     1
102
RTVSPropertyOp1
 70
     1
102
RTVSPropertyOp2
 70
     1
102
RTVSPropertyOp3
 70
     1
102
RTVSPropertyOp4
 70
     1
102
RTVSPropertyOp5
 70
     1
102
RTVSPropertyOp6
 70
     1
102
RTVSPropertyOp7
 70
     1
102
RTVSPropertyOp8
 70
     1
102
RTVSPropertyOp9
 70
     1
102
RTVSPropertyOp10
 70
     1
102
RTVSPropertyOp11
 70
     1
102
RTVSPropertyOp12
 70
     1
102
RTVSPropertyOp13
 70
     1
102
RTVSPropertyOp14
 70
     1
102
RTVSPropertyOp15
 70
     1
102
RTVSPropertyOp16
 70
     1
102
RTVSPropertyOp17
 70
     1
102
RTVSPropertyOp18
 70
     1
102
RTVSPropertyOp19
 70
     1
102
RTVSPropertyOp20
 70
     1
102
RTVSPropertyOp21
 70
     1
102
RTVSPropertyOp22
 70
     1
102
RTVSPropertyOp23
 70
     1
102
RTVSPropertyOp24
 70
     1
102
RTVSPropertyOp25
 70
     1
102
RTVSPropertyOp26
 70
     1
102
RTVSPropertyOp27
 70
     1
102
RTVSPropertyOp28
 70
     1
102
RTVSPropertyOp29
 70
     1
102
RTVSPropertyOp30
 70
     1
102
RTVSPropertyOp31
 70
     1
102
RTVSPropertyOp32
 70
     1
  0
XRECORD
  5
2F0
102
{ACAD_REACTORS
330
2EF
102
}
330
2EF
100
AcDbXrecord
280
     1
102
RTVSPropertyOp0
 70
     0
102
RTVSPropertyOp1
 70
     0
102
RTVSPropertyOp2
 70
     0
102
RTVSPropertyOp3
 70
     0
102
RTVSPropertyOp4
 70
     0
102
RTVSPropertyOp5
 70
     0
102
RTVSPropertyOp6
 70
     0
102
RTVSPropertyOp7
 70
     0
102
RTVSPropertyOp8
 70
     0
102
RTVSPropertyOp9
 70
     0
102
RTVSPropertyOp10
 70
     0
102
RTVSPropertyOp11
 70
     0
102
RTVSPropertyOp12
 70
     0
102
RTVSPropertyOp13
 70
     0
102
RTVSPropertyOp14
 70
     2
102
RTVSPropertyOp15
 70
     0
102
RTVSPropertyOp16
 70
     0
102
RTVSPropertyOp17
 70
     0
102
RTVSPropertyOp18
 70
     0
102
RTVSPropertyOp19
 70
     0
102
RTVSPropertyOp20
 70
     0
102
RTVSPropertyOp21
 70
     0
102
RTVSPropertyOp22
 70
     0
102
RTVSPropertyOp23
 70
     0
102
RTVSPropertyOp24
 70
     0
102
RTVSPropertyOp25
 70
     0
102
RTVSPropertyOp26
 70
     0
102
RTVSPropertyOp27
 70
     0
102
RTVSPropertyOp28
 70
     0
102
RTVSPropertyOp29
 70
     0
102
RTVSPropertyOp30
 70
     0
102
RTVSPropertyOp31
 70
     0
102
RTVSPropertyOp32
 70
     0
  0
XRECORD
  5
2D6
102
{ACAD_REACTORS
330
2D5
102
}
330
2D5
100
AcDbXrecord
280
     1
102
RTVSPropertyOp0
 70
     1
102
RTVSPropertyOp1
 70
     1
102
RTVSPropertyOp2
 70
     1
102
RTVSPropertyOp3
 70
     1
102
RTVSPropertyOp4
 70
     1
102
RTVSPropertyOp5
 70
     1
102
RTVSPropertyOp6
 70
     1
102
RTVSPropertyOp7
 70
     1
102
RTVSPropertyOp8
 70
     1
102
RTVSPropertyOp9
 70
     1
102
RTVSPropertyOp10
 70
     1
102
RTVSPropertyOp11
 70
     1
102
RTVSPropertyOp12
 70
     1
102
RTVSPropertyOp13
 70
     1
102
RTVSPropertyOp14
 70
     1
102
RTVSPropertyOp15
 70
     1
102
RTVSPropertyOp16
 70
     1
102
RTVSPropertyOp17
 70
     1
102
RTVSPropertyOp18
 70
     1
102
RTVSPropertyOp19
 70
     1
102
RTVSPropertyOp20
 70
     1
102
RTVSPropertyOp21
 70
     1
102
RTVSPropertyOp22
 70
     1
102
RTVSPropertyOp23
 70
     1
102
RTVSPropertyOp24
 70
     1
102
RTVSPropertyOp25
 70
     1
102
RTVSPropertyOp26
 70
     1
102
RTVSPropertyOp27
 70
     1
102
RTVSPropertyOp28
 70
     1
102
RTVSPropertyOp29
 70
     1
102
RTVSPropertyOp30
 70
     1
102
RTVSPropertyOp31
 70
     1
102
RTVSPropertyOp32
 70
     1
  0
XRECORD
  5
2EC
102
{ACAD_REACTORS
330
2EB
102
}
330
2EB
100
AcDbXrecord
280
     1
102
RTVSPropertyOp0
 70
     1
102
RTVSPropertyOp1
 70
     1
102
RTVSPropertyOp2
 70
     1
102
RTVSPropertyOp3
 70
     1
102
RTVSPropertyOp4
 70
     1
102
RTVSPropertyOp5
 70
     1
102
RTVSPropertyOp6
 70
     1
102
RTVSPropertyOp7
 70
     1
102
RTVSPropertyOp8
 70
     1
102
RTVSPropertyOp9
 70
     1
102
RTVSPropertyOp10
 70
     1
102
RTVSPropertyOp11
 70
     1
102
RTVSPropertyOp12
 70
     1
102
RTVSPropertyOp13
 70
     1
102
RTVSPropertyOp14
 70
     1
102
RTVSPropertyOp15
 70
     1
102
RTVSPropertyOp16
 70
     1
102
RTVSPropertyOp17
 70
     1
102
RTVSPropertyOp18
 70
     1
102
RTVSPropertyOp19
 70
     1
102
RTVSPropertyOp20
 70
     1
102
RTVSPropertyOp21
 70
     1
102
RTVSPropertyOp22
 70
     1
102
RTVSPropertyOp23
 70
     1
102
RTVSPropertyOp24
 70
     1
102
RTVSPropertyOp25
 70
     1
102
RTVSPropertyOp26
 70
     1
102
RTVSPropertyOp27
 70
     1
102
RTVSPropertyOp28
 70
     1
102
RTVSPropertyOp29
 70
     1
102
RTVSPropertyOp30
 70
     1
102
RTVSPropertyOp31
 70
     1
102
RTVSPropertyOp32
 70
     1
  0
XRECORD
  5
2EA
102
{ACAD_REACTORS
330
2E9
102
}
330
2E9
100
AcDbXrecord
280
     1
102
RTVSPropertyOp0
 70
     1
102
RTVSPropertyOp1
 70
     1
102
RTVSPropertyOp2
 70
     1
102
RTVSPropertyOp3
 70
     1
102
RTVSPropertyOp4
 70
     1
102
RTVSPropertyOp5
 70
     1
102
RTVSPropertyOp6
 70
     1
102
RTVSPropertyOp7
 70
     1
102
RTVSPropertyOp8
 70
     1
102
RTVSPropertyOp9
 70
     1
102
RTVSPropertyOp10
 70
     1
102
RTVSPropertyOp11
 70
     1
102
RTVSPropertyOp12
 70
     1
102
RTVSPropertyOp13
 70
     1
102
RTVSPropertyOp14
 70
     1
102
RTVSPropertyOp15
 70
     1
102
RTVSPropertyOp16
 70
     1
102
RTVSPropertyOp17
 70
     1
102
RTVSPropertyOp18
 70
     1
102
RTVSPropertyOp19
 70
     1
102
RTVSPropertyOp20
 70
     1
102
RTVSPropertyOp21
 70
     1
102
RTVSPropertyOp22
 70
     1
102
RTVSPropertyOp23
 70
     1
102
RTVSPropertyOp24
 70
     1
102
RTVSPropertyOp25
 70
     1
102
RTVSPropertyOp26
 70
     1
102
RTVSPropertyOp27
 70
     1
102
RTVSPropertyOp28
 70
     1
102
RTVSPropertyOp29
 70
     1
102
RTVSPropertyOp30
 70
     1
102
RTVSPropertyOp31
 70
     1
102
RTVSPropertyOp32
 70
     1
  0
XRECORD
  5
2E4
102
{ACAD_REACTORS
330
2E3
102
}
330
2E3
100
AcDbXrecord
280
     1
102
RTVSPropertyOp0
 70
     1
102
RTVSPropertyOp1
 70
     1
102
RTVSPropertyOp2
 70
     1
102
RTVSPropertyOp3
 70
     1
102
RTVSPropertyOp4
 70
     1
102
RTVSPropertyOp5
 70
     1
102
RTVSPropertyOp6
 70
     1
102
RTVSPropertyOp7
 70
     1
102
RTVSPropertyOp8
 70
     1
102
RTVSPropertyOp9
 70
     1
102
RTVSPropertyOp10
 70
     1
102
RTVSPropertyOp11
 70
     1
102
RTVSPropertyOp12
 70
     1
102
RTVSPropertyOp13
 70
     1
102
RTVSPropertyOp14
 70
     1
102
RTVSPropertyOp15
 70
     1
102
RTVSPropertyOp16
 70
     1
102
RTVSPropertyOp17
 70
     1
102
RTVSPropertyOp18
 70
     1
102
RTVSPropertyOp19
 70
     1
102
RTVSPropertyOp20
 70
     1
102
RTVSPropertyOp21
 70
     1
102
RTVSPropertyOp22
 70
     1
102
RTVSPropertyOp23
 70
     1
102
RTVSPropertyOp24
 70
     1
102
RTVSPropertyOp25
 70
     1
102
RTVSPropertyOp26
 70
     1
102
RTVSPropertyOp27
 70
     1
102
RTVSPropertyOp28
 70
     1
102
RTVSPropertyOp29
 70
     1
102
RTVSPropertyOp30
 70
     1
102
RTVSPropertyOp31
 70
     1
102
RTVSPropertyOp32
 70
     1
  0
XRECORD
  5
2E6
102
{ACAD_REACTORS
330
2E5
102
}
330
2E5
100
AcDbXrecord
280
     1
102
RTVSPropertyOp0
 70
     1
102
RTVSPropertyOp1
 70
     1
102
RTVSPropertyOp2
 70
     1
102
RTVSPropertyOp3
 70
     1
102
RTVSPropertyOp4
 70
     1
102
RTVSPropertyOp5
 70
     1
102
RTVSPropertyOp6
 70
     1
102
RTVSPropertyOp7
 70
     1
102
RTVSPropertyOp8
 70
     1
102
RTVSPropertyOp9
 70
     1
102
RTVSPropertyOp10
 70
     1
102
RTVSPropertyOp11
 70
     1
102
RTVSPropertyOp12
 70
     1
102
RTVSPropertyOp13
 70
     1
102
RTVSPropertyOp14
 70
     1
102
RTVSPropertyOp15
 70
     1
102
RTVSPropertyOp16
 70
     1
102
RTVSPropertyOp17
 70
     1
102
RTVSPropertyOp18
 70
     1
102
RTVSPropertyOp19
 70
     1
102
RTVSPropertyOp20
 70
     1
102
RTVSPropertyOp21
 70
     1
102
RTVSPropertyOp22
 70
     1
102
RTVSPropertyOp23
 70
     1
102
RTVSPropertyOp24
 70
     1
102
RTVSPropertyOp25
 70
     1
102
RTVSPropertyOp26
 70
     1
102
RTVSPropertyOp27
 70
     1
102
RTVSPropertyOp28
 70
     1
102
RTVSPropertyOp29
 70
     1
102
RTVSPropertyOp30
 70
     1
102
RTVSPropertyOp31
 70
     1
102
RTVSPropertyOp32
 70
     1
  0
XRECORD
  5
2DC
102
{ACAD_REACTORS
330
2DB
102
}
330
2DB
100
AcDbXrecord
280
     1
102
RTVSPropertyOp0
 70
     1
102
RTVSPropertyOp1
 70
     1
102
RTVSPropertyOp2
 70
     1
102
RTVSPropertyOp3
 70
     1
102
RTVSPropertyOp4
 70
     1
102
RTVSPropertyOp5
 70
     1
102
RTVSPropertyOp6
 70
     1
102
RTVSPropertyOp7
 70
     1
102
RTVSPropertyOp8
 70
     1
102
RTVSPropertyOp9
 70
     1
102
RTVSPropertyOp10
 70
     1
102
RTVSPropertyOp11
 70
     1
102
RTVSPropertyOp12
 70
     1
102
RTVSPropertyOp13
 70
     1
102
RTVSPropertyOp14
 70
     1
102
RTVSPropertyOp15
 70
     1
102
RTVSPropertyOp16
 70
     1
102
RTVSPropertyOp17
 70
     1
102
RTVSPropertyOp18
 70
     1
102
RTVSPropertyOp19
 70
     1
102
RTVSPropertyOp20
 70
     1
102
RTVSPropertyOp21
 70
     1
102
RTVSPropertyOp22
 70
     1
102
RTVSPropertyOp23
 70
     1
102
RTVSPropertyOp24
 70
     1
102
RTVSPropertyOp25
 70
     1
102
RTVSPropertyOp26
 70
     1
102
RTVSPropertyOp27
 70
     1
102
RTVSPropertyOp28
 70
     1
102
RTVSPropertyOp29
 70
     1
102
RTVSPropertyOp30
 70
     1
102
RTVSPropertyOp31
 70
     1
102
RTVSPropertyOp32
 70
     1
  0
XRECORD
  5
2D0
102
{ACAD_REACTORS
330
2CF
102
}
330
2CF
100
AcDbXrecord
280
     1
102
RTVSPropertyOp0
 70
     1
102
RTVSPropertyOp1
 70
     1
102
RTVSPropertyOp2
 70
     1
102
RTVSPropertyOp3
 70
     1
102
RTVSPropertyOp4
 70
     1
102
RTVSPropertyOp5
 70
     1
102
RTVSPropertyOp6
 70
     1
102
RTVSPropertyOp7
 70
     1
102
RTVSPropertyOp8
 70
     1
102
RTVSPropertyOp9
 70
     1
102
RTVSPropertyOp10
 70
     1
102
RTVSPropertyOp11
 70
     1
102
RTVSPropertyOp12
 70
     1
102
RTVSPropertyOp13
 70
     1
102
RTVSPropertyOp14
 70
     1
102
RTVSPropertyOp15
 70
     1
102
RTVSPropertyOp16
 70
     1
102
RTVSPropertyOp17
 70
     1
102
RTVSPropertyOp18
 70
     1
102
RTVSPropertyOp19
 70
     1
102
RTVSPropertyOp20
 70
     1
102
RTVSPropertyOp21
 70
     1
102
RTVSPropertyOp22
 70
     1
102
RTVSPropertyOp23
 70
     1
102
RTVSPropertyOp24
 70
     1
102
RTVSPropertyOp25
 70
     1
102
RTVSPropertyOp26
 70
     1
102
RTVSPropertyOp27
 70
     1
102
RTVSPropertyOp28
 70
     1
102
RTVSPropertyOp29
 70
     1
102
RTVSPropertyOp30
 70
     1
102
RTVSPropertyOp31
 70
     1
102
RTVSPropertyOp32
 70
     1
  0
XRECORD
  5
2E8
102
{ACAD_REACTORS
330
2E7
102
}
330
2E7
100
AcDbXrecord
280
     1
102
RTVSPropertyOp0
 70
     1
102
RTVSPropertyOp1
 70
     1
102
RTVSPropertyOp2
 70
     1
102
RTVSPropertyOp3
 70
     1
102
RTVSPropertyOp4
 70
     1
102
RTVSPropertyOp5
 70
     1
102
RTVSPropertyOp6
 70
     1
102
RTVSPropertyOp7
 70
     1
102
RTVSPropertyOp8
 70
     1
102
RTVSPropertyOp9
 70
     1
102
RTVSPropertyOp10
 70
     1
102
RTVSPropertyOp11
 70
     1
102
RTVSPropertyOp12
 70
     1
102
RTVSPropertyOp13
 70
     1
102
RTVSPropertyOp14
 70
     1
102
RTVSPropertyOp15
 70
     1
102
RTVSPropertyOp16
 70
     1
102
RTVSPropertyOp17
 70
     1
102
RTVSPropertyOp18
 70
     1
102
RTVSPropertyOp19
 70
     1
102
RTVSPropertyOp20
 70
     1
102
RTVSPropertyOp21
 70
     1
102
RTVSPropertyOp22
 70
     1
102
RTVSPropertyOp23
 70
     1
102
RTVSPropertyOp24
 70
     1
102
RTVSPropertyOp25
 70
     1
102
RTVSPropertyOp26
 70
     1
102
RTVSPropertyOp27
 70
     1
102
RTVSPropertyOp28
 70
     1
102
RTVSPropertyOp29
 70
     1
102
RTVSPropertyOp30
 70
     1
102
RTVSPropertyOp31
 70
     1
102
RTVSPropertyOp32
 70
     1
  0
ENDSEC
  0
EOF
