  0
SECTION
  2
HEADER
  9
$ACADVER
  1
AC1015
  9
$ACADMAINTVER
 70
    20
  9
$DWGCODEPAGE
  3
ANSI_1252
  9
$INSBASE
 10
0.0
 20
0.0
 30
0.0
  9
$EXTMIN
 10
23232.13767765
 20
-4401.26966473
 30
0.0
  9
$EXTMAX
 10
24924.16984082
 20
-3055.85726988
 30
2500.0
  9
$LIMMIN
 10
22535.38954078
 20
-14720.93576433
  9
$LIMMAX
 10
35244.7195586
 20
165.67536904
  9
$ORTHOMODE
 70
     0
  9
$REGENMODE
 70
     1
  9
$FILLMODE
 70
     1
  9
$QTEXTMODE
 70
     0
  9
$MIRRTEXT
 70
     1
  9
$LTSCALE
 40
5.0
  9
$ATTMODE
 70
     1
  9
$TEXTSIZE
 40
3.5
  9
$TRACEWID
 40
1.0
  9
$TEXTSTYLE
  7
STANDARD
  9
$CLAYER
  8
0
  9
$CELTYPE
  6
BYLAYER
  9
$CECOLOR
 62
   256
  9
$CELTSCALE
 40
1.0
  9
$DISPSILH
 70
     0
  9
$DIMSCALE
 40
1.0
  9
$DIMASZ
 40
2.0
  9
$DIMEXO
 40
5.0
  9
$DIMDLI
 40
10.0
  9
$DIMRND
 40
0.0
  9
$DIMDLE
 40
2.0
  9
$DIMEXE
 40
2.0
  9
$DIMTP
 40
0.0
  9
$DIMTM
 40
0.0
  9
$DIMTXT
 40
2.5
  9
$DIMCEN
 40
1.5
  9
$DIMTSZ
 40
0.0
  9
$DIMTOL
 70
     0
  9
$DIMLIM
 70
     0
  9
$DIMTIH
 70
     1
  9
$DIMTOH
 70
     0
  9
$DIMSE1
 70
     0
  9
$DIMSE2
 70
     0
  9
$DIMTAD
 70
     1
  9
$DIMZIN
 70
     8
  9
$DIMBLK
  1

  9
$DIMASO
 70
     1
  9
$DIMSHO
 70
     1
  9
$DIMPOST
  1

  9
$DIMAPOST
  1

  9
$DIMALT
 70
     0
  9
$DIMALTD
 70
     2
  9
$DIMALTF
 40
25.4
  9
$DIMLFAC
 40
1.0
  9
$DIMTOFL
 70
     0
  9
$DIMTVP
 40
0.0
  9
$DIMTIX
 70
     0
  9
$DIMSOXD
 70
     0
  9
$DIMSAH
 70
     0
  9
$DIMBLK1
  1

  9
$DIMBLK2
  1

  9
$DIMSTYLE
  2
Standard
  9
$DIMCLRD
 70
   190
  9
$DIMCLRE
 70
   190
  9
$DIMCLRT
 70
   190
  9
$DIMTFAC
 40
1.0
  9
$DIMGAP
 40
0.09
  9
$DIMJUST
 70
     0
  9
$DIMSD1
 70
     0
  9
$DIMSD2
 70
     0
  9
$DIMTOLJ
 70
     1
  9
$DIMTZIN
 70
     0
  9
$DIMALTZ
 70
     0
  9
$DIMALTTZ
 70
     0
  9
$DIMUPT
 70
     0
  9
$DIMDEC
 70
     4
  9
$DIMTDEC
 70
     4
  9
$DIMALTU
 70
     2
  9
$DIMALTTD
 70
     2
  9
$DIMTXSTY
  7
STANDARD
  9
$DIMAUNIT
 70
     0
  9
$DIMADEC
 70
     0
  9
$DIMALTRND
 40
0.0
  9
$DIMAZIN
 70
     0
  9
$DIMDSEP
 70
    46
  9
$DIMATFIT
 70
     3
  9
$DIMFRAC
 70
     0
  9
$DIMLDRBLK
  1

  9
$DIMLUNIT
 70
     2
  9
$DIMLWD
 70
    -2
  9
$DIMLWE
 70
    -2
  9
$DIMTMOVE
 70
     0
  9
$LUNITS
 70
     2
  9
$LUPREC
 70
     6
  9
$SKETCHINC
 40
0.1
  9
$FILLETRAD
 40
0.0
  9
$AUNITS
 70
     0
  9
$AUPREC
 70
     0
  9
$MENU
  1
ACAD
  9
$ELEVATION
 40
0.0
  9
$PELEVATION
 40
0.0
  9
$THICKNESS
 40
0.0
  9
$LIMCHECK
 70
     0
  9
$CHAMFERA
 40
0.0
  9
$CHAMFERB
 40
0.0
  9
$CHAMFERC
 40
0.0
  9
$CHAMFERD
 40
0.0
  9
$SKPOLY
 70
     1
  9
$TDCREATE
 40
2456467.000000000
  9
$TDUCREATE
 40
2456466.916666667
  9
$TDUPDATE
 40
2456468.459437246
  9
$TDUUPDATE
 40
2456468.376103912
  9
$TDINDWG
 40
0.0010370139
  9
$TDUSRTIMER
 40
0.0010368287
  9
$USRTIMER
 70
     1
  9
$ANGBASE
 50
0.0
  9
$ANGDIR
 70
     0
  9
$PDMODE
 70
     0
  9
$PDSIZE
 40
0.0
  9
$PLINEWID
 40
0.0
  9
$SPLFRAME
 70
     0
  9
$SPLINETYPE
 70
     6
  9
$SPLINESEGS
 70
     8
  9
$HANDSEED
  5
31A
  9
$SURFTAB1
 70
     6
  9
$SURFTAB2
 70
     6
  9
$SURFTYPE
 70
     6
  9
$SURFU
 70
     6
  9
$SURFV
 70
     6
  9
$UCSBASE
  2

  9
$UCSNAME
  2

  9
$UCSORG
 10
0.0
 20
0.0
 30
0.0
  9
$UCSXDIR
 10
1.0
 20
0.0
 30
0.0
  9
$UCSYDIR
 10
0.0
 20
1.0
 30
0.0
  9
$UCSORTHOREF
  2

  9
$UCSORTHOVIEW
 70
     0
  9
$UCSORGTOP
 10
0.0
 20
0.0
 30
0.0
  9
$UCSORGBOTTOM
 10
0.0
 20
0.0
 30
0.0
  9
$UCSORGLEFT
 10
0.0
 20
0.0
 30
0.0
  9
$UCSORGRIGHT
 10
0.0
 20
0.0
 30
0.0
  9
$UCSORGFRONT
 10
0.0
 20
0.0
 30
0.0
  9
$UCSORGBACK
 10
0.0
 20
0.0
 30
0.0
  9
$PUCSBASE
  2

  9
$PUCSNAME
  2

  9
$PUCSORG
 10
0.0
 20
0.0
 30
0.0
  9
$PUCSXDIR
 10
1.0
 20
0.0
 30
0.0
  9
$PUCSYDIR
 10
0.0
 20
1.0
 30
0.0
  9
$PUCSORTHOREF
  2

  9
$PUCSORTHOVIEW
 70
     0
  9
$PUCSORGTOP
 10
0.0
 20
0.0
 30
0.0
  9
$PUCSORGBOTTOM
 10
0.0
 20
0.0
 30
0.0
  9
$PUCSORGLEFT
 10
0.0
 20
0.0
 30
0.0
  9
$PUCSORGRIGHT
 10
0.0
 20
0.0
 30
0.0
  9
$PUCSORGFRONT
 10
0.0
 20
0.0
 30
0.0
  9
$PUCSORGBACK
 10
0.0
 20
0.0
 30
0.0
  9
$USERI1
 70
     0
  9
$USERI2
 70
     0
  9
$USERI3
 70
     0
  9
$USERI4
 70
     0
  9
$USERI5
 70
     0
  9
$USERR1
 40
0.0
  9
$USERR2
 40
0.0
  9
$USERR3
 40
0.0
  9
$USERR4
 40
0.0
  9
$USERR5
 40
0.0
  9
$WORLDVIEW
 70
     1
  9
$SHADEDGE
 70
     3
  9
$SHADEDIF
 70
    70
  9
$TILEMODE
 70
     1
  9
$MAXACTVP
 70
    16
  9
$PINSBASE
 10
0.0
 20
0.0
 30
0.0
  9
$PLIMCHECK
 70
     0
  9
$PEXTMIN
 10
1.000000000000000E+20
 20
1.000000000000000E+20
 30
1.000000000000000E+20
  9
$PEXTMAX
 10
-1.000000000000000E+20
 20
-1.000000000000000E+20
 30
-1.000000000000000E+20
  9
$PLIMMIN
 10
0.0
 20
0.0
  9
$PLIMMAX
 10
12.0
 20
9.0
  9
$UNITMODE
 70
     0
  9
$VISRETAIN
 70
     0
  9
$PLINEGEN
 70
     0
  9
$PSLTSCALE
 70
     1
  9
$TREEDEPTH
 70
  3020
  9
$CMLSTYLE
  2
STANDARD
  9
$CMLJUST
 70
     0
  9
$CMLSCALE
 40
1.0
  9
$PROXYGRAPHICS
 70
     1
  9
$MEASUREMENT
 70
     1
  9
$CELWEIGHT
370
    -1
  9
$ENDCAPS
280
     0
  9
$JOINSTYLE
280
     0
  9
$LWDISPLAY
290
     0
  9
$INSUNITS
 70
     0
  9
$HYPERLINKBASE
  1

  9
$STYLESHEET
  1

  9
$XEDIT
290
     1
  9
$CEPSNTYPE
380
     0
  9
$PSTYLEMODE
290
     1
  9
$FINGERPRINTGUID
  2
{B83AAC23-6877-47B3-8FE7-125B8296E894}
  9
$VERSIONGUID
  2
{41E14105-D42C-4153-957F-2BD9780F6489}
  9
$EXTNAMES
290
     1
  9
$PSVPSCALE
 40
0.0
  9
$OLESTARTUP
290
     0
  0
ENDSEC
  0
SECTION
  2
CLASSES
  0
CLASS
  1
ACDBDICTIONARYWDFLT
  2
AcDbDictionaryWithDefault
  3
ObjectDBX Classes
 90
        0
280
     0
281
     0
  0
CLASS
  1
MATERIAL
  2
AcDbMaterial
  3
ObjectDBX Classes
 90
     1153
280
     0
281
     0
  0
CLASS
  1
VISUALSTYLE
  2
AcDbVisualStyle
  3
ObjectDBX Classes
 90
     4095
280
     0
281
     0
  0
CLASS
  1
TABLESTYLE
  2
AcDbTableStyle
  3
ObjectDBX Classes
 90
     4095
280
     0
281
     0
  0
CLASS
  1
SCALE
  2
AcDbScale
  3
ObjectDBX Classes
 90
     1153
280
     0
281
     0
  0
CLASS
  1
MLEADERSTYLE
  2
AcDbMLeaderStyle
  3
ACDB_MLEADERSTYLE_CLASS
 90
     4095
280
     0
281
     0
  0
CLASS
  1
SORTENTSTABLE
  2
AcDbSortentsTable
  3
ObjectDBX Classes
 90
        0
280
     0
281
     0
  0
CLASS
  1
DICTIONARYVAR
  2
AcDbDictionaryVar
  3
ObjectDBX Classes
 90
        0
280
     0
281
     0
  0
CLASS
  1
CELLSTYLEMAP
  2
AcDbCellStyleMap
  3
ObjectDBX Classes
 90
     1152
280
     0
281
     0
  0
CLASS
  1
ACDBPLACEHOLDER
  2
AcDbPlaceHolder
  3
ObjectDBX Classes
 90
        0
280
     0
281
     0
  0
CLASS
  1
LAYOUT
  2
AcDbLayout
  3
ObjectDBX Classes
 90
        0
280
     0
281
     0
  0
ENDSEC
  0
SECTION
  2
TABLES
  0
TABLE
  2
VPORT
  5
29
330
0
100
AcDbSymbolTable
 70
     1
  0
VPORT
  5
283
330
29
100
AcDbSymbolTableRecord
100
AcDbViewportTableRecord
  2
*Active
 70
     0
 10
0.0
 20
0.0
 11
1.0
 21
1.0
 12
24078.153759235
 22
-3728.563467305
 13
0.0
 23
0.0
 14
1.0
 24
1.0
 15
0.0
 25
0.0
 16
0.0
 26
0.0
 36
1.0
 17
0.0
 27
0.0
 37
0.0
 40
1355.722068373754
 41
2.015345268542199
 42
50.0
 43
0.0
 44
0.0
 50
0.0
 51
0.0
 71
     0
 72
  1000
 73
     1
 74
     3
 75
     0
 76
     0
 77
     0
 78
     0
281
     0
 65
     1
110
0.0
120
0.0
130
0.0
111
1.0
121
0.0
131
0.0
112
0.0
122
1.0
132
0.0
 79
     0
146
0.0
  0
ENDTAB
  0
TABLE
  2
LTYPE
  5
2F
330
0
100
AcDbSymbolTable
 70
    11
  0
LTYPE
  5
30
330
2F
100
AcDbSymbolTableRecord
100
AcDbLinetypeTableRecord
  2
BYBLOCK
 70
     0
  3

 72
    65
 73
     0
 40
0.0
  0
LTYPE
  5
31
330
2F
100
AcDbSymbolTableRecord
100
AcDbLinetypeTableRecord
  2
BYLAYER
 70
     0
  3

 72
    65
 73
     0
 40
0.0
  0
LTYPE
  5
32
330
2F
100
AcDbSymbolTableRecord
100
AcDbLinetypeTableRecord
  2
CONTINUOUS
 70
     0
  3
Solid line
 72
    65
 73
     0
 40
0.0
  0
LTYPE
  5
33
330
2F
100
AcDbSymbolTableRecord
100
AcDbLinetypeTableRecord
  2
DOT
 70
     0
  3
. . . . . . . . . . . . . . . . . . . . . . . .
 72
    65
 73
     2
 40
2.5
 49
0.0
 74
     0
 49
-2.5
 74
     0
  0
LTYPE
  5
34
330
2F
100
AcDbSymbolTableRecord
100
AcDbLinetypeTableRecord
  2
HIDDEN
 70
     0
  3
__ __ __ __ __ __ __ __ __ __ __ __ __ __ __ __
 72
    65
 73
     2
 40
1.875
 49
1.25
 74
     0
 49
-0.625
 74
     0
  0
LTYPE
  5
35
330
2F
100
AcDbSymbolTableRecord
100
AcDbLinetypeTableRecord
  2
DASHEDX2
 70
     0
  3
____  ____  ____  ____  ____  ____  ____  ____
 72
    65
 73
     2
 40
3.75
 49
2.5
 74
     0
 49
-1.25
 74
     0
  0
LTYPE
  5
36
330
2F
100
AcDbSymbolTableRecord
100
AcDbLinetypeTableRecord
  2
CADWORK_22
 70
     0
  3
22 =======================================
 72
    65
 73
     0
 40
0.0
  0
LTYPE
  5
37
330
2F
100
AcDbSymbolTableRecord
100
AcDbLinetypeTableRecord
  2
DAL
 70
     0
  3
Solid line (for MAPS)
 72
    65
 73
     0
 40
0.0
  0
LTYPE
  5
38
330
2F
100
AcDbSymbolTableRecord
100
AcDbLinetypeTableRecord
  2
MUR
 70
     0
  3
Solid line (for MAPS)
 72
    65
 73
     0
 40
0.0
  0
LTYPE
  5
39
330
2F
100
AcDbSymbolTableRecord
100
AcDbLinetypeTableRecord
  2
SOM
 70
     0
  3
Solid line (for MAPS)
 72
    65
 73
     0
 40
0.0
  0
LTYPE
  5
3A
330
2F
100
AcDbSymbolTableRecord
100
AcDbLinetypeTableRecord
  2
COL
 70
     0
  3
Solid line (for MAPS)
 72
    65
 73
     0
 40
0.0
  0
LTYPE
  5
3B
330
2F
100
AcDbSymbolTableRecord
100
AcDbLinetypeTableRecord
  2
LGN
 70
     0
  3
Solid line (for MAPS)
 72
    65
 73
     0
 40
0.0
  0
LTYPE
  5
3C
330
2F
100
AcDbSymbolTableRecord
100
AcDbLinetypeTableRecord
  2
PNT
 70
     0
  3
Solid line (for MAPS)
 72
    65
 73
     0
 40
0.0
  0
ENDTAB
  0
TABLE
  2
LAYER
  5
3D
330
0
100
AcDbSymbolTable
 70
    32
  0
LAYER
  5
3E
102
{ACAD_XDICTIONARY
360
299
102
}
330
3D
100
AcDbSymbolTableRecord
100
AcDbLayerTableRecord
  2
STANDARD
 70
     0
 62
     7
  6
CONTINUOUS
370
    -3
390
232
  0
LAYER
  5
3F
102
{ACAD_XDICTIONARY
360
29B
102
}
330
3D
100
AcDbSymbolTableRecord
100
AcDbLayerTableRecord
  2
Ech.1_1
 70
     0
 62
     7
  6
CONTINUOUS
370
    -3
390
232
  0
LAYER
  5
40
102
{ACAD_XDICTIONARY
360
29D
102
}
330
3D
100
AcDbSymbolTableRecord
100
AcDbLayerTableRecord
  2
Ech.1_2
 70
     0
 62
     7
  6
CONTINUOUS
370
    -3
390
232
  0
LAYER
  5
41
102
{ACAD_XDICTIONARY
360
29F
102
}
330
3D
100
AcDbSymbolTableRecord
100
AcDbLayerTableRecord
  2
Ech.1_5
 70
     0
 62
     7
  6
CONTINUOUS
370
    -3
390
232
  0
LAYER
  5
42
102
{ACAD_XDICTIONARY
360
2A1
102
}
330
3D
100
AcDbSymbolTableRecord
100
AcDbLayerTableRecord
  2
Ech.1_10
 70
     0
 62
     7
  6
CONTINUOUS
370
    -3
390
232
  0
LAYER
  5
43
102
{ACAD_XDICTIONARY
360
2A3
102
}
330
3D
100
AcDbSymbolTableRecord
100
AcDbLayerTableRecord
  2
Ech.1_20
 70
     0
 62
     7
  6
CONTINUOUS
370
    -3
390
232
  0
LAYER
  5
44
102
{ACAD_XDICTIONARY
360
2A5
102
}
330
3D
100
AcDbSymbolTableRecord
100
AcDbLayerTableRecord
  2
Ech.1_25
 70
     0
 62
     7
  6
CONTINUOUS
370
    -3
390
232
  0
LAYER
  5
45
102
{ACAD_XDICTIONARY
360
2A7
102
}
330
3D
100
AcDbSymbolTableRecord
100
AcDbLayerTableRecord
  2
Ech.1_33
 70
     0
 62
     7
  6
CONTINUOUS
370
    -3
390
232
  0
LAYER
  5
46
102
{ACAD_XDICTIONARY
360
2A9
102
}
330
3D
100
AcDbSymbolTableRecord
100
AcDbLayerTableRecord
  2
Ech.1_50
 70
     0
 62
     7
  6
CONTINUOUS
370
    -3
390
232
  0
LAYER
  5
47
102
{ACAD_XDICTIONARY
360
2AB
102
}
330
3D
100
AcDbSymbolTableRecord
100
AcDbLayerTableRecord
  2
Ech.1_75
 70
     0
 62
     7
  6
CONTINUOUS
370
    -3
390
232
  0
LAYER
  5
48
102
{ACAD_XDICTIONARY
360
2AD
102
}
330
3D
100
AcDbSymbolTableRecord
100
AcDbLayerTableRecord
  2
Ech.1_100
 70
     0
 62
     7
  6
CONTINUOUS
370
    -3
390
232
  0
LAYER
  5
49
102
{ACAD_XDICTIONARY
360
2AF
102
}
330
3D
100
AcDbSymbolTableRecord
100
AcDbLayerTableRecord
  2
Ech.1_200
 70
     0
 62
     7
  6
CONTINUOUS
370
    -3
390
232
  0
LAYER
  5
4A
102
{ACAD_XDICTIONARY
360
2B1
102
}
330
3D
100
AcDbSymbolTableRecord
100
AcDbLayerTableRecord
  2
Ech.1_500
 70
     0
 62
     7
  6
CONTINUOUS
370
    -3
390
232
  0
LAYER
  5
4B
102
{ACAD_XDICTIONARY
360
2B3
102
}
330
3D
100
AcDbSymbolTableRecord
100
AcDbLayerTableRecord
  2
Ech.1_1000
 70
     0
 62
     7
  6
CONTINUOUS
370
    -3
390
232
  0
LAYER
  5
4C
102
{ACAD_XDICTIONARY
360
2B5
102
}
330
3D
100
AcDbSymbolTableRecord
100
AcDbLayerTableRecord
  2
Cadres traceur
 70
     0
 62
     7
  6
CONTINUOUS
370
    -3
390
232
  0
LAYER
  5
4D
102
{ACAD_XDICTIONARY
360
2B7
102
}
330
3D
100
AcDbSymbolTableRecord
100
AcDbLayerTableRecord
  2
Cadres laser
 70
     0
 62
     7
  6
CONTINUOUS
370
    -3
390
232
  0
LAYER
  5
4E
102
{ACAD_XDICTIONARY
360
2B9
102
}
330
3D
100
AcDbSymbolTableRecord
100
AcDbLayerTableRecord
  2
Légende d_aide
 70
     0
 62
     7
  6
CONTINUOUS
370
    -3
390
232
  0
LAYER
  5
4F
102
{ACAD_XDICTIONARY
360
2BB
102
}
330
3D
100
AcDbSymbolTableRecord
100
AcDbLayerTableRecord
  2
hachures ok
 70
     0
 62
     7
  6
CONTINUOUS
370
    -3
390
232
  0
LAYER
  5
50
102
{ACAD_XDICTIONARY
360
2BD
102
}
330
3D
100
AcDbSymbolTableRecord
100
AcDbLayerTableRecord
  2
ossature bois
 70
     0
 62
     7
  6
CONTINUOUS
370
    -3
390
232
  0
LAYER
  5
51
102
{ACAD_XDICTIONARY
360
2BF
102
}
330
3D
100
AcDbSymbolTableRecord
100
AcDbLayerTableRecord
  2
VR
 70
     0
 62
     7
  6
CONTINUOUS
370
    -3
390
232
  0
LAYER
  5
52
102
{ACAD_XDICTIONARY
360
2C1
102
}
330
3D
100
AcDbSymbolTableRecord
100
AcDbLayerTableRecord
  2
CALQUE1
 70
     0
 62
     7
  6
CONTINUOUS
370
    -3
390
232
  0
LAYER
  5
53
330
3D
100
AcDbSymbolTableRecord
100
AcDbLayerTableRecord
  2
0
 70
     0
 62
     7
  6
CONTINUOUS
370
    -3
390
232
  0
LAYER
  5
54
102
{ACAD_XDICTIONARY
360
2C3
102
}
330
3D
100
AcDbSymbolTableRecord
100
AcDbLayerTableRecord
  2
MENUISERIE
 70
     0
 62
     7
  6
CONTINUOUS
370
    -3
390
232
  0
LAYER
  5
55
102
{ACAD_XDICTIONARY
360
2C5
102
}
330
3D
100
AcDbSymbolTableRecord
100
AcDbLayerTableRecord
  2
COTATION
 70
     0
 62
   250
  6
CONTINUOUS
370
    -3
390
232
  0
LAYER
  5
56
330
3D
100
AcDbSymbolTableRecord
100
AcDbLayerTableRecord
  2
DEFPOINTS
 70
     0
 62
    10
  6
CONTINUOUS
290
     0
370
    -3
390
232
  0
LAYER
  5
57
102
{ACAD_XDICTIONARY
360
2C7
102
}
330
3D
100
AcDbSymbolTableRecord
100
AcDbLayerTableRecord
  2
HACHURE
 70
     0
 62
   254
  6
CONTINUOUS
370
    -3
390
232
  0
LAYER
  5
58
102
{ACAD_XDICTIONARY
360
2C9
102
}
330
3D
100
AcDbSymbolTableRecord
100
AcDbLayerTableRecord
  2
MAT1
 70
     0
 62
     7
  6
CONTINUOUS
370
    -3
390
232
  0
LAYER
  5
59
102
{ACAD_XDICTIONARY
360
2CB
102
}
330
3D
100
AcDbSymbolTableRecord
100
AcDbLayerTableRecord
  2
MAT2
 70
     0
 62
     7
  6
CONTINUOUS
370
    -3
390
232
  0
LAYER
  5
5A
102
{ACAD_XDICTIONARY
360
2CD
102
}
330
3D
100
AcDbSymbolTableRecord
100
AcDbLayerTableRecord
  2
HACH
 70
     0
 62
     8
  6
CONTINUOUS
370
    -3
390
232
  0
LAYER
  5
5B
102
{ACAD_XDICTIONARY
360
2CF
102
}
330
3D
100
AcDbSymbolTableRecord
100
AcDbLayerTableRecord
  2
MENUISERIES
 70
     0
 62
     7
  6
CONTINUOUS
370
    -3
390
232
  0
LAYER
  5
5C
102
{ACAD_XDICTIONARY
360
2D1
102
}
330
3D
100
AcDbSymbolTableRecord
100
AcDbLayerTableRecord
  2
BÉTONMÉTAL
 70
     0
 62
     7
  6
CONTINUOUS
370
    -3
390
232
  0
LAYER
  5
5D
102
{ACAD_XDICTIONARY
360
2D3
102
}
330
3D
100
AcDbSymbolTableRecord
100
AcDbLayerTableRecord
  2
BOIS
 70
     0
 62
     7
  6
CONTINUOUS
370
    -3
390
232
  0
ENDTAB
  0
TABLE
  2
STYLE
  5
2A
330
0
100
AcDbSymbolTable
 70
     4
  0
STYLE
  5
2B
330
2A
100
AcDbSymbolTableRecord
100
AcDbTextStyleTableRecord
  2
STANDARD
 70
     0
 40
0.0
 41
1.0
 50
0.0
 71
     0
 42
3.5
  3
MONOTXT
  4

  0
STYLE
  5
2C
330
2A
100
AcDbSymbolTableRecord
100
AcDbTextStyleTableRecord
  2
CADWORK1
 70
     0
 40
0.0
 41
1.0
 50
0.0
 71
     0
 42
3.5
  3
MONOTXT
  4

  0
STYLE
  5
2D
330
2A
100
AcDbSymbolTableRecord
100
AcDbTextStyleTableRecord
  2
MONOTXT
 70
     0
 40
0.0
 41
1.0
 50
0.0
 71
     0
 42
3.5
  3
MONOTXT
  4

  0
STYLE
  5
2E
330
2A
100
AcDbSymbolTableRecord
100
AcDbTextStyleTableRecord
  2
ARIAL
 70
     0
 40
0.0
 41
1.0
 50
0.0
 71
     0
 42
3.5
  3

  4

1001
ACAD
1000
Arial
1071
        0
  0
ENDTAB
  0
TABLE
  2
VIEW
  5
5E
330
0
100
AcDbSymbolTable
 70
     3
  0
ENDTAB
  0
TABLE
  2
UCS
  5
5F
330
0
100
AcDbSymbolTable
 70
     0
  0
ENDTAB
  0
TABLE
  2
APPID
  5
60
330
0
100
AcDbSymbolTable
 70
     2
  0
APPID
  5
61
330
60
100
AcDbSymbolTableRecord
100
AcDbRegAppTableRecord
  2
ACAD
 70
     0
  0
APPID
  5
315
330
60
100
AcDbSymbolTableRecord
100
AcDbRegAppTableRecord
  2
ACAD_MLEADERVER
 70
     0
  0
ENDTAB
  0
TABLE
  2
DIMSTYLE
  5
62
330
0
100
AcDbSymbolTable
 70
     1
100
AcDbDimStyleTable
 71
     0
  0
DIMSTYLE
105
27C
330
62
100
AcDbSymbolTableRecord
100
AcDbDimStyleTableRecord
  2
Standard
 70
     0
340
2B
  0
ENDTAB
  0
TABLE
  2
BLOCK_RECORD
  5
63
330
0
100
AcDbSymbolTable
 70
    47
  0
BLOCK_RECORD
  5
64
102
{ACAD_XDICTIONARY
360
291
102
}
330
63
100
AcDbSymbolTableRecord
100
AcDbBlockTableRecord
  2
*MODEL_SPACE
340
27F
  0
BLOCK_RECORD
  5
65
330
63
100
AcDbSymbolTableRecord
100
AcDbBlockTableRecord
  2
*PAPER_SPACE
340
280
  0
BLOCK_RECORD
  5
66
330
63
100
AcDbSymbolTableRecord
100
AcDbBlockTableRecord
  2
CDWK_EXTR_0
340
0
  0
BLOCK_RECORD
  5
67
330
63
100
AcDbSymbolTableRecord
100
AcDbBlockTableRecord
  2
CDWK_EXTR_1D
340
0
  0
BLOCK_RECORD
  5
68
330
63
100
AcDbSymbolTableRecord
100
AcDbBlockTableRecord
  2
CDWK_EXTR_1G
340
0
  0
BLOCK_RECORD
  5
69
330
63
100
AcDbSymbolTableRecord
100
AcDbBlockTableRecord
  2
CDWK_EXTR_2
340
0
  0
BLOCK_RECORD
  5
6A
330
63
100
AcDbSymbolTableRecord
100
AcDbBlockTableRecord
  2
CDWK_EXTR_3
340
0
  0
BLOCK_RECORD
  5
6B
330
63
100
AcDbSymbolTableRecord
100
AcDbBlockTableRecord
  2
CDWK_EXTR_4
340
0
  0
BLOCK_RECORD
  5
6C
330
63
100
AcDbSymbolTableRecord
100
AcDbBlockTableRecord
  2
CDWK_PTTYP0
340
0
  0
BLOCK_RECORD
  5
6D
330
63
100
AcDbSymbolTableRecord
100
AcDbBlockTableRecord
  2
CDWK_PTTYP1
340
0
  0
BLOCK_RECORD
  5
6E
330
63
100
AcDbSymbolTableRecord
100
AcDbBlockTableRecord
  2
CDWK_PTTYP2
340
0
  0
BLOCK_RECORD
  5
6F
330
63
100
AcDbSymbolTableRecord
100
AcDbBlockTableRecord
  2
CDWK_PTTYP3
340
0
  0
BLOCK_RECORD
  5
70
330
63
100
AcDbSymbolTableRecord
100
AcDbBlockTableRecord
  2
CDWK_PTTYP4
340
0
  0
BLOCK_RECORD
  5
71
330
63
100
AcDbSymbolTableRecord
100
AcDbBlockTableRecord
  2
CDWK_PTTYP5
340
0
  0
BLOCK_RECORD
  5
72
330
63
100
AcDbSymbolTableRecord
100
AcDbBlockTableRecord
  2
CDWK_PTTYP6
340
0
  0
BLOCK_RECORD
  5
73
330
63
100
AcDbSymbolTableRecord
100
AcDbBlockTableRecord
  2
CDWK_PTTYP7
340
0
  0
BLOCK_RECORD
  5
74
330
63
100
AcDbSymbolTableRecord
100
AcDbBlockTableRecord
  2
CDWK_PTTYP8
340
0
  0
BLOCK_RECORD
  5
75
330
63
100
AcDbSymbolTableRecord
100
AcDbBlockTableRecord
  2
CDWK_PTTYP9
340
0
  0
BLOCK_RECORD
  5
76
330
63
100
AcDbSymbolTableRecord
100
AcDbBlockTableRecord
  2
CDWK_PTTYP10
340
0
  0
BLOCK_RECORD
  5
77
330
63
100
AcDbSymbolTableRecord
100
AcDbBlockTableRecord
  2
CDWK_PTTYP11
340
0
  0
BLOCK_RECORD
  5
78
330
63
100
AcDbSymbolTableRecord
100
AcDbBlockTableRecord
  2
CDWK_PTTYP12
340
0
  0
BLOCK_RECORD
  5
79
330
63
100
AcDbSymbolTableRecord
100
AcDbBlockTableRecord
  2
CDWK_PTTYP13
340
0
  0
BLOCK_RECORD
  5
7A
330
63
100
AcDbSymbolTableRecord
100
AcDbBlockTableRecord
  2
CDWK_PTTYP14
340
0
  0
BLOCK_RECORD
  5
7B
330
63
100
AcDbSymbolTableRecord
100
AcDbBlockTableRecord
  2
CDWK_PTTYP15
340
0
  0
BLOCK_RECORD
  5
7C
330
63
100
AcDbSymbolTableRecord
100
AcDbBlockTableRecord
  2
CDWK_PTTYP16
340
0
  0
BLOCK_RECORD
  5
7D
330
63
100
AcDbSymbolTableRecord
100
AcDbBlockTableRecord
  2
CDWK_PTTYP17
340
0
  0
BLOCK_RECORD
  5
7E
330
63
100
AcDbSymbolTableRecord
100
AcDbBlockTableRecord
  2
CDWK_PTTYP18
340
0
  0
BLOCK_RECORD
  5
7F
330
63
100
AcDbSymbolTableRecord
100
AcDbBlockTableRecord
  2
CDWK_PTTYP19
340
0
  0
BLOCK_RECORD
  5
80
330
63
100
AcDbSymbolTableRecord
100
AcDbBlockTableRecord
  2
CDWK_PTTYP20
340
0
  0
BLOCK_RECORD
  5
81
330
63
100
AcDbSymbolTableRecord
100
AcDbBlockTableRecord
  2
CDWK_PTTYP21
340
0
  0
BLOCK_RECORD
  5
82
330
63
100
AcDbSymbolTableRecord
100
AcDbBlockTableRecord
  2
CDWK_PTTYP22
340
0
  0
BLOCK_RECORD
  5
83
330
63
100
AcDbSymbolTableRecord
100
AcDbBlockTableRecord
  2
CDWK_PTTYP23
340
0
  0
BLOCK_RECORD
  5
84
330
63
100
AcDbSymbolTableRecord
100
AcDbBlockTableRecord
  2
CDWK_PTTYP24
340
0
  0
BLOCK_RECORD
  5
85
330
63
100
AcDbSymbolTableRecord
100
AcDbBlockTableRecord
  2
CDWK_PTTYP25
340
0
  0
BLOCK_RECORD
  5
86
330
63
100
AcDbSymbolTableRecord
100
AcDbBlockTableRecord
  2
CDWK_PTTYP26
340
0
  0
BLOCK_RECORD
  5
87
330
63
100
AcDbSymbolTableRecord
100
AcDbBlockTableRecord
  2
CDWK_PTTYP27
340
0
  0
BLOCK_RECORD
  5
88
330
63
100
AcDbSymbolTableRecord
100
AcDbBlockTableRecord
  2
CDWK_PTTYP28
340
0
  0
BLOCK_RECORD
  5
89
330
63
100
AcDbSymbolTableRecord
100
AcDbBlockTableRecord
  2
CDWK_PTTYP29
340
0
  0
BLOCK_RECORD
  5
8A
330
63
100
AcDbSymbolTableRecord
100
AcDbBlockTableRecord
  2
CDWK_PTTYP30
340
0
  0
BLOCK_RECORD
  5
8B
330
63
100
AcDbSymbolTableRecord
100
AcDbBlockTableRecord
  2
CDWK_PTTYP31
340
0
  0
BLOCK_RECORD
  5
8C
330
63
100
AcDbSymbolTableRecord
100
AcDbBlockTableRecord
  2
CDWK_PTTYP32
340
0
  0
BLOCK_RECORD
  5
8D
330
63
100
AcDbSymbolTableRecord
100
AcDbBlockTableRecord
  2
CDWK_PTTYP33
340
0
  0
BLOCK_RECORD
  5
8E
330
63
100
AcDbSymbolTableRecord
100
AcDbBlockTableRecord
  2
CDWK_PTTYP34
340
0
  0
BLOCK_RECORD
  5
8F
330
63
100
AcDbSymbolTableRecord
100
AcDbBlockTableRecord
  2
CDWK_PTTYP35
340
0
  0
BLOCK_RECORD
  5
90
330
63
100
AcDbSymbolTableRecord
100
AcDbBlockTableRecord
  2
CDWK_PTTYP36
340
0
  0
BLOCK_RECORD
  5
91
330
63
100
AcDbSymbolTableRecord
100
AcDbBlockTableRecord
  2
CDWK_PTTYP37
340
0
  0
BLOCK_RECORD
  5
92
330
63
100
AcDbSymbolTableRecord
100
AcDbBlockTableRecord
  2
CDWK_PTTYP38
340
0
  0
BLOCK_RECORD
  5
93
330
63
100
AcDbSymbolTableRecord
100
AcDbBlockTableRecord
  2
*D45
340
0
102
{BLKREFS
331
22C
102
}
  0
BLOCK_RECORD
  5
94
330
63
100
AcDbSymbolTableRecord
100
AcDbBlockTableRecord
  2
*D46
340
0
102
{BLKREFS
331
22D
102
}
  0
ENDTAB
  0
ENDSEC
  0
SECTION
  2
BLOCKS
  0
BLOCK
  5
95
330
64
100
AcDbEntity
  8
0
100
AcDbBlockBegin
  2
*MODEL_SPACE
 70
     0
 10
0.0
 20
0.0
 30
0.0
  3
*MODEL_SPACE
  1

  0
ENDBLK
  5
96
330
64
100
AcDbEntity
  8
0
100
AcDbBlockEnd
  0
BLOCK
  5
97
330
65
100
AcDbEntity
 67
     1
  8
0
100
AcDbBlockBegin
  2
*PAPER_SPACE
 70
     0
 10
0.0
 20
0.0
 30
0.0
  3
*PAPER_SPACE
  1

  0
ENDBLK
  5
98
330
65
100
AcDbEntity
 67
     1
  8
0
100
AcDbBlockEnd
  0
BLOCK
  5
99
330
66
100
AcDbEntity
  8
0
100
AcDbBlockBegin
  2
CDWK_EXTR_0
 70
     0
 10
0.0
 20
0.0
 30
0.0
  3
CDWK_EXTR_0
  1

  0
LINE
  5
9A
330
66
100
AcDbEntity
  8
0
 62
     0
370
    -2
100
AcDbLine
 10
0.0
 20
0.0
 30
0.0
 11
2.0
 21
0.5
 31
0.0
  0
LINE
  5
9B
330
66
100
AcDbEntity
  8
0
 62
     0
370
    -2
100
AcDbLine
 10
0.0
 20
0.0
 30
0.0
 11
2.0
 21
-0.5
 31
0.0
  0
LINE
  5
9C
330
66
100
AcDbEntity
  8
0
 62
     0
370
    -2
100
AcDbLine
 10
2.0
 20
0.5
 30
0.0
 11
2.0
 21
-0.5
 31
0.0
  0
ENDBLK
  5
9D
330
66
100
AcDbEntity
  8
0
100
AcDbBlockEnd
  0
BLOCK
  5
9E
330
67
100
AcDbEntity
  8
0
100
AcDbBlockBegin
  2
CDWK_EXTR_1D
 70
     0
 10
0.0
 20
0.0
 30
0.0
  3
CDWK_EXTR_1D
  1

  0
LINE
  5
9F
330
67
100
AcDbEntity
  8
0
 62
     0
370
    -2
100
AcDbLine
 10
0.0
 20
0.0
 30
0.0
 11
0.0
 21
1.0
 31
0.0
  0
LINE
  5
A0
330
67
100
AcDbEntity
  8
0
 62
     0
370
    -2
100
AcDbLine
 10
0.0
 20
1.0
 30
0.0
 11
0.5
 21
1.5
 31
0.0
  0
LINE
  5
A1
330
67
100
AcDbEntity
  8
0
 62
     0
370
    -2
100
AcDbLine
 10
0.5
 20
1.5
 30
0.0
 11
1.5
 21
1.5
 31
0.0
  0
ENDBLK
  5
A2
330
67
100
AcDbEntity
  8
0
100
AcDbBlockEnd
  0
BLOCK
  5
A3
330
68
100
AcDbEntity
  8
0
100
AcDbBlockBegin
  2
CDWK_EXTR_1G
 70
     0
 10
0.0
 20
0.0
 30
0.0
  3
CDWK_EXTR_1G
  1

  0
LINE
  5
A4
330
68
100
AcDbEntity
  8
0
 62
     0
370
    -2
100
AcDbLine
 10
0.0
 20
0.0
 30
0.0
 11
0.0
 21
-1.0
 31
0.0
  0
LINE
  5
A5
330
68
100
AcDbEntity
  8
0
 62
     0
370
    -2
100
AcDbLine
 10
0.0
 20
-1.0
 30
0.0
 11
0.5
 21
-1.5
 31
0.0
  0
LINE
  5
A6
330
68
100
AcDbEntity
  8
0
 62
     0
370
    -2
100
AcDbLine
 10
0.5
 20
-1.5
 30
0.0
 11
1.5
 21
-1.5
 31
0.0
  0
ENDBLK
  5
A7
330
68
100
AcDbEntity
  8
0
100
AcDbBlockEnd
  0
BLOCK
  5
A8
330
69
100
AcDbEntity
  8
0
100
AcDbBlockBegin
  2
CDWK_EXTR_2
 70
     0
 10
0.0
 20
0.0
 30
0.0
  3
CDWK_EXTR_2
  1

  0
SOLID
  5
A9
330
69
100
AcDbEntity
  8
0
 62
     0
100
AcDbTrace
 10
0.0
 20
0.0
 30
0.0
 11
2.0
 21
0.5
 31
0.0
 12
2.0
 22
-0.5
 32
0.0
 13
2.0
 23
-0.5
 33
0.0
  0
ENDBLK
  5
AA
330
69
100
AcDbEntity
  8
0
100
AcDbBlockEnd
  0
BLOCK
  5
AB
330
6A
100
AcDbEntity
  8
0
100
AcDbBlockBegin
  2
CDWK_EXTR_3
 70
     0
 10
0.0
 20
0.0
 30
0.0
  3
CDWK_EXTR_3
  1

  0
SOLID
  5
AC
330
6A
100
AcDbEntity
  8
0
 62
     0
100
AcDbTrace
 10
0.0
 20
0.0
 30
0.0
 11
2.0
 21
0.5
 31
0.0
 12
2.0
 22
-0.5
 32
0.0
 13
2.0
 23
-0.5
 33
0.0
  0
LINE
  5
AD
330
6A
100
AcDbEntity
  8
0
 62
     0
370
    -2
100
AcDbLine
 10
0.0
 20
1.0
 30
0.0
 11
0.0
 21
-1.0
 31
0.0
  0
ENDBLK
  5
AE
330
6A
100
AcDbEntity
  8
0
100
AcDbBlockEnd
  0
BLOCK
  5
AF
330
6B
100
AcDbEntity
  8
0
100
AcDbBlockBegin
  2
CDWK_EXTR_4
 70
     0
 10
0.0
 20
0.0
 30
0.0
  3
CDWK_EXTR_4
  1

  0
HATCH
  5
B0
330
6B
100
AcDbEntity
  8
0
 62
     0
370
    20
100
AcDbHatch
 10
0.0
 20
0.0
 30
0.0
210
0.0
220
0.0
230
1.0
  2
SOLID
 70
     1
 71
     0
 91
        1
 92
        1
 93
        1
 72
     2
 10
0.0
 20
0.0
 40
0.5
 50
0.0
 51
360.0
 73
     1
 97
        0
 75
     0
 76
     1
 98
        1
 10
0.0
 20
0.0
  0
ENDBLK
  5
B1
330
6B
100
AcDbEntity
  8
0
100
AcDbBlockEnd
  0
BLOCK
  5
B2
330
6C
100
AcDbEntity
  8
0
100
AcDbBlockBegin
  2
CDWK_PTTYP0
 70
     0
 10
0.0
 20
0.0
 30
0.0
  3
CDWK_PTTYP0
  1

  0
POINT
  5
B3
330
6C
100
AcDbEntity
  8
0
 62
     0
100
AcDbPoint
 10
0.0
 20
0.0
 30
0.0
  0
ENDBLK
  5
B4
330
6C
100
AcDbEntity
  8
0
100
AcDbBlockEnd
  0
BLOCK
  5
B5
330
6D
100
AcDbEntity
  8
0
100
AcDbBlockBegin
  2
CDWK_PTTYP1
 70
     0
 10
0.0
 20
0.0
 30
0.0
  3
CDWK_PTTYP1
  1

  0
LINE
  5
B6
330
6D
100
AcDbEntity
  8
0
 62
     0
370
    -2
100
AcDbLine
 10
-0.5
 20
0.5
 30
0.0
 11
0.5
 21
0.5
 31
0.0
  0
LINE
  5
B7
330
6D
100
AcDbEntity
  8
0
 62
     0
370
    -2
100
AcDbLine
 10
0.5
 20
0.5
 30
0.0
 11
0.5
 21
-0.5
 31
0.0
  0
LINE
  5
B8
330
6D
100
AcDbEntity
  8
0
 62
     0
370
    -2
100
AcDbLine
 10
0.5
 20
-0.5
 30
0.0
 11
-0.5
 21
-0.5
 31
0.0
  0
LINE
  5
B9
330
6D
100
AcDbEntity
  8
0
 62
     0
370
    -2
100
AcDbLine
 10
-0.5
 20
-0.5
 30
0.0
 11
-0.5
 21
0.5
 31
0.0
  0
ENDBLK
  5
BA
330
6D
100
AcDbEntity
  8
0
100
AcDbBlockEnd
  0
BLOCK
  5
BB
330
6E
100
AcDbEntity
  8
0
100
AcDbBlockBegin
  2
CDWK_PTTYP2
 70
     0
 10
0.0
 20
0.0
 30
0.0
  3
CDWK_PTTYP2
  1

  0
LINE
  5
BC
330
6E
100
AcDbEntity
  8
0
 62
     0
370
    -2
100
AcDbLine
 10
0.0
 20
0.5
 30
0.0
 11
0.0
 21
-0.5
 31
0.0
  0
LINE
  5
BD
330
6E
100
AcDbEntity
  8
0
 62
     0
370
    -2
100
AcDbLine
 10
-0.5
 20
0.0
 30
0.0
 11
0.5
 21
0.0
 31
0.0
  0
ENDBLK
  5
BE
330
6E
100
AcDbEntity
  8
0
100
AcDbBlockEnd
  0
BLOCK
  5
BF
330
6F
100
AcDbEntity
  8
0
100
AcDbBlockBegin
  2
CDWK_PTTYP3
 70
     0
 10
0.0
 20
0.0
 30
0.0
  3
CDWK_PTTYP3
  1

  0
CIRCLE
  5
C0
330
6F
100
AcDbEntity
  8
0
 62
     0
370
    -2
100
AcDbCircle
 10
0.0
 20
0.0
 30
0.0
 40
0.5
  0
ENDBLK
  5
C1
330
6F
100
AcDbEntity
  8
0
100
AcDbBlockEnd
  0
BLOCK
  5
C2
330
70
100
AcDbEntity
  8
0
100
AcDbBlockBegin
  2
CDWK_PTTYP4
 70
     0
 10
0.0
 20
0.0
 30
0.0
  3
CDWK_PTTYP4
  1

  0
HATCH
  5
C3
330
70
100
AcDbEntity
  8
0
 62
     0
370
    20
100
AcDbHatch
 10
0.0
 20
0.0
 30
0.0
210
0.0
220
0.0
230
1.0
  2
SOLID
 70
     1
 71
     0
 91
        1
 92
        1
 93
        1
 72
     2
 10
0.0
 20
0.0
 40
0.5
 50
0.0
 51
360.0
 73
     1
 97
        0
 75
     0
 76
     1
 98
        1
 10
0.0
 20
0.0
  0
ENDBLK
  5
C4
330
70
100
AcDbEntity
  8
0
100
AcDbBlockEnd
  0
BLOCK
  5
C5
330
71
100
AcDbEntity
  8
0
100
AcDbBlockBegin
  2
CDWK_PTTYP5
 70
     0
 10
0.0
 20
0.0
 30
0.0
  3
CDWK_PTTYP5
  1

  0
LINE
  5
C6
330
71
100
AcDbEntity
  8
0
 62
     0
370
    -2
100
AcDbLine
 10
-0.5
 20
0.5
 30
0.0
 11
0.5
 21
0.5
 31
0.0
  0
LINE
  5
C7
330
71
100
AcDbEntity
  8
0
 62
     0
370
    -2
100
AcDbLine
 10
0.5
 20
0.5
 30
0.0
 11
0.5
 21
-0.5
 31
0.0
  0
LINE
  5
C8
330
71
100
AcDbEntity
  8
0
 62
     0
370
    -2
100
AcDbLine
 10
0.5
 20
-0.5
 30
0.0
 11
-0.5
 21
-0.5
 31
0.0
  0
LINE
  5
C9
330
71
100
AcDbEntity
  8
0
 62
     0
370
    -2
100
AcDbLine
 10
-0.5
 20
-0.5
 30
0.0
 11
-0.5
 21
0.5
 31
0.0
  0
SOLID
  5
CA
330
71
100
AcDbEntity
  8
0
 62
     0
100
AcDbTrace
 10
-0.5
 20
-0.5
 30
0.0
 11
-0.5
 21
0.0
 31
0.0
 12
0.0
 22
-0.5
 32
0.0
 13
0.0
 23
0.0
 33
0.0
  0
SOLID
  5
CB
330
71
100
AcDbEntity
  8
0
 62
     0
100
AcDbTrace
 10
0.0
 20
0.0
 30
0.0
 11
0.0
 21
0.5
 31
0.0
 12
0.5
 22
0.0
 32
0.0
 13
0.5
 23
0.5
 33
0.0
  0
ENDBLK
  5
CC
330
71
100
AcDbEntity
  8
0
100
AcDbBlockEnd
  0
BLOCK
  5
CD
330
72
100
AcDbEntity
  8
0
100
AcDbBlockBegin
  2
CDWK_PTTYP6
 70
     0
 10
0.0
 20
0.0
 30
0.0
  3
CDWK_PTTYP6
  1

  0
LINE
  5
CE
330
72
100
AcDbEntity
  8
0
 62
     0
370
    -2
100
AcDbLine
 10
-0.5
 20
0.5
 30
0.0
 11
0.5
 21
0.5
 31
0.0
  0
LINE
  5
CF
330
72
100
AcDbEntity
  8
0
 62
     0
370
    -2
100
AcDbLine
 10
0.5
 20
0.5
 30
0.0
 11
0.5
 21
-0.5
 31
0.0
  0
LINE
  5
D0
330
72
100
AcDbEntity
  8
0
 62
     0
370
    -2
100
AcDbLine
 10
0.5
 20
-0.5
 30
0.0
 11
-0.5
 21
-0.5
 31
0.0
  0
LINE
  5
D1
330
72
100
AcDbEntity
  8
0
 62
     0
370
    -2
100
AcDbLine
 10
-0.5
 20
-0.5
 30
0.0
 11
-0.5
 21
0.5
 31
0.0
  0
SOLID
  5
D2
330
72
100
AcDbEntity
  8
0
 62
     0
100
AcDbTrace
 10
-0.5
 20
-0.5
 30
0.0
 11
-0.5
 21
0.5
 31
0.0
 12
0.5
 22
0.5
 32
0.0
 13
0.5
 23
0.5
 33
0.0
  0
ENDBLK
  5
D3
330
72
100
AcDbEntity
  8
0
100
AcDbBlockEnd
  0
BLOCK
  5
D4
330
73
100
AcDbEntity
  8
0
100
AcDbBlockBegin
  2
CDWK_PTTYP7
 70
     0
 10
0.0
 20
0.0
 30
0.0
  3
CDWK_PTTYP7
  1

  0
LINE
  5
D5
330
73
100
AcDbEntity
  8
0
 62
     0
370
    -2
100
AcDbLine
 10
-0.5
 20
0.5
 30
0.0
 11
0.5
 21
0.5
 31
0.0
  0
LINE
  5
D6
330
73
100
AcDbEntity
  8
0
 62
     0
370
    -2
100
AcDbLine
 10
0.5
 20
0.5
 30
0.0
 11
0.5
 21
-0.5
 31
0.0
  0
LINE
  5
D7
330
73
100
AcDbEntity
  8
0
 62
     0
370
    -2
100
AcDbLine
 10
0.5
 20
-0.5
 30
0.0
 11
-0.5
 21
-0.5
 31
0.0
  0
LINE
  5
D8
330
73
100
AcDbEntity
  8
0
 62
     0
370
    -2
100
AcDbLine
 10
-0.5
 20
-0.5
 30
0.0
 11
-0.5
 21
0.5
 31
0.0
  0
LINE
  5
D9
330
73
100
AcDbEntity
  8
0
 62
     0
370
    -2
100
AcDbLine
 10
0.0
 20
0.5
 30
0.0
 11
0.0
 21
-0.5
 31
0.0
  0
LINE
  5
DA
330
73
100
AcDbEntity
  8
0
 62
     0
370
    -2
100
AcDbLine
 10
-0.5
 20
0.0
 30
0.0
 11
0.5
 21
0.0
 31
0.0
  0
ENDBLK
  5
DB
330
73
100
AcDbEntity
  8
0
100
AcDbBlockEnd
  0
BLOCK
  5
DC
330
74
100
AcDbEntity
  8
0
100
AcDbBlockBegin
  2
CDWK_PTTYP8
 70
     0
 10
0.0
 20
0.0
 30
0.0
  3
CDWK_PTTYP8
  1

  0
SOLID
  5
DD
330
74
100
AcDbEntity
  8
0
 62
     0
100
AcDbTrace
 10
-0.5
 20
0.5
 30
0.0
 11
0.5
 21
0.5
 31
0.0
 12
-0.5
 22
-0.5
 32
0.0
 13
0.5
 23
-0.5
 33
0.0
  0
ENDBLK
  5
DE
330
74
100
AcDbEntity
  8
0
100
AcDbBlockEnd
  0
BLOCK
  5
DF
330
75
100
AcDbEntity
  8
0
100
AcDbBlockBegin
  2
CDWK_PTTYP9
 70
     0
 10
0.0
 20
0.0
 30
0.0
  3
CDWK_PTTYP9
  1

  0
CIRCLE
  5
E0
330
75
100
AcDbEntity
  8
0
 62
     0
370
    -2
100
AcDbCircle
 10
0.0
 20
0.0
 30
0.0
 40
0.5
  0
CIRCLE
  5
E1
330
75
100
AcDbEntity
  8
0
 62
     0
370
    -2
100
AcDbCircle
 10
0.0
 20
0.0
 30
0.0
 40
0.16666667
  0
ENDBLK
  5
E2
330
75
100
AcDbEntity
  8
0
100
AcDbBlockEnd
  0
BLOCK
  5
E3
330
76
100
AcDbEntity
  8
0
100
AcDbBlockBegin
  2
CDWK_PTTYP10
 70
     0
 10
0.0
 20
0.0
 30
0.0
  3
CDWK_PTTYP10
  1

  0
CIRCLE
  5
E4
330
76
100
AcDbEntity
  8
0
 62
     0
370
    -2
100
AcDbCircle
 10
0.0
 20
0.0
 30
0.0
 40
0.5
  0
ENDBLK
  5
E5
330
76
100
AcDbEntity
  8
0
100
AcDbBlockEnd
  0
BLOCK
  5
E6
330
77
100
AcDbEntity
  8
0
100
AcDbBlockBegin
  2
CDWK_PTTYP11
 70
     0
 10
0.0
 20
0.0
 30
0.0
  3
CDWK_PTTYP11
  1

  0
CIRCLE
  5
E7
330
77
100
AcDbEntity
  8
0
 62
     0
370
    -2
100
AcDbCircle
 10
0.0
 20
0.0
 30
0.0
 40
0.5
  0
CIRCLE
  5
E8
330
77
100
AcDbEntity
  8
0
 62
     0
370
    -2
100
AcDbCircle
 10
0.0
 20
0.0
 30
0.0
 40
0.25
  0
ENDBLK
  5
E9
330
77
100
AcDbEntity
  8
0
100
AcDbBlockEnd
  0
BLOCK
  5
EA
330
78
100
AcDbEntity
  8
0
100
AcDbBlockBegin
  2
CDWK_PTTYP12
 70
     0
 10
0.0
 20
0.0
 30
0.0
  3
CDWK_PTTYP12
  1

  0
CIRCLE
  5
EB
330
78
100
AcDbEntity
  8
0
 62
     0
370
    -2
100
AcDbCircle
 10
0.0
 20
0.0
 30
0.0
 40
0.5
  0
CIRCLE
  5
EC
330
78
100
AcDbEntity
  8
0
 62
     0
370
    -2
100
AcDbCircle
 10
0.25
 20
0.0
 30
0.0
 40
0.25
  0
ENDBLK
  5
ED
330
78
100
AcDbEntity
  8
0
100
AcDbBlockEnd
  0
BLOCK
  5
EE
330
79
100
AcDbEntity
  8
0
100
AcDbBlockBegin
  2
CDWK_PTTYP13
 70
     0
 10
0.0
 20
0.0
 30
0.0
  3
CDWK_PTTYP13
  1

  0
CIRCLE
  5
EF
330
79
100
AcDbEntity
  8
0
 62
     0
370
    -2
100
AcDbCircle
 10
0.0
 20
0.0
 30
0.0
 40
0.5
  0
CIRCLE
  5
F0
330
79
100
AcDbEntity
  8
0
 62
     0
370
    -2
100
AcDbCircle
 10
0.25
 20
0.0
 30
0.0
 40
0.25
  0
CIRCLE
  5
F1
330
79
100
AcDbEntity
  8
0
 62
     0
370
    -2
100
AcDbCircle
 10
-0.25
 20
0.0
 30
0.0
 40
0.25
  0
ENDBLK
  5
F2
330
79
100
AcDbEntity
  8
0
100
AcDbBlockEnd
  0
BLOCK
  5
F3
330
7A
100
AcDbEntity
  8
0
100
AcDbBlockBegin
  2
CDWK_PTTYP14
 70
     0
 10
0.0
 20
0.0
 30
0.0
  3
CDWK_PTTYP14
  1

  0
POINT
  5
F4
330
7A
100
AcDbEntity
  8
0
 62
     0
100
AcDbPoint
 10
0.0
 20
0.0
 30
0.0
  0
ENDBLK
  5
F5
330
7A
100
AcDbEntity
  8
0
100
AcDbBlockEnd
  0
BLOCK
  5
F6
330
7B
100
AcDbEntity
  8
0
100
AcDbBlockBegin
  2
CDWK_PTTYP15
 70
     0
 10
0.0
 20
0.0
 30
0.0
  3
CDWK_PTTYP15
  1

  0
POINT
  5
F7
330
7B
100
AcDbEntity
  8
0
 62
     0
100
AcDbPoint
 10
0.0
 20
0.0
 30
0.0
  0
ENDBLK
  5
F8
330
7B
100
AcDbEntity
  8
0
100
AcDbBlockEnd
  0
BLOCK
  5
F9
330
7C
100
AcDbEntity
  8
0
100
AcDbBlockBegin
  2
CDWK_PTTYP16
 70
     0
 10
0.0
 20
0.0
 30
0.0
  3
CDWK_PTTYP16
  1

  0
LINE
  5
FA
330
7C
100
AcDbEntity
  8
0
 62
     0
370
    -2
100
AcDbLine
 10
-0.5
 20
-0.28867513
 30
0.0
 11
0.5
 21
-0.28867513
 31
0.0
  0
LINE
  5
FB
330
7C
100
AcDbEntity
  8
0
 62
     0
370
    -2
100
AcDbLine
 10
0.5
 20
-0.28867513
 30
0.0
 11
0.0
 21
0.5773502700000001
 31
0.0
  0
LINE
  5
FC
330
7C
100
AcDbEntity
  8
0
 62
     0
370
    -2
100
AcDbLine
 10
0.0
 20
0.5773502700000001
 30
0.0
 11
-0.5
 21
-0.28867513
 31
0.0
  0
CIRCLE
  5
FD
330
7C
100
AcDbEntity
  8
0
 62
     0
370
    -2
100
AcDbCircle
 10
0.0
 20
0.0
 30
0.0
 40
0.28867513
  0
ENDBLK
  5
FE
330
7C
100
AcDbEntity
  8
0
100
AcDbBlockEnd
  0
BLOCK
  5
FF
330
7D
100
AcDbEntity
  8
0
100
AcDbBlockBegin
  2
CDWK_PTTYP17
 70
     0
 10
0.0
 20
0.0
 30
0.0
  3
CDWK_PTTYP17
  1

  0
CIRCLE
  5
100
330
7D
100
AcDbEntity
  8
0
 62
     0
370
    -2
100
AcDbCircle
 10
0.0
 20
0.0
 30
0.0
 40
0.5
  0
HATCH
  5
101
330
7D
100
AcDbEntity
  8
0
 62
     0
370
   211
100
AcDbHatch
 10
0.0
 20
0.0
 30
0.0
210
0.0
220
0.0
230
1.0
  2
SOLID
 70
     1
 71
     0
 91
        1
 92
        1
 93
        1
 72
     2
 10
0.0
 20
0.0
 40
0.25
 50
0.0
 51
360.0
 73
     1
 97
        0
 75
     0
 76
     1
 98
        1
 10
0.0
 20
0.0
  0
ENDBLK
  5
102
330
7D
100
AcDbEntity
  8
0
100
AcDbBlockEnd
  0
BLOCK
  5
103
330
7E
100
AcDbEntity
  8
0
100
AcDbBlockBegin
  2
CDWK_PTTYP18
 70
     0
 10
0.0
 20
0.0
 30
0.0
  3
CDWK_PTTYP18
  1

  0
CIRCLE
  5
104
330
7E
100
AcDbEntity
  8
0
 62
     0
370
    -2
100
AcDbCircle
 10
0.0
 20
0.0
 30
0.0
 40
0.5
  0
CIRCLE
  5
105
330
7E
100
AcDbEntity
  8
0
 62
     0
370
    -2
100
AcDbCircle
 10
0.0
 20
0.0
 30
0.0
 40
0.2
  0
ENDBLK
  5
106
330
7E
100
AcDbEntity
  8
0
100
AcDbBlockEnd
  0
BLOCK
  5
107
330
7F
100
AcDbEntity
  8
0
100
AcDbBlockBegin
  2
CDWK_PTTYP19
 70
     0
 10
0.0
 20
0.0
 30
0.0
  3
CDWK_PTTYP19
  1

  0
CIRCLE
  5
108
330
7F
100
AcDbEntity
  8
0
 62
     0
370
    -2
100
AcDbCircle
 10
0.0
 20
0.0
 30
0.0
 40
0.4
  0
CIRCLE
  5
109
330
7F
100
AcDbEntity
  8
0
 62
     0
370
    -2
100
AcDbCircle
 10
0.0
 20
0.0
 30
0.0
 40
0.25
  0
LINE
  5
10A
330
7F
100
AcDbEntity
  8
0
 62
     0
370
    -2
100
AcDbLine
 10
-0.25
 20
0.0
 30
0.0
 11
0.25
 21
0.0
 31
0.0
  0
ENDBLK
  5
10B
330
7F
100
AcDbEntity
  8
0
100
AcDbBlockEnd
  0
BLOCK
  5
10C
330
80
100
AcDbEntity
  8
0
100
AcDbBlockBegin
  2
CDWK_PTTYP20
 70
     0
 10
0.0
 20
0.0
 30
0.0
  3
CDWK_PTTYP20
  1

  0
CIRCLE
  5
10D
330
80
100
AcDbEntity
  8
0
 62
     0
370
    -2
100
AcDbCircle
 10
0.0
 20
0.0
 30
0.0
 40
0.5
  0
CIRCLE
  5
10E
330
80
100
AcDbEntity
  8
0
 62
     0
370
    -2
100
AcDbCircle
 10
0.0
 20
0.0
 30
0.0
 40
0.3
  0
ENDBLK
  5
10F
330
80
100
AcDbEntity
  8
0
100
AcDbBlockEnd
  0
BLOCK
  5
110
330
81
100
AcDbEntity
  8
0
100
AcDbBlockBegin
  2
CDWK_PTTYP21
 70
     0
 10
0.0
 20
0.0
 30
0.0
  3
CDWK_PTTYP21
  1

  0
CIRCLE
  5
111
330
81
100
AcDbEntity
  8
0
 62
     0
370
    -2
100
AcDbCircle
 10
0.0
 20
0.0
 30
0.0
 40
0.5
  0
LINE
  5
112
330
81
100
AcDbEntity
  8
0
 62
     0
370
    -2
100
AcDbLine
 10
-0.5
 20
0.0
 30
0.0
 11
0.5
 21
0.0
 31
0.0
  0
ENDBLK
  5
113
330
81
100
AcDbEntity
  8
0
100
AcDbBlockEnd
  0
BLOCK
  5
114
330
82
100
AcDbEntity
  8
0
100
AcDbBlockBegin
  2
CDWK_PTTYP22
 70
     0
 10
0.0
 20
0.0
 30
0.0
  3
CDWK_PTTYP22
  1

  0
POINT
  5
115
330
82
100
AcDbEntity
  8
0
 62
     0
100
AcDbPoint
 10
0.0
 20
0.0
 30
0.0
  0
ENDBLK
  5
116
330
82
100
AcDbEntity
  8
0
100
AcDbBlockEnd
  0
BLOCK
  5
117
330
83
100
AcDbEntity
  8
0
100
AcDbBlockBegin
  2
CDWK_PTTYP23
 70
     0
 10
0.0
 20
0.0
 30
0.0
  3
CDWK_PTTYP23
  1

  0
POINT
  5
118
330
83
100
AcDbEntity
  8
0
 62
     0
100
AcDbPoint
 10
0.0
 20
0.0
 30
0.0
  0
ENDBLK
  5
119
330
83
100
AcDbEntity
  8
0
100
AcDbBlockEnd
  0
BLOCK
  5
11A
330
84
100
AcDbEntity
  8
0
100
AcDbBlockBegin
  2
CDWK_PTTYP24
 70
     0
 10
0.0
 20
0.0
 30
0.0
  3
CDWK_PTTYP24
  1

  0
POINT
  5
11B
330
84
100
AcDbEntity
  8
0
 62
     0
100
AcDbPoint
 10
0.0
 20
0.0
 30
0.0
  0
ENDBLK
  5
11C
330
84
100
AcDbEntity
  8
0
100
AcDbBlockEnd
  0
BLOCK
  5
11D
330
85
100
AcDbEntity
  8
0
100
AcDbBlockBegin
  2
CDWK_PTTYP25
 70
     0
 10
0.0
 20
0.0
 30
0.0
  3
CDWK_PTTYP25
  1

  0
LINE
  5
11E
330
85
100
AcDbEntity
  8
0
 62
     0
370
    -2
100
AcDbLine
 10
-0.43290044
 20
-0.25
 30
0.0
 11
0.43290044
 21
-0.25
 31
0.0
  0
LINE
  5
11F
330
85
100
AcDbEntity
  8
0
 62
     0
370
    -2
100
AcDbLine
 10
-0.43290044
 20
-0.25
 30
0.0
 11
0.0
 21
0.5
 31
0.0
  0
LINE
  5
120
330
85
100
AcDbEntity
  8
0
 62
     0
370
    -2
100
AcDbLine
 10
0.43290044
 20
-0.25
 30
0.0
 11
0.0
 21
0.5
 31
0.0
  0
CIRCLE
  5
121
330
85
100
AcDbEntity
  8
0
 62
     0
370
    -2
100
AcDbCircle
 10
0.0
 20
0.0
 30
0.0
 40
0.5
  0
ENDBLK
  5
122
330
85
100
AcDbEntity
  8
0
100
AcDbBlockEnd
  0
BLOCK
  5
123
330
86
100
AcDbEntity
  8
0
100
AcDbBlockBegin
  2
CDWK_PTTYP26
 70
     0
 10
0.0
 20
0.0
 30
0.0
  3
CDWK_PTTYP26
  1

  0
LINE
  5
124
330
86
100
AcDbEntity
  8
0
 62
     0
370
    -2
100
AcDbLine
 10
-0.5
 20
-0.28850001
 30
0.0
 11
0.5
 21
-0.28850001
 31
0.0
  0
LINE
  5
125
330
86
100
AcDbEntity
  8
0
 62
     0
370
    -2
100
AcDbLine
 10
-0.5
 20
-0.28850001
 30
0.0
 11
0.0
 21
0.5773672100000001
 31
0.0
  0
LINE
  5
126
330
86
100
AcDbEntity
  8
0
 62
     0
370
    -2
100
AcDbLine
 10
0.5
 20
-0.28850001
 30
0.0
 11
0.0
 21
0.5773672100000001
 31
0.0
  0
CIRCLE
  5
127
330
86
100
AcDbEntity
  8
0
 62
     0
370
    -2
100
AcDbCircle
 10
0.0
 20
0.0
 30
0.0
 40
0.1312336
  0
ENDBLK
  5
128
330
86
100
AcDbEntity
  8
0
100
AcDbBlockEnd
  0
BLOCK
  5
129
330
87
100
AcDbEntity
  8
0
100
AcDbBlockBegin
  2
CDWK_PTTYP27
 70
     0
 10
0.0
 20
0.0
 30
0.0
  3
CDWK_PTTYP27
  1

  0
LINE
  5
12A
330
87
100
AcDbEntity
  8
0
 62
     0
370
    -2
100
AcDbLine
 10
-0.43290044
 20
-0.25
 30
0.0
 11
0.43290044
 21
-0.25
 31
0.0
  0
LINE
  5
12B
330
87
100
AcDbEntity
  8
0
 62
     0
370
    -2
100
AcDbLine
 10
-0.43290044
 20
-0.25
 30
0.0
 11
0.0
 21
0.5
 31
0.0
  0
LINE
  5
12C
330
87
100
AcDbEntity
  8
0
 62
     0
370
    -2
100
AcDbLine
 10
0.43290044
 20
-0.25
 30
0.0
 11
0.0
 21
0.5
 31
0.0
  0
CIRCLE
  5
12D
330
87
100
AcDbEntity
  8
0
 62
     0
370
    -2
100
AcDbCircle
 10
0.0
 20
0.0
 30
0.0
 40
0.5
  0
CIRCLE
  5
12E
330
87
100
AcDbEntity
  8
0
 62
     0
370
    -2
100
AcDbCircle
 10
0.0
 20
0.0
 30
0.0
 40
0.1312336
  0
ENDBLK
  5
12F
330
87
100
AcDbEntity
  8
0
100
AcDbBlockEnd
  0
BLOCK
  5
130
330
88
100
AcDbEntity
  8
0
100
AcDbBlockBegin
  2
CDWK_PTTYP28
 70
     0
 10
0.0
 20
0.0
 30
0.0
  3
CDWK_PTTYP28
  1

  0
POINT
  5
131
330
88
100
AcDbEntity
  8
0
 62
     0
100
AcDbPoint
 10
0.0
 20
0.0
 30
0.0
  0
ENDBLK
  5
132
330
88
100
AcDbEntity
  8
0
100
AcDbBlockEnd
  0
BLOCK
  5
133
330
89
100
AcDbEntity
  8
0
100
AcDbBlockBegin
  2
CDWK_PTTYP29
 70
     0
 10
0.0
 20
0.0
 30
0.0
  3
CDWK_PTTYP29
  1

  0
CIRCLE
  5
134
330
89
100
AcDbEntity
  8
0
 62
     0
370
    -2
100
AcDbCircle
 10
0.0
 20
0.0
 30
0.0
 40
0.5
  0
CIRCLE
  5
135
330
89
100
AcDbEntity
  8
0
 62
     0
370
    -2
100
AcDbCircle
 10
0.0
 20
0.0
 30
0.0
 40
0.375
  0
CIRCLE
  5
136
330
89
100
AcDbEntity
  8
0
 62
     0
370
    -2
100
AcDbCircle
 10
0.0
 20
0.0
 30
0.0
 40
0.21875
  0
ENDBLK
  5
137
330
89
100
AcDbEntity
  8
0
100
AcDbBlockEnd
  0
BLOCK
  5
138
330
8A
100
AcDbEntity
  8
0
100
AcDbBlockBegin
  2
CDWK_PTTYP30
 70
     0
 10
0.0
 20
0.0
 30
0.0
  3
CDWK_PTTYP30
  1

  0
LINE
  5
139
330
8A
100
AcDbEntity
  8
0
 62
     0
370
    -2
100
AcDbLine
 10
0.17680339
 20
0.17680339
 30
0.0
 11
0.5
 21
0.5
 31
0.0
  0
LINE
  5
13A
330
8A
100
AcDbEntity
  8
0
 62
     0
370
    -2
100
AcDbLine
 10
-0.17680339
 20
0.17680339
 30
0.0
 11
-0.5
 21
0.5
 31
0.0
  0
LINE
  5
13B
330
8A
100
AcDbEntity
  8
0
 62
     0
370
    -2
100
AcDbLine
 10
0.17680339
 20
-0.17680339
 30
0.0
 11
0.5
 21
-0.5
 31
0.0
  0
LINE
  5
13C
330
8A
100
AcDbEntity
  8
0
 62
     0
370
    -2
100
AcDbLine
 10
-0.17680339
 20
-0.17680339
 30
0.0
 11
-0.5
 21
-0.5
 31
0.0
  0
ENDBLK
  5
13D
330
8A
100
AcDbEntity
  8
0
100
AcDbBlockEnd
  0
BLOCK
  5
13E
330
8B
100
AcDbEntity
  8
0
100
AcDbBlockBegin
  2
CDWK_PTTYP31
 70
     0
 10
0.0
 20
0.0
 30
0.0
  3
CDWK_PTTYP31
  1

  0
CIRCLE
  5
13F
330
8B
100
AcDbEntity
  8
0
 62
     0
370
    -2
100
AcDbCircle
 10
0.0
 20
0.0
 30
0.0
 40
0.075
  0
LINE
  5
140
330
8B
100
AcDbEntity
  8
0
 62
     0
370
    -2
100
AcDbLine
 10
0.075
 20
0.0
 30
0.0
 11
0.5
 21
0.0
 31
0.0
  0
LINE
  5
141
330
8B
100
AcDbEntity
  8
0
 62
     0
370
    -2
100
AcDbLine
 10
-0.075
 20
0.0
 30
0.0
 11
-0.5
 21
0.0
 31
0.0
  0
LINE
  5
142
330
8B
100
AcDbEntity
  8
0
 62
     0
370
    -2
100
AcDbLine
 10
0.0
 20
0.075
 30
0.0
 11
0.0
 21
0.5
 31
0.0
  0
LINE
  5
143
330
8B
100
AcDbEntity
  8
0
 62
     0
370
    -2
100
AcDbLine
 10
0.0
 20
-0.075
 30
0.0
 11
0.0
 21
-0.5
 31
0.0
  0
ENDBLK
  5
144
330
8B
100
AcDbEntity
  8
0
100
AcDbBlockEnd
  0
BLOCK
  5
145
330
8C
100
AcDbEntity
  8
0
100
AcDbBlockBegin
  2
CDWK_PTTYP32
 70
     0
 10
0.0
 20
0.0
 30
0.0
  3
CDWK_PTTYP32
  1

  0
CIRCLE
  5
146
330
8C
100
AcDbEntity
  8
0
 62
     0
370
    -2
100
AcDbCircle
 10
0.0
 20
0.0
 30
0.0
 40
0.5
  0
CIRCLE
  5
147
330
8C
100
AcDbEntity
  8
0
 62
     0
370
    -2
100
AcDbCircle
 10
0.0
 20
0.0
 30
0.0
 40
0.16666667
  0
LINE
  5
148
330
8C
100
AcDbEntity
  8
0
 62
     0
370
    -2
100
AcDbLine
 10
0.11786893
 20
0.11786893
 30
0.0
 11
0.35360678
 21
0.35360678
 31
0.0
  0
LINE
  5
149
330
8C
100
AcDbEntity
  8
0
 62
     0
370
    -2
100
AcDbLine
 10
-0.11786893
 20
0.11786893
 30
0.0
 11
-0.35360678
 21
0.35360678
 31
0.0
  0
LINE
  5
14A
330
8C
100
AcDbEntity
  8
0
 62
     0
370
    -2
100
AcDbLine
 10
0.11786893
 20
-0.11786893
 30
0.0
 11
0.35360678
 21
-0.35360678
 31
0.0
  0
LINE
  5
14B
330
8C
100
AcDbEntity
  8
0
 62
     0
370
    -2
100
AcDbLine
 10
-0.11786893
 20
-0.11786893
 30
0.0
 11
-0.35360678
 21
-0.35360678
 31
0.0
  0
ENDBLK
  5
14C
330
8C
100
AcDbEntity
  8
0
100
AcDbBlockEnd
  0
BLOCK
  5
14D
330
8D
100
AcDbEntity
  8
0
100
AcDbBlockBegin
  2
CDWK_PTTYP33
 70
     0
 10
0.0
 20
0.0
 30
0.0
  3
CDWK_PTTYP33
  1

  0
CIRCLE
  5
14E
330
8D
100
AcDbEntity
  8
0
 62
     0
370
    -2
100
AcDbCircle
 10
0.0
 20
0.0
 30
0.0
 40
0.5
  0
LINE
  5
14F
330
8D
100
AcDbEntity
  8
0
 62
     0
370
    -2
100
AcDbLine
 10
0.0
 20
0.5
 30
0.0
 11
0.0
 21
-0.5
 31
0.0
  0
LINE
  5
150
330
8D
100
AcDbEntity
  8
0
 62
     0
370
    -2
100
AcDbLine
 10
-0.5
 20
0.0
 30
0.0
 11
0.5
 21
0.0
 31
0.0
  0
ENDBLK
  5
151
330
8D
100
AcDbEntity
  8
0
100
AcDbBlockEnd
  0
BLOCK
  5
152
330
8E
100
AcDbEntity
  8
0
100
AcDbBlockBegin
  2
CDWK_PTTYP34
 70
     0
 10
0.0
 20
0.0
 30
0.0
  3
CDWK_PTTYP34
  1

  0
CIRCLE
  5
153
330
8E
100
AcDbEntity
  8
0
 62
     0
370
    -2
100
AcDbCircle
 10
0.0
 20
0.0
 30
0.0
 40
0.5
  0
LINE
  5
154
330
8E
100
AcDbEntity
  8
0
 62
     0
370
    -2
100
AcDbLine
 10
-0.30360678
 20
-0.40360678
 30
0.0
 11
0.40360678
 21
0.30360678
 31
0.0
  0
LINE
  5
155
330
8E
100
AcDbEntity
  8
0
 62
     0
370
    -2
100
AcDbLine
 10
-0.40360678
 20
-0.30360678
 30
0.0
 11
0.30360678
 21
0.40360678
 31
0.0
  0
ENDBLK
  5
156
330
8E
100
AcDbEntity
  8
0
100
AcDbBlockEnd
  0
BLOCK
  5
157
330
8F
100
AcDbEntity
  8
0
100
AcDbBlockBegin
  2
CDWK_PTTYP35
 70
     0
 10
0.0
 20
0.0
 30
0.0
  3
CDWK_PTTYP35
  1

  0
CIRCLE
  5
158
330
8F
100
AcDbEntity
  8
0
 62
     0
370
    -2
100
AcDbCircle
 10
0.0
 20
0.0
 30
0.0
 40
0.21431634
  0
LINE
  5
159
330
8F
100
AcDbEntity
  8
0
 62
     0
370
    -2
100
AcDbLine
 10
0.0
 20
0.21431634
 30
0.0
 11
0.0
 21
0.5
 31
0.0
  0
LINE
  5
15A
330
8F
100
AcDbEntity
  8
0
 62
     0
370
    -2
100
AcDbLine
 10
0.0
 20
-0.21431634
 30
0.0
 11
0.0
 21
-0.5
 31
0.0
  0
ENDBLK
  5
15B
330
8F
100
AcDbEntity
  8
0
100
AcDbBlockEnd
  0
BLOCK
  5
15C
330
90
100
AcDbEntity
  8
0
100
AcDbBlockBegin
  2
CDWK_PTTYP36
 70
     0
 10
0.0
 20
0.0
 30
0.0
  3
CDWK_PTTYP36
  1

  0
LINE
  5
15D
330
90
100
AcDbEntity
  8
0
 62
     0
370
    -2
100
AcDbLine
 10
-0.5
 20
-0.16666667
 30
0.0
 11
0.5
 21
-0.16666667
 31
0.0
  0
LINE
  5
15E
330
90
100
AcDbEntity
  8
0
 62
     0
370
    -2
100
AcDbLine
 10
0.5
 20
-0.16666667
 30
0.0
 11
0.5
 21
0.16666667
 31
0.0
  0
LINE
  5
15F
330
90
100
AcDbEntity
  8
0
 62
     0
370
    -2
100
AcDbLine
 10
0.5
 20
0.16666667
 30
0.0
 11
-0.5
 21
0.16666667
 31
0.0
  0
LINE
  5
160
330
90
100
AcDbEntity
  8
0
 62
     0
370
    -2
100
AcDbLine
 10
-0.5
 20
0.16666667
 30
0.0
 11
-0.5
 21
-0.16666667
 31
0.0
  0
SOLID
  5
161
330
90
100
AcDbEntity
  8
0
 62
     0
100
AcDbTrace
 10
-0.5
 20
-0.16666667
 30
0.0
 11
0.5
 21
0.16666667
 31
0.0
 12
0.5
 22
-0.16666667
 32
0.0
 13
0.5
 23
-0.16666667
 33
0.0
  0
ENDBLK
  5
162
330
90
100
AcDbEntity
  8
0
100
AcDbBlockEnd
  0
BLOCK
  5
163
330
91
100
AcDbEntity
  8
0
100
AcDbBlockBegin
  2
CDWK_PTTYP37
 70
     0
 10
0.0
 20
0.0
 30
0.0
  3
CDWK_PTTYP37
  1

  0
CIRCLE
  5
164
330
91
100
AcDbEntity
  8
0
 62
     0
370
    -2
100
AcDbCircle
 10
0.0
 20
0.0
 30
0.0
 40
0.5
  0
SOLID
  5
165
330
91
100
AcDbEntity
  8
0
 62
     0
100
AcDbTrace
 10
0.0
 20
0.0
 30
0.0
 11
0.3535000099999999
 21
0.3535000099999999
 31
0.0
 12
0.5
 22
0.0
 32
0.0
 13
0.4620000100000001
 23
0.19149999
 33
0.0
  0
SOLID
  5
166
330
91
100
AcDbEntity
  8
0
 62
     0
100
AcDbTrace
 10
0.0
 20
0.0
 30
0.0
 11
0.3535000099999999
 21
-0.3535000099999999
 31
0.0
 12
0.5
 22
0.0
 32
0.0
 13
0.4620000100000001
 23
-0.19149999
 33
0.0
  0
SOLID
  5
167
330
91
100
AcDbEntity
  8
0
 62
     0
100
AcDbTrace
 10
0.0
 20
0.0
 30
0.0
 11
0.0
 21
-0.5
 31
0.0
 12
0.3535000099999999
 22
-0.3535000099999999
 32
0.0
 13
0.19149999
 23
-0.4620000100000001
 33
0.0
  0
SOLID
  5
168
330
91
100
AcDbEntity
  8
0
 62
     0
100
AcDbTrace
 10
0.0
 20
0.0
 30
0.0
 11
0.0
 21
-0.5
 31
0.0
 12
-0.3535000099999999
 22
-0.3535000099999999
 32
0.0
 13
-0.19149999
 23
-0.4620000100000001
 33
0.0
  0
ENDBLK
  5
169
330
91
100
AcDbEntity
  8
0
100
AcDbBlockEnd
  0
BLOCK
  5
16A
330
92
100
AcDbEntity
  8
0
100
AcDbBlockBegin
  2
CDWK_PTTYP38
 70
     0
 10
0.0
 20
0.0
 30
0.0
  3
CDWK_PTTYP38
  1

  0
CIRCLE
  5
16B
330
92
100
AcDbEntity
  8
0
 62
     0
370
    -2
100
AcDbCircle
 10
0.0
 20
0.0
 30
0.0
 40
0.5
  0
SOLID
  5
16C
330
92
100
AcDbEntity
  8
0
 62
     0
100
AcDbTrace
 10
0.0
 20
0.0
 30
0.0
 11
0.3535000099999999
 21
0.3535000099999999
 31
0.0
 12
0.0
 22
0.5
 32
0.0
 13
0.19149999
 23
0.4620000100000001
 33
0.0
  0
SOLID
  5
16D
330
92
100
AcDbEntity
  8
0
 62
     0
100
AcDbTrace
 10
0.0
 20
0.0
 30
0.0
 11
0.5
 21
0.0
 31
0.0
 12
0.3535000099999999
 22
0.3535000099999999
 32
0.0
 13
0.4620000100000001
 23
0.19149999
 33
0.0
  0
SOLID
  5
16E
330
92
100
AcDbEntity
  8
0
 62
     0
100
AcDbTrace
 10
0.0
 20
0.0
 30
0.0
 11
0.0
 21
-0.5
 31
0.0
 12
-0.3535000099999999
 22
-0.3535000099999999
 32
0.0
 13
-0.19149999
 23
-0.4620000100000001
 33
0.0
  0
SOLID
  5
16F
330
92
100
AcDbEntity
  8
0
 62
     0
100
AcDbTrace
 10
0.0
 20
0.0
 30
0.0
 11
-0.5
 21
0.0
 31
0.0
 12
-0.3535000099999999
 22
-0.3535000099999999
 32
0.0
 13
-0.4620000100000001
 23
-0.19149999
 33
0.0
  0
ENDBLK
  5
170
330
92
100
AcDbEntity
  8
0
100
AcDbBlockEnd
  0
BLOCK
  5
171
330
93
100
AcDbEntity
  8
Ech.1_5
100
AcDbBlockBegin
  2
*D45
 70
     1
 10
0.0
 20
0.0
 30
0.0
  3
*D45
  1

  0
TEXT
  5
172
330
93
100
AcDbEntity
  8
Ech.1_5
 62
     7
370
    18
100
AcDbText
 10
24348.4799187
 20
-3835.793713400001
 30
0.0
 40
25.0
  1
1/3 *
 50
89.99999749999998
  7
ARIAL
100
AcDbText
  0
LINE
  5
173
330
93
100
AcDbEntity
  8
Ech.1_5
 62
     7
370
    -2
100
AcDbLine
 10
24352.19758506
 20
-3902.53857916
 30
0.0
 11
24359.11666644
 21
-3902.53857916
 31
0.0
  0
LINE
  5
174
330
93
100
AcDbEntity
  8
Ech.1_5
 62
     7
370
    -2
100
AcDbLine
 10
24352.19758506
 20
-3740.53857276
 30
0.0
 11
24356.42210642
 21
-3740.53857276
 31
0.0
  0
LINE
  5
175
330
93
100
AcDbEntity
  8
Ech.1_5
 62
     7
370
    -2
100
AcDbLine
 10
24357.19758506
 20
-3907.53857916
 30
0.0
 11
24357.19758506
 21
-3735.53857276
 31
0.0
  0
LINE
  5
176
330
93
100
AcDbEntity
  8
Ech.1_5
 62
     7
370
    -2
100
AcDbLine
 10
24359.69758506
 20
-3905.03857916
 30
0.0
 11
24354.69758506
 21
-3900.03857916
 31
0.0
  0
LINE
  5
177
330
93
100
AcDbEntity
  8
Ech.1_5
 62
     7
370
    -2
100
AcDbLine
 10
24359.69758506
 20
-3743.038572760001
 30
0.0
 11
24354.69758506
 21
-3738.03857276
 31
0.0
  0
ENDBLK
  5
178
330
93
100
AcDbEntity
  8
0
100
AcDbBlockEnd
  0
BLOCK
  5
179
330
94
100
AcDbEntity
  8
Ech.1_5
100
AcDbBlockBegin
  2
*D46
 70
     1
 10
0.0
 20
0.0
 30
0.0
  3
*D46
  1

  0
TEXT
  5
17A
330
94
100
AcDbEntity
  8
Ech.1_5
 62
     7
370
    18
100
AcDbText
 10
24348.4799187
 20
-3654.79369985
 30
0.0
 40
25.0
  1
2/3 *
 50
89.99999749999998
  7
ARIAL
100
AcDbText
  0
LINE
  5
17B
330
94
100
AcDbEntity
  8
Ech.1_5
 62
     7
370
    -2
100
AcDbLine
 10
24362.19758506
 20
-3740.53857276
 30
0.0
 11
24356.42210642
 21
-3740.53857276
 31
0.0
  0
LINE
  5
17C
330
94
100
AcDbEntity
  8
Ech.1_5
 62
     7
370
    -2
100
AcDbLine
 10
24362.19758506
 20
-3540.53855206
 30
0.0
 11
24332.98696188
 21
-3540.53855206
 31
0.0
  0
LINE
  5
17D
330
94
100
AcDbEntity
  8
Ech.1_5
 62
     7
370
    -2
100
AcDbLine
 10
24357.19758506
 20
-3745.538572760001
 30
0.0
 11
24357.19758506
 21
-3535.53855206
 31
0.0
  0
LINE
  5
17E
330
94
100
AcDbEntity
  8
Ech.1_5
 62
     7
370
    -2
100
AcDbLine
 10
24359.69758506
 20
-3743.038572760001
 30
0.0
 11
24354.69758506
 21
-3738.03857276
 31
0.0
  0
LINE
  5
17F
330
94
100
AcDbEntity
  8
Ech.1_5
 62
     7
370
    -2
100
AcDbLine
 10
24359.69758506
 20
-3543.03855206
 30
0.0
 11
24354.69758506
 21
-3538.03855206
 31
0.0
  0
ENDBLK
  5
180
330
94
100
AcDbEntity
  8
0
100
AcDbBlockEnd
  0
ENDSEC
  0
SECTION
  2
ENTITIES
  0
LWPOLYLINE
  5
181
330
64
100
AcDbEntity
  8
Ech.1_5
 62
     7
100
AcDbPolyline
 90
       27
 70
     0
 43
0.0
 10
23809.38184352
 20
-3913.11795714
 10
23809.50846064
 20
-3912.78348334
 10
23809.50846064
 20
-3885.400019249999
 10
23816.50846064
 20
-3885.400019249999
 10
23816.50846064
 20
-3894.40001925
 10
23822.50846064
 20
-3894.40001925
 10
23822.50846064
 20
-3867.40001925
 10
23818.50846064
 20
-3863.40001925
 10
23822.50846064
 20
-3859.40001925
 10
23822.50846064
 20
-3795.40001925
 10
23818.50846064
 20
-3791.40001925
 10
23822.50846064
 20
-3787.40001925
 10
23822.50846064
 20
-3752.40001925
 10
23815.50846064
 20
-3752.40001925
 10
23815.50846064
 20
-3746.40001925
 10
23813.00846064
 20
-3741.40001925
 10
23810.50846064
 20
-3746.40001925
 10
23810.50846064
 20
-3777.32895144
 10
23810.12785831
 20
-3779.2423686
 10
23803.97292674
 20
-3785.93555316
 10
23802.50846064
 20
-3789.47108706
 10
23802.50846064
 20
-3908.55783148
 10
23803.46878304
 20
-3910.18770012
 10
23808.2049039
 20
-3913.15905005
 10
23808.61690526
 20
-3913.40001925
 10
23808.93072275
 20
-3913.40001925
 10
23809.38184352
 20
-3913.11795714
  0
LWPOLYLINE
  5
182
330
64
100
AcDbEntity
  8
Ech.1_5
  6
Continuous
 62
     7
370
    -3
100
AcDbPolyline
 90
        4
 70
     0
 43
0.0
 10
24037.48664955
 20
-3800.53855206
 10
24079.48664955
 20
-3740.53855206
 10
24079.48664955
 20
-3800.53855206
 10
24037.48664955
 20
-3740.53855206
  0
LWPOLYLINE
  5
183
330
64
100
AcDbEntity
  8
Ech.1_5
  6
Continuous
 62
     7
370
    -3
100
AcDbPolyline
 90
        5
 70
     0
 43
0.0
 10
24079.48664955
 20
-3800.53855206
 10
24079.48664955
 20
-3740.53855206
 10
24037.48664955
 20
-3740.53855206
 10
24037.48664955
 20
-3800.53855206
 10
24079.48664955
 20
-3800.53855206
  0
LWPOLYLINE
  5
184
330
64
100
AcDbEntity
  8
Ech.1_5
  6
Continuous
 62
     7
370
    -3
100
AcDbPolyline
 90
        4
 70
     0
 43
0.0
 10
23847.50860634
 20
-3507.566818700001
 10
24924.16984082
 20
-3115.69417696
 10
24924.16984082
 20
-3351.94164245
 10
24406.00417782654
 20
-3540.538520198903
  0
LWPOLYLINE
  5
185
330
64
100
AcDbEntity
  8
Ech.1_5
  6
Continuous
 62
     7
370
    -3
100
AcDbPolyline
 90
        4
 70
     0
 43
0.0
 10
23847.50860634
 20
-3613.98459595
 10
23405.5086064
 20
-3774.85943947
 10
23405.5086064
 20
-3668.44166223
 10
23847.50860634
 20
-3507.566818700001
  0
LWPOLYLINE
  5
186
330
64
100
AcDbEntity
  8
Ech.1_5
 62
     7
100
AcDbPolyline
 90
       57
 70
     0
 43
0.0
 10
23317.20109871
 20
-3758.42274931
 10
23318.59618587
 20
-3758.22002309
 10
23319.99238044
 20
-3758.015383
 10
23321.39078981
 20
-3757.80691518
 10
23322.7925214
 20
-3757.59270575
 10
23324.19868261
 20
-3757.37084084
 10
23325.61038085
 20
-3757.13940659
 10
23327.02872351
 20
-3756.89648912
 10
23328.454818
 20
-3756.64017457
 10
23329.88977174
 20
-3756.36854908
 10
23331.33469212
 20
-3756.07969876
 10
23332.79068654
 20
-3755.77170976
 10
23334.25886242
 20
-3755.44266819
 10
23335.74032716
 20
-3755.0906602
 10
23337.23618816
 20
-3754.71377192
 10
23338.7475334
 20
-3754.31013413
 10
23340.27359711
 20
-3753.88213818
 10
23341.81025391
 20
-3753.43989703
 10
23343.35302398
 20
-3752.99433824
 10
23344.89742753
 20
-3752.55638936
 10
23346.43898473
 20
-3752.13697793
 10
23347.97321579
 20
-3751.74703151
 10
23349.4956409
 20
-3751.39747765
 10
23351.00178024
 20
-3751.099243880001
 10
23352.48715402
 20
-3750.86325777
 10
23353.94728243
 20
-3750.70044686
 10
23355.37768565
 20
-3750.62173869
 10
23356.77388389
 20
-3750.63806083
 10
23358.13139733
 20
-3750.76034081
 10
23359.44574617
 20
-3750.99950618
 10
23360.71245059
 20
-3751.3664845
 10
23361.92703167
 20
-3751.87219959
 10
23363.08620583
 20
-3752.52245134
 10
23364.19025426
 20
-3753.307759310001
 10
23365.24011974
 20
-3754.21580717
 10
23366.23674504
 20
-3755.23427866
 10
23367.18107292
 20
-3756.350857450001
 10
23368.07404617
 20
-3757.55322727
 10
23368.91660754
 20
-3758.829071810001
 10
23369.70969982
 20
-3760.16607477
 10
23370.45426577
 20
-3761.55191987
 10
23371.15124817
 20
-3762.9742908
 10
23371.80158978
 20
-3764.42087127
 10
23372.40623338
 20
-3765.87934498
 10
23372.96612173
 20
-3767.337395630001
 10
23373.48223386
 20
-3768.78297375
 10
23373.9565629
 20
-3770.211494770001
 10
23374.39222783
 20
-3771.62666132
 10
23374.79240627
 20
-3773.03260786
 10
23375.16027584
 20
-3774.43346884
 10
23375.49901419
 20
-3775.833378700001
 10
23375.81179894
 20
-3777.23647189
 10
23376.10180772
 20
-3778.64688287
 10
23376.37223682
 20
-3780.06867028
 10
23376.62710072
 20
-3781.50256783
 10
23376.87153389
 20
-3782.944757950001
 10
23377.1107517
 20
-3784.39109435
  0
ARC
  5
187
330
64
100
AcDbEntity
  8
Ech.1_5
 62
     7
100
AcDbCircle
 10
23308.50026388
 20
-3691.19355556
 30
0.0
 40
67.78988877
100
AcDbArc
 50
176.81519387
 51
17.9333216
  0
LINE
  5
188
330
64
100
AcDbEntity
  8
Ech.1_5
 62
     7
100
AcDbLine
 10
23405.5086064
 20
-3668.44166223
 30
0.0
 11
24205.61122544
 21
-3377.22812454
 31
0.0
  0
LINE
  5
189
330
64
100
AcDbEntity
  8
Ech.1_5
 62
     7
100
AcDbLine
 10
24036.50449356
 20
-3878.03855206
 30
0.0
 11
24036.50449356
 21
-4080.23231938
 31
0.0
  0
LINE
  5
18A
330
64
100
AcDbEntity
  8
Ech.1_5
 62
     7
100
AcDbLine
 10
23822.50845364
 20
-3889.98109993
 30
0.0
 11
23822.50845364
 21
-3880.54870541
 31
0.0
  0
LINE
  5
18B
330
64
100
AcDbEntity
  8
Ech.1_5
 62
     7
100
AcDbLine
 10
23371.70210552
 20
-3670.32037185
 30
0.0
 11
23383.5086064
 21
-3670.32037185
 31
0.0
  0
LINE
  5
18C
330
64
100
AcDbEntity
  8
Ech.1_5
 62
     7
100
AcDbLine
 10
23405.5086064
 20
-3774.85943947
 30
0.0
 11
23405.5086064
 21
-3774.85943947
 31
0.0
  0
ARC
  5
18D
330
64
100
AcDbEntity
  8
Ech.1_5
 62
     7
100
AcDbCircle
 10
23380.48907736
 20
-3783.7767169
 30
0.0
 40
3.43373615
100
AcDbArc
 50
190.30709612
 51
331.56662714
  0
LINE
  5
18E
330
64
100
AcDbEntity
  8
Ech.1_5
 62
     7
100
AcDbLine
 10
24036.50449356
 20
-3760.53855206
 30
0.0
 11
24036.50449356
 21
-3786.59826084
 31
0.0
  0
ARC
  5
18F
330
64
100
AcDbEntity
  8
Ech.1_5
 62
     7
100
AcDbCircle
 10
23850.90199298
 20
-4441.83457765
 30
0.0
 40
901.7086349999999
100
AcDbArc
 50
114.11271308
 51
118.22750414
  0
ARC
  5
190
330
64
100
AcDbEntity
  8
Ech.1_5
 62
     7
100
AcDbCircle
 10
23376.30549826
 20
-3553.74018365
 30
0.0
 40
105.25912681
100
AcDbArc
 50
263.48672377
 51
297.19892922
  0
LWPOLYLINE
  5
191
330
64
100
AcDbEntity
  8
Ech.1_5
  6
Continuous
 62
     7
370
    -3
100
AcDbPolyline
 90
        4
 70
     0
 43
0.0
 10
24036.50449356
 20
-3935.53861278
 10
24076.50449356
 20
-3980.538612780001
 10
24076.50449356
 20
-3935.53861278
 10
24036.50449356
 20
-3980.538612780001
  0
LWPOLYLINE
  5
192
330
64
100
AcDbEntity
  8
Ech.1_5
  6
Continuous
 62
     7
370
    -3
100
AcDbPolyline
 90
        4
 70
     0
 43
0.0
 10
24036.50449356
 20
-4307.028645019999
 10
24076.50449356
 20
-4352.02864502
 10
24076.50449356
 20
-4307.028645019999
 10
24036.50449356
 20
-4352.02864502
  0
LWPOLYLINE
  5
193
330
64
100
AcDbEntity
  8
Ech.1_5
  6
Continuous
 62
     7
370
    -3
100
AcDbPolyline
 90
        6
 70
     0
 43
0.0
 10
23783.21209882
 20
-4383.29187504
 10
23963.21209882
 20
-4383.291313119999
 10
23979.69760198
 20
-4365.31396472
 10
23965.58766196
 20
-4401.26966473
 10
23982.07401604
 20
-4383.291313119999
 10
24109.07401604
 20
-4383.291313119999
  0
LWPOLYLINE
  5
194
330
64
100
AcDbEntity
  8
Ech.1_5
 62
     7
100
AcDbPolyline
 90
        4
 70
     0
 43
0.0
 10
24924.16984082
 20
-3902.538612780001
 10
24040.53091839
 20
-3902.538612780001
 10
24040.53091839
 20
-3915.53861278
 10
24924.16984082
 20
-3915.53861278
  0
LWPOLYLINE
  5
195
330
64
100
AcDbEntity
  8
Ech.1_5
 62
     7
100
AcDbPolyline
 90
        4
 70
     0
 43
0.0
 10
24921.16968806
 20
-3902.538612780001
 10
24040.53091839
 20
-3902.538612780001
 10
24040.53091839
 20
-3877.85644268
 10
24921.16968806
 20
-3877.85644268
  0
LWPOLYLINE
  5
196
330
64
100
AcDbEntity
  8
Ech.1_5
  6
Continuous
 62
     7
370
    -3
100
AcDbPolyline
 90
        4
 70
     0
 43
0.0
 10
23822.50876607
 20
-4383.29187504
 10
23822.50860634
 20
-3675.73794569
 10
23847.50860634
 20
-3675.73794569
 10
23847.50852999
 20
-4383.291797
  0
LWPOLYLINE
  5
197
330
64
100
AcDbEntity
  8
Ech.1_5
  6
Continuous
 62
     7
370
    -3
100
AcDbPolyline
 90
        4
 70
     0
 43
0.0
 10
23847.51056494
 20
-4383.29167432
 10
23847.50860634
 20
-3755.89275417
 10
23856.5086064
 20
-3755.89275417
 10
23856.50883943
 20
-4383.29164623
  0
LWPOLYLINE
  5
198
330
64
100
AcDbEntity
  8
Ech.1_5
 62
     7
100
AcDbPolyline
 90
        4
 70
     0
 43
0.0
 10
23856.5084537
 20
-4383.291646149999
 10
23856.5086064
 20
-3830.53855206
 10
24036.50449356
 20
-3830.53855206
 10
24036.53091839
 20
-4383.291313119999
  0
LWPOLYLINE
  5
199
330
64
100
AcDbEntity
  8
Ech.1_5
  6
Continuous
 62
     7
370
    -3
100
AcDbPolyline
 90
        4
 70
     0
 43
0.0
 10
23856.5086064
 20
-3785.53855206
 10
24036.50449356
 20
-3830.53855206
 10
24036.50449356
 20
-3785.53855206
 10
23856.5086064
 20
-3830.53855206
  0
LWPOLYLINE
  5
19A
330
64
100
AcDbEntity
  8
Ech.1_5
  6
Continuous
 62
     7
370
    -3
100
AcDbPolyline
 90
        4
 70
     0
 43
0.0
 10
23856.5086064
 20
-3740.53855206
 10
24036.50449356
 20
-3785.53855206
 10
24036.50449356
 20
-3740.53855206
 10
23856.5086064
 20
-3785.53855206
  0
LWPOLYLINE
  5
19B
330
64
100
AcDbEntity
  8
Ech.1_5
 62
     7
370
    50
100
AcDbPolyline
 90
        3
 70
     0
 43
0.0
 10
24041.53953807
 20
-3877.85644268
 10
24041.53953807
 20
-3900.93495959
 10
24067.40172259
 20
-3900.93495959
  0
LWPOLYLINE
  5
19C
330
64
100
AcDbEntity
  8
Ech.1_5
 62
     7
100
AcDbPolyline
 90
       10
 70
     0
 43
0.0
 10
23471.26478674
 20
-3644.50836986
 10
23470.58074646
 20
-3642.62898462
 10
23419.4918737
 20
-3661.22381361
 10
23362.22816466
 20
-3668.75284607
 10
23362.22816466
 20
-3697.36066567
 10
23366.9448907
 20
-3692.09956886
 10
23364.22816466
 20
-3692.09956886
 10
23364.22816466
 20
-3670.50709898
 10
23419.96992657
 20
-3663.17817214
 10
23471.26478674
 20
-3644.50836986
  0
LWPOLYLINE
  5
19D
330
64
100
AcDbEntity
  8
Ech.1_5
  6
Continuous
 62
     7
370
    -3
100
AcDbPolyline
 90
        4
 70
     0
 43
0.0
 10
23927.82667721
 20
-3740.53855206
 10
23927.82667721
 20
-3628.44357747
 10
23936.82667727
 20
-3628.44357747
 10
23936.82671973
 20
-3740.53855206
  0
LWPOLYLINE
  5
19E
330
64
100
AcDbEntity
  8
Ech.1_5
  6
Continuous
 62
     7
370
    -3
100
AcDbPolyline
 90
        5
 70
     0
 43
0.0
 10
23936.82671961
 20
-3684.62377333
 10
23978.82671961
 20
-3684.623778640001
 10
23978.82671961
 20
-3740.22450478
 10
23936.82671961
 20
-3740.22448538
 10
23936.82671961
 20
-3684.623778640001
  0
LWPOLYLINE
  5
19F
330
64
100
AcDbEntity
  8
Ech.1_5
 62
     3
370
    70
100
AcDbPolyline
 90
        4
 70
     0
 43
0.0
 10
24044.26486579
 20
-3796.73026571
 10
24044.26486579
 20
-3783.74113229
 10
24049.94547876
 20
-3779.80640015
 10
24049.94547876
 20
-3766.32797015
  0
ARC
  5
1A0
330
64
100
AcDbEntity
  8
Ech.1_5
 62
     7
100
AcDbCircle
 10
23307.69408864
 20
-3683.334192490001
 30
0.0
 40
65.31757613999999
100
AcDbArc
 50
182.93512956
 51
11.68289665
  0
ARC
  5
1A1
330
64
100
AcDbEntity
  8
Ech.1_5
 62
     7
100
AcDbCircle
 10
23307.69408864
 20
-3683.334192490001
 30
0.0
 40
62.81757613999999
100
AcDbArc
 50
180.12288569
 51
11.68289665
  0
LINE
  5
1A2
330
64
100
AcDbEntity
  8
Ech.1_5
 62
     7
100
AcDbLine
 10
23822.50845364
 20
-4020.07426712
 30
0.0
 11
23822.50845364
 21
-4045.28406769
 31
0.0
  0
LINE
  5
1A3
330
64
100
AcDbEntity
  8
Ech.1_5
 62
     7
100
AcDbLine
 10
23822.50861334
 20
-3675.73794569
 30
0.0
 11
23822.50845364
 21
-3700.24457888
 31
0.0
  0
LINE
  5
1A4
330
64
100
AcDbEntity
  8
Ech.1_5
 62
     7
100
AcDbLine
 10
23822.50845364
 20
-3875.07426712
 30
0.0
 11
23822.50845364
 21
-3939.07426712
 31
0.0
  0
LINE
  5
1A5
330
64
100
AcDbEntity
  8
Ech.1_5
 62
     7
100
AcDbLine
 10
23822.50845364
 20
-3976.07426712
 30
0.0
 11
23822.50845364
 21
-4012.07426712
 31
0.0
  0
LINE
  5
1A6
330
64
100
AcDbEntity
  8
Ech.1_5
 62
     7
100
AcDbLine
 10
23822.50845364
 20
-3947.07426712
 30
0.0
 11
23822.50845364
 21
-3975.07426712
 31
0.0
  0
LINE
  5
1A7
330
64
100
AcDbEntity
  8
Ech.1_5
 62
     7
100
AcDbLine
 10
23369.21029196
 20
-3670.61394874
 30
0.0
 11
23371.65850022
 21
-3670.1077113
 31
0.0
  0
LWPOLYLINE
  5
1A8
330
64
100
AcDbEntity
  8
Ech.1_5
  6
Continuous
 62
     7
370
    -3
100
AcDbPolyline
 90
        5
 70
     0
 43
0.0
 10
23944.08636777
 20
-3737.72412218
 42
-1.0
 10
23949.44319421
 20
-3737.72412218
 10
23949.44319421
 20
-3719.142639040001
 42
1.0
 10
23944.08636777
 20
-3719.142639040001
 10
23944.08636777
 20
-3737.72412218
  0
LWPOLYLINE
  5
1A9
330
64
100
AcDbEntity
  8
Ech.1_5
  6
Continuous
 62
     7
370
    -3
100
AcDbPolyline
 90
        5
 70
     0
 43
0.0
 10
23971.56707146
 20
-3737.72412218
 10
23971.56707146
 20
-3719.142639040001
 42
1.0
 10
23966.21024501
 20
-3719.142639040001
 10
23966.21024501
 20
-3737.72412218
 42
-1.0
 10
23971.56707146
 20
-3737.72412218
  0
LINE
  5
1AA
330
64
100
AcDbEntity
  8
Ech.1_5
 62
     7
100
AcDbLine
 10
23413.31559709
 20
-3580.312017430001
 30
0.0
 11
23413.17841926
 21
-3580.335570520001
 31
0.0
  0
LWPOLYLINE
  5
1AB
330
64
100
AcDbEntity
  8
Ech.1_5
  6
Continuous
 62
     7
370
    -3
100
AcDbPolyline
 90
       36
 70
     0
 43
0.0
 10
24006.52717435
 20
-4383.29274748
 42
1.14028181
 10
23998.75879664
 20
-4324.307988090001
 10
23894.27627279
 20
-4352.27201214
 42
-1.303226189999999
 10
23894.27350183
 20
-4294.30923899
 10
23998.75869889
 20
-4322.263273149999
 42
1.303226189999999
 10
23998.75592793
 20
-4264.30049999
 10
23894.27340408
 20
-4292.26452404
 42
-1.303226189999999
 10
23894.27063311
 20
-4234.30175089
 10
23998.75583018
 20
-4262.25578505
 42
1.303226189999999
 10
23998.75305922
 20
-4204.29301189
 10
23894.27053536
 20
-4232.25703594
 42
-1.303226189999999
 10
23894.26776440001
 20
-4174.29426279
 10
23998.75296147
 20
-4202.248296949999
 42
1.303226189999999
 10
23998.7501905
 20
-4144.28552379
 10
23894.26766665
 20
-4172.249547839999
 42
-1.303226189999999
 10
23894.26489569
 20
-4114.28677469
 10
23998.75009276
 20
-4142.24080885
 42
1.303226189999999
 10
23998.74732179
 20
-4084.2780357
 10
23894.26479794
 20
-4112.24205975
 42
-1.303226189999999
 10
23894.26202698
 20
-4054.27928659
 10
23998.74722404
 20
-4082.23332075
 42
1.303226189999999
 10
23998.74445308
 20
-4024.270547599999
 10
23894.26192923
 20
-4052.234571649999
 42
-1.303226189999999
 10
23894.25915827
 20
-3994.27179849
 10
23998.74435533
 20
-4022.22583265
 42
1.303226189999999
 10
23998.74158437
 20
-3964.2630595
 10
23894.25906052
 20
-3992.22708355
 42
-1.303226189999999
 10
23894.25628956
 20
-3934.26431039
 10
23998.74148662
 20
-3962.21834455
 42
1.303226189999999
 10
23998.73871566
 20
-3904.2555714
 10
23894.25619181
 20
-3932.21959545
 42
-1.303226189999999
 10
23894.25342085
 20
-3874.25682229
 10
23998.73861791
 20
-3902.21085646
 42
1.303226189999999
 10
23998.73584695
 20
-3844.248083300001
 10
23894.2533231
 20
-3872.212107350001
 42
-0.63713818
 10
23859.29558958
 20
-3830.54702369
  0
LWPOLYLINE
  5
1AC
330
64
100
AcDbEntity
  8
Ech.1_5
  6
Continuous
 62
     7
370
    -3
100
AcDbPolyline
 90
        5
 70
     0
 43
0.0
 10
24040.53091839
 20
-3802.53855124
 10
24924.16984082
 20
-3802.53861196
 10
24924.16984082
 20
-3902.53861196
 10
24040.53091839
 20
-3902.53855124
 10
24040.53091839
 20
-3802.53855124
  0
LWPOLYLINE
  5
1AD
330
64
100
AcDbEntity
  8
Ech.1_5
  6
Continuous
 62
     7
370
    -3
100
AcDbPolyline
 90
        5
 70
     0
 43
0.0
 10
24924.16984082
 20
-3115.69417696
 10
23420.56417821
 20
-3662.96188223
 10
23411.32963434
 20
-3637.59018147
 10
24924.16984082
 20
-3086.96132524
 10
24924.16984082
 20
-3115.69417696
  0
LWPOLYLINE
  5
1AE
330
64
100
AcDbEntity
  8
Ech.1_5
 62
     7
100
AcDbPolyline
 90
       10
 70
     0
 43
0.0
 10
23383.5086064
 20
-3825.79563786
 42
-0.41421356
 10
23396.3726315
 20
-3838.65966296
 10
23405.5086064
 20
-3838.65966296
 10
23405.5086064
 20
-3816.1307707
 10
23396.0826672
 20
-3816.1307707
 10
23396.0826672
 20
-3802.04948486
 10
23405.5086064
 20
-3802.04948486
 10
23405.5086064
 20
-3668.44166223
 10
23383.5086064
 20
-3668.44166223
 10
23383.5086064
 20
-3825.79563786
  0
LWPOLYLINE
  5
1AF
330
64
100
AcDbEntity
  8
Ech.1_5
  6
Continuous
 62
     7
370
    -3
100
AcDbPolyline
 90
        5
 70
     0
 43
0.0
 10
23402.35687485
 20
-3815.3782209
 10
23844.79053265
 20
-3654.34991453
 10
23841.36881627
 20
-3644.95354005
 10
23398.87363886
 20
-3806.00423514
 10
23402.35687485
 20
-3815.3782209
  0
LWPOLYLINE
  5
1B0
330
64
100
AcDbEntity
  8
Ech.1_5
  6
Continuous
 62
     7
370
    -3
100
AcDbPolyline
 90
        4
 70
     0
 43
0.0
 10
23443.30827472
 20
-3761.10148534
 10
23414.95511376
 20
-3800.153991830001
 10
23452.54281859
 20
-3786.4731861
 10
23405.72056989
 20
-3774.78229107
  0
LWPOLYLINE
  5
1B1
330
64
100
AcDbEntity
  8
Ech.1_5
  6
Continuous
 62
     7
370
    -3
100
AcDbPolyline
 90
        4
 70
     0
 43
0.0
 10
23773.48602564
 20
-3641.00327423
 10
23745.13286468
 20
-3680.05578072
 10
23782.72056951
 20
-3666.37497499
 10
23735.89832081
 20
-3654.68407996
  0
LINE
  5
1B2
330
64
100
AcDbEntity
  8
Ech.1_5
 62
     7
100
AcDbLine
 10
23405.29664291
 20
-3904.689127720001
 30
0.0
 11
23405.29664291
 21
-3904.689127720001
 31
0.0
  0
LWPOLYLINE
  5
1B3
330
64
100
AcDbEntity
  8
Ech.1_5
  6
Continuous
 62
     7
370
    -3
100
AcDbPolyline
 90
        5
 70
     0
 43
0.0
 10
23936.8266422
 20
-3640.53849135
 10
24750.12582218
 20
-3640.53855206
 10
24750.12582218
 20
-3740.53855206
 10
23936.8266422
 20
-3740.53849135
 10
23936.8266422
 20
-3640.53849135
  0
LWPOLYLINE
  5
1B4
330
64
100
AcDbEntity
  8
Ech.1_5
 62
     7
100
AcDbPolyline
 90
        5
 70
     0
 43
0.0
 10
23936.8266422
 20
-3540.53849135
 10
24750.12582218
 20
-3540.53855206
 10
24750.12582218
 20
-3640.53855206
 10
23936.8266422
 20
-3640.53849135
 10
23936.8266422
 20
-3540.53849135
  0
LWPOLYLINE
  5
1B5
330
64
100
AcDbEntity
  8
Ech.1_5
  6
Continuous
 62
     7
370
    -3
100
AcDbPolyline
 90
        4
 70
     0
 43
0.0
 10
24924.16984082
 20
-3518.53855206
 10
24924.16984082
 20
-3740.53855206
 10
23856.5086064
 20
-3740.53855206
 10
23882.84075152
 20
-3730.954435031959
  0
LWPOLYLINE
  5
1B6
330
64
100
AcDbEntity
  8
Ech.1_5
  6
Continuous
 62
     7
370
    -3
100
AcDbPolyline
 90
        4
 70
     0
 43
0.0
 10
23882.84075152
 20
-3740.53855206
 10
23927.84075152
 20
-3650.53855206
 10
23882.84075152
 20
-3650.53855206
 10
23927.84075152
 20
-3740.53855206
  0
LWPOLYLINE
  5
1B7
330
64
100
AcDbEntity
  8
Ech.1_5
  6
Continuous
 62
     7
370
    -3
100
AcDbPolyline
 90
        4
 70
     0
 43
0.0
 10
24504.75408601
 20
-3800.53855206
 10
24546.75408601
 20
-3740.53855206
 10
24546.75408601
 20
-3800.53855206
 10
24504.75408601
 20
-3740.53855206
  0
LINE
  5
1B8
330
64
100
AcDbEntity
  8
Ech.1_5
 62
     1
100
AcDbLine
 10
24036.50449356
 20
-3740.53855206
 30
0.0
 11
24036.50449356
 21
-4383.291313119999
 31
0.0
  0
LINE
  5
1B9
330
64
100
AcDbEntity
  8
Ech.1_5
  6
Continuous
 62
     7
370
    -3
100
AcDbLine
 10
23347.51804409
 20
-3564.08772702
 30
0.0
 11
23695.589586
 21
-3480.03530974
 31
0.0
  0
LWPOLYLINE
  5
1BA
330
64
100
AcDbEntity
  8
Ech.1_5
  6
Continuous
 62
     7
370
    -3
100
AcDbPolyline
 90
       23
 70
     0
 43
0.0
 10
23742.52312365
 20
-3457.40474656
 10
23751.96754212
 20
-3455.12410564
 10
23764.57180077
 20
-3507.319912600001
 10
23740.83913648
 20
-3513.68564944
 10
23734.73022172
 20
-3490.91046615
 10
23400.88571697
 20
-3580.45651275
 10
23403.06894949
 20
-3589.49755086
 10
23392.60975166
 20
-3592.302988130001
 10
23390.11433454
 20
-3581.96915464
 10
23374.32967747
 20
-3586.13997272
 10
23376.86293014
 20
-3596.63048794
 10
23356.5603768
 20
-3601.533154430001
 10
23347.51804409
 20
-3564.08772702
 10
23339.62382884
 20
-3531.39679721
 42
-0.41421356
 10
23356.07165174
 20
-3504.47640512
 10
23682.45908616
 20
-3425.66027243
 10
23695.589586
 20
-3480.03530974
 10
23718.70388439
 20
-3474.453662230001
 10
23716.12618486
 20
-3463.77908703
 10
23725.57060332
 20
-3461.49844611
 10
23728.14830285
 20
-3472.173021310001
 10
23745.10082318
 20
-3468.07932177
 10
23742.52312365
 20
-3457.40474656
  0
LINE
  5
1BB
330
64
100
AcDbEntity
  8
Ech.1_5
  6
Continuous
 62
     7
370
    -3
100
AcDbLine
 10
23686.12579802
 20
-3440.8445835
 30
0.0
 11
24034.19733994
 21
-3356.79216621
 31
0.0
  0
LWPOLYLINE
  5
1BC
330
64
100
AcDbEntity
  8
Ech.1_5
  6
Continuous
 62
     7
370
    -3
100
AcDbPolyline
 90
       23
 70
     0
 43
0.0
 10
24081.13087759
 20
-3334.16160304
 10
24090.57529605
 20
-3331.88096212
 10
24103.17955471
 20
-3384.07676907
 10
24079.44689041
 20
-3390.44250591
 10
24073.33797565
 20
-3367.66732263
 10
23739.4934709
 20
-3457.21336923
 10
23741.67670342
 20
-3466.25440734
 10
23731.21750559
 20
-3469.05984461
 10
23728.72208847
 20
-3458.72601112
 10
23712.9374314
 20
-3462.89682919
 10
23715.47068407
 20
-3473.38734442
 10
23695.16813073
 20
-3478.290010910001
 10
23686.12579802
 20
-3440.8445835
 10
23678.23158277
 20
-3408.15365369
 42
-0.41421356
 10
23694.67940568
 20
-3381.2332616
 10
24021.1147897
 20
-3302.40555003
 10
24034.24528954
 20
-3356.78058733
 10
24057.31163832
 20
-3351.210518710001
 10
24054.73393879
 20
-3340.5359435
 10
24064.17835725
 20
-3338.25530258
 10
24066.75605678
 20
-3348.92987779
 10
24083.70857712
 20
-3344.83617824
 10
24081.13087759
 20
-3334.16160304
  0
LINE
  5
1BD
330
64
100
AcDbEntity
  8
Ech.1_5
  6
Continuous
 62
     7
370
    -3
100
AcDbLine
 10
24024.71098831
 20
-3317.53944687
 30
0.0
 11
24372.78253023
 21
-3233.48702959
 31
0.0
  0
LWPOLYLINE
  5
1BE
330
64
100
AcDbEntity
  8
Ech.1_5
  6
Continuous
 62
     7
370
    -3
100
AcDbPolyline
 90
       23
 70
     0
 43
0.0
 10
24419.71606788
 20
-3210.85646642
 10
24429.16048634
 20
-3208.5758255
 10
24441.764745
 20
-3260.77163245
 10
24418.03208071
 20
-3267.137369290001
 10
24411.92316594
 20
-3244.36218601
 10
24078.0786612
 20
-3333.9082326
 10
24080.26189371
 20
-3342.949270720001
 10
24069.80269589
 20
-3345.75470799
 10
24067.30727877
 20
-3335.42087449
 10
24051.52262169
 20
-3339.59169257
 10
24054.05587437
 20
-3350.0822078
 10
24033.75332103
 20
-3354.98487429
 10
24024.71098831
 20
-3317.53944687
 10
24016.81677306
 20
-3284.84851707
 42
-0.41421356
 10
24033.26459597
 20
-3257.928124980001
 10
24359.69997999
 20
-3179.1004134
 10
24372.83047983
 20
-3233.47545071
 10
24395.89682861
 20
-3227.90538209
 10
24393.31912908
 20
-3217.23080688
 10
24402.76354755
 20
-3214.95016596
 10
24405.34124707
 20
-3225.62474117
 10
24422.29376741
 20
-3221.53104162
 10
24419.71606788
 20
-3210.85646642
  0
LINE
  5
1BF
330
64
100
AcDbEntity
  8
Ech.1_5
 62
     7
100
AcDbLine
 10
24363.31874225
 20
-3194.29630335
 30
0.0
 11
24711.39028417
 21
-3110.24388607
 31
0.0
  0
LWPOLYLINE
  5
1C0
330
64
100
AcDbEntity
  8
Ech.1_5
  6
Continuous
 62
     7
370
    -3
100
AcDbPolyline
 90
       23
 70
     0
 43
0.0
 10
24758.32382182
 20
-3087.61332289
 10
24767.76824028
 20
-3085.33268197
 10
24780.37249894
 20
-3137.52848893
 10
24756.63983464
 20
-3143.89422577
 10
24750.53091988
 20
-3121.11904248
 10
24416.68641513
 20
-3210.665089080001
 10
24418.86964765
 20
-3219.706127190001
 10
24408.41044982
 20
-3222.51156446
 10
24405.9150327
 20
-3212.17773097
 10
24390.13037563
 20
-3216.34854905
 10
24392.6636283
 20
-3226.83906427
 10
24372.36107496
 20
-3231.74173076
 10
24363.31874225
 20
-3194.29630335
 10
24355.424527
 20
-3161.60537354
 42
-0.41421356
 10
24371.87234991
 20
-3134.68498145
 10
24698.30773393
 20
-3055.85726988
 10
24711.43823377
 20
-3110.23230718
 10
24734.50458255
 20
-3104.66223856
 10
24731.92688302
 20
-3093.98766336
 10
24741.37130148
 20
-3091.70702244
 10
24743.94900101
 20
-3102.38159764
 10
24760.90152134
 20
-3098.2878981
 10
24758.32382182
 20
-3087.61332289
  0
LINE
  5
1C1
330
64
100
AcDbEntity
  8
Ech.1_5
  6
Continuous
 62
     7
370
    -3
100
AcDbLine
 10
24363.31156712
 20
-3194.298036000001
 30
0.0
 11
24711.38310903
 21
-3110.24561872
 31
0.0
  0
LWPOLYLINE
  5
1C2
330
64
100
AcDbEntity
  8
Ech.1_5
 62
     7
100
AcDbPolyline
 90
        5
 70
     0
 43
0.0
 10
24031.99929023
 20
-3382.95210156
 10
24069.58699506
 20
-3369.27129582
 10
24078.82153893
 20
-3394.64299658
 10
24041.2338341
 20
-3408.32380232
 10
24031.99929023
 20
-3382.95210156
  0
LWPOLYLINE
  5
1C3
330
64
100
AcDbEntity
  8
Ech.1_5
  6
Continuous
 62
     7
370
    -3
100
AcDbPolyline
 90
        4
 70
     0
 43
0.0
 10
23447.38904658
 20
-3571.248301199999
 10
23411.32963434
 20
-3637.59018147
 10
23464.05809277
 20
-3618.3985921
 10
23411.31250991
 20
-3580.92499555
  0
LWPOLYLINE
  5
1C4
330
64
100
AcDbEntity
  8
Ech.1_5
  6
Continuous
 62
     7
370
    -3
100
AcDbPolyline
 90
        4
 70
     0
 43
0.0
 10
23730.97924112
 20
-3492.51443935
 10
23702.62608016
 20
-3531.56694584
 10
23740.21378499
 20
-3517.88614011
 10
23693.39153629
 20
-3506.19524508
  0
LWPOLYLINE
  5
1C5
330
64
100
AcDbEntity
  8
Ech.1_5
  6
Continuous
 62
     7
370
    -3
100
AcDbPolyline
 90
        4
 70
     0
 43
0.0
 10
24069.58699506
 20
-3369.27129582
 10
24041.2338341
 20
-3408.32380232
 10
24078.82153893
 20
-3394.64299658
 10
24031.99929023
 20
-3382.95210156
  0
LWPOLYLINE
  5
1C6
330
64
100
AcDbEntity
  8
Ech.1_5
  6
Continuous
 62
     7
370
    -3
100
AcDbPolyline
 90
        4
 70
     0
 43
0.0
 10
24408.17218535
 20
-3245.9661592
 10
24379.81902439
 20
-3285.01866569
 10
24417.40672922
 20
-3271.33785996
 10
24370.58448052
 20
-3259.646964930001
  0
LWPOLYLINE
  5
1C7
330
64
100
AcDbEntity
  8
Ech.1_5
  6
Continuous
 62
     7
370
    -3
100
AcDbPolyline
 90
        4
 70
     0
 43
0.0
 10
24746.77276415
 20
-3122.72474833
 10
24718.41960319
 20
-3161.77725482
 10
24756.00730802
 20
-3148.09644909
 10
24709.18505932
 20
-3136.40555406
  0
LINE
  5
1C8
330
64
100
AcDbEntity
  8
Ech.1_5
  6
Continuous
 62
     7
370
    -3
100
AcDbLine
 10
23347.51804409
 20
-3564.08772702
 30
0.0
 11
23695.589586
 21
-3480.03530974
 31
0.0
  0
LWPOLYLINE
  5
1C9
330
64
100
AcDbEntity
  8
Ech.1_5
  6
Continuous
 62
     7
370
    -3
100
AcDbPolyline
 90
        5
 70
     0
 43
0.0
 10
24036.50449356
 20
-3980.538612780001
 10
24076.50449356
 20
-3980.538612780001
 10
24076.50449356
 20
-3935.53861278
 10
24036.50449356
 20
-3935.53861278
 10
24036.50449356
 20
-3980.538612780001
  0
LWPOLYLINE
  5
1CA
330
64
100
AcDbEntity
  8
Ech.1_5
  6
Continuous
 62
     7
370
    -3
100
AcDbPolyline
 90
        5
 70
     0
 43
0.0
 10
24036.50449356
 20
-4352.02864502
 10
24076.50449356
 20
-4352.02864502
 10
24076.50449356
 20
-4307.028645019999
 10
24036.50449356
 20
-4307.028645019999
 10
24036.50449356
 20
-4352.02864502
  0
LWPOLYLINE
  5
1CB
330
64
100
AcDbEntity
  8
Ech.1_5
  6
Continuous
 62
     7
370
    -3
100
AcDbPolyline
 90
        5
 70
     0
 43
0.0
 10
24036.50449356
 20
-3740.53855206
 10
23856.5086064
 20
-3740.53855206
 10
23856.5086064
 20
-3785.53855206
 10
24036.50449356
 20
-3785.53855206
 10
24036.50449356
 20
-3740.53855206
  0
LWPOLYLINE
  5
1CC
330
64
100
AcDbEntity
  8
Ech.1_5
  6
Continuous
 62
     7
370
    -3
100
AcDbPolyline
 90
        5
 70
     0
 43
0.0
 10
24036.50449356
 20
-3785.53855206
 10
23856.5086064
 20
-3785.53855206
 10
23856.5086064
 20
-3830.53855206
 10
24036.50449356
 20
-3830.53855206
 10
24036.50449356
 20
-3785.53855206
  0
LWPOLYLINE
  5
1CD
330
64
100
AcDbEntity
  8
Ech.1_5
  6
Continuous
 62
     7
370
    -3
100
AcDbPolyline
 90
        7
 70
     0
 43
0.0
 10
23882.84075152
 20
-3740.53855206
 10
23927.84075152
 20
-3740.53855206
 10
23927.84075152
 20
-3650.53855206
 10
23904.25939251
 20
-3650.53855206
 10
23882.84075152
 20
-3650.53855206
 10
23882.84075152
 20
-3740.53855206
 10
23903.86357504
 20
-3740.53855206
  0
LWPOLYLINE
  5
1CE
330
64
100
AcDbEntity
  8
Ech.1_5
  6
Continuous
 62
     7
370
    -3
100
AcDbPolyline
 90
        5
 70
     0
 43
0.0
 10
23405.72056989
 20
-3774.78229107
 10
23443.30827472
 20
-3761.10148534
 10
23452.54281859
 20
-3786.4731861
 10
23414.95511376
 20
-3800.153991830001
 10
23405.72056989
 20
-3774.78229107
  0
LWPOLYLINE
  5
1CF
330
64
100
AcDbEntity
  8
Ech.1_5
  6
Continuous
 62
     7
370
    -3
100
AcDbPolyline
 90
        5
 70
     0
 43
0.0
 10
23735.89832081
 20
-3654.68407996
 10
23773.48602564
 20
-3641.00327423
 10
23782.72056951
 20
-3666.37497499
 10
23745.13286468
 20
-3680.05578072
 10
23735.89832081
 20
-3654.68407996
  0
LWPOLYLINE
  5
1D0
330
64
100
AcDbEntity
  8
Ech.1_5
  6
Continuous
 62
     7
370
    -3
100
AcDbPolyline
 90
        5
 70
     0
 43
0.0
 10
24546.75408601
 20
-3800.53855206
 10
24546.75408601
 20
-3740.53855206
 10
24504.75408601
 20
-3740.53855206
 10
24504.75408601
 20
-3800.53855206
 10
24546.75408601
 20
-3800.53855206
  0
LWPOLYLINE
  5
1D1
330
64
100
AcDbEntity
  8
Ech.1_5
  6
Continuous
 62
     7
370
    -3
100
AcDbPolyline
 90
        5
 70
     0
 43
0.0
 10
23693.39153629
 20
-3506.19524508
 10
23730.97924112
 20
-3492.51443935
 10
23740.21378499
 20
-3517.88614011
 10
23702.62608016
 20
-3531.56694584
 10
23693.39153629
 20
-3506.19524508
  0
LWPOLYLINE
  5
1D2
330
64
100
AcDbEntity
  8
Ech.1_5
  6
Continuous
 62
     7
370
    -3
100
AcDbPolyline
 90
        5
 70
     0
 43
0.0
 10
23411.31250991
 20
-3580.92499555
 10
23447.38904658
 20
-3571.248301199999
 10
23464.06251299
 20
-3618.39698327
 10
23411.32963434
 20
-3637.59018147
 10
23411.31250991
 20
-3580.92499555
  0
LWPOLYLINE
  5
1D3
330
64
100
AcDbEntity
  8
Ech.1_5
  6
Continuous
 62
     7
370
    -3
100
AcDbPolyline
 90
        5
 70
     0
 43
0.0
 10
24032.03737027
 20
-3382.89965162
 10
24069.62507511
 20
-3369.21884589
 10
24078.85961898
 20
-3394.59054665
 10
24041.27191414
 20
-3408.271352390001
 10
24032.03737027
 20
-3382.89965162
  0
LWPOLYLINE
  5
1D4
330
64
100
AcDbEntity
  8
Ech.1_5
  6
Continuous
 62
     7
370
    -3
100
AcDbPolyline
 90
        5
 70
     0
 43
0.0
 10
24370.62256057
 20
-3259.594515
 10
24408.2102654
 20
-3245.91370927
 10
24417.44480927
 20
-3271.28541003
 10
24379.85710444
 20
-3284.96621576
 10
24370.62256057
 20
-3259.594515
  0
LWPOLYLINE
  5
1D5
330
64
100
AcDbEntity
  8
Ech.1_5
  6
Continuous
 62
     7
370
    -3
100
AcDbPolyline
 90
        5
 70
     0
 43
0.0
 10
24709.22313937
 20
-3136.35310413
 10
24746.8108442
 20
-3122.6722984
 10
24756.04538807
 20
-3148.04399916
 10
24718.45768324
 20
-3161.72480489
 10
24709.22313937
 20
-3136.35310413
  0
LINE
  5
1D6
330
64
100
AcDbEntity
  8
Ech.1_5
 62
     7
370
    35
100
AcDbLine
 10
24549.99862279
 20
-3878.607228750001
 30
0.0
 11
24549.99862279
 21
-3748.04690093
 31
0.0
  0
LINE
  5
1D7
330
64
100
AcDbEntity
  8
Ech.1_5
  6
DASHEDX2
 62
     7
370
    35
100
AcDbLine
 10
24549.99862279
 20
-3878.607228750001
 30
0.0
 11
24549.99862279
 21
-3902.5386948
 31
0.0
  0
LWPOLYLINE
  5
1D8
330
64
100
AcDbEntity
  8
Ech.1_5
  6
CADWORK_22
 62
   150
370
    35
100
AcDbPolyline
 90
        4
 70
     0
 43
0.0
 38
2500.0
 10
23418.77217121
 20
-3659.31015927
 10
23469.81763096
 20
-3640.45519363
 10
23476.7459388
 20
-3640.839978600001
 10
24923.65681061
 20
-3114.20748963
  0
LINE
  5
1D9
330
64
100
AcDbEntity
  8
Ech.1_5
  6
CADWORK_22
 62
     1
370
    35
100
AcDbLine
 10
24038.00449356
 20
-4383.291313119999
 30
0.0
 11
24038.00449356
 21
-3740.53855206
 31
0.0
  0
LINE
  5
1DA
330
64
100
AcDbEntity
  8
Ech.1_5
 62
     7
370
    35
100
AcDbLine
 10
24082.87601803
 20
-3878.607228750001
 30
0.0
 11
24082.87601803
 21
-3748.04690093
 31
0.0
  0
LINE
  5
1DB
330
64
100
AcDbEntity
  8
Ech.1_5
  6
DASHEDX2
 62
     7
370
    35
100
AcDbLine
 10
24082.87601803
 20
-3878.607228750001
 30
0.0
 11
24082.87601803
 21
-3902.5386948
 31
0.0
  0
LWPOLYLINE
  5
1DC
330
64
100
AcDbEntity
  8
Ech.1_5
  6
Continuous
 62
     7
370
    -3
100
AcDbPolyline
 90
        5
 70
     0
 43
0.0
 10
24587.13767765
 20
-4268.69103748
 10
24587.13767765
 20
-3283.69103748
 10
23232.13767765
 20
-3283.69103748
 10
23232.13767765
 20
-4268.69103748
 10
24587.13767765
 20
-4268.69103748
  0
LWPOLYLINE
  5
1DD
330
64
100
AcDbEntity
  8
Ech.1_5
 62
     7
100
AcDbPolyline
 90
        5
 70
     0
 43
0.0
 10
23296.31154868
 20
-4058.27411494
 10
23430.74032767
 20
-4058.27411494
 10
23430.74032767
 20
-4114.997073749999
 10
23296.31154868
 20
-4114.997073749999
 10
23296.31154868
 20
-4058.27411494
  0
LWPOLYLINE
  5
1DE
330
64
100
AcDbEntity
  8
Ech.1_5
 62
     7
100
AcDbPolyline
 90
        5
 70
     0
 43
0.0
 10
23314.59159446
 20
-4091.93092607
 10
23364.59159446
 20
-4091.93092607
 10
23364.59159446
 20
-4084.51578853
 10
23314.59159446
 20
-4084.51578853
 10
23314.59159446
 20
-4091.93092607
  0
LWPOLYLINE
  5
1DF
330
64
100
AcDbEntity
  8
Ech.1_5
 62
     7
100
AcDbPolyline
 90
        5
 70
     0
 43
0.0
 10
23364.59159446
 20
-4091.93092607
 10
23414.59159446
 20
-4091.93092607
 10
23414.59159446
 20
-4084.51578853
 10
23364.59159446
 20
-4084.51578853
 10
23364.59159446
 20
-4091.93092607
  0
LWPOLYLINE
  5
1E2
330
64
100
AcDbEntity
  8
Ech.1_5
 62
     7
100
AcDbPolyline
 90
       17
 70
     0
 43
0.0
 10
23822.50846064
 20
-3681.48962215
 10
23822.50846064
 20
-3714.40001925
 10
23818.50846064
 20
-3718.40001925
 10
23822.50846064
 20
-3722.40001925
 10
23822.50846064
 20
-3749.40001925
 10
23816.50846064
 20
-3749.40001925
 10
23816.50846064
 20
-3740.40001925
 10
23809.50846064
 20
-3740.40001925
 10
23809.50846064
 20
-3767.783483340001
 10
23809.38184352
 20
-3768.11795714
 10
23808.93072275
 20
-3768.40001925
 10
23808.61690526
 20
-3768.40001925
 10
23808.2049039
 20
-3768.15905005
 10
23803.46878304
 20
-3765.18770012
 10
23802.50846064
 20
-3763.55783148
 10
23802.50846064
 20
-3681.48962215
 10
23822.50846064
 20
-3681.48962215
  0
LWPOLYLINE
  5
1E3
330
64
100
AcDbEntity
  8
Ech.1_5
  6
Continuous
 62
   177
370
    70
100
AcDbPolyline
 90
        6
 70
     0
 43
0.0
 10
23847.50861334
 20
-3675.73794569
 10
23847.50861334
 20
-3654.36069298
 10
23835.92697321
 20
-3658.57589867
 10
23847.50861334
 20
-3654.36069298
 10
23847.50846642
 20
-3641.71895087
 10
23835.92697321
 20
-3645.93415512
  0
LWPOLYLINE
  5
1E4
330
64
100
AcDbEntity
  8
Ech.1_5
 62
     7
100
AcDbPolyline
 90
       14
 70
     0
 43
0.0
 10
23822.50845364
 20
-4134.65872818
 10
23822.50845364
 20
-4085.400019249999
 10
23818.50845364
 20
-4081.40001925
 10
23822.50845364
 20
-4077.400019249999
 10
23822.50845364
 20
-4042.400019249999
 10
23815.50845364
 20
-4042.400019249999
 10
23815.50845364
 20
-4036.40001925
 10
23813.00845364
 20
-4031.400019249999
 10
23810.50845364
 20
-4036.40001925
 10
23810.50845364
 20
-4067.328951439999
 10
23810.1278513
 20
-4069.2423686
 10
23803.97291973
 20
-4075.935553159999
 10
23802.50845364
 20
-4079.471087059999
 10
23802.50845364
 20
-4134.65872818
  0
LWPOLYLINE
  5
1E5
330
64
100
AcDbEntity
  8
Ech.1_5
 62
     7
100
AcDbPolyline
 90
       14
 70
     0
 43
0.0
 10
23822.50845364
 20
-4383.29187504
 10
23822.50845364
 20
-4375.40001925
 10
23818.50845364
 20
-4371.40001925
 10
23822.50845364
 20
-4367.400019249999
 10
23822.50845364
 20
-4332.40001925
 10
23815.50845364
 20
-4332.40001925
 10
23815.50845364
 20
-4326.40001925
 10
23813.00845364
 20
-4321.40001925
 10
23810.50845364
 20
-4326.40001925
 10
23810.50845364
 20
-4357.32895144
 10
23810.1278513
 20
-4359.2423686
 10
23803.97291973
 20
-4365.93555316
 10
23802.50845364
 20
-4369.47108706
 10
23802.50845364
 20
-4383.29187504
  0
LWPOLYLINE
  5
1E6
330
64
100
AcDbEntity
  8
Ech.1_5
 62
     7
100
AcDbPolyline
 90
       27
 70
     0
 43
0.0
 10
23809.38183652
 20
-4348.11795714
 10
23809.50845364
 20
-4347.78348334
 10
23809.50845364
 20
-4320.40001925
 10
23816.50845364
 20
-4320.40001925
 10
23816.50845364
 20
-4329.40001925
 10
23822.50845364
 20
-4329.40001925
 10
23822.50845364
 20
-4302.40001925
 10
23818.50845364
 20
-4298.400019249999
 10
23822.50845364
 20
-4294.40001925
 10
23822.50845364
 20
-4230.40001925
 10
23818.50845364
 20
-4226.400019249999
 10
23822.50845364
 20
-4222.40001925
 10
23822.50845364
 20
-4187.40001925
 10
23815.50845364
 20
-4187.40001925
 10
23815.50845364
 20
-4181.400019249999
 10
23813.00845364
 20
-4176.400019249999
 10
23810.50845364
 20
-4181.400019249999
 10
23810.50845364
 20
-4212.32895144
 10
23810.1278513
 20
-4214.242368599999
 10
23803.97291973
 20
-4220.93555316
 10
23802.50845364
 20
-4224.47108706
 10
23802.50845364
 20
-4343.55783148
 10
23803.46877604
 20
-4345.18770012
 10
23808.20489689
 20
-4348.159050049999
 10
23808.61689826
 20
-4348.400019249999
 10
23808.93071575
 20
-4348.400019249999
 10
23809.38183652
 20
-4348.11795714
  0
LWPOLYLINE
  5
1E7
330
64
100
AcDbEntity
  8
Ech.1_5
 62
     7
100
AcDbPolyline
 90
       27
 70
     0
 43
0.0
 10
23809.38183652
 20
-4058.11795714
 10
23809.50845364
 20
-4057.78348334
 10
23809.50845364
 20
-4030.40001925
 10
23816.50845364
 20
-4030.40001925
 10
23816.50845364
 20
-4039.40001925
 10
23822.50845364
 20
-4039.40001925
 10
23822.50845364
 20
-4012.40001925
 10
23818.50845364
 20
-4008.400019249999
 10
23822.50845364
 20
-4004.40001925
 10
23822.50845364
 20
-3940.40001925
 10
23818.50845364
 20
-3936.40001925
 10
23822.50845364
 20
-3932.40001925
 10
23822.50845364
 20
-3897.40001925
 10
23815.50845364
 20
-3897.40001925
 10
23815.50845364
 20
-3891.40001925
 10
23813.00845364
 20
-3886.40001925
 10
23810.50845364
 20
-3891.40001925
 10
23810.50845364
 20
-3922.32895144
 10
23810.1278513
 20
-3924.2423686
 10
23803.97291973
 20
-3930.93555316
 10
23802.50845364
 20
-3934.47108706
 10
23802.50845364
 20
-4053.55783148
 10
23803.46877604
 20
-4055.18770012
 10
23808.20489689
 20
-4058.15905005
 10
23808.61689826
 20
-4058.40001925
 10
23808.93071575
 20
-4058.40001925
 10
23809.38183652
 20
-4058.11795714
  0
LWPOLYLINE
  5
1E8
330
64
100
AcDbEntity
  8
Ech.1_5
 62
     7
100
AcDbPolyline
 90
       27
 70
     0
 43
0.0
 10
23809.38184352
 20
-4203.117957139999
 10
23809.50846064
 20
-4202.78348334
 10
23809.50846064
 20
-4175.40001925
 10
23816.50846064
 20
-4175.40001925
 10
23816.50846064
 20
-4184.400019249999
 10
23822.50846064
 20
-4184.400019249999
 10
23822.50846064
 20
-4157.40001925
 10
23818.50846064
 20
-4153.400019249999
 10
23822.50846064
 20
-4149.400019249999
 10
23822.50846064
 20
-4085.400019249999
 10
23818.50846064
 20
-4081.40001925
 10
23822.50846064
 20
-4077.400019249999
 10
23822.50846064
 20
-4042.400019249999
 10
23815.50846064
 20
-4042.400019249999
 10
23815.50846064
 20
-4036.40001925
 10
23813.00846064
 20
-4031.400019249999
 10
23810.50846064
 20
-4036.40001925
 10
23810.50846064
 20
-4067.328951439999
 10
23810.12785831
 20
-4069.2423686
 10
23803.97292674
 20
-4075.935553159999
 10
23802.50846064
 20
-4079.471087059999
 10
23802.50846064
 20
-4198.557831479999
 10
23803.46878304
 20
-4200.187700119999
 10
23808.2049039
 20
-4203.15905005
 10
23808.61690526
 20
-4203.40001925
 10
23808.93072275
 20
-4203.40001925
 10
23809.38184352
 20
-4203.117957139999
  0
LWPOLYLINE
  5
1E9
330
64
100
AcDbEntity
  8
Ech.1_5
 62
     7
100
AcDbPolyline
 90
       14
 70
     0
 43
0.0
 10
23822.50846064
 20
-4383.29187504
 10
23822.50846064
 20
-4375.40001925
 10
23818.50846064
 20
-4371.40001925
 10
23822.50846064
 20
-4367.400019249999
 10
23822.50846064
 20
-4332.40001925
 10
23815.50846064
 20
-4332.40001925
 10
23815.50846064
 20
-4326.40001925
 10
23813.00846064
 20
-4321.40001925
 10
23810.50846064
 20
-4326.40001925
 10
23810.50846064
 20
-4357.32895144
 10
23810.12785831
 20
-4359.2423686
 10
23803.97292674
 20
-4365.93555316
 10
23802.50846064
 20
-4369.47108706
 10
23802.50846064
 20
-4383.29187504
  0
LWPOLYLINE
  5
1EA
330
64
100
AcDbEntity
  8
Ech.1_5
  6
CADWORK_22
 62
   150
370
    35
100
AcDbPolyline
 90
        3
 70
     0
 43
0.0
 38
2500.0
 10
23846.00845364
 20
-4383.29167901
 10
23846.00860634
 20
-3738.53855206
 10
23919.95831303
 20
-3738.53855206
  0
LWPOLYLINE
  5
1EB
330
64
100
AcDbEntity
  8
Ech.1_5
  6
Continuous
 62
     7
370
    -3
100
AcDbPolyline
 90
      118
 70
     0
 43
0.0
 10
24924.1698398
 20
-3557.20521873
 42
1.14028181
 10
24891.40441169
 20
-3561.51887718
 10
24906.9352638
 20
-3619.55822387
 42
-1.303226189999999
 10
24874.73774146
 20
-3619.55822189
 10
24890.2686007
 20
-3561.51887711
 42
1.303226189999999
 10
24858.07107836
 20
-3561.51887513
 10
24873.60193046
 20
-3619.55822182
 42
-1.303226189999999
 10
24841.40440813
 20
-3619.55821984
 10
24856.93526737
 20
-3561.51887506
 42
1.303226189999999
 10
24824.73774503
 20
-3561.51887308
 10
24840.26859713
 20
-3619.55821977
 42
-1.303226189999999
 10
24808.07107479
 20
-3619.55821779
 10
24823.60193403
 20
-3561.51887301
 42
1.303226189999999
 10
24791.40441169
 20
-3561.51887103
 10
24806.9352638
 20
-3619.55821772
 42
-1.303226189999999
 10
24774.73774146
 20
-3619.55821574
 10
24790.2686007
 20
-3561.51887096
 42
1.303226189999999
 10
24758.07107836
 20
-3561.51886898
 10
24773.60193046
 20
-3619.558215670001
 42
-1.303226189999999
 10
24741.40440813
 20
-3619.55821369
 10
24756.93526737
 20
-3561.51886891
 42
1.303226189999999
 10
24724.73774503
 20
-3561.518866930001
 10
24740.26859713
 20
-3619.55821362
 42
-1.303226189999999
 10
24708.07107479
 20
-3619.558211640001
 10
24723.60193403
 20
-3561.51886686
 42
1.303226189999999
 10
24691.40441169
 20
-3561.51886488
 10
24706.9352638
 20
-3619.55821157
 42
-1.303226189999999
 10
24674.73774146
 20
-3619.55820959
 10
24690.2686007
 20
-3561.51886481
 42
1.303226189999999
 10
24658.07107836
 20
-3561.518862830001
 10
24673.60193046
 20
-3619.55820952
 42
-1.303226189999999
 10
24641.40440813
 20
-3619.55820754
 10
24656.93526737
 20
-3561.51886276
 42
1.303226189999999
 10
24624.73774503
 20
-3561.51886078
 10
24640.26859713
 20
-3619.55820747
 42
-1.303226189999999
 10
24608.07107479
 20
-3619.55820549
 10
24623.60193403
 20
-3561.518860710001
 42
1.303226189999999
 10
24591.40441169
 20
-3561.51885873
 10
24606.9352638
 20
-3619.558205420001
 42
-1.303226189999999
 10
24574.73774146
 20
-3619.55820344
 10
24590.2686007
 20
-3561.518858660001
 42
1.303226189999999
 10
24558.07107836
 20
-3561.51885668
 10
24573.60193046
 20
-3619.55820337
 42
-1.303226189999999
 10
24541.40440813
 20
-3619.55820139
 10
24556.93526737
 20
-3561.51885661
 42
1.303226189999999
 10
24524.73774503
 20
-3561.51885463
 10
24540.26859713
 20
-3619.55820132
 42
-1.303226189999999
 10
24508.07107479
 20
-3619.558199340001
 10
24523.60193403
 20
-3561.51885456
 42
1.303226189999999
 10
24491.40441169
 20
-3561.51885258
 10
24506.9352638
 20
-3619.55819927
 42
-1.303226189999999
 10
24474.73774146
 20
-3619.55819729
 10
24490.2686007
 20
-3561.51885251
 42
1.303226189999999
 10
24458.07107836
 20
-3561.51885053
 10
24473.60193046
 20
-3619.55819722
 42
-1.303226189999999
 10
24441.40440813
 20
-3619.55819524
 10
24456.93526737
 20
-3561.51885046
 42
1.303226189999999
 10
24424.73774503
 20
-3561.51884848
 10
24440.26859713
 20
-3619.55819517
 42
-1.303226189999999
 10
24408.07107479
 20
-3619.55819319
 10
24423.60193403
 20
-3561.51884841
 42
1.303226189999999
 10
24391.40441169
 20
-3561.51884643
 10
24406.9352638
 20
-3619.55819312
 42
-1.303226189999999
 10
24374.73774146
 20
-3619.55819114
 10
24390.2686007
 20
-3561.518846360001
 42
1.303226189999999
 10
24358.07107836
 20
-3561.51884438
 10
24373.60193046
 20
-3619.55819107
 42
-1.303226189999999
 10
24341.40440813
 20
-3619.55818909
 10
24356.93526737
 20
-3561.51884431
 42
1.303226189999999
 10
24324.73774503
 20
-3561.518842330001
 10
24340.26859713
 20
-3619.55818903
 42
-1.303226189999999
 10
24308.07107479
 20
-3619.55818705
 10
24323.60193403
 20
-3561.51884226
 42
1.303226189999999
 10
24291.40441169
 20
-3561.51884028
 10
24306.9352638
 20
-3619.55818698
 42
-1.303226189999999
 10
24274.73774146
 20
-3619.558185000001
 10
24290.2686007
 20
-3561.51884021
 42
1.303226189999999
 10
24258.07107836
 20
-3561.51883823
 10
24273.60193046
 20
-3619.558184930001
 42
-1.303226189999999
 10
24241.40440813
 20
-3619.55818295
 10
24256.93526737
 20
-3561.51883816
 42
1.303226189999999
 10
24224.73774503
 20
-3561.51883618
 10
24240.26859713
 20
-3619.55818288
 42
-1.303226189999999
 10
24208.07107479
 20
-3619.5581809
 10
24223.60193403
 20
-3561.51883611
 42
1.303226189999999
 10
24191.40441169
 20
-3561.51883413
 10
24206.9352638
 20
-3619.55818083
 42
-1.303226189999999
 10
24174.73774146
 20
-3619.55817885
 10
24190.2686007
 20
-3561.51883406
 42
1.303226189999999
 10
24158.07107836
 20
-3561.51883208
 10
24173.60193046
 20
-3619.55817878
 42
-1.303226189999999
 10
24141.40440813
 20
-3619.5581768
 10
24156.93526737
 20
-3561.51883201
 42
1.303226189999999
 10
24124.73774503
 20
-3561.518830030001
 10
24140.26859713
 20
-3619.55817673
 42
-1.303226189999999
 10
24108.07107479
 20
-3619.55817475
 10
24123.60193403
 20
-3561.51882996
 42
1.303226189999999
 10
24091.40441169
 20
-3561.51882798
 10
24106.9352638
 20
-3619.55817468
 42
-1.303226189999999
 10
24074.73774146
 20
-3619.5581727
 10
24090.2686007
 20
-3561.51882791
 42
1.303226189999999
 10
24058.07107836
 20
-3561.51882593
 10
24073.60193046
 20
-3619.558172630001
 42
-1.303226189999999
 10
24041.40440813
 20
-3619.55817065
 10
24056.93526737
 20
-3561.51882586
 42
1.303226189999999
 10
24024.73774503
 20
-3561.51882388
 10
24040.26859713
 20
-3619.55817058
 42
-1.303226189999999
 10
24008.07107479
 20
-3619.5581686
 10
24023.60193403
 20
-3561.518823810001
 42
1.303226189999999
 10
23991.40441169
 20
-3561.51882184
 10
24006.9352638
 20
-3619.55816853
 42
-1.303226189999999
 10
23974.73774146
 20
-3619.55816655
 10
23990.2686007
 20
-3561.51882177
 42
1.303226189999999
 10
23958.07107836
 20
-3561.518819790001
 10
23973.60193046
 20
-3619.55816648
 42
-1.303226189999999
 10
23941.40440813
 20
-3619.558164500001
 10
23956.93526737
 20
-3561.51881972
 42
0.5710928400000001
 10
23936.82664217
 20
-3541.02805203
  0
LWPOLYLINE
  5
1EC
330
64
100
AcDbEntity
  8
Ech.1_5
  6
Continuous
 62
     7
370
    -3
100
AcDbPolyline
 90
      106
 70
     0
 43
0.0
 10
24924.16983968
 20
-3819.20527862
 42
1.14028181
 10
24891.40441154
 20
-3823.51893684
 10
24906.93526323
 20
-3881.55828364
 42
-1.303226189999999
 10
24874.73774089
 20
-3881.55828143
 10
24890.26860055
 20
-3823.51893676
 42
1.303226189999999
 10
24858.07107821
 20
-3823.51893455
 10
24873.60192989
 20
-3881.55828135
 42
-1.303226189999999
 10
24841.40440756
 20
-3881.55827914
 10
24856.93526721
 20
-3823.51893447
 42
1.303226189999999
 10
24824.73774488
 20
-3823.51893225
 10
24840.26859656
 20
-3881.55827906
 42
-1.303226189999999
 10
24808.07107422
 20
-3881.55827685
 10
24823.60193388
 20
-3823.51893218
 42
1.303226189999999
 10
24791.40441154
 20
-3823.51892996
 10
24806.93526323
 20
-3881.55827677
 42
-1.303226189999999
 10
24774.73774089
 20
-3881.558274560001
 10
24790.26860055
 20
-3823.518929890001
 42
1.303226189999999
 10
24758.07107821
 20
-3823.51892767
 10
24773.60192989
 20
-3881.55827448
 42
-1.303226189999999
 10
24741.40440756
 20
-3881.55827227
 10
24756.93526721
 20
-3823.5189276
 42
1.303226189999999
 10
24724.73774488
 20
-3823.51892538
 10
24740.26859656
 20
-3881.55827219
 42
-1.303226189999999
 10
24708.07107422
 20
-3881.558269980001
 10
24723.60193388
 20
-3823.518925310001
 42
1.303226189999999
 10
24691.40441154
 20
-3823.51892309
 10
24706.93526323
 20
-3881.558269900001
 42
-1.303226189999999
 10
24674.73774089
 20
-3881.55826769
 10
24690.26860055
 20
-3823.51892302
 42
1.303226189999999
 10
24658.07107821
 20
-3823.518920800001
 10
24673.60192989
 20
-3881.55826761
 42
-1.303226189999999
 10
24641.40440756
 20
-3881.558265400001
 10
24656.93526721
 20
-3823.518920730001
 42
1.303226189999999
 10
24624.73774488
 20
-3823.51891851
 10
24640.26859656
 20
-3881.558265320001
 42
-1.303226189999999
 10
24608.07107422
 20
-3881.55826311
 10
24623.60193388
 20
-3823.51891843
 42
1.303226189999999
 10
24591.40441154
 20
-3823.51891622
 10
24606.93526323
 20
-3881.55826303
 42
-1.303226189999999
 10
24574.73774089
 20
-3881.55826081
 10
24590.26860055
 20
-3823.51891614
 42
1.303226189999999
 10
24558.07107821
 20
-3823.51891393
 10
24573.60192989
 20
-3881.55826074
 42
-1.303226189999999
 10
24541.40440756
 20
-3881.55825852
 10
24556.93526721
 20
-3823.51891385
 42
1.303226189999999
 10
24524.73774488
 20
-3823.51891164
 10
24540.26859656
 20
-3881.55825845
 42
-1.303226189999999
 10
24508.07107422
 20
-3881.55825623
 10
24523.60193388
 20
-3823.51891156
 42
1.303226189999999
 10
24491.40441154
 20
-3823.51890935
 10
24506.93526323
 20
-3881.55825616
 42
-1.303226189999999
 10
24474.73774089
 20
-3881.558253940001
 10
24490.26860055
 20
-3823.518909270001
 42
1.303226189999999
 10
24458.07107821
 20
-3823.51890706
 10
24473.60192989
 20
-3881.55825387
 42
-1.303226189999999
 10
24441.40440756
 20
-3881.55825165
 10
24456.93526721
 20
-3823.51890698
 42
1.303226189999999
 10
24424.73774488
 20
-3823.518904770001
 10
24440.26859656
 20
-3881.55825158
 42
-1.303226189999999
 10
24408.07107422
 20
-3881.55824936
 10
24423.60193388
 20
-3823.518904690001
 42
1.303226189999999
 10
24391.40441154
 20
-3823.51890248
 10
24406.93526323
 20
-3881.55824929
 42
-1.303226189999999
 10
24374.73774089
 20
-3881.55824707
 10
24390.26860055
 20
-3823.518902400001
 42
1.303226189999999
 10
24358.07107821
 20
-3823.51890019
 10
24373.60192989
 20
-3881.55824699
 42
-1.303226189999999
 10
24341.40440756
 20
-3881.558244780001
 10
24356.93526721
 20
-3823.51890011
 42
1.303226189999999
 10
24324.73774488
 20
-3823.518897900001
 10
24340.26859656
 20
-3881.5582447
 42
-1.303226189999999
 10
24308.07107422
 20
-3881.55824249
 10
24323.60193388
 20
-3823.51889782
 42
1.303226189999999
 10
24291.40441154
 20
-3823.51889561
 10
24306.93526323
 20
-3881.55824241
 42
-1.303226189999999
 10
24274.73774089
 20
-3881.5582402
 10
24290.26860055
 20
-3823.51889553
 42
1.303226189999999
 10
24258.07107821
 20
-3823.51889332
 10
24273.60192989
 20
-3881.55824012
 42
-1.303226189999999
 10
24241.40440756
 20
-3881.55823791
 10
24256.93526721
 20
-3823.51889324
 42
1.303226189999999
 10
24224.73774488
 20
-3823.51889103
 10
24240.26859656
 20
-3881.55823783
 42
-1.303226189999999
 10
24208.07107422
 20
-3881.55823562
 10
24223.60193388
 20
-3823.51889095
 42
1.303226189999999
 10
24191.40441154
 20
-3823.51888874
 10
24206.93526323
 20
-3881.55823554
 42
-1.303226189999999
 10
24174.73774089
 20
-3881.55823333
 10
24190.26860055
 20
-3823.51888866
 42
1.303226189999999
 10
24158.07107821
 20
-3823.518886450001
 10
24173.60192989
 20
-3881.55823325
 42
-1.303226189999999
 10
24141.40440756
 20
-3881.558231040001
 10
24156.93526721
 20
-3823.518886370001
 42
1.303226189999999
 10
24124.73774488
 20
-3823.51888416
 10
24140.26859656
 20
-3881.558230960001
 42
-1.303226189999999
 10
24108.07107422
 20
-3881.55822875
 10
24123.60193388
 20
-3823.51888408
 42
1.303226189999999
 10
24091.40441154
 20
-3823.51888187
 10
24106.93526323
 20
-3881.55822867
 42
-1.303226189999999
 10
24074.73774089
 20
-3881.55822646
 10
24090.26860055
 20
-3823.51888179
 42
1.303226189999999
 10
24058.07107821
 20
-3823.51887958
 10
24073.60192989
 20
-3881.558226380001
 42
-1.303226189999999
 10
24041.40440756
 20
-3881.55822417
 10
24056.93526721
 20
-3823.518879500001
 42
0.4988574800000001
 10
24040.53091839
 20
-3802.54135302
  0
LWPOLYLINE
  5
1ED
330
64
100
AcDbEntity
  8
Ech.1_5
  6
CADWORK_22
 62
     1
370
    35
100
AcDbPolyline
 90
        3
 70
     0
 43
0.0
 10
24044.28270758
 20
-3780.56585995
 10
24044.28270758
 20
-3742.03855206
 10
24924.16984082
 20
-3742.03855206
  0
LWPOLYLINE
  5
1EE
330
64
100
AcDbEntity
  8
Ech.1_5
  6
Continuous
 62
     7
370
    -3
100
AcDbPolyline
 90
      118
 70
     0
 43
0.0
 10
24924.1698398
 20
-3657.20527817
 42
1.14028181
 10
24891.40441169
 20
-3661.518936620001
 10
24906.9352638
 20
-3719.55828331
 42
-1.303226189999999
 10
24874.73774146
 20
-3719.55828133
 10
24890.2686007
 20
-3661.51893655
 42
1.303226189999999
 10
24858.07107836
 20
-3661.51893457
 10
24873.60193046
 20
-3719.55828126
 42
-1.303226189999999
 10
24841.40440813
 20
-3719.558279280001
 10
24856.93526737
 20
-3661.5189345
 42
1.303226189999999
 10
24824.73774503
 20
-3661.51893252
 10
24840.26859713
 20
-3719.55827921
 42
-1.303226189999999
 10
24808.07107479
 20
-3719.55827723
 10
24823.60193403
 20
-3661.51893245
 42
1.303226189999999
 10
24791.40441169
 20
-3661.518930470001
 10
24806.9352638
 20
-3719.55827716
 42
-1.303226189999999
 10
24774.73774146
 20
-3719.55827518
 10
24790.2686007
 20
-3661.5189304
 42
1.303226189999999
 10
24758.07107836
 20
-3661.51892842
 10
24773.60193046
 20
-3719.55827511
 42
-1.303226189999999
 10
24741.40440813
 20
-3719.55827313
 10
24756.93526737
 20
-3661.51892835
 42
1.303226189999999
 10
24724.73774503
 20
-3661.51892637
 10
24740.26859713
 20
-3719.55827307
 42
-1.303226189999999
 10
24708.07107479
 20
-3719.55827109
 10
24723.60193403
 20
-3661.518926300001
 42
1.303226189999999
 10
24691.40441169
 20
-3661.51892432
 10
24706.9352638
 20
-3719.55827102
 42
-1.303226189999999
 10
24674.73774146
 20
-3719.55826904
 10
24690.2686007
 20
-3661.51892425
 42
1.303226189999999
 10
24658.07107836
 20
-3661.51892227
 10
24673.60193046
 20
-3719.558268970001
 42
-1.303226189999999
 10
24641.40440813
 20
-3719.55826699
 10
24656.93526737
 20
-3661.5189222
 42
1.303226189999999
 10
24624.73774503
 20
-3661.51892022
 10
24640.26859713
 20
-3719.55826692
 42
-1.303226189999999
 10
24608.07107479
 20
-3719.55826494
 10
24623.60193403
 20
-3661.51892015
 42
1.303226189999999
 10
24591.40441169
 20
-3661.51891817
 10
24606.9352638
 20
-3719.558264870001
 42
-1.303226189999999
 10
24574.73774146
 20
-3719.558262890001
 10
24590.2686007
 20
-3661.5189181
 42
1.303226189999999
 10
24558.07107836
 20
-3661.51891612
 10
24573.60193046
 20
-3719.55826282
 42
-1.303226189999999
 10
24541.40440813
 20
-3719.55826084
 10
24556.93526737
 20
-3661.51891605
 42
1.303226189999999
 10
24524.73774503
 20
-3661.518914070001
 10
24540.26859713
 20
-3719.55826077
 42
-1.303226189999999
 10
24508.07107479
 20
-3719.55825879
 10
24523.60193403
 20
-3661.518914000001
 42
1.303226189999999
 10
24491.40441169
 20
-3661.51891202
 10
24506.9352638
 20
-3719.55825872
 42
-1.303226189999999
 10
24474.73774146
 20
-3719.55825674
 10
24490.2686007
 20
-3661.51891195
 42
1.303226189999999
 10
24458.07107836
 20
-3661.518909970001
 10
24473.60193046
 20
-3719.55825667
 42
-1.303226189999999
 10
24441.40440813
 20
-3719.55825469
 10
24456.93526737
 20
-3661.5189099
 42
1.303226189999999
 10
24424.73774503
 20
-3661.51890792
 10
24440.26859713
 20
-3719.55825462
 42
-1.303226189999999
 10
24408.07107479
 20
-3719.558252640001
 10
24423.60193403
 20
-3661.518907850001
 42
1.303226189999999
 10
24391.40441169
 20
-3661.518905880001
 10
24406.9352638
 20
-3719.558252570001
 42
-1.303226189999999
 10
24374.73774146
 20
-3719.55825059
 10
24390.2686007
 20
-3661.51890581
 42
1.303226189999999
 10
24358.07107836
 20
-3661.51890383
 10
24373.60193046
 20
-3719.55825052
 42
-1.303226189999999
 10
24341.40440813
 20
-3719.55824854
 10
24356.93526737
 20
-3661.51890376
 42
1.303226189999999
 10
24324.73774503
 20
-3661.51890178
 10
24340.26859713
 20
-3719.55824847
 42
-1.303226189999999
 10
24308.07107479
 20
-3719.55824649
 10
24323.60193403
 20
-3661.51890171
 42
1.303226189999999
 10
24291.40441169
 20
-3661.51889973
 10
24306.9352638
 20
-3719.55824642
 42
-1.303226189999999
 10
24274.73774146
 20
-3719.55824444
 10
24290.2686007
 20
-3661.518899660001
 42
1.303226189999999
 10
24258.07107836
 20
-3661.51889768
 10
24273.60193046
 20
-3719.55824437
 42
-1.303226189999999
 10
24241.40440813
 20
-3719.55824239
 10
24256.93526737
 20
-3661.51889761
 42
1.303226189999999
 10
24224.73774503
 20
-3661.51889563
 10
24240.26859713
 20
-3719.55824232
 42
-1.303226189999999
 10
24208.07107479
 20
-3719.55824034
 10
24223.60193403
 20
-3661.51889556
 42
1.303226189999999
 10
24191.40441169
 20
-3661.51889358
 10
24206.9352638
 20
-3719.55824027
 42
-1.303226189999999
 10
24174.73774146
 20
-3719.55823829
 10
24190.2686007
 20
-3661.51889351
 42
1.303226189999999
 10
24158.07107836
 20
-3661.51889153
 10
24173.60193046
 20
-3719.55823822
 42
-1.303226189999999
 10
24141.40440813
 20
-3719.558236240001
 10
24156.93526737
 20
-3661.51889146
 42
1.303226189999999
 10
24124.73774503
 20
-3661.51888948
 10
24140.26859713
 20
-3719.55823617
 42
-1.303226189999999
 10
24108.07107479
 20
-3719.55823419
 10
24123.60193403
 20
-3661.51888941
 42
1.303226189999999
 10
24091.40441169
 20
-3661.518887430001
 10
24106.9352638
 20
-3719.55823412
 42
-1.303226189999999
 10
24074.73774146
 20
-3719.558232140001
 10
24090.2686007
 20
-3661.51888736
 42
1.303226189999999
 10
24058.07107836
 20
-3661.51888538
 10
24073.60193046
 20
-3719.55823207
 42
-1.303226189999999
 10
24041.40440813
 20
-3719.55823009
 10
24056.93526737
 20
-3661.51888531
 42
1.303226189999999
 10
24024.73774503
 20
-3661.51888333
 10
24040.26859713
 20
-3719.55823002
 42
-1.303226189999999
 10
24008.07107479
 20
-3719.55822804
 10
24023.60193403
 20
-3661.518883260001
 42
1.303226189999999
 10
23991.40441169
 20
-3661.51888128
 10
24006.9352638
 20
-3719.558227970001
 42
-1.303226189999999
 10
23974.73774146
 20
-3719.55822599
 10
23990.2686007
 20
-3661.51888121
 42
1.303226189999999
 10
23958.07107836
 20
-3661.51887923
 10
23973.60193046
 20
-3719.55822592
 42
-1.303226189999999
 10
23941.40440813
 20
-3719.55822394
 10
23956.93526737
 20
-3661.51887916
 42
0.5710928400000001
 10
23936.82664217
 20
-3641.028111470001
  0
LWPOLYLINE
  5
1EF
330
64
100
AcDbEntity
  8
Ech.1_5
  6
Continuous
 62
     7
370
    -3
100
AcDbPolyline
 90
        5
 70
     0
 43
0.0
 10
24924.16984082
 20
-3802.538612780001
 10
24040.53091839
 20
-3802.53855206
 10
24040.53091839
 20
-3902.53855206
 10
24924.16984082
 20
-3902.538612780001
 10
24924.16984082
 20
-3802.538612780001
  0
LWPOLYLINE
  5
1F0
330
64
100
AcDbEntity
  8
Ech.1_5
  6
Continuous
 62
     7
370
    -3
100
AcDbPolyline
 90
        5
 70
     0
 43
0.0
 10
24036.50449356
 20
-3980.538612780001
 10
24076.50449356
 20
-3980.538612780001
 10
24076.50449356
 20
-3935.53861278
 10
24036.50449356
 20
-3935.53861278
 10
24036.50449356
 20
-3980.538612780001
  0
LWPOLYLINE
  5
1F1
330
64
100
AcDbEntity
  8
Ech.1_5
  6
Continuous
 62
     7
370
    -3
100
AcDbPolyline
 90
        5
 70
     0
 43
0.0
 10
24036.50449356
 20
-4352.02864502
 10
24076.50449356
 20
-4352.02864502
 10
24076.50449356
 20
-4307.028645019999
 10
24036.50449356
 20
-4307.028645019999
 10
24036.50449356
 20
-4352.02864502
  0
LWPOLYLINE
  5
1F2
330
64
100
AcDbEntity
  8
Ech.1_5
  6
Continuous
 62
     7
370
    -3
100
AcDbPolyline
 90
        5
 70
     0
 43
0.0
 10
23856.5084537
 20
-3755.89275417
 10
23847.50845364
 20
-3755.89275417
 10
23847.50868667
 20
-4383.29166028
 10
23856.50868673
 20
-4383.29166028
 10
23856.5084537
 20
-3755.89275417
  0
LWPOLYLINE
  5
1F3
330
64
100
AcDbEntity
  8
Ech.1_5
  6
Continuous
 62
     7
370
    -3
100
AcDbPolyline
 90
        3
 70
     0
 43
0.0
 10
23968.93815096
 20
-3695.34099049
 42
1.0
 10
23968.93815096
 20
-3693.72519103
 42
1.0
 10
23968.93815096
 20
-3695.34099049
  0
LWPOLYLINE
  5
1F4
330
64
100
AcDbEntity
  8
Ech.1_5
  6
Continuous
 62
     7
370
    -3
100
AcDbPolyline
 90
        3
 70
     0
 43
0.0
 10
23968.93815096
 20
-3710.66783001
 42
1.0
 10
23968.93815096
 20
-3709.05203056
 42
1.0
 10
23968.93815096
 20
-3710.66783001
  0
LWPOLYLINE
  5
1F5
330
64
100
AcDbEntity
  8
Ech.1_5
  6
Continuous
 62
     7
370
    -3
100
AcDbPolyline
 90
        3
 70
     0
 43
0.0
 10
23946.71528826
 20
-3710.66783001
 42
1.0
 10
23946.71528826
 20
-3709.05203056
 42
1.0
 10
23946.71528826
 20
-3710.66783001
  0
LWPOLYLINE
  5
1F6
330
64
100
AcDbEntity
  8
Ech.1_5
  6
Continuous
 62
     7
370
    -3
100
AcDbPolyline
 90
        3
 70
     0
 43
0.0
 10
23946.71528826
 20
-3695.34099049
 42
1.0
 10
23946.71528826
 20
-3693.72519103
 42
1.0
 10
23946.71528826
 20
-3695.34099049
  0
LWPOLYLINE
  5
1F7
330
64
100
AcDbEntity
  8
Ech.1_5
  6
Continuous
 62
     7
370
    -3
100
AcDbPolyline
 90
        3
 70
     0
 43
0.0
 10
23958.32650813
 20
-3718.79957573
 42
1.0
 10
23958.32650813
 20
-3717.18377627
 42
1.0
 10
23958.32650813
 20
-3718.79957573
  0
LWPOLYLINE
  5
1F8
330
64
100
AcDbEntity
  8
Ech.1_5
  6
Continuous
 62
     7
370
    -3
100
AcDbPolyline
 90
        3
 70
     0
 43
0.0
 10
23958.32650813
 20
-3703.4727362
 42
1.0
 10
23958.32650813
 20
-3701.85693675
 42
1.0
 10
23958.32650813
 20
-3703.4727362
  0
LWPOLYLINE
  5
1F9
330
64
100
AcDbEntity
  8
Ech.1_5
  6
Continuous
 62
     7
370
    -3
100
AcDbPolyline
 90
        5
 70
     0
 43
0.0
 10
24924.16984082
 20
-3915.53863534
 10
24924.16984082
 20
-3902.53863534
 10
24040.53091839
 20
-3902.53877528
 10
24040.53091839
 20
-3915.53877528
 10
24924.16984082
 20
-3915.53863534
  0
LWPOLYLINE
  5
1FA
330
64
100
AcDbEntity
  8
Ech.1_5
  6
Continuous
 62
     7
370
    -3
100
AcDbPolyline
 90
       10
 70
     0
 43
0.0
 10
23471.26478674
 20
-3644.50836986
 10
23470.58074646
 20
-3642.62898462
 10
23419.4918737
 20
-3661.22381361
 10
23362.22816466
 20
-3668.75284607
 10
23362.22816466
 20
-3697.36066567
 10
23366.9448907
 20
-3692.09956886
 10
23364.22816466
 20
-3692.09956886
 10
23364.22816466
 20
-3670.50709898
 10
23419.96992657
 20
-3663.17817214
 10
23471.26478674
 20
-3644.50836986
  0
LWPOLYLINE
  5
1FB
330
64
100
AcDbEntity
  8
Ech.1_5
  6
Continuous
 62
     7
370
    -3
100
AcDbPolyline
 90
        9
 70
     0
 43
0.0
 10
24036.50449356
 20
-3830.53855206
 10
23856.50863413
 20
-3830.53855206
 10
23856.50883943
 20
-4383.29164623
 10
23963.21209882
 20
-4383.291313119999
 10
23979.69760198
 20
-4365.31396472
 10
23965.58766196
 20
-4401.26966473
 10
23982.07401604
 20
-4383.291313119999
 10
24036.50449356
 20
-4383.291313119999
 10
24036.50449356
 20
-3830.53855206
  0
LWPOLYLINE
  5
1FC
330
64
100
AcDbEntity
  8
Ech.1_5
  6
Continuous
 62
     7
370
    -3
100
AcDbPolyline
 90
        5
 70
     0
 43
0.0
 10
23936.82652457
 20
-3529.6960975
 10
23927.82652451
 20
-3529.6960975
 10
23927.82675754
 20
-3740.53855206
 10
23936.8267576
 20
-3740.53855206
 10
23936.82652457
 20
-3529.6960975
  0
LWPOLYLINE
  5
1FD
330
64
100
AcDbEntity
  8
Ech.1_5
  6
Continuous
 62
     7
370
    -3
100
AcDbPolyline
 90
        3
 70
     0
 43
0.0
 10
24924.16984082
 20
-3518.53855206
 10
24466.44859352
 20
-3518.53855206
 10
24406.00417782953
 20
-3540.538520198904
  0
LWPOLYLINE
  5
1FE
330
64
100
AcDbEntity
  8
Ech.1_5
  6
Continuous
 62
     7
370
    -3
100
AcDbPolyline
 90
        5
 70
     0
 43
0.0
 10
24924.16984082
 20
-3640.53855206
 10
23936.8266422
 20
-3640.53849135
 10
23936.8266422
 20
-3740.53849135
 10
24924.16984082
 20
-3740.53855206
 10
24924.16984082
 20
-3640.53855206
  0
LWPOLYLINE
  5
1FF
330
64
100
AcDbEntity
  8
Ech.1_5
  6
Continuous
 62
     7
370
    -3
100
AcDbPolyline
 90
        5
 70
     0
 43
0.0
 10
24924.16984082
 20
-3540.53855206
 10
23936.8266422
 20
-3540.53849135
 10
23936.8266422
 20
-3640.53849135
 10
24924.16984082
 20
-3640.53855206
 10
24924.16984082
 20
-3540.53855206
  0
LWPOLYLINE
  5
200
330
64
100
AcDbEntity
  8
Ech.1_5
  6
Continuous
 62
     7
370
    -3
100
AcDbPolyline
 90
        5
 70
     0
 43
0.0
 10
24546.75408601
 20
-3800.53855206
 10
24546.75408601
 20
-3740.53855206
 10
24504.75408601
 20
-3740.53855206
 10
24504.75408601
 20
-3800.53855206
 10
24546.75408601
 20
-3800.53855206
  0
LWPOLYLINE
  5
201
330
64
100
AcDbEntity
  8
Ech.1_5
  6
Continuous
 62
     7
370
    -3
100
AcDbPolyline
 90
        5
 70
     0
 43
0.0
 10
24076.50462473
 20
-4383.291313119999
 10
24089.50462473
 20
-4383.291313119999
 10
24089.50449356
 20
-3915.538769560001
 10
24076.50449356
 20
-3915.538769560001
 10
24076.50462473
 20
-4383.291313119999
  0
LWPOLYLINE
  5
202
330
64
100
AcDbEntity
  8
Ech.1_5
  6
Continuous
 62
     7
370
    -3
100
AcDbPolyline
 90
       26
 70
     0
 43
0.0
 10
24073.33797565
 20
-3367.66732263
 10
24079.44689041
 20
-3390.44250591
 10
24103.17955471
 20
-3384.07676907
 10
24090.57529605
 20
-3331.88096212
 10
24081.13087759
 20
-3334.16160304
 10
24083.70857712
 20
-3344.83617824
 10
24066.75605678
 20
-3348.92987779
 10
24064.17835725
 20
-3338.25530258
 10
24054.73393879
 20
-3340.5359435
 10
24057.31163832
 20
-3351.210518710001
 10
24034.24528954
 20
-3356.78058733
 10
24033.80844576
 20
-3354.97156275
 10
24033.75332103
 20
-3354.98487429
 10
24024.71098831
 20
-3317.53944687
 10
24021.05966497
 20
-3302.41886156
 10
23694.67940568
 20
-3381.2332616
 42
0.41421356
 10
23678.23158277
 20
-3408.15365369
 10
23682.45908616
 20
-3425.66027243
 10
23695.16813073
 20
-3478.290010910001
 10
23715.47068407
 20
-3473.38734442
 10
23712.9374314
 20
-3462.89682919
 10
23728.72208847
 20
-3458.72601112
 10
23731.21750559
 20
-3469.05984461
 10
23741.67670342
 20
-3466.25440734
 10
23739.4934709
 20
-3457.21336923
 10
24073.33797565
 20
-3367.66732263
  0
LWPOLYLINE
  5
203
330
64
100
AcDbEntity
  8
Ech.1_5
  6
Continuous
 62
     7
370
    -3
100
AcDbPolyline
 90
       27
 70
     0
 43
0.0
 10
24411.92316594
 20
-3244.36218601
 10
24418.03208071
 20
-3267.137369290001
 10
24441.764745
 20
-3260.77163245
 10
24429.16048634
 20
-3208.5758255
 10
24419.71606788
 20
-3210.85646642
 10
24422.29376741
 20
-3221.53104162
 10
24405.34124707
 20
-3225.62474117
 10
24402.76354755
 20
-3214.95016596
 10
24393.31912908
 20
-3217.23080688
 10
24395.89682861
 20
-3227.90538209
 10
24372.83047983
 20
-3233.47545071
 10
24372.40902456
 20
-3231.73015188
 10
24372.36107496
 20
-3231.74173076
 10
24363.31874225
 20
-3194.29630335
 10
24359.65203039
 20
-3179.11199229
 10
24033.26459597
 20
-3257.928124980001
 42
0.41421356
 10
24016.81677306
 20
-3284.84851707
 10
24021.05966497
 20
-3302.41886156
 10
24021.1147897
 20
-3302.40555003
 10
24033.80844576
 20
-3354.97156275
 10
24054.05587437
 20
-3350.0822078
 10
24051.52262169
 20
-3339.59169257
 10
24067.30727877
 20
-3335.42087449
 10
24069.80269589
 20
-3345.75470799
 10
24080.26189371
 20
-3342.949270720001
 10
24078.0786612
 20
-3333.9082326
 10
24411.92316594
 20
-3244.36218601
  0
LWPOLYLINE
  5
204
330
64
100
AcDbEntity
  8
Ech.1_5
  6
Continuous
 62
     7
370
    -3
100
AcDbPolyline
 90
       24
 70
     0
 43
0.0
 10
24750.53091988
 20
-3121.11904248
 10
24756.63983464
 20
-3143.89422577
 10
24780.37249894
 20
-3137.52848893
 10
24767.76824028
 20
-3085.33268197
 10
24758.32382182
 20
-3087.61332289
 10
24760.90152134
 20
-3098.2878981
 10
24743.94900101
 20
-3102.38159764
 10
24741.37130148
 20
-3091.70702244
 10
24731.92688302
 20
-3093.98766336
 10
24734.50458255
 20
-3104.66223856
 10
24711.43823377
 20
-3110.23230718
 10
24698.30773393
 20
-3055.85726988
 10
24371.87234991
 20
-3134.68498145
 42
0.41421356
 10
24355.424527
 20
-3161.60537354
 10
24359.65203039
 20
-3179.11199229
 10
24359.69997999
 20
-3179.1004134
 10
24372.40902456
 20
-3231.73015188
 10
24392.6636283
 20
-3226.83906427
 10
24390.13037563
 20
-3216.34854905
 10
24405.9150327
 20
-3212.17773097
 10
24408.41044982
 20
-3222.51156446
 10
24418.86964765
 20
-3219.706127190001
 10
24416.68641513
 20
-3210.665089080001
 10
24750.53091988
 20
-3121.11904248
  0
LWPOLYLINE
  5
205
330
64
100
AcDbEntity
  8
Ech.1_5
  6
Continuous
 62
     7
370
    -3
100
AcDbPolyline
 90
        7
 70
     0
 43
0.0
 10
24746.8108442
 20
-3122.6722984
 10
24756.03189352
 20
-3148.00692317
 10
24718.44556525
 20
-3161.691510980001
 10
24712.71905851
 20
-3145.95806302
 10
24709.22313937
 20
-3136.35310413
 10
24712.71905851
 20
-3135.08069362
 10
24746.8108442
 20
-3122.6722984
  0
LWPOLYLINE
  5
206
330
64
100
AcDbEntity
  8
Ech.1_5
  6
Continuous
 62
     7
370
    -3
100
AcDbPolyline
 90
        5
 70
     0
 43
0.0
 10
24408.2102654
 20
-3245.91370927
 10
24370.62256057
 20
-3259.594515
 10
24379.85710444
 20
-3284.96621576
 10
24417.44343271
 20
-3271.28162796
 10
24408.2102654
 20
-3245.91370927
  0
LWPOLYLINE
  5
207
330
64
100
AcDbEntity
  8
Ech.1_5
  6
Continuous
 62
     7
370
    -3
100
AcDbPolyline
 90
        5
 70
     0
 43
0.0
 10
24069.58699506
 20
-3369.27129582
 10
24032.04977284
 20
-3382.93372739
 10
24041.26175122
 20
-3408.24342997
 10
24078.79759872
 20
-3394.57722141
 10
24069.58699506
 20
-3369.27129582
  0
LWPOLYLINE
  5
208
330
64
100
AcDbEntity
  8
Ech.1_5
  6
Continuous
 62
     7
370
    -3
100
AcDbPolyline
 90
        5
 70
     0
 43
0.0
 10
23730.97924112
 20
-3492.51443935
 10
23693.39153629
 20
-3506.19524508
 10
23702.61591723
 20
-3531.53902343
 10
23740.2022455
 20
-3517.85443562
 10
23730.97924112
 20
-3492.51443935
  0
LWPOLYLINE
  5
209
330
64
100
AcDbEntity
  8
Ech.1_5
  6
Continuous
 62
     7
370
    -3
100
AcDbPolyline
 90
        5
 70
     0
 43
0.0
 10
23447.38904658
 20
-3571.248301199999
 10
23411.31250991
 20
-3580.92499555
 10
23411.32963431
 20
-3637.59009138
 10
23464.06060212
 20
-3618.39157979
 10
23447.38904658
 20
-3571.248301199999
  0
LWPOLYLINE
  5
20A
330
64
100
AcDbEntity
  8
Ech.1_5
  6
Continuous
 62
     7
370
    -3
100
AcDbPolyline
 90
       24
 70
     0
 43
0.0
 10
23734.73022172
 20
-3490.91046615
 10
23740.83913648
 20
-3513.68564944
 10
23764.57180077
 20
-3507.319912600001
 10
23751.96754212
 20
-3455.12410564
 10
23742.52312365
 20
-3457.40474656
 10
23745.10082318
 20
-3468.07932177
 10
23728.14830285
 20
-3472.173021310001
 10
23725.57060332
 20
-3461.49844611
 10
23716.12618486
 20
-3463.77908703
 10
23718.70388439
 20
-3474.453662230001
 10
23695.589586
 20
-3480.03530974
 10
23686.12579802
 20
-3440.8445835
 10
23682.45908616
 20
-3425.66027243
 10
23356.07165174
 20
-3504.47640512
 42
0.41421356
 10
23339.62382884
 20
-3531.39679721
 10
23347.51804409
 20
-3564.08772702
 10
23356.5603768
 20
-3601.533154430001
 10
23376.86293014
 20
-3596.63048794
 10
23374.32967747
 20
-3586.13997272
 10
23390.11433454
 20
-3581.96915464
 10
23392.60975166
 20
-3592.302988130001
 10
23403.06894949
 20
-3589.49755086
 10
23400.88571697
 20
-3580.45651275
 10
23734.73022172
 20
-3490.91046615
  0
LWPOLYLINE
  5
20B
330
64
100
AcDbEntity
  8
Ech.1_5
  6
Continuous
 62
     7
370
    -3
100
AcDbPolyline
 90
        5
 70
     0
 43
0.0
 10
24079.48664955
 20
-3800.53855206
 10
24079.48664955
 20
-3740.53855206
 10
24037.48664955
 20
-3740.53855206
 10
24037.48664955
 20
-3800.53855206
 10
24079.48664955
 20
-3800.53855206
  0
LWPOLYLINE
  5
20C
330
64
100
AcDbEntity
  8
Ech.1_5
  6
Continuous
 62
     7
370
     5
100
AcDbPolyline
 90
        5
 70
     0
 43
0.0
 10
23314.59159446
 20
-4091.93092607
 10
23364.59159446
 20
-4091.93092607
 10
23364.59159446
 20
-4084.51578853
 10
23314.59159446
 20
-4084.51578853
 10
23314.59159446
 20
-4091.93092607
  0
LWPOLYLINE
  5
20D
330
64
100
AcDbEntity
  8
Ech.1_5
  6
Continuous
 62
     7
370
    -3
100
AcDbPolyline
 90
        5
 70
     0
 43
0.0
 10
23402.35687485
 20
-3815.3782209
 10
23517.12759835
 20
-3773.58413692
 10
23513.70587911
 20
-3764.187753690001
 10
23398.87363886
 20
-3806.00423514
 10
23402.35687485
 20
-3815.3782209
  0
LWPOLYLINE
  5
20E
330
64
100
AcDbEntity
  8
Ech.1_5
  6
Continuous
 62
     7
370
    -3
100
AcDbPolyline
 90
        5
 70
     0
 43
0.0
 10
23568.9213892
 20
-3744.08087126
 10
23572.34310781
 20
-3753.47725278
 10
23844.79053265
 20
-3654.34991453
 10
23841.36881627
 20
-3644.95354005
 10
23568.9213892
 20
-3744.08087126
  0
LWPOLYLINE
  5
20F
330
64
100
AcDbEntity
  8
Ech.1_5
  6
Continuous
 62
     7
370
    -3
100
AcDbPolyline
 90
        5
 70
     0
 43
0.0
 10
23568.9213892
 20
-3744.08087126
 10
23513.70587911
 20
-3764.187753690001
 10
23517.12759835
 20
-3773.58413692
 10
23572.34310781
 20
-3753.47725278
 10
23568.9213892
 20
-3744.08087126
  0
LWPOLYLINE
  5
210
330
64
100
AcDbEntity
  8
Ech.1_5
  6
Continuous
 62
     7
370
    -3
100
AcDbPolyline
 90
        6
 70
     0
 43
0.0
 10
23822.50853226
 20
-4383.29187504
 10
23847.50957164
 20
-4383.29187504
 10
23847.50861334
 20
-3675.73794569
 10
23843.51057194
 20
-3675.73794569
 10
23822.50861334
 20
-3675.73794569
 10
23822.50853226
 20
-4383.29187504
  0
LWPOLYLINE
  5
212
330
64
100
AcDbEntity
  8
Ech.1_5
  6
Continuous
 62
     7
370
    -3
100
AcDbPolyline
 90
        5
 70
     0
 43
0.0
 10
23405.5086064
 20
-3774.85943947
 10
23405.5086064
 20
-3668.44166223
 10
24924.16984082
 20
-3115.69417696
 10
24924.16984082
 20
-3351.94164245
 10
24406.00417782654
 20
-3540.538520198903
  0
LWPOLYLINE
  5
213
330
64
100
AcDbEntity
  8
Ech.1_5
  6
Continuous
 62
     7
370
    -3
100
AcDbPolyline
 90
        5
 70
     0
 43
0.0
 10
23420.56417821
 20
-3662.96188223
 10
24924.16984082
 20
-3115.69417696
 10
24924.16984082
 20
-3086.96132524
 10
23411.32963434
 20
-3637.59018147
 10
23420.56417821
 20
-3662.96188223
  0
LWPOLYLINE
  5
214
330
64
100
AcDbEntity
  8
Ech.1_5
  6
Continuous
 62
     7
370
    -3
100
AcDbPolyline
 90
       12
 70
     0
 43
0.0
 10
24036.50449356
 20
-3760.53855206
 10
24036.50449356
 20
-3740.53855206
 10
23973.50845364
 20
-3740.53855206
 10
23936.82670079
 20
-3740.53858801
 10
23927.84075152
 20
-3740.53855206
 10
23927.82675754
 20
-3740.53855206
 10
23919.46042433
 20
-3740.53855206
 10
23856.5086064
 20
-3740.53855206
 10
23856.5084537
 20
-3755.89275417
 10
23856.5086064
 20
-3785.53855206
 10
24036.50449356
 20
-3785.53855206
 10
24036.50449356
 20
-3760.53855206
  0
LWPOLYLINE
  5
215
330
64
100
AcDbEntity
  8
Ech.1_5
  6
Continuous
 62
     7
370
    -3
100
AcDbPolyline
 90
        6
 70
     0
 43
0.0
 10
24036.50449356
 20
-3785.53855206
 10
23856.5086064
 20
-3785.53855206
 10
23856.50863413
 20
-3830.53855206
 10
24036.50449356
 20
-3830.53855206
 10
24036.50449356
 20
-3786.59826084
 10
24036.50449356
 20
-3785.53855206
  0
LWPOLYLINE
  5
216
330
64
100
AcDbEntity
  8
Ech.1_5
  6
Continuous
 62
     7
100
AcDbPolyline
 90
        4
 70
     0
 43
0.0
 10
23481.15343158
 20
-3615.40506112
 10
23502.9289071
 20
-3610.58083991
 10
23483.8950966
 20
-3622.20660879
 10
23481.15343158
 20
-3615.40506112
  0
LWPOLYLINE
  5
217
330
64
100
AcDbEntity
  8
Ech.1_5
  6
Continuous
 62
     7
370
    -3
100
AcDbPolyline
 90
        5
 70
     0
 43
0.0
 10
23847.50868667
 20
-4383.29166028
 10
23856.50868673
 20
-4383.29166028
 10
23856.5084537
 20
-3755.89275417
 10
23847.50845364
 20
-3755.89275417
 10
23847.50868667
 20
-4383.29166028
  0
LWPOLYLINE
  5
218
330
64
100
AcDbEntity
  8
Ech.1_5
  6
Continuous
 62
     7
370
    -3
100
AcDbPolyline
 90
        5
 70
     0
 43
0.0
 10
24924.16984082
 20
-3915.53861278
 10
24924.16984082
 20
-3902.538612780001
 10
24040.53091839
 20
-3902.538612780001
 10
24040.53091839
 20
-3915.53861278
 10
24924.16984082
 20
-3915.53861278
  0
CIRCLE
  5
219
330
64
100
AcDbEntity
  8
Ech.1_5
 62
     7
100
AcDbCircle
 10
23239.21702245
 20
-3681.72476226
 30
0.0
 40
5.922289599999999
  0
LWPOLYLINE
  5
21A
330
64
100
AcDbEntity
  8
Ech.1_5
  6
Continuous
 62
     7
370
    -3
100
AcDbPolyline
 90
        6
 70
     0
 43
0.0
 10
23882.84075152
 20
-3740.53855206
 10
23927.84075152
 20
-3740.53855206
 10
23927.84075152
 20
-3650.53855206
 10
23904.25939251
 20
-3650.53855206
 10
23882.84075152
 20
-3650.53855206
 10
23882.84075152
 20
-3740.53855206
  0
LWPOLYLINE
  5
21B
330
64
100
AcDbEntity
  8
Ech.1_5
  6
Continuous
 62
     7
370
    -3
100
AcDbPolyline
 90
        5
 70
     0
 43
0.0
 10
23927.82675754
 20
-3740.53855206
 10
23936.8267576
 20
-3740.53855206
 10
23936.82652457
 20
-3529.6960975
 10
23927.82652451
 20
-3529.6960975
 10
23927.82675754
 20
-3740.53855206
  0
LWPOLYLINE
  5
21C
330
64
100
AcDbEntity
  8
Ech.1_5
  6
Continuous
 62
     7
370
    -3
100
AcDbPolyline
 90
        5
 70
     0
 43
0.0
 10
23735.89832081
 20
-3654.68407996
 10
23773.48602564
 20
-3641.00327423
 10
23782.72056951
 20
-3666.37497499
 10
23745.13286468
 20
-3680.05578072
 10
23735.89832081
 20
-3654.68407996
  0
LWPOLYLINE
  5
21D
330
64
100
AcDbEntity
  8
Ech.1_5
  6
Continuous
 62
     7
370
    -3
100
AcDbPolyline
 90
        5
 70
     0
 43
0.0
 10
23405.72056989
 20
-3774.78229107
 10
23443.30827472
 20
-3761.10148534
 10
23452.54281859
 20
-3786.4731861
 10
23414.95511376
 20
-3800.153991830001
 10
23405.72056989
 20
-3774.78229107
  0
LWPOLYLINE
  5
21E
330
64
100
AcDbEntity
  8
Ech.1_5
  6
Continuous
 62
     7
370
    -3
100
AcDbPolyline
 90
       10
 70
     0
 43
0.0
 10
23383.5086064
 20
-3825.79563786
 42
-0.41421356
 10
23396.3726315
 20
-3838.65966296
 10
23405.5086064
 20
-3838.65966296
 10
23405.5086064
 20
-3816.1307707
 10
23396.0826672
 20
-3816.1307707
 10
23396.0826672
 20
-3802.04948486
 10
23405.5086064
 20
-3802.04948486
 10
23405.5086064
 20
-3668.44166223
 10
23383.5086064
 20
-3668.44166223
 10
23383.5086064
 20
-3825.79563786
  0
LWPOLYLINE
  5
21F
330
64
100
AcDbEntity
  8
Ech.1_5
  6
Continuous
 62
     7
370
    -3
100
AcDbPolyline
 90
        5
 70
     0
 43
0.0
 10
24076.50465606
 20
-4383.291313119999
 10
24089.50465606
 20
-4383.291313119999
 10
24089.50465606
 20
-3915.538769560001
 10
24076.50465606
 20
-3915.538769560001
 10
24076.50465606
 20
-4383.291313119999
  0
LWPOLYLINE
  5
220
330
64
100
AcDbEntity
  8
Ech.1_5
  6
Continuous
 62
     7
370
    -3
100
AcDbPolyline
 90
        5
 70
     0
 43
0.0
 10
23402.35687485
 20
-3815.3782209
 10
23517.12759835
 20
-3773.58413692
 10
23513.70587911
 20
-3764.187753690001
 10
23398.87363886
 20
-3806.00423514
 10
23402.35687485
 20
-3815.3782209
  0
LWPOLYLINE
  5
221
330
64
100
AcDbEntity
  8
Ech.1_5
  6
Continuous
 62
     7
370
    -3
100
AcDbPolyline
 90
        5
 70
     0
 43
0.0
 10
23568.9213892
 20
-3744.08087126
 10
23572.34310781
 20
-3753.47725278
 10
23844.79053265
 20
-3654.34991453
 10
23841.36881627
 20
-3644.95354005
 10
23568.9213892
 20
-3744.08087126
  0
LWPOLYLINE
  5
222
330
64
100
AcDbEntity
  8
Ech.1_5
  6
Continuous
 62
     7
370
    -3
100
AcDbPolyline
 90
       27
 70
     0
 43
0.0
 10
23809.38184352
 20
-3913.11795714
 10
23809.50846064
 20
-3912.78348334
 10
23809.50846064
 20
-3885.400019249999
 10
23816.50846064
 20
-3885.400019249999
 10
23816.50846064
 20
-3894.40001925
 10
23822.50846064
 20
-3894.40001925
 10
23822.50846064
 20
-3867.40001925
 10
23818.50846064
 20
-3863.40001925
 10
23822.50846064
 20
-3859.40001925
 10
23822.50846064
 20
-3795.40001925
 10
23818.50846064
 20
-3791.40001925
 10
23822.50846064
 20
-3787.40001925
 10
23822.50846064
 20
-3752.40001925
 10
23815.50846064
 20
-3752.40001925
 10
23815.50846064
 20
-3746.40001925
 10
23813.00846064
 20
-3741.40001925
 10
23810.50846064
 20
-3746.40001925
 10
23810.50846064
 20
-3777.32895144
 10
23810.12785831
 20
-3779.2423686
 10
23803.97292674
 20
-3785.93555316
 10
23802.50846064
 20
-3789.47108706
 10
23802.50846064
 20
-3908.55783148
 10
23803.46878304
 20
-3910.18770012
 10
23808.2049039
 20
-3913.15905005
 10
23808.61690526
 20
-3913.40001925
 10
23808.93072275
 20
-3913.40001925
 10
23809.38184352
 20
-3913.11795714
  0
LWPOLYLINE
  5
223
330
64
100
AcDbEntity
  8
Ech.1_5
  6
Continuous
 62
     7
370
    -3
100
AcDbPolyline
 90
       17
 70
     0
 43
0.0
 10
23822.50846064
 20
-3681.48962215
 10
23802.50846064
 20
-3681.48962215
 10
23802.50846064
 20
-3763.55783148
 10
23803.46878304
 20
-3765.18770012
 10
23808.2049039
 20
-3768.15905005
 10
23808.61690526
 20
-3768.40001925
 10
23808.93072275
 20
-3768.40001925
 10
23809.38184352
 20
-3768.11795714
 10
23809.50846064
 20
-3767.783483340001
 10
23809.50846064
 20
-3740.40001925
 10
23816.50846064
 20
-3740.40001925
 10
23816.50846064
 20
-3749.40001925
 10
23822.50846064
 20
-3749.40001925
 10
23822.50846064
 20
-3722.40001925
 10
23818.50846064
 20
-3718.40001925
 10
23822.50846064
 20
-3714.40001925
 10
23822.50846064
 20
-3681.48962215
  0
LWPOLYLINE
  5
224
330
64
100
AcDbEntity
  8
Ech.1_5
  6
Continuous
 62
     7
370
    -3
100
AcDbPolyline
 90
       27
 70
     0
 43
0.0
 10
23809.38183652
 20
-4058.11795714
 10
23809.50845364
 20
-4057.78348334
 10
23809.50845364
 20
-4030.40001925
 10
23816.50845364
 20
-4030.40001925
 10
23816.50845364
 20
-4039.40001925
 10
23822.50845364
 20
-4039.40001925
 10
23822.50845364
 20
-4012.40001925
 10
23818.50845364
 20
-4008.400019249999
 10
23822.50845364
 20
-4004.40001925
 10
23822.50845364
 20
-3940.40001925
 10
23818.50845364
 20
-3936.40001925
 10
23822.50845364
 20
-3932.40001925
 10
23822.50845364
 20
-3897.40001925
 10
23815.50845364
 20
-3897.40001925
 10
23815.50845364
 20
-3891.40001925
 10
23813.00845364
 20
-3886.40001925
 10
23810.50845364
 20
-3891.40001925
 10
23810.50845364
 20
-3922.32895144
 10
23810.1278513
 20
-3924.2423686
 10
23803.97291973
 20
-3930.93555316
 10
23802.50845364
 20
-3934.47108706
 10
23802.50845364
 20
-4053.55783148
 10
23803.46877604
 20
-4055.18770012
 10
23808.20489689
 20
-4058.15905005
 10
23808.61689826
 20
-4058.40001925
 10
23808.93071575
 20
-4058.40001925
 10
23809.38183652
 20
-4058.11795714
  0
LWPOLYLINE
  5
225
330
64
100
AcDbEntity
  8
Ech.1_5
  6
Continuous
 62
     7
370
    -3
100
AcDbPolyline
 90
       27
 70
     0
 43
0.0
 10
23809.38184352
 20
-4203.117957139999
 10
23809.50846064
 20
-4202.78348334
 10
23809.50846064
 20
-4175.40001925
 10
23816.50846064
 20
-4175.40001925
 10
23816.50846064
 20
-4184.400019249999
 10
23822.50846064
 20
-4184.400019249999
 10
23822.50846064
 20
-4157.40001925
 10
23818.50846064
 20
-4153.400019249999
 10
23822.50846064
 20
-4149.400019249999
 10
23822.50846064
 20
-4085.400019249999
 10
23818.50846064
 20
-4081.40001925
 10
23822.50846064
 20
-4077.400019249999
 10
23822.50846064
 20
-4042.400019249999
 10
23815.50846064
 20
-4042.400019249999
 10
23815.50846064
 20
-4036.40001925
 10
23813.00846064
 20
-4031.400019249999
 10
23810.50846064
 20
-4036.40001925
 10
23810.50846064
 20
-4067.328951439999
 10
23810.12785831
 20
-4069.2423686
 10
23803.97292674
 20
-4075.935553159999
 10
23802.50846064
 20
-4079.471087059999
 10
23802.50846064
 20
-4198.557831479999
 10
23803.46878304
 20
-4200.187700119999
 10
23808.2049039
 20
-4203.15905005
 10
23808.61690526
 20
-4203.40001925
 10
23808.93072275
 20
-4203.40001925
 10
23809.38184352
 20
-4203.117957139999
  0
LWPOLYLINE
  5
226
330
64
100
AcDbEntity
  8
Ech.1_5
  6
Continuous
 62
     7
370
    -3
100
AcDbPolyline
 90
       27
 70
     0
 43
0.0
 10
23809.38183652
 20
-4348.11795714
 10
23809.50845364
 20
-4347.78348334
 10
23809.50845364
 20
-4320.40001925
 10
23816.50845364
 20
-4320.40001925
 10
23816.50845364
 20
-4329.40001925
 10
23822.50845364
 20
-4329.40001925
 10
23822.50845364
 20
-4302.40001925
 10
23818.50845364
 20
-4298.400019249999
 10
23822.50845364
 20
-4294.40001925
 10
23822.50845364
 20
-4230.40001925
 10
23818.50845364
 20
-4226.400019249999
 10
23822.50845364
 20
-4222.40001925
 10
23822.50845364
 20
-4187.40001925
 10
23815.50845364
 20
-4187.40001925
 10
23815.50845364
 20
-4181.400019249999
 10
23813.00845364
 20
-4176.400019249999
 10
23810.50845364
 20
-4181.400019249999
 10
23810.50845364
 20
-4212.32895144
 10
23810.1278513
 20
-4214.242368599999
 10
23803.97291973
 20
-4220.93555316
 10
23802.50845364
 20
-4224.47108706
 10
23802.50845364
 20
-4343.55783148
 10
23803.46877604
 20
-4345.18770012
 10
23808.20489689
 20
-4348.159050049999
 10
23808.61689826
 20
-4348.400019249999
 10
23808.93071575
 20
-4348.400019249999
 10
23809.38183652
 20
-4348.11795714
  0
LWPOLYLINE
  5
227
330
64
100
AcDbEntity
  8
Ech.1_5
  6
Continuous
 62
     7
370
    -3
100
AcDbPolyline
 90
       15
 70
     0
 43
0.0
 10
23818.50846064
 20
-4371.40001925
 10
23822.50846064
 20
-4367.400019249999
 10
23822.50846064
 20
-4332.40001925
 10
23815.50846064
 20
-4332.40001925
 10
23815.50846064
 20
-4326.40001925
 10
23813.00846064
 20
-4321.40001925
 10
23810.50846064
 20
-4326.40001925
 10
23810.50846064
 20
-4357.32895144
 10
23810.12785831
 20
-4359.2423686
 10
23803.97292674
 20
-4365.93555316
 10
23802.50846064
 20
-4369.47108706
 10
23802.50846064
 20
-4383.29187504
 10
23822.50846064
 20
-4383.29187504
 10
23822.50846064
 20
-4375.40001925
 10
23818.50846064
 20
-4371.40001925
  0
TEXT
  5
228
330
64
100
AcDbEntity
  8
Ech.1_5
 62
     7
100
AcDbText
 10
23325.88588709
 20
-4074.92978545
 30
0.0
 40
8.000000119999999
  1
Echelle en mm
  7
ARIAL
100
AcDbText
  0
TEXT
  5
229
330
64
100
AcDbEntity
  8
Ech.1_5
 62
     7
100
AcDbText
 10
23311.90530234
 20
-4103.139620979999
 30
0.0
 40
8.000000119999999
  1
0
  7
ARIAL
100
AcDbText
  0
TEXT
  5
22A
330
64
100
AcDbEntity
  8
Ech.1_5
 62
     7
100
AcDbText
 10
23398.50236023
 20
-4103.139620979999
 30
0.0
 40
8.000000119999999
  1
100
  7
ARIAL
100
AcDbText
  0
TEXT
  5
22B
330
64
100
AcDbEntity
  8
Ech.1_5
 62
     7
100
AcDbText
 10
23359.76192867
 20
-4103.139620979999
 30
0.0
 40
8.000000119999999
  1
50
  7
ARIAL
100
AcDbText
  0
INSERT
  5
22C
330
64
100
AcDbEntity
  8
Ech.1_5
 62
     0
370
    -3
100
AcDbBlockReference
  2
*D45
 10
0.0
 20
0.0
 30
0.0
  0
INSERT
  5
22D
330
64
100
AcDbEntity
  8
Ech.1_5
 62
     0
370
    -3
100
AcDbBlockReference
  2
*D46
 10
0.0
 20
0.0
 30
0.0
  0
LWPOLYLINE
  5
290
330
64
100
AcDbEntity
  8
Ech.1_5
  6
Continuous
 62
     7
370
    -3
100
AcDbPolyline
 90
        4
 70
     0
 43
0.0
 10
23882.84075152
 20
-3730.954435031676
 10
23847.50860634
 20
-3743.81428419
 10
23847.50860634
 20
-3613.98459595
 10
23405.5086064
 20
-3774.85943947
  0
LWPOLYLINE
  5
293
330
64
100
AcDbEntity
  8
Ech.1_5
  6
Continuous
 62
     7
370
    -3
100
AcDbPolyline
 90
        4
 70
     0
 43
0.0
 10
23882.84075152
 20
-3730.954435031959
 10
23856.5086064
 20
-3740.53855206
 10
24924.16984082
 20
-3740.53855206
 10
24924.16984082
 20
-3518.53855206
  0
LWPOLYLINE
  5
294
330
64
100
AcDbEntity
  8
Ech.1_5
  6
Continuous
 62
     7
370
    -3
100
AcDbPolyline
 90
        3
 70
     0
 43
0.0
 10
24406.00417782953
 20
-3540.538520198904
 10
24466.44859352
 20
-3518.53855206
 10
24924.16984082
 20
-3518.53855206
  0
LWPOLYLINE
  5
295
330
64
100
AcDbEntity
  8
Ech.1_5
  6
Continuous
 62
     7
370
    -3
100
AcDbPolyline
 90
        2
 70
     0
 43
0.0
 10
23882.84075152
 20
-3730.954435031676
 10
23847.50860634
 20
-3743.81428419
  0
ENDSEC
  0
SECTION
  2
OBJECTS
  0
DICTIONARY
  5
1
330
0
100
AcDbDictionary
281
     1
  3
ACAD_COLOR
350
265
  3
ACAD_GROUP
350
2
  3
ACAD_LAYOUT
350
27D
  3
ACAD_MATERIAL
350
233
  3
ACAD_MLEADERSTYLE
350
27A
  3
ACAD_MLINESTYLE
350
3
  3
ACAD_PLOTSETTINGS
350
27E
  3
ACAD_PLOTSTYLENAME
350
231
  3
ACAD_SCALELIST
350
268
  3
ACAD_TABLESTYLE
350
266
  3
ACAD_VISUALSTYLE
350
24C
  3
ACDB_RECOMPOSE_DATA
350
2DF
  3
AcDbVariableDictionary
350
2D5
  3
DWGPROPS
350
2E0
  0
DICTIONARY
  5
299
330
3E
100
AcDbDictionary
280
     1
281
     1
  3
ADSK_XREC_LAYER_RECONCILED
360
29A
  0
DICTIONARY
  5
29B
330
3F
100
AcDbDictionary
280
     1
281
     1
  3
ADSK_XREC_LAYER_RECONCILED
360
29C
  0
DICTIONARY
  5
29D
330
40
100
AcDbDictionary
280
     1
281
     1
  3
ADSK_XREC_LAYER_RECONCILED
360
29E
  0
DICTIONARY
  5
29F
330
41
100
AcDbDictionary
280
     1
281
     1
  3
ADSK_XREC_LAYER_RECONCILED
360
2A0
  0
DICTIONARY
  5
2A1
330
42
100
AcDbDictionary
280
     1
281
     1
  3
ADSK_XREC_LAYER_RECONCILED
360
2A2
  0
DICTIONARY
  5
2A3
330
43
100
AcDbDictionary
280
     1
281
     1
  3
ADSK_XREC_LAYER_RECONCILED
360
2A4
  0
DICTIONARY
  5
2A5
330
44
100
AcDbDictionary
280
     1
281
     1
  3
ADSK_XREC_LAYER_RECONCILED
360
2A6
  0
DICTIONARY
  5
2A7
330
45
100
AcDbDictionary
280
     1
281
     1
  3
ADSK_XREC_LAYER_RECONCILED
360
2A8
  0
DICTIONARY
  5
2A9
330
46
100
AcDbDictionary
280
     1
281
     1
  3
ADSK_XREC_LAYER_RECONCILED
360
2AA
  0
DICTIONARY
  5
2AB
330
47
100
AcDbDictionary
280
     1
281
     1
  3
ADSK_XREC_LAYER_RECONCILED
360
2AC
  0
DICTIONARY
  5
2AD
330
48
100
AcDbDictionary
280
     1
281
     1
  3
ADSK_XREC_LAYER_RECONCILED
360
2AE
  0
DICTIONARY
  5
2AF
330
49
100
AcDbDictionary
280
     1
281
     1
  3
ADSK_XREC_LAYER_RECONCILED
360
2B0
  0
DICTIONARY
  5
2B1
330
4A
100
AcDbDictionary
280
     1
281
     1
  3
ADSK_XREC_LAYER_RECONCILED
360
2B2
  0
DICTIONARY
  5
2B3
330
4B
100
AcDbDictionary
280
     1
281
     1
  3
ADSK_XREC_LAYER_RECONCILED
360
2B4
  0
DICTIONARY
  5
2B5
330
4C
100
AcDbDictionary
280
     1
281
     1
  3
ADSK_XREC_LAYER_RECONCILED
360
2B6
  0
DICTIONARY
  5
2B7
330
4D
100
AcDbDictionary
280
     1
281
     1
  3
ADSK_XREC_LAYER_RECONCILED
360
2B8
  0
DICTIONARY
  5
2B9
330
4E
100
AcDbDictionary
280
     1
281
     1
  3
ADSK_XREC_LAYER_RECONCILED
360
2BA
  0
DICTIONARY
  5
2BB
330
4F
100
AcDbDictionary
280
     1
281
     1
  3
ADSK_XREC_LAYER_RECONCILED
360
2BC
  0
DICTIONARY
  5
2BD
330
50
100
AcDbDictionary
280
     1
281
     1
  3
ADSK_XREC_LAYER_RECONCILED
360
2BE
  0
DICTIONARY
  5
2BF
330
51
100
AcDbDictionary
280
     1
281
     1
  3
ADSK_XREC_LAYER_RECONCILED
360
2C0
  0
DICTIONARY
  5
2C1
330
52
100
AcDbDictionary
280
     1
281
     1
  3
ADSK_XREC_LAYER_RECONCILED
360
2C2
  0
DICTIONARY
  5
2C3
330
54
100
AcDbDictionary
280
     1
281
     1
  3
ADSK_XREC_LAYER_RECONCILED
360
2C4
  0
DICTIONARY
  5
2C5
330
55
100
AcDbDictionary
280
     1
281
     1
  3
ADSK_XREC_LAYER_RECONCILED
360
2C6
  0
DICTIONARY
  5
2C7
330
57
100
AcDbDictionary
280
     1
281
     1
  3
ADSK_XREC_LAYER_RECONCILED
360
2C8
  0
DICTIONARY
  5
2C9
330
58
100
AcDbDictionary
280
     1
281
     1
  3
ADSK_XREC_LAYER_RECONCILED
360
2CA
  0
DICTIONARY
  5
2CB
330
59
100
AcDbDictionary
280
     1
281
     1
  3
ADSK_XREC_LAYER_RECONCILED
360
2CC
  0
DICTIONARY
  5
2CD
330
5A
100
AcDbDictionary
280
     1
281
     1
  3
ADSK_XREC_LAYER_RECONCILED
360
2CE
  0
DICTIONARY
  5
2CF
330
5B
100
AcDbDictionary
280
     1
281
     1
  3
ADSK_XREC_LAYER_RECONCILED
360
2D0
  0
DICTIONARY
  5
2D1
330
5C
100
AcDbDictionary
280
     1
281
     1
  3
ADSK_XREC_LAYER_RECONCILED
360
2D2
  0
DICTIONARY
  5
2D3
330
5D
100
AcDbDictionary
280
     1
281
     1
  3
ADSK_XREC_LAYER_RECONCILED
360
2D4
  0
DICTIONARY
  5
291
330
64
100
AcDbDictionary
280
     1
281
     1
  3
ACAD_SORTENTS
360
292
  0
DICTIONARY
  5
265
102
{ACAD_REACTORS
330
1
102
}
330
1
100
AcDbDictionary
281
     1
  0
DICTIONARY
  5
2
330
1
100
AcDbDictionary
281
     1
  0
DICTIONARY
  5
27D
102
{ACAD_REACTORS
330
1
102
}
330
1
100
AcDbDictionary
281
     1
  3
Model
350
27F
  3
Présentation1
350
280
  0
DICTIONARY
  5
233
102
{ACAD_REACTORS
330
1
102
}
330
1
100
AcDbDictionary
281
     1
  3
ByBlock
350
23C
  3
ByLayer
350
234
  3
Global
350
244
  0
DICTIONARY
  5
27A
102
{ACAD_REACTORS
330
1
102
}
330
1
100
AcDbDictionary
281
     1
  3
Standard
350
27B
  0
DICTIONARY
  5
3
330
1
100
AcDbDictionary
281
     1
  3
STANDARD
350
4
  0
DICTIONARY
  5
27E
102
{ACAD_REACTORS
330
1
102
}
330
1
100
AcDbDictionary
281
     1
  0
ACDBDICTIONARYWDFLT
  5
231
102
{ACAD_REACTORS
330
1
102
}
330
1
100
AcDbDictionary
281
     1
  3
Normal
350
232
100
AcDbDictionaryWithDefault
340
232
  0
DICTIONARY
  5
268
102
{ACAD_REACTORS
330
1
102
}
330
1
100
AcDbDictionary
281
     1
  3
A0
350
269
  3
A1
350
26A
  3
A2
350
26B
  3
A3
350
26C
  3
A4
350
26D
  3
A5
350
26E
  3
A6
350
26F
  3
A7
350
270
  3
A8
350
271
  3
A9
350
272
  3
B0
350
273
  3
B1
350
274
  3
B2
350
275
  3
B3
350
276
  3
B4
350
277
  3
B5
350
278
  3
B6
350
279
  0
DICTIONARY
  5
266
102
{ACAD_REACTORS
330
1
102
}
330
1
100
AcDbDictionary
281
     1
  3
Standard
350
267
  0
DICTIONARY
  5
24C
102
{ACAD_REACTORS
330
1
102
}
330
1
100
AcDbDictionary
281
     1
  3
2dWireframe
350
252
  3
Basic
350
251
  3
Brighten
350
258
  3
ColorChange
350
25C
  3
Conceptual
350
255
  3
Dim
350
257
  3
EdgeColorOff
350
264
  3
Facepattern
350
25B
  3
Flat
350
24D
  3
FlatWithEdges
350
24E
  3
Gouraud
350
24F
  3
GouraudWithEdges
350
250
  3
Hidden
350
254
  3
JitterOff
350
262
  3
Linepattern
350
25A
  3
OverhangOff
350
263
  3
Realistic
350
256
  3
Shaded
350
261
  3
Shaded with edges
350
260
  3
Shades of Gray
350
25D
  3
Sketchy
350
25E
  3
Thicken
350
259
  3
Wireframe
350
253
  3
X-Ray
350
25F
  0
XRECORD
  5
2DF
102
{ACAD_REACTORS
330
1
102
}
330
1
100
AcDbXrecord
280
     1
 90
        1
330
267
  0
DICTIONARY
  5
2D5
102
{ACAD_REACTORS
330
1
102
}
330
1
100
AcDbDictionary
281
     1
  3
CANNOSCALE
350
2D8
  3
CMLEADERSTYLE
350
2D7
  3
CTABLESTYLE
350
2D6
  3
DIMASSOC
350
2DB
  3
INDEXCTL
350
2DA
  3
SORTENTS
350
2D9
  3
XCLIPFRAME
350
2DC
  0
XRECORD
  5
2E0
102
{ACAD_REACTORS
330
1
102
}
330
1
100
AcDbXrecord
280
     1
  1
DWGPROPS COOKIE
  2

  3

  4

  6

  7

  8
cazeaux
  9

300
=
301
=
302
=
303
=
304
=
305
=
306
=
307
=
308
=
309
=
 40
0.0010362962962963
 41
2456467.0
 42
2456468.459437246
  1

 90
        0
  0
XRECORD
  5
29A
102
{ACAD_REACTORS
330
299
102
}
330
299
100
AcDbXrecord
280
     1
290
     1
  0
XRECORD
  5
29C
102
{ACAD_REACTORS
330
29B
102
}
330
29B
100
AcDbXrecord
280
     1
290
     1
  0
XRECORD
  5
29E
102
{ACAD_REACTORS
330
29D
102
}
330
29D
100
AcDbXrecord
280
     1
290
     1
  0
XRECORD
  5
2A0
102
{ACAD_REACTORS
330
29F
102
}
330
29F
100
AcDbXrecord
280
     1
290
     1
  0
XRECORD
  5
2A2
102
{ACAD_REACTORS
330
2A1
102
}
330
2A1
100
AcDbXrecord
280
     1
290
     1
  0
XRECORD
  5
2A4
102
{ACAD_REACTORS
330
2A3
102
}
330
2A3
100
AcDbXrecord
280
     1
290
     1
  0
XRECORD
  5
2A6
102
{ACAD_REACTORS
330
2A5
102
}
330
2A5
100
AcDbXrecord
280
     1
290
     1
  0
XRECORD
  5
2A8
102
{ACAD_REACTORS
330
2A7
102
}
330
2A7
100
AcDbXrecord
280
     1
290
     1
  0
XRECORD
  5
2AA
102
{ACAD_REACTORS
330
2A9
102
}
330
2A9
100
AcDbXrecord
280
     1
290
     1
  0
XRECORD
  5
2AC
102
{ACAD_REACTORS
330
2AB
102
}
330
2AB
100
AcDbXrecord
280
     1
290
     1
  0
XRECORD
  5
2AE
102
{ACAD_REACTORS
330
2AD
102
}
330
2AD
100
AcDbXrecord
280
     1
290
     1
  0
XRECORD
  5
2B0
102
{ACAD_REACTORS
330
2AF
102
}
330
2AF
100
AcDbXrecord
280
     1
290
     1
  0
XRECORD
  5
2B2
102
{ACAD_REACTORS
330
2B1
102
}
330
2B1
100
AcDbXrecord
280
     1
290
     1
  0
XRECORD
  5
2B4
102
{ACAD_REACTORS
330
2B3
102
}
330
2B3
100
AcDbXrecord
280
     1
290
     1
  0
XRECORD
  5
2B6
102
{ACAD_REACTORS
330
2B5
102
}
330
2B5
100
AcDbXrecord
280
     1
290
     1
  0
XRECORD
  5
2B8
102
{ACAD_REACTORS
330
2B7
102
}
330
2B7
100
AcDbXrecord
280
     1
290
     1
  0
XRECORD
  5
2BA
102
{ACAD_REACTORS
330
2B9
102
}
330
2B9
100
AcDbXrecord
280
     1
290
     1
  0
XRECORD
  5
2BC
102
{ACAD_REACTORS
330
2BB
102
}
330
2BB
100
AcDbXrecord
280
     1
290
     1
  0
XRECORD
  5
2BE
102
{ACAD_REACTORS
330
2BD
102
}
330
2BD
100
AcDbXrecord
280
     1
290
     1
  0
XRECORD
  5
2C0
102
{ACAD_REACTORS
330
2BF
102
}
330
2BF
100
AcDbXrecord
280
     1
290
     1
  0
XRECORD
  5
2C2
102
{ACAD_REACTORS
330
2C1
102
}
330
2C1
100
AcDbXrecord
280
     1
290
     1
  0
XRECORD
  5
2C4
102
{ACAD_REACTORS
330
2C3
102
}
330
2C3
100
AcDbXrecord
280
     1
290
     1
  0
XRECORD
  5
2C6
102
{ACAD_REACTORS
330
2C5
102
}
330
2C5
100
AcDbXrecord
280
     1
290
     1
  0
XRECORD
  5
2C8
102
{ACAD_REACTORS
330
2C7
102
}
330
2C7
100
AcDbXrecord
280
     1
290
     1
  0
XRECORD
  5
2CA
102
{ACAD_REACTORS
330
2C9
102
}
330
2C9
100
AcDbXrecord
280
     1
290
     1
  0
XRECORD
  5
2CC
102
{ACAD_REACTORS
330
2CB
102
}
330
2CB
100
AcDbXrecord
280
     1
290
     1
  0
XRECORD
  5
2CE
102
{ACAD_REACTORS
330
2CD
102
}
330
2CD
100
AcDbXrecord
280
     1
290
     1
  0
XRECORD
  5
2D0
102
{ACAD_REACTORS
330
2CF
102
}
330
2CF
100
AcDbXrecord
280
     1
290
     1
  0
XRECORD
  5
2D2
102
{ACAD_REACTORS
330
2D1
102
}
330
2D1
100
AcDbXrecord
280
     1
290
     1
  0
XRECORD
  5
2D4
102
{ACAD_REACTORS
330
2D3
102
}
330
2D3
100
AcDbXrecord
280
     1
290
     1
  0
SORTENTSTABLE
  5
292
102
{ACAD_REACTORS
330
291
102
}
330
291
100
AcDbSortentsTable
330
64
331
209
  5
20C
331
1B1
  5
1B2
331
18F
  5
190
331
1F5
  5
1F7
331
21A
  5
21E
331
1C2
  5
1C4
331
1A0
  5
1A1
331
186
  5
187
331
1D3
  5
1D5
331
1E4
  5
1E6
331
294
  5
1B7
331
22D
  5
295
331
18D
  5
18E
331
207
  5
20A
331
1F3
  5
1F5
331
1D1
  5
1D3
331
1AF
  5
1B0
331
218
  5
21C
331
1C0
  5
1C2
331
19E
  5
19F
331
1E2
  5
1E4
331
184
  5
184
331
22B
  5
293
331
18B
  5
18C
331
205
  5
208
331
1AD
  5
1AE
331
227
  5
22B
331
1F1
  5
1F3
331
1CF
  5
1D1
331
216
  5
21A
331
1BE
  5
1C0
331
19C
  5
19D
331
182
  5
182
331
290
  5
216
331
229
  5
22D
331
189
  5
18A
331
203
  5
206
331
225
  5
229
331
1CD
  5
1CF
331
1EF
  5
1F1
331
214
  5
218
331
1BC
  5
1BE
331
19A
  5
19B
331
1DE
  5
1E2
331
1AB
  5
1AC
331
201
  5
204
331
1A9
  5
1AA
331
223
  5
227
331
1CB
  5
1CD
331
1ED
  5
1EF
331
212
  5
215
331
1BA
  5
1BC
331
198
  5
199
331
1FE
  5
201
331
1DC
  5
1DE
331
221
  5
225
331
1C9
  5
1CB
331
1EB
  5
1ED
331
210
  5
214
331
1B8
  5
1BA
331
196
  5
197
331
1FC
  5
1FE
331
1A7
  5
1A8
331
1DA
  5
1DC
331
1E9
  5
1EB
331
20E
  5
212
331
1B6
  5
1B8
331
194
  5
195
331
1FA
  5
1FC
331
21F
  5
223
331
1C7
  5
1C9
331
1A5
  5
1A6
331
1D8
  5
1DA
331
20C
  5
20F
331
1B4
  5
1B5
331
192
  5
193
331
1F8
  5
1FA
331
21D
  5
221
331
1C5
  5
1C7
331
1A3
  5
1A4
331
1D6
  5
1D8
331
1E7
  5
1E9
331
20A
  5
20D
331
1B2
  5
1B3
331
190
  5
191
331
1F6
  5
1F8
331
21B
  5
21F
331
1C3
  5
1C5
331
1A1
  5
1A2
331
187
  5
188
331
1D4
  5
1D6
331
1E5
  5
1E7
331
208
  5
20B
331
1B0
  5
1B1
331
18E
  5
18F
331
295
  5
185
331
1F4
  5
1F6
331
219
  5
21D
331
1C1
  5
1C3
331
19F
  5
1A0
331
185
  5
186
331
1D2
  5
1D4
331
1E3
  5
1E5
331
293
  5
200
331
22C
  5
294
331
18C
  5
18D
331
206
  5
209
331
1F2
  5
1F4
331
1D0
  5
1D2
331
1AE
  5
1AF
331
217
  5
21B
331
1BF
  5
1C1
331
19D
  5
19E
331
183
  5
183
331
22A
  5
290
331
18A
  5
18B
331
204
  5
207
331
1AC
  5
1AD
331
226
  5
22A
331
1F0
  5
1F2
331
1CE
  5
1D0
331
215
  5
219
331
1BD
  5
1BF
331
19B
  5
19C
331
1DF
  5
1E3
331
181
  5
181
331
228
  5
22C
331
188
  5
189
331
202
  5
205
331
1AA
  5
1AB
331
224
  5
228
331
1EE
  5
1F0
331
213
  5
217
331
1BB
  5
1BD
331
199
  5
19A
331
1CC
  5
1CE
331
1FF
  5
202
331
1DD
  5
1DF
331
200
  5
203
331
1A8
  5
1A9
331
222
  5
226
331
1CA
  5
1CC
331
1EC
  5
1EE
331
1FD
  5
1FF
331
1DB
  5
1DD
331
1B9
  5
1BB
331
197
  5
198
331
220
  5
224
331
1C8
  5
1CA
331
1EA
  5
1EC
331
20F
  5
213
331
1B7
  5
1B9
331
195
  5
196
331
1FB
  5
1FD
331
1A6
  5
1A7
331
1D9
  5
1DB
331
1E8
  5
1EA
331
20D
  5
210
331
1B5
  5
1B6
331
193
  5
194
331
1F9
  5
1FB
331
21E
  5
222
331
1C6
  5
1C8
331
1A4
  5
1A5
331
1D7
  5
1D9
331
20B
  5
20E
331
1B3
  5
1B4
331
191
  5
192
331
1F7
  5
1F9
331
21C
  5
220
331
1C4
  5
1C6
331
1A2
  5
1A3
331
1D5
  5
1D7
331
1E6
  5
1E8
  0
LAYOUT
  5
27F
102
{ACAD_XDICTIONARY
360
316
102
}
102
{ACAD_REACTORS
330
27D
102
}
330
27D
100
AcDbPlotSettings
  1

  2
Aucun(e)
  4

  6

 40
0.0
 41
0.0
 42
0.0
 43
0.0
 44
0.0
 45
0.0
 46
0.0
 47
0.0
 48
0.0
 49
0.0
140
0.0
141
0.0
142
1.0
143
1.0
 70
  1712
 72
     0
 73
     0
 74
     0
  7
acad.ctb
 75
     0
147
1.0
148
0.0
149
0.0
100
AcDbLayout
  1
Model
 70
     1
 71
     0
 10
0.0
 20
0.0
 11
12.0
 21
9.0
 12
0.0
 22
0.0
 32
0.0
 14
0.0
 24
0.0
 34
0.0
 15
0.0
 25
0.0
 35
0.0
146
0.0
 13
0.0
 23
0.0
 33
0.0
 16
1.0
 26
0.0
 36
0.0
 17
0.0
 27
1.0
 37
0.0
 76
     0
330
64
331
283
  0
LAYOUT
  5
280
102
{ACAD_XDICTIONARY
360
318
102
}
102
{ACAD_REACTORS
330
27D
102
}
330
27D
100
AcDbPlotSettings
  1

  2
Aucun(e)
  4

  6

 40
0.0
 41
0.0
 42
0.0
 43
0.0
 44
0.0
 45
0.0
 46
0.0
 47
0.0
 48
0.0
 49
0.0
140
0.0
141
0.0
142
1.0
143
1.0
 70
   688
 72
     0
 73
     0
 74
     5
  7
acad.ctb
 75
    16
147
1.0
148
0.0
149
0.0
100
AcDbLayout
  1
Présentation1
 70
     1
 71
     1
 10
0.0
 20
0.0
 11
12.0
 21
9.0
 12
0.0
 22
0.0
 32
0.0
 14
1.000000000000000E+20
 24
1.000000000000000E+20
 34
1.000000000000000E+20
 15
-1.000000000000000E+20
 25
-1.000000000000000E+20
 35
-1.000000000000000E+20
146
0.0
 13
0.0
 23
0.0
 33
0.0
 16
1.0
 26
0.0
 36
0.0
 17
0.0
 27
1.0
 37
0.0
 76
     0
330
65
  0
MATERIAL
  5
23C
102
{ACAD_XDICTIONARY
360
23D
102
}
102
{ACAD_REACTORS
330
233
102
}
330
233
100
AcDbMaterial
  1
ByBlock
 72
     0
 43
0.0208333333333333
 43
0.0
 43
0.0
 43
0.0
 43
0.0
 43
0.0208333333333333
 43
0.0
 43
0.0
 43
0.0
 43
0.0
 43
1.0
 43
0.0
 43
0.0
 43
0.0
 43
0.0
 43
1.0
 77
     0
 47
0.0208333333333333
 47
0.0
 47
0.0
 47
0.0
 47
0.0
 47
0.0208333333333333
 47
0.0
 47
0.0
 47
0.0
 47
0.0
 47
1.0
 47
0.0
 47
0.0
 47
0.0
 47
0.0
 47
1.0
171
     0
 49
0.0208333333333333
 49
0.0
 49
0.0
 49
0.0
 49
0.0
 49
0.0208333333333333
 49
0.0
 49
0.0
 49
0.0
 49
0.0
 49
1.0
 49
0.0
 49
0.0
 49
0.0
 49
0.0
 49
1.0
175
     0
142
0.0208333333333333
142
0.0
142
0.0
142
0.0
142
0.0
142
0.0208333333333333
142
0.0
142
0.0
142
0.0
142
0.0
142
1.0
142
0.0
142
0.0
142
0.0
142
0.0
142
1.0
179
     0
144
0.0208333333333333
144
0.0
144
0.0
144
0.0
144
0.0
144
0.0208333333333333
144
0.0
144
0.0
144
0.0
144
0.0
144
1.0
144
0.0
144
0.0
144
0.0
144
0.0
144
1.0
147
0.0208333333333333
147
0.0
147
0.0
147
0.0
147
0.0
147
0.0208333333333333
147
0.0
147
0.0
147
0.0
147
0.0
147
1.0
147
0.0
147
0.0
147
0.0
147
0.0
147
1.0
  0
MATERIAL
  5
234
102
{ACAD_XDICTIONARY
360
235
102
}
102
{ACAD_REACTORS
330
233
102
}
330
233
100
AcDbMaterial
  1
ByLayer
 72
     0
 43
0.0208333333333333
 43
0.0
 43
0.0
 43
0.0
 43
0.0
 43
0.0208333333333333
 43
0.0
 43
0.0
 43
0.0
 43
0.0
 43
1.0
 43
0.0
 43
0.0
 43
0.0
 43
0.0
 43
1.0
 77
     0
 47
0.0208333333333333
 47
0.0
 47
0.0
 47
0.0
 47
0.0
 47
0.0208333333333333
 47
0.0
 47
0.0
 47
0.0
 47
0.0
 47
1.0
 47
0.0
 47
0.0
 47
0.0
 47
0.0
 47
1.0
171
     0
 49
0.0208333333333333
 49
0.0
 49
0.0
 49
0.0
 49
0.0
 49
0.0208333333333333
 49
0.0
 49
0.0
 49
0.0
 49
0.0
 49
1.0
 49
0.0
 49
0.0
 49
0.0
 49
0.0
 49
1.0
175
     0
142
0.0208333333333333
142
0.0
142
0.0
142
0.0
142
0.0
142
0.0208333333333333
142
0.0
142
0.0
142
0.0
142
0.0
142
1.0
142
0.0
142
0.0
142
0.0
142
0.0
142
1.0
179
     0
144
0.0208333333333333
144
0.0
144
0.0
144
0.0
144
0.0
144
0.0208333333333333
144
0.0
144
0.0
144
0.0
144
0.0
144
1.0
144
0.0
144
0.0
144
0.0
144
0.0
144
1.0
147
0.0208333333333333
147
0.0
147
0.0
147
0.0
147
0.0
147
0.0208333333333333
147
0.0
147
0.0
147
0.0
147
0.0
147
1.0
147
0.0
147
0.0
147
0.0
147
0.0
147
1.0
  0
MATERIAL
  5
244
102
{ACAD_XDICTIONARY
360
245
102
}
102
{ACAD_REACTORS
330
233
102
}
330
233
100
AcDbMaterial
  1
Global
 72
     0
 43
0.0208333333333333
 43
0.0
 43
0.0
 43
0.0
 43
0.0
 43
0.0208333333333333
 43
0.0
 43
0.0
 43
0.0
 43
0.0
 43
1.0
 43
0.0
 43
0.0
 43
0.0
 43
0.0
 43
1.0
 77
     0
 47
0.0208333333333333
 47
0.0
 47
0.0
 47
0.0
 47
0.0
 47
0.0208333333333333
 47
0.0
 47
0.0
 47
0.0
 47
0.0
 47
1.0
 47
0.0
 47
0.0
 47
0.0
 47
0.0
 47
1.0
171
     0
 49
0.0208333333333333
 49
0.0
 49
0.0
 49
0.0
 49
0.0
 49
0.0208333333333333
 49
0.0
 49
0.0
 49
0.0
 49
0.0
 49
1.0
 49
0.0
 49
0.0
 49
0.0
 49
0.0
 49
1.0
175
     0
142
0.0208333333333333
142
0.0
142
0.0
142
0.0
142
0.0
142
0.0208333333333333
142
0.0
142
0.0
142
0.0
142
0.0
142
1.0
142
0.0
142
0.0
142
0.0
142
0.0
142
1.0
179
     0
144
0.0208333333333333
144
0.0
144
0.0
144
0.0
144
0.0
144
0.0208333333333333
144
0.0
144
0.0
144
0.0
144
0.0
144
1.0
144
0.0
144
0.0
144
0.0
144
0.0
144
1.0
147
0.0208333333333333
147
0.0
147
0.0
147
0.0
147
0.0
147
0.0208333333333333
147
0.0
147
0.0
147
0.0
147
0.0
147
1.0
147
0.0
147
0.0
147
0.0
147
0.0
147
1.0
  0
MLEADERSTYLE
  5
27B
102
{ACAD_REACTORS
330
27A
102
}
330
27A
100
AcDbMLeaderStyle
170
     2
171
     1
172
     0
 90
        2
 40
0.0
 41
0.0
173
     1
 91
-1056964608
340
30
 92
       -2
290
     1
 42
2.0
291
     1
 43
0.36
  3
Standard
 44
4.0
300

342
2B
174
     1
178
     6
175
     1
176
     0
 93
-1056964608
 45
4.0
292
     0
297
     0
 46
4.0
 94
-1056964608
 47
1.0
 49
1.0
140
1.0
293
     1
141
0.0
294
     1
177
     0
142
1.0
295
     0
296
     0
143
0.125
1001
ACAD_MLEADERVER
1070
     2
  0
MLINESTYLE
  5
4
330
3
100
AcDbMlineStyle
  2
STANDARD
 70
     0
  3

 62
     0
 51
90.0
 52
90.0
 71
     2
 49
0.5
 62
   256
  6
BYLAYER
 49
-0.5
 62
   256
  6
BYLAYER
  0
ACDBPLACEHOLDER
  5
232
102
{ACAD_REACTORS
330
231
102
}
330
231
  0
SCALE
  5
269
102
{ACAD_REACTORS
330
268
102
}
330
268
100
AcDbScale
 70
     0
300
1:1
140
1.0
141
1.0
290
     1
  0
SCALE
  5
26A
102
{ACAD_REACTORS
330
268
102
}
330
268
100
AcDbScale
 70
     0
300
1:2
140
1.0
141
2.0
290
     0
  0
SCALE
  5
26B
102
{ACAD_REACTORS
330
268
102
}
330
268
100
AcDbScale
 70
     0
300
1:4
140
1.0
141
4.0
290
     0
  0
SCALE
  5
26C
102
{ACAD_REACTORS
330
268
102
}
330
268
100
AcDbScale
 70
     0
300
1:5
140
1.0
141
5.0
290
     0
  0
SCALE
  5
26D
102
{ACAD_REACTORS
330
268
102
}
330
268
100
AcDbScale
 70
     0
300
1:8
140
1.0
141
8.0
290
     0
  0
SCALE
  5
26E
102
{ACAD_REACTORS
330
268
102
}
330
268
100
AcDbScale
 70
     0
300
1:10
140
1.0
141
10.0
290
     0
  0
SCALE
  5
26F
102
{ACAD_REACTORS
330
268
102
}
330
268
100
AcDbScale
 70
     0
300
1:16
140
1.0
141
16.0
290
     0
  0
SCALE
  5
270
102
{ACAD_REACTORS
330
268
102
}
330
268
100
AcDbScale
 70
     0
300
1:20
140
1.0
141
20.0
290
     0
  0
SCALE
  5
271
102
{ACAD_REACTORS
330
268
102
}
330
268
100
AcDbScale
 70
     0
300
1:30
140
1.0
141
30.0
290
     0
  0
SCALE
  5
272
102
{ACAD_REACTORS
330
268
102
}
330
268
100
AcDbScale
 70
     0
300
1:40
140
1.0
141
40.0
290
     0
  0
SCALE
  5
273
102
{ACAD_REACTORS
330
268
102
}
330
268
100
AcDbScale
 70
     0
300
1:50
140
1.0
141
50.0
290
     0
  0
SCALE
  5
274
102
{ACAD_REACTORS
330
268
102
}
330
268
100
AcDbScale
 70
     0
300
1:100
140
1.0
141
100.0
290
     0
  0
SCALE
  5
275
102
{ACAD_REACTORS
330
268
102
}
330
268
100
AcDbScale
 70
     0
300
2:1
140
2.0
141
1.0
290
     0
  0
SCALE
  5
276
102
{ACAD_REACTORS
330
268
102
}
330
268
100
AcDbScale
 70
     0
300
4:1
140
4.0
141
1.0
290
     0
  0
SCALE
  5
277
102
{ACAD_REACTORS
330
268
102
}
330
268
100
AcDbScale
 70
     0
300
8:1
140
8.0
141
1.0
290
     0
  0
SCALE
  5
278
102
{ACAD_REACTORS
330
268
102
}
330
268
100
AcDbScale
 70
     0
300
10:1
140
10.0
141
1.0
290
     0
  0
SCALE
  5
279
102
{ACAD_REACTORS
330
268
102
}
330
268
100
AcDbScale
 70
     0
300
100:1
140
100.0
141
1.0
290
     0
  0
TABLESTYLE
  5
267
102
{ACAD_XDICTIONARY
360
2DD
102
}
102
{ACAD_REACTORS
330
266
102
}
330
266
100
AcDbTableStyle
  3
Standard
 70
     0
 71
     0
 40
1.5
 41
1.5
280
     0
281
     0
  7
STANDARD
140
4.5
170
     2
 62
     0
 63
     7
283
     0
274
    -2
284
     1
 64
     0
275
    -2
285
     1
 65
     0
276
    -2
286
     1
 66
     0
277
    -2
287
     1
 67
     0
278
    -2
288
     1
 68
     0
279
    -2
289
     1
 69
     0
  7
STANDARD
140
6.0
170
     5
 62
     0
 63
     7
283
     0
274
    -2
284
     1
 64
     0
275
    -2
285
     1
 65
     0
276
    -2
286
     1
 66
     0
277
    -2
287
     1
 67
     0
278
    -2
288
     1
 68
     0
279
    -2
289
     1
 69
     0
  7
STANDARD
140
4.5
170
     5
 62
     0
 63
     7
283
     0
274
    -2
284
     1
 64
     0
275
    -2
285
     1
 65
     0
276
    -2
286
     1
 66
     0
277
    -2
287
     1
 67
     0
278
    -2
288
     1
 68
     0
279
    -2
289
     1
 69
     0
  0
VISUALSTYLE
  5
252
102
{ACAD_XDICTIONARY
360
2EE
102
}
102
{ACAD_REACTORS
330
24C
102
}
330
24C
100
AcDbVisualStyle
  2
2dWireframe
 70
     4
 71
     0
 72
     2
 73
     0
 90
        0
 40
-0.6
 41
-30.0
 62
     5
 63
     7
 74
     1
 91
        4
 64
     7
 65
   257
 75
     1
175
     1
 42
1.0
 92
        0
 66
   257
 43
1.0
 76
     1
 77
     6
 78
     2
 67
     7
 79
     5
170
     0
171
     0
290
     0
174
     0
 93
        1
 44
0.0
173
     0
291
     0
 45
0.0
1001
ACAD
1000
AcDbSavedByObjectVersion
1070
     0
  0
VISUALSTYLE
  5
251
102
{ACAD_XDICTIONARY
360
2EC
102
}
102
{ACAD_REACTORS
330
24C
102
}
330
24C
100
AcDbVisualStyle
  2
Basic
 70
     7
 71
     1
 72
     0
 73
     1
 90
        0
 40
-0.6
 41
-30.0
 62
     5
 63
     7
 74
     0
 91
        4
 64
     7
 65
   257
 75
     1
175
     1
 42
1.0
 92
        8
 66
     7
 43
1.0
 76
     1
 77
     6
 78
     2
 67
     7
 79
     5
170
     0
171
     0
290
     0
174
     0
 93
        1
 44
0.0
173
     0
291
     1
 45
0.0
1001
ACAD
1000
AcDbSavedByObjectVersion
1070
     0
  0
VISUALSTYLE
  5
258
102
{ACAD_XDICTIONARY
360
2FA
102
}
102
{ACAD_REACTORS
330
24C
102
}
330
24C
100
AcDbVisualStyle
  2
Brighten
 70
    12
 71
     2
 72
     2
 73
     0
 90
        0
 40
-0.6
 41
-30.0
 62
     5
 63
     7
 74
     1
 91
        4
 64
     7
 65
   257
 75
     1
175
     1
 42
1.0
 92
        8
 66
     7
 43
1.0
 76
     1
 77
     6
 78
     2
 67
     7
 79
     5
170
     0
171
     0
290
     0
174
     0
 93
        1
 44
50.0
173
     0
291
     1
 45
0.0
1001
ACAD
1000
AcDbSavedByObjectVersion
1070
     0
  0
VISUALSTYLE
  5
25C
102
{ACAD_XDICTIONARY
360
302
102
}
102
{ACAD_REACTORS
330
24C
102
}
330
24C
100
AcDbVisualStyle
  2
ColorChange
 70
    16
 71
     2
 72
     2
 73
     3
 90
        0
 40
-0.6
 41
-30.0
 62
     5
 63
     8
 74
     1
 91
        4
 64
     7
 65
   257
 75
     1
175
     1
 42
1.0
 92
        8
 66
     8
 43
1.0
 76
     1
 77
     6
 78
     2
 67
     7
 79
     5
170
     0
171
     0
290
     0
174
     0
 93
        1
 44
0.0
173
     0
291
     1
 45
0.0
1001
ACAD
1000
AcDbSavedByObjectVersion
1070
     0
  0
VISUALSTYLE
  5
255
102
{ACAD_XDICTIONARY
360
2F4
102
}
102
{ACAD_REACTORS
330
24C
102
}
330
24C
100
AcDbVisualStyle
  2
Conceptual
 70
     9
 71
     3
 72
     2
 73
     0
 90
        0
 40
-0.6
 41
-30.0
 62
     5
 63
     7
 74
     2
 91
        2
 64
     7
 65
   257
 75
     1
175
     1
 42
179.0
 92
        8
 66
     7
 43
1.0
 76
     1
 77
     6
 78
     2
 67
     7
 79
     3
170
     0
171
     0
290
     0
174
     0
 93
        1
 44
0.0
173
     0
291
     0
 45
0.0
1001
ACAD
1000
AcDbSavedByObjectVersion
1070
     0
  0
VISUALSTYLE
  5
257
102
{ACAD_XDICTIONARY
360
2F8
102
}
102
{ACAD_REACTORS
330
24C
102
}
330
24C
100
AcDbVisualStyle
  2
Dim
 70
    11
 71
     2
 72
     2
 73
     0
 90
        0
 40
-0.6
 41
-30.0
 62
     5
 63
     7
 74
     1
 91
        4
 64
     7
 65
   257
 75
     1
175
     1
 42
1.0
 92
        8
 66
     7
 43
1.0
 76
     1
 77
     6
 78
     2
 67
     7
 79
     5
170
     0
171
     0
290
     0
174
     0
 93
        1
 44
-50.0
173
     0
291
     1
 45
0.0
1001
ACAD
1000
AcDbSavedByObjectVersion
1070
     0
  0
VISUALSTYLE
  5
264
102
{ACAD_XDICTIONARY
360
312
102
}
102
{ACAD_REACTORS
330
24C
102
}
330
24C
100
AcDbVisualStyle
  2
EdgeColorOff
 70
    22
 71
     2
 72
     2
 73
     0
 90
        0
 40
-0.6
 41
-30.0
 62
     5
 63
     7
 74
     1
 91
        4
 64
     7
 65
   257
 75
     1
175
     1
 42
1.0
 92
        8
 66
     7
 43
1.0
 76
     1
 77
     6
 78
     2
 67
     7
 79
     5
170
     0
171
     0
290
     0
174
     0
 93
        1
 44
0.0
173
     0
291
     1
 45
0.0
1001
ACAD
1000
AcDbSavedByObjectVersion
1070
     0
  0
VISUALSTYLE
  5
25B
102
{ACAD_XDICTIONARY
360
300
102
}
102
{ACAD_REACTORS
330
24C
102
}
330
24C
100
AcDbVisualStyle
  2
Facepattern
 70
    15
 71
     2
 72
     2
 73
     0
 90
        0
 40
-0.6
 41
-30.0
 62
     5
 63
     7
 74
     1
 91
        4
 64
     7
 65
   257
 75
     1
175
     1
 42
1.0
 92
        8
 66
     7
 43
1.0
 76
     1
 77
     6
 78
     2
 67
     7
 79
     5
170
     0
171
     0
290
     0
174
     0
 93
        1
 44
0.0
173
     0
291
     1
 45
0.0
1001
ACAD
1000
AcDbSavedByObjectVersion
1070
     0
  0
VISUALSTYLE
  5
24D
102
{ACAD_XDICTIONARY
360
2E4
102
}
102
{ACAD_REACTORS
330
24C
102
}
330
24C
100
AcDbVisualStyle
  2
Flat
 70
     0
 71
     2
 72
     1
 73
     1
 90
        2
 40
-0.6
 41
30.0
 62
     5
 63
     7
 74
     0
 91
        0
 64
     7
 65
   257
 75
     1
175
     1
 42
1.0
 92
        8
 66
     7
 43
1.0
 76
     1
 77
     6
 78
     2
 67
     7
 79
     5
170
     0
171
     0
290
     0
174
     0
 93
       13
 44
0.0
173
     0
291
     1
 45
0.0
1001
ACAD
1000
AcDbSavedByObjectVersion
1070
     0
  0
VISUALSTYLE
  5
24E
102
{ACAD_XDICTIONARY
360
2E6
102
}
102
{ACAD_REACTORS
330
24C
102
}
330
24C
100
AcDbVisualStyle
  2
FlatWithEdges
 70
     1
 71
     2
 72
     1
 73
     1
 90
        2
 40
-0.6
 41
30.0
 62
     5
 63
     7
 74
     1
 91
        0
 64
     7
 65
   257
 75
     1
175
     1
 42
1.0
 92
        0
 66
   257
 43
1.0
 76
     1
 77
     6
 78
     2
 67
     7
 79
     5
170
     0
171
     0
290
     0
174
     0
 93
       13
 44
0.0
173
     0
291
     1
 45
0.0
1001
ACAD
1000
AcDbSavedByObjectVersion
1070
     0
  0
VISUALSTYLE
  5
24F
102
{ACAD_XDICTIONARY
360
2E8
102
}
102
{ACAD_REACTORS
330
24C
102
}
330
24C
100
AcDbVisualStyle
  2
Gouraud
 70
     2
 71
     2
 72
     2
 73
     1
 90
        2
 40
-0.6
 41
30.0
 62
     5
 63
     7
 74
     0
 91
        0
 64
     7
 65
   257
 75
     1
175
     1
 42
1.0
 92
        0
 66
     7
 43
1.0
 76
     1
 77
     6
 78
     2
 67
     7
 79
     5
170
     0
171
     0
290
     0
174
     0
 93
       13
 44
0.0
173
     0
291
     1
 45
0.0
1001
ACAD
1000
AcDbSavedByObjectVersion
1070
     0
  0
VISUALSTYLE
  5
250
102
{ACAD_XDICTIONARY
360
2EA
102
}
102
{ACAD_REACTORS
330
24C
102
}
330
24C
100
AcDbVisualStyle
  2
GouraudWithEdges
 70
     3
 71
     2
 72
     2
 73
     1
 90
        2
 40
-0.6
 41
30.0
 62
     5
 63
     7
 74
     1
 91
        0
 64
     7
 65
   257
 75
     1
175
     1
 42
1.0
 92
        0
 66
   257
 43
1.0
 76
     1
 77
     6
 78
     2
 67
     7
 79
     5
170
     0
171
     0
290
     0
174
     0
 93
       13
 44
0.0
173
     0
291
     1
 45
0.0
1001
ACAD
1000
AcDbSavedByObjectVersion
1070
     0
  0
VISUALSTYLE
  5
254
102
{ACAD_XDICTIONARY
360
2F2
102
}
102
{ACAD_REACTORS
330
24C
102
}
330
24C
100
AcDbVisualStyle
  2
Hidden
 70
     6
 71
     1
 72
     2
 73
     2
 90
        0
 40
-0.6
 41
-30.0
 62
     5
 63
     7
 74
     2
 91
        2
 64
     7
 65
   257
 75
     2
175
     1
 42
40.0
 92
        0
 66
   257
 43
1.0
 76
     1
 77
     6
 78
     2
 67
     7
 79
     3
170
     0
171
     0
290
     0
174
     0
 93
        1
 44
0.0
173
     0
291
     0
 45
0.0
1001
ACAD
1000
AcDbSavedByObjectVersion
1070
     0
  0
VISUALSTYLE
  5
262
102
{ACAD_XDICTIONARY
360
30E
102
}
102
{ACAD_REACTORS
330
24C
102
}
330
24C
100
AcDbVisualStyle
  2
JitterOff
 70
    20
 71
     2
 72
     2
 73
     0
 90
        0
 40
-0.6
 41
-30.0
 62
     5
 63
     7
 74
     1
 91
        4
 64
     7
 65
   257
 75
     1
175
     1
 42
1.0
 92
       10
 66
     7
 43
1.0
 76
     1
 77
     6
 78
     2
 67
     7
 79
     5
170
     0
171
     0
290
     0
174
     0
 93
        1
 44
0.0
173
     0
291
     1
 45
0.0
1001
ACAD
1000
AcDbSavedByObjectVersion
1070
     0
  0
VISUALSTYLE
  5
25A
102
{ACAD_XDICTIONARY
360
2FE
102
}
102
{ACAD_REACTORS
330
24C
102
}
330
24C
100
AcDbVisualStyle
  2
Linepattern
 70
    14
 71
     2
 72
     2
 73
     0
 90
        0
 40
-0.6
 41
-30.0
 62
     5
 63
     7
 74
     1
 91
        4
 64
     7
 65
   257
 75
     7
175
     7
 42
1.0
 92
        8
 66
     7
 43
1.0
 76
     1
 77
     6
 78
     2
 67
     7
 79
     5
170
     0
171
     0
290
     0
174
     0
 93
        1
 44
0.0
173
     0
291
     1
 45
0.0
1001
ACAD
1000
AcDbSavedByObjectVersion
1070
     0
  0
VISUALSTYLE
  5
263
102
{ACAD_XDICTIONARY
360
310
102
}
102
{ACAD_REACTORS
330
24C
102
}
330
24C
100
AcDbVisualStyle
  2
OverhangOff
 70
    21
 71
     2
 72
     2
 73
     0
 90
        0
 40
-0.6
 41
-30.0
 62
     5
 63
     7
 74
     1
 91
        4
 64
     7
 65
   257
 75
     1
175
     1
 42
1.0
 92
        9
 66
     7
 43
1.0
 76
     1
 77
     6
 78
     2
 67
     7
 79
     5
170
     0
171
     0
290
     0
174
     0
 93
        1
 44
0.0
173
     0
291
     1
 45
0.0
1001
ACAD
1000
AcDbSavedByObjectVersion
1070
     0
  0
VISUALSTYLE
  5
256
102
{ACAD_XDICTIONARY
360
2F6
102
}
102
{ACAD_REACTORS
330
24C
102
}
330
24C
100
AcDbVisualStyle
  2
Realistic
 70
     8
 71
     2
 72
     3
 73
     0
 90
        2
 40
-0.6
 41
30.0
 62
     5
 63
     7
 74
     0
 91
        0
 64
     7
 65
   257
 75
     1
175
     1
 42
1.0
 92
        8
 66
   257
 43
1.0
 76
     1
 77
     6
 78
     2
 67
     7
 79
     3
170
     0
171
     0
290
     0
174
     0
 93
       13
 44
0.0
173
     0
291
     0
 45
0.0
1001
ACAD
1000
AcDbSavedByObjectVersion
1070
     0
  0
VISUALSTYLE
  5
261
102
{ACAD_XDICTIONARY
360
30C
102
}
102
{ACAD_REACTORS
330
24C
102
}
330
24C
100
AcDbVisualStyle
  2
Shaded
 70
    27
 71
     2
 72
     2
 73
     1
 90
        2
 40
-0.6
 41
30.0
 62
     5
 63
     7
 74
     0
 91
        4
 64
     7
 65
   257
 75
     1
175
     1
 42
1.0
 92
        8
 66
   257
 43
1.0
 76
     1
 77
     6
 78
     2
 67
     8
 79
     3
170
     0
171
     0
290
     0
174
     0
 93
        5
 44
0.0
173
     0
291
     0
 45
0.0
1001
ACAD
1000
AcDbSavedByObjectVersion
1070
     0
  0
VISUALSTYLE
  5
260
102
{ACAD_XDICTIONARY
360
30A
102
}
102
{ACAD_REACTORS
330
24C
102
}
330
24C
100
AcDbVisualStyle
  2
Shaded with edges
 70
    26
 71
     2
 72
     2
 73
     1
 90
        2
 40
-0.6
 41
30.0
 62
     5
 63
     7
 74
     1
 91
       10
 64
     7
 65
   257
 75
     2
175
     1
 42
1.0
 92
        8
 66
   257
 43
1.0
 76
     1
 77
     6
 78
     2
 67
     7
 79
     3
170
     0
171
     0
290
     0
174
     0
 93
        5
 44
0.0
173
     0
291
     0
 45
0.0
1001
ACAD
1000
AcDbSavedByObjectVersion
1070
     0
  0
VISUALSTYLE
  5
25D
102
{ACAD_XDICTIONARY
360
304
102
}
102
{ACAD_REACTORS
330
24C
102
}
330
24C
100
AcDbVisualStyle
  2
Shades of Gray
 70
    23
 71
     2
 72
     2
 73
     3
 90
        0
 40
-0.6
 41
-30.0
 62
     5
 63
     7
 74
     2
 91
        2
 64
     7
 65
     7
 75
     1
175
     1
 42
40.0
 92
        8
 66
     7
 43
1.0
 76
     1
 77
     6
 78
     2
 67
     7
 79
     3
170
     0
171
     0
290
     0
174
     0
 93
        1
 44
0.0
173
     0
291
     0
 45
0.0
1001
ACAD
1000
AcDbSavedByObjectVersion
1070
     0
  0
VISUALSTYLE
  5
25E
102
{ACAD_XDICTIONARY
360
306
102
}
102
{ACAD_REACTORS
330
24C
102
}
330
24C
100
AcDbVisualStyle
  2
Sketchy
 70
    24
 71
     1
 72
     2
 73
     2
 90
        0
 40
-0.6
 41
-30.0
 62
     5
 63
     7
 74
     2
 91
        2
 64
     7
 65
     7
 75
     1
175
     1
 42
40.0
 92
       11
 66
     7
 43
1.0
 76
     1
 77
     6
 78
     2
 67
     7
 79
     6
170
     0
171
     0
290
     0
174
     0
 93
        1
 44
0.0
173
     0
291
     0
 45
0.0
1001
ACAD
1000
AcDbSavedByObjectVersion
1070
     0
  0
VISUALSTYLE
  5
259
102
{ACAD_XDICTIONARY
360
2FC
102
}
102
{ACAD_REACTORS
330
24C
102
}
330
24C
100
AcDbVisualStyle
  2
Thicken
 70
    13
 71
     2
 72
     2
 73
     0
 90
        0
 40
-0.6
 41
-30.0
 62
     5
 63
     7
 74
     1
 91
        4
 64
     7
 65
   257
 75
     1
175
     1
 42
1.0
 92
       12
 66
     7
 43
1.0
 76
     1
 77
     6
 78
     2
 67
     7
 79
     5
170
     0
171
     0
290
     0
174
     0
 93
        1
 44
0.0
173
     0
291
     1
 45
0.0
1001
ACAD
1000
AcDbSavedByObjectVersion
1070
     0
  0
VISUALSTYLE
  5
253
102
{ACAD_XDICTIONARY
360
2F0
102
}
102
{ACAD_REACTORS
330
24C
102
}
330
24C
100
AcDbVisualStyle
  2
Wireframe
 70
     5
 71
     0
 72
     2
 73
     0
 90
        0
 40
-0.6
 41
-30.0
 62
     5
 63
     7
 74
     1
 91
        4
 64
     7
 65
   257
 75
     1
175
     1
 42
1.0
 92
        0
 66
   257
 43
1.0
 76
     1
 77
     6
 78
     2
 67
     7
 79
     3
170
     0
171
     0
290
     0
174
     0
 93
        1
 44
0.0
173
     0
291
     0
 45
0.0
1001
ACAD
1000
AcDbSavedByObjectVersion
1070
     0
  0
VISUALSTYLE
  5
25F
102
{ACAD_XDICTIONARY
360
308
102
}
102
{ACAD_REACTORS
330
24C
102
}
330
24C
100
AcDbVisualStyle
  2
X-Ray
 70
    25
 71
     2
 72
     2
 73
     1
 90
        1
 40
0.5
 41
-30.0
 62
     5
 63
     7
 74
     1
 91
        0
 64
     7
 65
   257
 75
     1
175
     1
 42
1.0
 92
        8
 66
     7
 43
1.0
 76
     1
 77
     6
 78
     2
 67
     7
 79
     3
170
     0
171
     0
290
     0
174
     0
 93
       13
 44
0.0
173
     0
291
     0
 45
0.0
1001
ACAD
1000
AcDbSavedByObjectVersion
1070
     0
  0
DICTIONARYVAR
  5
2D8
102
{ACAD_REACTORS
330
2D5
102
}
330
2D5
100
DictionaryVariables
280
     0
  1
1:1
  0
DICTIONARYVAR
  5
2D7
102
{ACAD_REACTORS
330
2D5
102
}
330
2D5
100
DictionaryVariables
280
     0
  1
STANDARD
  0
DICTIONARYVAR
  5
2D6
102
{ACAD_REACTORS
330
2D5
102
}
330
2D5
100
DictionaryVariables
280
     0
  1
STANDARD
  0
DICTIONARYVAR
  5
2DB
102
{ACAD_REACTORS
330
2D5
102
}
330
2D5
100
DictionaryVariables
280
     0
  1
1
  0
DICTIONARYVAR
  5
2DA
102
{ACAD_REACTORS
330
2D5
102
}
330
2D5
100
DictionaryVariables
280
     0
  1
0
  0
DICTIONARYVAR
  5
2D9
102
{ACAD_REACTORS
330
2D5
102
}
330
2D5
100
DictionaryVariables
280
     0
  1
127
  0
DICTIONARYVAR
  5
2DC
102
{ACAD_REACTORS
330
2D5
102
}
330
2D5
100
DictionaryVariables
280
     0
  1
2
  0
DICTIONARY
  5
316
330
27F
100
AcDbDictionary
280
     1
281
     1
  3
ACAD_XREC_ROUNDTRIP
360
317
  0
DICTIONARY
  5
318
330
280
100
AcDbDictionary
280
     1
281
     1
  3
ACAD_XREC_ROUNDTRIP
360
319
  0
DICTIONARY
  5
23D
330
23C
100
AcDbDictionary
280
     1
281
     1
  3
ACAD_XREC_ROUNDTRIP
360
2E2
  3
BUMPTILE
360
23F
  3
DIFFUSETILE
360
23E
  3
OPACITYTILE
360
242
  3
REFLECTIONTILE
360
241
  3
REFRACTIONTILE
360
243
  3
SPECULARTILE
360
240
  0
DICTIONARY
  5
235
330
234
100
AcDbDictionary
280
     1
281
     1
  3
ACAD_XREC_ROUNDTRIP
360
2E1
  3
BUMPTILE
360
237
  3
DIFFUSETILE
360
236
  3
OPACITYTILE
360
23A
  3
REFLECTIONTILE
360
239
  3
REFRACTIONTILE
360
23B
  3
SPECULARTILE
360
238
  0
DICTIONARY
  5
245
330
244
100
AcDbDictionary
280
     1
281
     1
  3
ACAD_XREC_ROUNDTRIP
360
2E3
  3
BUMPTILE
360
247
  3
DIFFUSETILE
360
246
  3
OPACITYTILE
360
24A
  3
REFLECTIONTILE
360
249
  3
REFRACTIONTILE
360
24B
  3
SPECULARTILE
360
248
  0
DICTIONARY
  5
2DD
330
267
100
AcDbDictionary
280
     1
281
     1
  3
ACAD_ROUNDTRIP_2008_TABLESTYLE_CELLSTYLEMAP
360
2DE
  3
ACAD_XREC_ROUNDTRIP
360
314
  0
DICTIONARY
  5
2EE
330
252
100
AcDbDictionary
280
     1
281
     1
  3
ACAD_XREC_ROUNDTRIP
360
2EF
  0
DICTIONARY
  5
2EC
330
251
100
AcDbDictionary
280
     1
281
     1
  3
ACAD_XREC_ROUNDTRIP
360
2ED
  0
DICTIONARY
  5
2FA
330
258
100
AcDbDictionary
280
     1
281
     1
  3
ACAD_XREC_ROUNDTRIP
360
2FB
  0
DICTIONARY
  5
302
330
25C
100
AcDbDictionary
280
     1
281
     1
  3
ACAD_XREC_ROUNDTRIP
360
303
  0
DICTIONARY
  5
2F4
330
255
100
AcDbDictionary
280
     1
281
     1
  3
ACAD_XREC_ROUNDTRIP
360
2F5
  0
DICTIONARY
  5
2F8
330
257
100
AcDbDictionary
280
     1
281
     1
  3
ACAD_XREC_ROUNDTRIP
360
2F9
  0
DICTIONARY
  5
312
330
264
100
AcDbDictionary
280
     1
281
     1
  3
ACAD_XREC_ROUNDTRIP
360
313
  0
DICTIONARY
  5
300
330
25B
100
AcDbDictionary
280
     1
281
     1
  3
ACAD_XREC_ROUNDTRIP
360
301
  0
DICTIONARY
  5
2E4
330
24D
100
AcDbDictionary
280
     1
281
     1
  3
ACAD_XREC_ROUNDTRIP
360
2E5
  0
DICTIONARY
  5
2E6
330
24E
100
AcDbDictionary
280
     1
281
     1
  3
ACAD_XREC_ROUNDTRIP
360
2E7
  0
DICTIONARY
  5
2E8
330
24F
100
AcDbDictionary
280
     1
281
     1
  3
ACAD_XREC_ROUNDTRIP
360
2E9
  0
DICTIONARY
  5
2EA
330
250
100
AcDbDictionary
280
     1
281
     1
  3
ACAD_XREC_ROUNDTRIP
360
2EB
  0
DICTIONARY
  5
2F2
330
254
100
AcDbDictionary
280
     1
281
     1
  3
ACAD_XREC_ROUNDTRIP
360
2F3
  0
DICTIONARY
  5
30E
330
262
100
AcDbDictionary
280
     1
281
     1
  3
ACAD_XREC_ROUNDTRIP
360
30F
  0
DICTIONARY
  5
2FE
330
25A
100
AcDbDictionary
280
     1
281
     1
  3
ACAD_XREC_ROUNDTRIP
360
2FF
  0
DICTIONARY
  5
310
330
263
100
AcDbDictionary
280
     1
281
     1
  3
ACAD_XREC_ROUNDTRIP
360
311
  0
DICTIONARY
  5
2F6
330
256
100
AcDbDictionary
280
     1
281
     1
  3
ACAD_XREC_ROUNDTRIP
360
2F7
  0
DICTIONARY
  5
30C
330
261
100
AcDbDictionary
280
     1
281
     1
  3
ACAD_XREC_ROUNDTRIP
360
30D
  0
DICTIONARY
  5
30A
330
260
100
AcDbDictionary
280
     1
281
     1
  3
ACAD_XREC_ROUNDTRIP
360
30B
  0
DICTIONARY
  5
304
330
25D
100
AcDbDictionary
280
     1
281
     1
  3
ACAD_XREC_ROUNDTRIP
360
305
  0
DICTIONARY
  5
306
330
25E
100
AcDbDictionary
280
     1
281
     1
  3
ACAD_XREC_ROUNDTRIP
360
307
  0
DICTIONARY
  5
2FC
330
259
100
AcDbDictionary
280
     1
281
     1
  3
ACAD_XREC_ROUNDTRIP
360
2FD
  0
DICTIONARY
  5
2F0
330
253
100
AcDbDictionary
280
     1
281
     1
  3
ACAD_XREC_ROUNDTRIP
360
2F1
  0
DICTIONARY
  5
308
330
25F
100
AcDbDictionary
280
     1
281
     1
  3
ACAD_XREC_ROUNDTRIP
360
309
  0
XRECORD
  5
317
102
{ACAD_REACTORS
330
316
102
}
330
316
100
AcDbXrecord
280
     1
102
SHADEPLOT
 70
     0
102
SHADEPLOTRESLEVEL
 70
     2
102
SHADEPLOTCUSTOMDPI
 70
   300
  0
XRECORD
  5
319
102
{ACAD_REACTORS
330
318
102
}
330
318
100
AcDbXrecord
280
     1
102
SHADEPLOT
 70
     0
102
SHADEPLOTRESLEVEL
 70
     2
102
SHADEPLOTCUSTOMDPI
 70
   300
  0
XRECORD
  5
2E2
102
{ACAD_REACTORS
330
23D
102
}
330
23D
100
AcDbXrecord
280
     1
102
MATERIAL
148
0.0
149
0.0
149
0.0
 93
        0
 94
      127
282
     0
 72
     0
 77
     0
171
     0
175
     0
179
     0
273
     0
  0
XRECORD
  5
23F
102
{ACAD_REACTORS
330
23D
102
}
330
23D
100
AcDbXrecord
280
     1
270
     1
271
     1
  0
XRECORD
  5
23E
102
{ACAD_REACTORS
330
23D
102
}
330
23D
100
AcDbXrecord
280
     1
270
     1
271
     1
  0
XRECORD
  5
242
102
{ACAD_REACTORS
330
23D
102
}
330
23D
100
AcDbXrecord
280
     1
270
     1
271
     1
  0
XRECORD
  5
241
102
{ACAD_REACTORS
330
23D
102
}
330
23D
100
AcDbXrecord
280
     1
270
     1
271
     1
  0
XRECORD
  5
243
102
{ACAD_REACTORS
330
23D
102
}
330
23D
100
AcDbXrecord
280
     1
270
     1
271
     1
  0
XRECORD
  5
240
102
{ACAD_REACTORS
330
23D
102
}
330
23D
100
AcDbXrecord
280
     1
270
     1
271
     1
  0
XRECORD
  5
2E1
102
{ACAD_REACTORS
330
235
102
}
330
235
100
AcDbXrecord
280
     1
102
MATERIAL
148
0.0
149
0.0
149
0.0
 93
        0
 94
      127
282
     0
 72
     0
 77
     0
171
     0
175
     0
179
     0
273
     0
  0
XRECORD
  5
237
102
{ACAD_REACTORS
330
235
102
}
330
235
100
AcDbXrecord
280
     1
270
     1
271
     1
  0
XRECORD
  5
236
102
{ACAD_REACTORS
330
235
102
}
330
235
100
AcDbXrecord
280
     1
270
     1
271
     1
  0
XRECORD
  5
23A
102
{ACAD_REACTORS
330
235
102
}
330
235
100
AcDbXrecord
280
     1
270
     1
271
     1
  0
XRECORD
  5
239
102
{ACAD_REACTORS
330
235
102
}
330
235
100
AcDbXrecord
280
     1
270
     1
271
     1
  0
XRECORD
  5
23B
102
{ACAD_REACTORS
330
235
102
}
330
235
100
AcDbXrecord
280
     1
270
     1
271
     1
  0
XRECORD
  5
238
102
{ACAD_REACTORS
330
235
102
}
330
235
100
AcDbXrecord
280
     1
270
     1
271
     1
  0
XRECORD
  5
2E3
102
{ACAD_REACTORS
330
245
102
}
330
245
100
AcDbXrecord
280
     1
102
MATERIAL
148
0.0
149
0.0
149
0.0
 93
        0
 94
      127
282
     0
 72
     0
 77
     0
171
     0
175
     0
179
     0
273
     0
  0
XRECORD
  5
247
102
{ACAD_REACTORS
330
245
102
}
330
245
100
AcDbXrecord
280
     1
270
     1
271
     1
  0
XRECORD
  5
246
102
{ACAD_REACTORS
330
245
102
}
330
245
100
AcDbXrecord
280
     1
270
     1
271
     1
  0
XRECORD
  5
24A
102
{ACAD_REACTORS
330
245
102
}
330
245
100
AcDbXrecord
280
     1
270
     1
271
     1
  0
XRECORD
  5
249
102
{ACAD_REACTORS
330
245
102
}
330
245
100
AcDbXrecord
280
     1
270
     1
271
     1
  0
XRECORD
  5
24B
102
{ACAD_REACTORS
330
245
102
}
330
245
100
AcDbXrecord
280
     1
270
     1
271
     1
  0
XRECORD
  5
248
102
{ACAD_REACTORS
330
245
102
}
330
245
100
AcDbXrecord
280
     1
270
     1
271
     1
  0
CELLSTYLEMAP
  5
2DE
102
{ACAD_REACTORS
330
2DD
102
}
330
2DD
100
AcDbCellStyleMap
 90
        3
300
CELLSTYLE
  1
TABLEFORMAT_BEGIN
 90
        5
170
     1
 91
        0
 92
    32768
 62
   257
 93
        1
300
CONTENTFORMAT
  1
CONTENTFORMAT_BEGIN
 90
        0
 91
        0
 92
      512
 93
        0
300

 40
0.0
140
1.0
 94
        5
 62
     0
340
2B
144
6.0
309
CONTENTFORMAT_END
171
     1
301
MARGIN
  1
CELLMARGIN_BEGIN
 40
1.5
 40
1.5
 40
1.5
 40
1.5
 40
4.5
 40
4.5
309
CELLMARGIN_END
 94
        6
 95
        1
302
GRIDFORMAT
  1
GRIDFORMAT_BEGIN
 90
        0
 91
        1
 62
     0
 92
       -2
340
0
 93
        0
 40
1.125
309
GRIDFORMAT_END
 95
        2
302
GRIDFORMAT
  1
GRIDFORMAT_BEGIN
 90
        0
 91
        1
 62
     0
 92
       -2
340
0
 93
        0
 40
1.125
309
GRIDFORMAT_END
 95
        4
302
GRIDFORMAT
  1
GRIDFORMAT_BEGIN
 90
        0
 91
        1
 62
     0
 92
       -2
340
0
 93
        0
 40
1.125
309
GRIDFORMAT_END
 95
        8
302
GRIDFORMAT
  1
GRIDFORMAT_BEGIN
 90
        0
 91
        1
 62
     0
 92
       -2
340
0
 93
        0
 40
1.125
309
GRIDFORMAT_END
 95
       16
302
GRIDFORMAT
  1
GRIDFORMAT_BEGIN
 90
        0
 91
        1
 62
     0
 92
       -2
340
0
 93
        0
 40
1.125
309
GRIDFORMAT_END
 95
       32
302
GRIDFORMAT
  1
GRIDFORMAT_BEGIN
 90
        0
 91
        1
 62
     0
 92
       -2
340
0
 93
        0
 40
1.125
309
GRIDFORMAT_END
309
TABLEFORMAT_END
  1
CELLSTYLE_BEGIN
 90
        1
 91
        1
300
_TITLE
309
CELLSTYLE_END
300
CELLSTYLE
  1
TABLEFORMAT_BEGIN
 90
        5
170
     1
 91
        0
 92
        0
 62
   257
 93
        1
300
CONTENTFORMAT
  1
CONTENTFORMAT_BEGIN
 90
        0
 91
        0
 92
      512
 93
        0
300

 40
0.0
140
1.0
 94
        5
 62
     0
340
2B
144
4.5
309
CONTENTFORMAT_END
171
     1
301
MARGIN
  1
CELLMARGIN_BEGIN
 40
1.5
 40
1.5
 40
1.5
 40
1.5
 40
4.5
 40
4.5
309
CELLMARGIN_END
 94
        6
 95
        1
302
GRIDFORMAT
  1
GRIDFORMAT_BEGIN
 90
        0
 91
        1
 62
     0
 92
       -2
340
0
 93
        0
 40
1.125
309
GRIDFORMAT_END
 95
        2
302
GRIDFORMAT
  1
GRIDFORMAT_BEGIN
 90
        0
 91
        1
 62
     0
 92
       -2
340
0
 93
        0
 40
1.125
309
GRIDFORMAT_END
 95
        4
302
GRIDFORMAT
  1
GRIDFORMAT_BEGIN
 90
        0
 91
        1
 62
     0
 92
       -2
340
0
 93
        0
 40
1.125
309
GRIDFORMAT_END
 95
        8
302
GRIDFORMAT
  1
GRIDFORMAT_BEGIN
 90
        0
 91
        1
 62
     0
 92
       -2
340
0
 93
        0
 40
1.125
309
GRIDFORMAT_END
 95
       16
302
GRIDFORMAT
  1
GRIDFORMAT_BEGIN
 90
        0
 91
        1
 62
     0
 92
       -2
340
0
 93
        0
 40
1.125
309
GRIDFORMAT_END
 95
       32
302
GRIDFORMAT
  1
GRIDFORMAT_BEGIN
 90
        0
 91
        1
 62
     0
 92
       -2
340
0
 93
        0
 40
1.125
309
GRIDFORMAT_END
309
TABLEFORMAT_END
  1
CELLSTYLE_BEGIN
 90
        2
 91
        1
300
_HEADER
309
CELLSTYLE_END
300
CELLSTYLE
  1
TABLEFORMAT_BEGIN
 90
        5
170
     1
 91
        0
 92
        0
 62
   257
 93
        1
300
CONTENTFORMAT
  1
CONTENTFORMAT_BEGIN
 90
        0
 91
        0
 92
      512
 93
        0
300

 40
0.0
140
1.0
 94
        2
 62
     0
340
2B
144
4.5
309
CONTENTFORMAT_END
171
     1
301
MARGIN
  1
CELLMARGIN_BEGIN
 40
1.5
 40
1.5
 40
1.5
 40
1.5
 40
4.5
 40
4.5
309
CELLMARGIN_END
 94
        6
 95
        1
302
GRIDFORMAT
  1
GRIDFORMAT_BEGIN
 90
        0
 91
        1
 62
     0
 92
       -2
340
0
 93
        0
 40
1.125
309
GRIDFORMAT_END
 95
        2
302
GRIDFORMAT
  1
GRIDFORMAT_BEGIN
 90
        0
 91
        1
 62
     0
 92
       -2
340
0
 93
        0
 40
1.125
309
GRIDFORMAT_END
 95
        4
302
GRIDFORMAT
  1
GRIDFORMAT_BEGIN
 90
        0
 91
        1
 62
     0
 92
       -2
340
0
 93
        0
 40
1.125
309
GRIDFORMAT_END
 95
        8
302
GRIDFORMAT
  1
GRIDFORMAT_BEGIN
 90
        0
 91
        1
 62
     0
 92
       -2
340
0
 93
        0
 40
1.125
309
GRIDFORMAT_END
 95
       16
302
GRIDFORMAT
  1
GRIDFORMAT_BEGIN
 90
        0
 91
        1
 62
     0
 92
       -2
340
0
 93
        0
 40
1.125
309
GRIDFORMAT_END
 95
       32
302
GRIDFORMAT
  1
GRIDFORMAT_BEGIN
 90
        0
 91
        1
 62
     0
 92
       -2
340
0
 93
        0
 40
1.125
309
GRIDFORMAT_END
309
TABLEFORMAT_END
  1
CELLSTYLE_BEGIN
 90
        3
 91
        2
300
_DATA
309
CELLSTYLE_END
  0
XRECORD
  5
314
102
{ACAD_REACTORS
330
2DD
102
}
330
2DD
100
AcDbXrecord
280
     1
102
ACAD_ROUNDTRIP_PRE2007_TABLESTYLE
 90
      512
 91
        0
  1

 92
      512
 93
        0
  2

 94
      512
 95
        0
  3

  0
XRECORD
  5
2EF
102
{ACAD_REACTORS
330
2EE
102
}
330
2EE
100
AcDbXrecord
280
     1
102
RTVSPropertyOp0
 70
     1
102
RTVSPropertyOp1
 70
     1
102
RTVSPropertyOp2
 70
     1
102
RTVSPropertyOp3
 70
     1
102
RTVSPropertyOp4
 70
     1
102
RTVSPropertyOp5
 70
     1
102
RTVSPropertyOp6
 70
     1
102
RTVSPropertyOp7
 70
     1
102
RTVSPropertyOp8
 70
     1
102
RTVSPropertyOp9
 70
     1
102
RTVSPropertyOp10
 70
     1
102
RTVSPropertyOp11
 70
     1
102
RTVSPropertyOp12
 70
     1
102
RTVSPropertyOp13
 70
     1
102
RTVSPropertyOp14
 70
     1
102
RTVSPropertyOp15
 70
     1
102
RTVSPropertyOp16
 70
     1
102
RTVSPropertyOp17
 70
     1
102
RTVSPropertyOp18
 70
     1
102
RTVSPropertyOp19
 70
     1
102
RTVSPropertyOp20
 70
     1
102
RTVSPropertyOp21
 70
     1
102
RTVSPropertyOp22
 70
     1
102
RTVSPropertyOp23
 70
     1
102
RTVSPropertyOp24
 70
     1
102
RTVSPropertyOp25
 70
     1
102
RTVSPropertyOp26
 70
     1
102
RTVSPropertyOp27
 70
     1
102
RTVSPropertyOp28
 70
     1
102
RTVSPropertyOp29
 70
     1
102
RTVSPropertyOp30
 70
     1
102
RTVSPropertyOp31
 70
     1
102
RTVSPropertyOp32
 70
     1
  0
XRECORD
  5
2ED
102
{ACAD_REACTORS
330
2EC
102
}
330
2EC
100
AcDbXrecord
280
     1
102
RTVSPropertyOp0
 70
     1
102
RTVSPropertyOp1
 70
     1
102
RTVSPropertyOp2
 70
     1
102
RTVSPropertyOp3
 70
     1
102
RTVSPropertyOp4
 70
     1
102
RTVSPropertyOp5
 70
     1
102
RTVSPropertyOp6
 70
     1
102
RTVSPropertyOp7
 70
     1
102
RTVSPropertyOp8
 70
     1
102
RTVSPropertyOp9
 70
     1
102
RTVSPropertyOp10
 70
     1
102
RTVSPropertyOp11
 70
     1
102
RTVSPropertyOp12
 70
     1
102
RTVSPropertyOp13
 70
     1
102
RTVSPropertyOp14
 70
     1
102
RTVSPropertyOp15
 70
     1
102
RTVSPropertyOp16
 70
     1
102
RTVSPropertyOp17
 70
     1
102
RTVSPropertyOp18
 70
     1
102
RTVSPropertyOp19
 70
     1
102
RTVSPropertyOp20
 70
     1
102
RTVSPropertyOp21
 70
     1
102
RTVSPropertyOp22
 70
     1
102
RTVSPropertyOp23
 70
     1
102
RTVSPropertyOp24
 70
     1
102
RTVSPropertyOp25
 70
     1
102
RTVSPropertyOp26
 70
     1
102
RTVSPropertyOp27
 70
     1
102
RTVSPropertyOp28
 70
     1
102
RTVSPropertyOp29
 70
     1
102
RTVSPropertyOp30
 70
     1
102
RTVSPropertyOp31
 70
     1
102
RTVSPropertyOp32
 70
     1
  0
XRECORD
  5
2FB
102
{ACAD_REACTORS
330
2FA
102
}
330
2FA
100
AcDbXrecord
280
     1
102
RTVSPropertyOp0
 70
     1
102
RTVSPropertyOp1
 70
     1
102
RTVSPropertyOp2
 70
     1
102
RTVSPropertyOp3
 70
     1
102
RTVSPropertyOp4
 70
     1
102
RTVSPropertyOp5
 70
     1
102
RTVSPropertyOp6
 70
     1
102
RTVSPropertyOp7
 70
     1
102
RTVSPropertyOp8
 70
     1
102
RTVSPropertyOp9
 70
     1
102
RTVSPropertyOp10
 70
     1
102
RTVSPropertyOp11
 70
     1
102
RTVSPropertyOp12
 70
     1
102
RTVSPropertyOp13
 70
     1
102
RTVSPropertyOp14
 70
     1
102
RTVSPropertyOp15
 70
     1
102
RTVSPropertyOp16
 70
     1
102
RTVSPropertyOp17
 70
     1
102
RTVSPropertyOp18
 70
     1
102
RTVSPropertyOp19
 70
     1
102
RTVSPropertyOp20
 70
     1
102
RTVSPropertyOp21
 70
     1
102
RTVSPropertyOp22
 70
     1
102
RTVSPropertyOp23
 70
     1
102
RTVSPropertyOp24
 70
     1
102
RTVSPropertyOp25
 70
     1
102
RTVSPropertyOp26
 70
     1
102
RTVSPropertyOp27
 70
     1
102
RTVSPropertyOp28
 70
     1
102
RTVSPropertyOp29
 70
     1
102
RTVSPropertyOp30
 70
     1
102
RTVSPropertyOp31
 70
     1
102
RTVSPropertyOp32
 70
     1
  0
XRECORD
  5
303
102
{ACAD_REACTORS
330
302
102
}
330
302
100
AcDbXrecord
280
     1
102
RTVSPropertyOp0
 70
     1
102
RTVSPropertyOp1
 70
     1
102
RTVSPropertyOp2
 70
     1
102
RTVSPropertyOp3
 70
     1
102
RTVSPropertyOp4
 70
     1
102
RTVSPropertyOp5
 70
     1
102
RTVSPropertyOp6
 70
     1
102
RTVSPropertyOp7
 70
     1
102
RTVSPropertyOp8
 70
     1
102
RTVSPropertyOp9
 70
     1
102
RTVSPropertyOp10
 70
     1
102
RTVSPropertyOp11
 70
     1
102
RTVSPropertyOp12
 70
     1
102
RTVSPropertyOp13
 70
     1
102
RTVSPropertyOp14
 70
     1
102
RTVSPropertyOp15
 70
     1
102
RTVSPropertyOp16
 70
     1
102
RTVSPropertyOp17
 70
     1
102
RTVSPropertyOp18
 70
     1
102
RTVSPropertyOp19
 70
     1
102
RTVSPropertyOp20
 70
     1
102
RTVSPropertyOp21
 70
     1
102
RTVSPropertyOp22
 70
     1
102
RTVSPropertyOp23
 70
     1
102
RTVSPropertyOp24
 70
     1
102
RTVSPropertyOp25
 70
     1
102
RTVSPropertyOp26
 70
     1
102
RTVSPropertyOp27
 70
     1
102
RTVSPropertyOp28
 70
     1
102
RTVSPropertyOp29
 70
     1
102
RTVSPropertyOp30
 70
     1
102
RTVSPropertyOp31
 70
     1
102
RTVSPropertyOp32
 70
     1
  0
XRECORD
  5
2F5
102
{ACAD_REACTORS
330
2F4
102
}
330
2F4
100
AcDbXrecord
280
     1
102
RTVSPropertyOp0
 70
     1
102
RTVSPropertyOp1
 70
     1
102
RTVSPropertyOp2
 70
     1
102
RTVSPropertyOp3
 70
     1
102
RTVSPropertyOp4
 70
     1
102
RTVSPropertyOp5
 70
     1
102
RTVSPropertyOp6
 70
     1
102
RTVSPropertyOp7
 70
     1
102
RTVSPropertyOp8
 70
     1
102
RTVSPropertyOp9
 70
     1
102
RTVSPropertyOp10
 70
     1
102
RTVSPropertyOp11
 70
     1
102
RTVSPropertyOp12
 70
     1
102
RTVSPropertyOp13
 70
     1
102
RTVSPropertyOp14
 70
     1
102
RTVSPropertyOp15
 70
     1
102
RTVSPropertyOp16
 70
     1
102
RTVSPropertyOp17
 70
     1
102
RTVSPropertyOp18
 70
     1
102
RTVSPropertyOp19
 70
     1
102
RTVSPropertyOp20
 70
     1
102
RTVSPropertyOp21
 70
     1
102
RTVSPropertyOp22
 70
     1
102
RTVSPropertyOp23
 70
     1
102
RTVSPropertyOp24
 70
     1
102
RTVSPropertyOp25
 70
     1
102
RTVSPropertyOp26
 70
     1
102
RTVSPropertyOp27
 70
     1
102
RTVSPropertyOp28
 70
     1
102
RTVSPropertyOp29
 70
     1
102
RTVSPropertyOp30
 70
     1
102
RTVSPropertyOp31
 70
     1
102
RTVSPropertyOp32
 70
     1
  0
XRECORD
  5
2F9
102
{ACAD_REACTORS
330
2F8
102
}
330
2F8
100
AcDbXrecord
280
     1
102
RTVSPropertyOp0
 70
     1
102
RTVSPropertyOp1
 70
     1
102
RTVSPropertyOp2
 70
     1
102
RTVSPropertyOp3
 70
     1
102
RTVSPropertyOp4
 70
     1
102
RTVSPropertyOp5
 70
     1
102
RTVSPropertyOp6
 70
     1
102
RTVSPropertyOp7
 70
     1
102
RTVSPropertyOp8
 70
     1
102
RTVSPropertyOp9
 70
     1
102
RTVSPropertyOp10
 70
     1
102
RTVSPropertyOp11
 70
     1
102
RTVSPropertyOp12
 70
     1
102
RTVSPropertyOp13
 70
     1
102
RTVSPropertyOp14
 70
     1
102
RTVSPropertyOp15
 70
     1
102
RTVSPropertyOp16
 70
     1
102
RTVSPropertyOp17
 70
     1
102
RTVSPropertyOp18
 70
     1
102
RTVSPropertyOp19
 70
     1
102
RTVSPropertyOp20
 70
     1
102
RTVSPropertyOp21
 70
     1
102
RTVSPropertyOp22
 70
     1
102
RTVSPropertyOp23
 70
     1
102
RTVSPropertyOp24
 70
     1
102
RTVSPropertyOp25
 70
     1
102
RTVSPropertyOp26
 70
     1
102
RTVSPropertyOp27
 70
     1
102
RTVSPropertyOp28
 70
     1
102
RTVSPropertyOp29
 70
     1
102
RTVSPropertyOp30
 70
     1
102
RTVSPropertyOp31
 70
     1
102
RTVSPropertyOp32
 70
     1
  0
XRECORD
  5
313
102
{ACAD_REACTORS
330
312
102
}
330
312
100
AcDbXrecord
280
     1
102
RTVSPropertyOp0
 70
     0
102
RTVSPropertyOp1
 70
     0
102
RTVSPropertyOp2
 70
     0
102
RTVSPropertyOp3
 70
     0
102
RTVSPropertyOp4
 70
     0
102
RTVSPropertyOp5
 70
     0
102
RTVSPropertyOp6
 70
     0
102
RTVSPropertyOp7
 70
     0
102
RTVSPropertyOp8
 70
     0
102
RTVSPropertyOp9
 70
     0
102
RTVSPropertyOp10
 70
     0
102
RTVSPropertyOp11
 70
     0
102
RTVSPropertyOp12
 70
     0
102
RTVSPropertyOp13
 70
     0
102
RTVSPropertyOp14
 70
     2
102
RTVSPropertyOp15
 70
     0
102
RTVSPropertyOp16
 70
     0
102
RTVSPropertyOp17
 70
     0
102
RTVSPropertyOp18
 70
     0
102
RTVSPropertyOp19
 70
     0
102
RTVSPropertyOp20
 70
     0
102
RTVSPropertyOp21
 70
     0
102
RTVSPropertyOp22
 70
     0
102
RTVSPropertyOp23
 70
     0
102
RTVSPropertyOp24
 70
     0
102
RTVSPropertyOp25
 70
     0
102
RTVSPropertyOp26
 70
     0
102
RTVSPropertyOp27
 70
     0
102
RTVSPropertyOp28
 70
     0
102
RTVSPropertyOp29
 70
     0
102
RTVSPropertyOp30
 70
     0
102
RTVSPropertyOp31
 70
     0
102
RTVSPropertyOp32
 70
     0
  0
XRECORD
  5
301
102
{ACAD_REACTORS
330
300
102
}
330
300
100
AcDbXrecord
280
     1
102
RTVSPropertyOp0
 70
     1
102
RTVSPropertyOp1
 70
     1
102
RTVSPropertyOp2
 70
     1
102
RTVSPropertyOp3
 70
     1
102
RTVSPropertyOp4
 70
     1
102
RTVSPropertyOp5
 70
     1
102
RTVSPropertyOp6
 70
     1
102
RTVSPropertyOp7
 70
     1
102
RTVSPropertyOp8
 70
     1
102
RTVSPropertyOp9
 70
     1
102
RTVSPropertyOp10
 70
     1
102
RTVSPropertyOp11
 70
     1
102
RTVSPropertyOp12
 70
     1
102
RTVSPropertyOp13
 70
     1
102
RTVSPropertyOp14
 70
     1
102
RTVSPropertyOp15
 70
     1
102
RTVSPropertyOp16
 70
     1
102
RTVSPropertyOp17
 70
     1
102
RTVSPropertyOp18
 70
     1
102
RTVSPropertyOp19
 70
     1
102
RTVSPropertyOp20
 70
     1
102
RTVSPropertyOp21
 70
     1
102
RTVSPropertyOp22
 70
     1
102
RTVSPropertyOp23
 70
     1
102
RTVSPropertyOp24
 70
     1
102
RTVSPropertyOp25
 70
     1
102
RTVSPropertyOp26
 70
     1
102
RTVSPropertyOp27
 70
     1
102
RTVSPropertyOp28
 70
     1
102
RTVSPropertyOp29
 70
     1
102
RTVSPropertyOp30
 70
     1
102
RTVSPropertyOp31
 70
     1
102
RTVSPropertyOp32
 70
     1
  0
XRECORD
  5
2E5
102
{ACAD_REACTORS
330
2E4
102
}
330
2E4
100
AcDbXrecord
280
     1
102
RTVSPropertyOp0
 70
     1
102
RTVSPropertyOp1
 70
     1
102
RTVSPropertyOp2
 70
     1
102
RTVSPropertyOp3
 70
     1
102
RTVSPropertyOp4
 70
     1
102
RTVSPropertyOp5
 70
     1
102
RTVSPropertyOp6
 70
     1
102
RTVSPropertyOp7
 70
     1
102
RTVSPropertyOp8
 70
     1
102
RTVSPropertyOp9
 70
     1
102
RTVSPropertyOp10
 70
     1
102
RTVSPropertyOp11
 70
     1
102
RTVSPropertyOp12
 70
     1
102
RTVSPropertyOp13
 70
     1
102
RTVSPropertyOp14
 70
     1
102
RTVSPropertyOp15
 70
     1
102
RTVSPropertyOp16
 70
     1
102
RTVSPropertyOp17
 70
     1
102
RTVSPropertyOp18
 70
     1
102
RTVSPropertyOp19
 70
     1
102
RTVSPropertyOp20
 70
     1
102
RTVSPropertyOp21
 70
     1
102
RTVSPropertyOp22
 70
     1
102
RTVSPropertyOp23
 70
     1
102
RTVSPropertyOp24
 70
     1
102
RTVSPropertyOp25
 70
     1
102
RTVSPropertyOp26
 70
     1
102
RTVSPropertyOp27
 70
     1
102
RTVSPropertyOp28
 70
     1
102
RTVSPropertyOp29
 70
     1
102
RTVSPropertyOp30
 70
     1
102
RTVSPropertyOp31
 70
     1
102
RTVSPropertyOp32
 70
     1
  0
XRECORD
  5
2E7
102
{ACAD_REACTORS
330
2E6
102
}
330
2E6
100
AcDbXrecord
280
     1
102
RTVSPropertyOp0
 70
     1
102
RTVSPropertyOp1
 70
     1
102
RTVSPropertyOp2
 70
     1
102
RTVSPropertyOp3
 70
     1
102
RTVSPropertyOp4
 70
     1
102
RTVSPropertyOp5
 70
     1
102
RTVSPropertyOp6
 70
     1
102
RTVSPropertyOp7
 70
     1
102
RTVSPropertyOp8
 70
     1
102
RTVSPropertyOp9
 70
     1
102
RTVSPropertyOp10
 70
     1
102
RTVSPropertyOp11
 70
     1
102
RTVSPropertyOp12
 70
     1
102
RTVSPropertyOp13
 70
     1
102
RTVSPropertyOp14
 70
     1
102
RTVSPropertyOp15
 70
     1
102
RTVSPropertyOp16
 70
     1
102
RTVSPropertyOp17
 70
     1
102
RTVSPropertyOp18
 70
     1
102
RTVSPropertyOp19
 70
     1
102
RTVSPropertyOp20
 70
     1
102
RTVSPropertyOp21
 70
     1
102
RTVSPropertyOp22
 70
     1
102
RTVSPropertyOp23
 70
     1
102
RTVSPropertyOp24
 70
     1
102
RTVSPropertyOp25
 70
     1
102
RTVSPropertyOp26
 70
     1
102
RTVSPropertyOp27
 70
     1
102
RTVSPropertyOp28
 70
     1
102
RTVSPropertyOp29
 70
     1
102
RTVSPropertyOp30
 70
     1
102
RTVSPropertyOp31
 70
     1
102
RTVSPropertyOp32
 70
     1
  0
XRECORD
  5
2E9
102
{ACAD_REACTORS
330
2E8
102
}
330
2E8
100
AcDbXrecord
280
     1
102
RTVSPropertyOp0
 70
     1
102
RTVSPropertyOp1
 70
     1
102
RTVSPropertyOp2
 70
     1
102
RTVSPropertyOp3
 70
     1
102
RTVSPropertyOp4
 70
     1
102
RTVSPropertyOp5
 70
     1
102
RTVSPropertyOp6
 70
     1
102
RTVSPropertyOp7
 70
     1
102
RTVSPropertyOp8
 70
     1
102
RTVSPropertyOp9
 70
     1
102
RTVSPropertyOp10
 70
     1
102
RTVSPropertyOp11
 70
     1
102
RTVSPropertyOp12
 70
     1
102
RTVSPropertyOp13
 70
     1
102
RTVSPropertyOp14
 70
     1
102
RTVSPropertyOp15
 70
     1
102
RTVSPropertyOp16
 70
     1
102
RTVSPropertyOp17
 70
     1
102
RTVSPropertyOp18
 70
     1
102
RTVSPropertyOp19
 70
     1
102
RTVSPropertyOp20
 70
     1
102
RTVSPropertyOp21
 70
     1
102
RTVSPropertyOp22
 70
     1
102
RTVSPropertyOp23
 70
     1
102
RTVSPropertyOp24
 70
     1
102
RTVSPropertyOp25
 70
     1
102
RTVSPropertyOp26
 70
     1
102
RTVSPropertyOp27
 70
     1
102
RTVSPropertyOp28
 70
     1
102
RTVSPropertyOp29
 70
     1
102
RTVSPropertyOp30
 70
     1
102
RTVSPropertyOp31
 70
     1
102
RTVSPropertyOp32
 70
     1
  0
XRECORD
  5
2EB
102
{ACAD_REACTORS
330
2EA
102
}
330
2EA
100
AcDbXrecord
280
     1
102
RTVSPropertyOp0
 70
     1
102
RTVSPropertyOp1
 70
     1
102
RTVSPropertyOp2
 70
     1
102
RTVSPropertyOp3
 70
     1
102
RTVSPropertyOp4
 70
     1
102
RTVSPropertyOp5
 70
     1
102
RTVSPropertyOp6
 70
     1
102
RTVSPropertyOp7
 70
     1
102
RTVSPropertyOp8
 70
     1
102
RTVSPropertyOp9
 70
     1
102
RTVSPropertyOp10
 70
     1
102
RTVSPropertyOp11
 70
     1
102
RTVSPropertyOp12
 70
     1
102
RTVSPropertyOp13
 70
     1
102
RTVSPropertyOp14
 70
     1
102
RTVSPropertyOp15
 70
     1
102
RTVSPropertyOp16
 70
     1
102
RTVSPropertyOp17
 70
     1
102
RTVSPropertyOp18
 70
     1
102
RTVSPropertyOp19
 70
     1
102
RTVSPropertyOp20
 70
     1
102
RTVSPropertyOp21
 70
     1
102
RTVSPropertyOp22
 70
     1
102
RTVSPropertyOp23
 70
     1
102
RTVSPropertyOp24
 70
     1
102
RTVSPropertyOp25
 70
     1
102
RTVSPropertyOp26
 70
     1
102
RTVSPropertyOp27
 70
     1
102
RTVSPropertyOp28
 70
     1
102
RTVSPropertyOp29
 70
     1
102
RTVSPropertyOp30
 70
     1
102
RTVSPropertyOp31
 70
     1
102
RTVSPropertyOp32
 70
     1
  0
XRECORD
  5
2F3
102
{ACAD_REACTORS
330
2F2
102
}
330
2F2
100
AcDbXrecord
280
     1
102
RTVSPropertyOp0
 70
     1
102
RTVSPropertyOp1
 70
     1
102
RTVSPropertyOp2
 70
     1
102
RTVSPropertyOp3
 70
     1
102
RTVSPropertyOp4
 70
     1
102
RTVSPropertyOp5
 70
     1
102
RTVSPropertyOp6
 70
     1
102
RTVSPropertyOp7
 70
     1
102
RTVSPropertyOp8
 70
     1
102
RTVSPropertyOp9
 70
     1
102
RTVSPropertyOp10
 70
     1
102
RTVSPropertyOp11
 70
     1
102
RTVSPropertyOp12
 70
     1
102
RTVSPropertyOp13
 70
     1
102
RTVSPropertyOp14
 70
     1
102
RTVSPropertyOp15
 70
     1
102
RTVSPropertyOp16
 70
     1
102
RTVSPropertyOp17
 70
     1
102
RTVSPropertyOp18
 70
     1
102
RTVSPropertyOp19
 70
     1
102
RTVSPropertyOp20
 70
     1
102
RTVSPropertyOp21
 70
     1
102
RTVSPropertyOp22
 70
     1
102
RTVSPropertyOp23
 70
     1
102
RTVSPropertyOp24
 70
     1
102
RTVSPropertyOp25
 70
     1
102
RTVSPropertyOp26
 70
     1
102
RTVSPropertyOp27
 70
     1
102
RTVSPropertyOp28
 70
     1
102
RTVSPropertyOp29
 70
     1
102
RTVSPropertyOp30
 70
     1
102
RTVSPropertyOp31
 70
     1
102
RTVSPropertyOp32
 70
     1
  0
XRECORD
  5
30F
102
{ACAD_REACTORS
330
30E
102
}
330
30E
100
AcDbXrecord
280
     1
102
RTVSPropertyOp0
 70
     0
102
RTVSPropertyOp1
 70
     0
102
RTVSPropertyOp2
 70
     0
102
RTVSPropertyOp3
 70
     0
102
RTVSPropertyOp4
 70
     0
102
RTVSPropertyOp5
 70
     0
102
RTVSPropertyOp6
 70
     0
102
RTVSPropertyOp7
 70
     0
102
RTVSPropertyOp8
 70
     0
102
RTVSPropertyOp9
 70
     0
102
RTVSPropertyOp10
 70
     0
102
RTVSPropertyOp11
 70
     0
102
RTVSPropertyOp12
 70
     0
102
RTVSPropertyOp13
 70
     0
102
RTVSPropertyOp14
 70
     2
102
RTVSPropertyOp15
 70
     0
102
RTVSPropertyOp16
 70
     0
102
RTVSPropertyOp17
 70
     0
102
RTVSPropertyOp18
 70
     0
102
RTVSPropertyOp19
 70
     0
102
RTVSPropertyOp20
 70
     0
102
RTVSPropertyOp21
 70
     0
102
RTVSPropertyOp22
 70
     0
102
RTVSPropertyOp23
 70
     0
102
RTVSPropertyOp24
 70
     0
102
RTVSPropertyOp25
 70
     0
102
RTVSPropertyOp26
 70
     0
102
RTVSPropertyOp27
 70
     0
102
RTVSPropertyOp28
 70
     0
102
RTVSPropertyOp29
 70
     0
102
RTVSPropertyOp30
 70
     0
102
RTVSPropertyOp31
 70
     0
102
RTVSPropertyOp32
 70
     0
  0
XRECORD
  5
2FF
102
{ACAD_REACTORS
330
2FE
102
}
330
2FE
100
AcDbXrecord
280
     1
102
RTVSPropertyOp0
 70
     1
102
RTVSPropertyOp1
 70
     1
102
RTVSPropertyOp2
 70
     1
102
RTVSPropertyOp3
 70
     1
102
RTVSPropertyOp4
 70
     1
102
RTVSPropertyOp5
 70
     1
102
RTVSPropertyOp6
 70
     1
102
RTVSPropertyOp7
 70
     1
102
RTVSPropertyOp8
 70
     1
102
RTVSPropertyOp9
 70
     1
102
RTVSPropertyOp10
 70
     1
102
RTVSPropertyOp11
 70
     1
102
RTVSPropertyOp12
 70
     1
102
RTVSPropertyOp13
 70
     1
102
RTVSPropertyOp14
 70
     1
102
RTVSPropertyOp15
 70
     1
102
RTVSPropertyOp16
 70
     1
102
RTVSPropertyOp17
 70
     1
102
RTVSPropertyOp18
 70
     1
102
RTVSPropertyOp19
 70
     1
102
RTVSPropertyOp20
 70
     1
102
RTVSPropertyOp21
 70
     1
102
RTVSPropertyOp22
 70
     1
102
RTVSPropertyOp23
 70
     1
102
RTVSPropertyOp24
 70
     1
102
RTVSPropertyOp25
 70
     1
102
RTVSPropertyOp26
 70
     1
102
RTVSPropertyOp27
 70
     1
102
RTVSPropertyOp28
 70
     1
102
RTVSPropertyOp29
 70
     1
102
RTVSPropertyOp30
 70
     1
102
RTVSPropertyOp31
 70
     1
102
RTVSPropertyOp32
 70
     1
  0
XRECORD
  5
311
102
{ACAD_REACTORS
330
310
102
}
330
310
100
AcDbXrecord
280
     1
102
RTVSPropertyOp0
 70
     0
102
RTVSPropertyOp1
 70
     0
102
RTVSPropertyOp2
 70
     0
102
RTVSPropertyOp3
 70
     0
102
RTVSPropertyOp4
 70
     0
102
RTVSPropertyOp5
 70
     0
102
RTVSPropertyOp6
 70
     0
102
RTVSPropertyOp7
 70
     0
102
RTVSPropertyOp8
 70
     0
102
RTVSPropertyOp9
 70
     0
102
RTVSPropertyOp10
 70
     0
102
RTVSPropertyOp11
 70
     0
102
RTVSPropertyOp12
 70
     0
102
RTVSPropertyOp13
 70
     0
102
RTVSPropertyOp14
 70
     2
102
RTVSPropertyOp15
 70
     0
102
RTVSPropertyOp16
 70
     0
102
RTVSPropertyOp17
 70
     0
102
RTVSPropertyOp18
 70
     0
102
RTVSPropertyOp19
 70
     0
102
RTVSPropertyOp20
 70
     0
102
RTVSPropertyOp21
 70
     0
102
RTVSPropertyOp22
 70
     0
102
RTVSPropertyOp23
 70
     0
102
RTVSPropertyOp24
 70
     0
102
RTVSPropertyOp25
 70
     0
102
RTVSPropertyOp26
 70
     0
102
RTVSPropertyOp27
 70
     0
102
RTVSPropertyOp28
 70
     0
102
RTVSPropertyOp29
 70
     0
102
RTVSPropertyOp30
 70
     0
102
RTVSPropertyOp31
 70
     0
102
RTVSPropertyOp32
 70
     0
  0
XRECORD
  5
2F7
102
{ACAD_REACTORS
330
2F6
102
}
330
2F6
100
AcDbXrecord
280
     1
102
RTVSPropertyOp0
 70
     1
102
RTVSPropertyOp1
 70
     1
102
RTVSPropertyOp2
 70
     1
102
RTVSPropertyOp3
 70
     1
102
RTVSPropertyOp4
 70
     1
102
RTVSPropertyOp5
 70
     1
102
RTVSPropertyOp6
 70
     1
102
RTVSPropertyOp7
 70
     1
102
RTVSPropertyOp8
 70
     1
102
RTVSPropertyOp9
 70
     1
102
RTVSPropertyOp10
 70
     1
102
RTVSPropertyOp11
 70
     1
102
RTVSPropertyOp12
 70
     1
102
RTVSPropertyOp13
 70
     1
102
RTVSPropertyOp14
 70
     1
102
RTVSPropertyOp15
 70
     1
102
RTVSPropertyOp16
 70
     1
102
RTVSPropertyOp17
 70
     1
102
RTVSPropertyOp18
 70
     1
102
RTVSPropertyOp19
 70
     1
102
RTVSPropertyOp20
 70
     1
102
RTVSPropertyOp21
 70
     1
102
RTVSPropertyOp22
 70
     1
102
RTVSPropertyOp23
 70
     1
102
RTVSPropertyOp24
 70
     1
102
RTVSPropertyOp25
 70
     1
102
RTVSPropertyOp26
 70
     1
102
RTVSPropertyOp27
 70
     1
102
RTVSPropertyOp28
 70
     1
102
RTVSPropertyOp29
 70
     1
102
RTVSPropertyOp30
 70
     1
102
RTVSPropertyOp31
 70
     1
102
RTVSPropertyOp32
 70
     1
  0
XRECORD
  5
30D
102
{ACAD_REACTORS
330
30C
102
}
330
30C
100
AcDbXrecord
280
     1
102
RTVSPropertyOp0
 70
     1
102
RTVSPropertyOp1
 70
     1
102
RTVSPropertyOp2
 70
     1
102
RTVSPropertyOp3
 70
     1
102
RTVSPropertyOp4
 70
     1
102
RTVSPropertyOp5
 70
     1
102
RTVSPropertyOp6
 70
     1
102
RTVSPropertyOp7
 70
     1
102
RTVSPropertyOp8
 70
     1
102
RTVSPropertyOp9
 70
     1
102
RTVSPropertyOp10
 70
     1
102
RTVSPropertyOp11
 70
     1
102
RTVSPropertyOp12
 70
     1
102
RTVSPropertyOp13
 70
     1
102
RTVSPropertyOp14
 70
     1
102
RTVSPropertyOp15
 70
     1
102
RTVSPropertyOp16
 70
     1
102
RTVSPropertyOp17
 70
     1
102
RTVSPropertyOp18
 70
     1
102
RTVSPropertyOp19
 70
     1
102
RTVSPropertyOp20
 70
     1
102
RTVSPropertyOp21
 70
     1
102
RTVSPropertyOp22
 70
     1
102
RTVSPropertyOp23
 70
     1
102
RTVSPropertyOp24
 70
     1
102
RTVSPropertyOp25
 70
     1
102
RTVSPropertyOp26
 70
     1
102
RTVSPropertyOp27
 70
     1
102
RTVSPropertyOp28
 70
     1
102
RTVSPropertyOp29
 70
     1
102
RTVSPropertyOp30
 70
     1
102
RTVSPropertyOp31
 70
     1
102
RTVSPropertyOp32
 70
     1
  0
XRECORD
  5
30B
102
{ACAD_REACTORS
330
30A
102
}
330
30A
100
AcDbXrecord
280
     1
102
RTVSPropertyOp0
 70
     1
102
RTVSPropertyOp1
 70
     1
102
RTVSPropertyOp2
 70
     1
102
RTVSPropertyOp3
 70
     1
102
RTVSPropertyOp4
 70
     1
102
RTVSPropertyOp5
 70
     1
102
RTVSPropertyOp6
 70
     1
102
RTVSPropertyOp7
 70
     1
102
RTVSPropertyOp8
 70
     1
102
RTVSPropertyOp9
 70
     1
102
RTVSPropertyOp10
 70
     1
102
RTVSPropertyOp11
 70
     1
102
RTVSPropertyOp12
 70
     1
102
RTVSPropertyOp13
 70
     1
102
RTVSPropertyOp14
 70
     1
102
RTVSPropertyOp15
 70
     1
102
RTVSPropertyOp16
 70
     1
102
RTVSPropertyOp17
 70
     1
102
RTVSPropertyOp18
 70
     1
102
RTVSPropertyOp19
 70
     1
102
RTVSPropertyOp20
 70
     1
102
RTVSPropertyOp21
 70
     1
102
RTVSPropertyOp22
 70
     1
102
RTVSPropertyOp23
 70
     1
102
RTVSPropertyOp24
 70
     1
102
RTVSPropertyOp25
 70
     1
102
RTVSPropertyOp26
 70
     1
102
RTVSPropertyOp27
 70
     1
102
RTVSPropertyOp28
 70
     1
102
RTVSPropertyOp29
 70
     1
102
RTVSPropertyOp30
 70
     1
102
RTVSPropertyOp31
 70
     1
102
RTVSPropertyOp32
 70
     1
  0
XRECORD
  5
305
102
{ACAD_REACTORS
330
304
102
}
330
304
100
AcDbXrecord
280
     1
102
RTVSPropertyOp0
 70
     1
102
RTVSPropertyOp1
 70
     1
102
RTVSPropertyOp2
 70
     1
102
RTVSPropertyOp3
 70
     1
102
RTVSPropertyOp4
 70
     1
102
RTVSPropertyOp5
 70
     1
102
RTVSPropertyOp6
 70
     1
102
RTVSPropertyOp7
 70
     1
102
RTVSPropertyOp8
 70
     1
102
RTVSPropertyOp9
 70
     1
102
RTVSPropertyOp10
 70
     1
102
RTVSPropertyOp11
 70
     1
102
RTVSPropertyOp12
 70
     1
102
RTVSPropertyOp13
 70
     1
102
RTVSPropertyOp14
 70
     1
102
RTVSPropertyOp15
 70
     1
102
RTVSPropertyOp16
 70
     1
102
RTVSPropertyOp17
 70
     1
102
RTVSPropertyOp18
 70
     1
102
RTVSPropertyOp19
 70
     1
102
RTVSPropertyOp20
 70
     1
102
RTVSPropertyOp21
 70
     1
102
RTVSPropertyOp22
 70
     1
102
RTVSPropertyOp23
 70
     1
102
RTVSPropertyOp24
 70
     1
102
RTVSPropertyOp25
 70
     1
102
RTVSPropertyOp26
 70
     1
102
RTVSPropertyOp27
 70
     1
102
RTVSPropertyOp28
 70
     1
102
RTVSPropertyOp29
 70
     1
102
RTVSPropertyOp30
 70
     1
102
RTVSPropertyOp31
 70
     1
102
RTVSPropertyOp32
 70
     1
  0
XRECORD
  5
307
102
{ACAD_REACTORS
330
306
102
}
330
306
100
AcDbXrecord
280
     1
102
RTVSPropertyOp0
 70
     1
102
RTVSPropertyOp1
 70
     1
102
RTVSPropertyOp2
 70
     1
102
RTVSPropertyOp3
 70
     1
102
RTVSPropertyOp4
 70
     1
102
RTVSPropertyOp5
 70
     1
102
RTVSPropertyOp6
 70
     1
102
RTVSPropertyOp7
 70
     1
102
RTVSPropertyOp8
 70
     1
102
RTVSPropertyOp9
 70
     1
102
RTVSPropertyOp10
 70
     1
102
RTVSPropertyOp11
 70
     1
102
RTVSPropertyOp12
 70
     1
102
RTVSPropertyOp13
 70
     1
102
RTVSPropertyOp14
 70
     1
102
RTVSPropertyOp15
 70
     1
102
RTVSPropertyOp16
 70
     1
102
RTVSPropertyOp17
 70
     1
102
RTVSPropertyOp18
 70
     1
102
RTVSPropertyOp19
 70
     1
102
RTVSPropertyOp20
 70
     1
102
RTVSPropertyOp21
 70
     1
102
RTVSPropertyOp22
 70
     1
102
RTVSPropertyOp23
 70
     1
102
RTVSPropertyOp24
 70
     1
102
RTVSPropertyOp25
 70
     1
102
RTVSPropertyOp26
 70
     1
102
RTVSPropertyOp27
 70
     1
102
RTVSPropertyOp28
 70
     1
102
RTVSPropertyOp29
 70
     1
102
RTVSPropertyOp30
 70
     1
102
RTVSPropertyOp31
 70
     1
102
RTVSPropertyOp32
 70
     1
  0
XRECORD
  5
2FD
102
{ACAD_REACTORS
330
2FC
102
}
330
2FC
100
AcDbXrecord
280
     1
102
RTVSPropertyOp0
 70
     1
102
RTVSPropertyOp1
 70
     1
102
RTVSPropertyOp2
 70
     1
102
RTVSPropertyOp3
 70
     1
102
RTVSPropertyOp4
 70
     1
102
RTVSPropertyOp5
 70
     1
102
RTVSPropertyOp6
 70
     1
102
RTVSPropertyOp7
 70
     1
102
RTVSPropertyOp8
 70
     1
102
RTVSPropertyOp9
 70
     1
102
RTVSPropertyOp10
 70
     1
102
RTVSPropertyOp11
 70
     1
102
RTVSPropertyOp12
 70
     1
102
RTVSPropertyOp13
 70
     1
102
RTVSPropertyOp14
 70
     1
102
RTVSPropertyOp15
 70
     1
102
RTVSPropertyOp16
 70
     1
102
RTVSPropertyOp17
 70
     1
102
RTVSPropertyOp18
 70
     1
102
RTVSPropertyOp19
 70
     1
102
RTVSPropertyOp20
 70
     1
102
RTVSPropertyOp21
 70
     1
102
RTVSPropertyOp22
 70
     1
102
RTVSPropertyOp23
 70
     1
102
RTVSPropertyOp24
 70
     1
102
RTVSPropertyOp25
 70
     1
102
RTVSPropertyOp26
 70
     1
102
RTVSPropertyOp27
 70
     1
102
RTVSPropertyOp28
 70
     1
102
RTVSPropertyOp29
 70
     1
102
RTVSPropertyOp30
 70
     1
102
RTVSPropertyOp31
 70
     1
102
RTVSPropertyOp32
 70
     1
  0
XRECORD
  5
2F1
102
{ACAD_REACTORS
330
2F0
102
}
330
2F0
100
AcDbXrecord
280
     1
102
RTVSPropertyOp0
 70
     1
102
RTVSPropertyOp1
 70
     1
102
RTVSPropertyOp2
 70
     1
102
RTVSPropertyOp3
 70
     1
102
RTVSPropertyOp4
 70
     1
102
RTVSPropertyOp5
 70
     1
102
RTVSPropertyOp6
 70
     1
102
RTVSPropertyOp7
 70
     1
102
RTVSPropertyOp8
 70
     1
102
RTVSPropertyOp9
 70
     1
102
RTVSPropertyOp10
 70
     1
102
RTVSPropertyOp11
 70
     1
102
RTVSPropertyOp12
 70
     1
102
RTVSPropertyOp13
 70
     1
102
RTVSPropertyOp14
 70
     1
102
RTVSPropertyOp15
 70
     1
102
RTVSPropertyOp16
 70
     1
102
RTVSPropertyOp17
 70
     1
102
RTVSPropertyOp18
 70
     1
102
RTVSPropertyOp19
 70
     1
102
RTVSPropertyOp20
 70
     1
102
RTVSPropertyOp21
 70
     1
102
RTVSPropertyOp22
 70
     1
102
RTVSPropertyOp23
 70
     1
102
RTVSPropertyOp24
 70
     1
102
RTVSPropertyOp25
 70
     1
102
RTVSPropertyOp26
 70
     1
102
RTVSPropertyOp27
 70
     1
102
RTVSPropertyOp28
 70
     1
102
RTVSPropertyOp29
 70
     1
102
RTVSPropertyOp30
 70
     1
102
RTVSPropertyOp31
 70
     1
102
RTVSPropertyOp32
 70
     1
  0
XRECORD
  5
309
102
{ACAD_REACTORS
330
308
102
}
330
308
100
AcDbXrecord
280
     1
102
RTVSPropertyOp0
 70
     1
102
RTVSPropertyOp1
 70
     1
102
RTVSPropertyOp2
 70
     1
102
RTVSPropertyOp3
 70
     1
102
RTVSPropertyOp4
 70
     1
102
RTVSPropertyOp5
 70
     1
102
RTVSPropertyOp6
 70
     1
102
RTVSPropertyOp7
 70
     1
102
RTVSPropertyOp8
 70
     1
102
RTVSPropertyOp9
 70
     1
102
RTVSPropertyOp10
 70
     1
102
RTVSPropertyOp11
 70
     1
102
RTVSPropertyOp12
 70
     1
102
RTVSPropertyOp13
 70
     1
102
RTVSPropertyOp14
 70
     1
102
RTVSPropertyOp15
 70
     1
102
RTVSPropertyOp16
 70
     1
102
RTVSPropertyOp17
 70
     1
102
RTVSPropertyOp18
 70
     1
102
RTVSPropertyOp19
 70
     1
102
RTVSPropertyOp20
 70
     1
102
RTVSPropertyOp21
 70
     1
102
RTVSPropertyOp22
 70
     1
102
RTVSPropertyOp23
 70
     1
102
RTVSPropertyOp24
 70
     1
102
RTVSPropertyOp25
 70
     1
102
RTVSPropertyOp26
 70
     1
102
RTVSPropertyOp27
 70
     1
102
RTVSPropertyOp28
 70
     1
102
RTVSPropertyOp29
 70
     1
102
RTVSPropertyOp30
 70
     1
102
RTVSPropertyOp31
 70
     1
102
RTVSPropertyOp32
 70
     1
  0
ENDSEC
  0
EOF
