  0
SECTION
  2
HEADER
  9
$ACADVER
  1
AC1014
  9
$DWGCODEPAGE
  3
ANSI_1252
  9
$INSBASE
 10
0.0
 20
0.0
 30
0.0
  9
$EXTMIN
 10
21658.22237299
 20
-19411.95555091
  9
$EXTMAX
 10
35244.7195586
 20
165.67536904
  9
$LIMMIN
 10
21658.22237299
 20
-19411.95555091
  9
$LIMMAX
 10
35244.7195586
 20
165.67536904
  9
$ORTHOMODE
 70
     0
  9
$REGENMODE
 70
     1
  9
$FILLMODE
 70
     1
  9
$QTEXTMODE
 70
     0
  9
$MIRRTEXT
 70
     1
  9
$DRAGMODE
 70
     2
  9
$LTSCALE
 40
5.0
  9
$OSMODE
 70
     0
  9
$ATTMODE
 70
     1
  9
$TEXTSIZE
 40
3.5
  9
$TRACEWID
 40
1.0
  9
$TEXTSTYLE
  7
STANDARD
  9
$CLAYER
  8
0
  9
$CELTYPE
  6
BYLAYER
  9
$CECOLOR
 62
   256
  9
$DIMSCALE
 40
1.0
  9
$DIMASZ
 40
2.0
  9
$DIMEXO
 40
5.0
  9
$DIMDLI
 40
10.0
  9
$DIMRND
 40
0.0
  9
$DIMDLE
 40
2.0
  9
$DIMEXE
 40
2.0
  9
$DIMTP
 40
0.0
  9
$DIMTM
 40
0.0
  9
$DIMTXT
 40
2.5
  9
$DIMCEN
 40
1.5
  9
$DIMTSZ
 40
0.0
  9
$DIMTOL
 70
     0
  9
$DIMLIM
 70
     0
  9
$DIMTIH
 70
     1
  9
$DIMTOH
 70
     0
  9
$DIMSE1
 70
     0
  9
$DIMSE2
 70
     0
  9
$DIMTAD
 70
     1
  9
$DIMZIN
 70
     8
  9
$DIMBLK
  1

  9
$DIMASO
 70
     1
  9
$DIMSHO
 70
     1
  9
$DIMPOST
  1

  9
$DIMAPOST
  1

  9
$DIMALT
 70
     0
  9
$DIMALTD
 70
     2
  9
$DIMALTF
 40
25.4
  9
$DIMLFAC
 40
1.0
  9
$DIMTOFL
 70
     0
  9
$DIMTVP
 40
0.0
  9
$DIMTIX
 70
     0
  9
$DIMSOXD
 70
     0
  9
$DIMSAH
 70
     0
  9
$DIMBLK1
  1

  9
$DIMBLK2
  1

  9
$DIMSTYLE
  2
*UNNAMED
  9
$DIMCLRD
 70
   190
  9
$DIMCLRE
 70
   190
  9
$DIMCLRT
 70
   190
  9
$DIMTFAC
 40
1.0
  9
$DIMGAP
 40
0.09
  9
$DIMUNIT
 70
     2
  9
$LUNITS
 70
     2
  9
$LUPREC
 70
     6
  9
$AXISMODE
 70
     0
  9
$AXISUNIT
 10
0.0
 20
0.0
  9
$SKETCHINC
 40
0.1
  9
$FILLETRAD
 40
0.0
  9
$AUNITS
 70
     0
  9
$AUPREC
 70
     0
  9
$MENU
  1
ACAD
  9
$ELEVATION
 40
0.0
  9
$PELEVATION
 40
0.0
  9
$THICKNESS
 40
0.0
  9
$LIMCHECK
 70
     0
  9
$BLIPMODE
 70
     1
  9
$CHAMFERA
 40
0.0
  9
$CHAMFERB
 40
0.0
  9
$SKPOLY
 70
     1
  9
$TDCREATE
 40
2456694.0000000000
  9
$TDUPDATE
 40
2456694.0000000000
  9
$TDINDWG
 40
0.0
  9
$TDUSRTIMER
 40
0.0
  9
$USRTIMER
 70
     1
  9
$ANGBASE
 50
0.0
  9
$ANGDIR
 70
     0
  9
$PDMODE
 70
     0
  9
$PDSIZE
 40
0.0
  9
$PLINEWID
 40
0.0
  9
$COORDS
 70
     2
  9
$SPLFRAME
 70
     0
  9
$SPLINETYPE
 70
     6
  9
$SPLINESEGS
 70
     8
  9
$ATTDIA
 70
     1
  9
$ATTREQ
 70
     1
  9
$HANDLING
 70
     1
  9
$HANDSEED
  5
     1E1
  9
$SURFTAB1
 70
     6
  9
$SURFTAB2
 70
     6
  9
$SURFTYPE
 70
     6
  9
$SURFU
 70
     6
  9
$SURFV
 70
     6
  9
$UCSNAME
  2

  9
$UCSORG
 10
0.0
 20
0.0
 30
0.0
  9
$UCSXDIR
 10
1.0
 20
0.0
 30
0.0
  9
$UCSYDIR
 10
0.0
 20
1.0
 30
0.0
  9
$PUCSNAME
  2

  9
$PUCSORG
 10
0.0
 20
0.0
 30
0.0
  9
$PUCSXDIR
 10
1.0
 20
0.0
 30
0.0
  9
$PUCSYDIR
 10
0.0
 20
1.0
 30
0.0
  9
$USERI1
 70
     0
  9
$USERI2
 70
     0
  9
$USERI3
 70
     0
  9
$USERI4
 70
     0
  9
$USERI5
 70
     0
  9
$USERR1
 40
0.0
  9
$USERR2
 40
0.0
  9
$USERR3
 40
0.0
  9
$USERR4
 40
0.0
  9
$USERR5
 40
0.0
  9
$WORLDVIEW
 70
     1
  9
$SHADEDGE
 70
     3
  9
$SHADEDIF
 70
    70
  9
$TILEMODE
 70
     1
  9
$MAXACTVP
 70
    16
  9
$PINSBASE
 10
0.0
 20
0.0
 30
0.0
  9
$PLIMCHECK
 70
     0
  9
$PEXTMIN
 10
1.0000000000000E+20
 20
1.0000000000000E+20
 30
1.0000000000000E+20
  9
$PEXTMAX
 10
-1.0000000000000E+20
 20
-1.0000000000000E+20
 30
-1.0000000000000E+20
  9
$PLIMMIN
 10
0.0
 20
0.0
  9
$UNITMODE
 70
     0
  9
$VISRETAIN
 70
     0
  9
$MEASUREMENT
 70
     1
  0
ENDSEC
  0
SECTION
  2
TABLES
  0
TABLE
  2
VPORT
  5
29
100
AcDbSymbolTable
 70
     1
  0
ENDTAB
  0
TABLE
  2
STYLE
  5
2A
100
AcDbSymbolTable
 70
     3
  0
STYLE
  5
2B
100
AcDbSymbolTableRecord
100
AcDbTextStyleTableRecord
  2
STANDARD
 70
     0
 40
0.0
 41
1.0
 50
0.0
 71
     0
 42
3.5
  3
MONOTXT
  4

  0
STYLE
  5
2C
100
AcDbSymbolTableRecord
100
AcDbTextStyleTableRecord
  2
CADWORK1
 70
     0
 40
0.0
 41
1.0
 50
0.0
 71
     0
 42
3.5
  3
MONOTXT
  4

  0
STYLE
  5
2D
100
AcDbSymbolTableRecord
100
AcDbTextStyleTableRecord
  2
MONOTXT
 70
     0
 40
0.0
 41
1.0
 50
0.0
 71
     0
 42
3.5
  3
MONOTXT
  4

  0
STYLE
  5
2E
100
AcDbSymbolTableRecord
100
AcDbTextStyleTableRecord
  2
ARIAL
 70
     0
 40
0.0
 41
1.0
 50
0.0
 71
     0
 42
3.5
  3

  4

1001
ACAD
1000
Arial
1071
        0
  0
ENDTAB
  0
TABLE
  2
LTYPE
  5
2F
100
AcDbSymbolTable
 70
    13
  0
LTYPE
  5
30
100
AcDbSymbolTableRecord
100
AcDbLinetypeTableRecord
  2
BYBLOCK
 70
    64
  3

 72
    65
 73
     0
 40
0.0
  0
LTYPE
  5
31
100
AcDbSymbolTableRecord
100
AcDbLinetypeTableRecord
  2
BYLAYER
 70
    64
  3

 72
    65
 73
     0
 40
0.0
  0
LTYPE
  5
32
100
AcDbSymbolTableRecord
100
AcDbLinetypeTableRecord
  2
CONTINUOUS
 70
    64
  3
Solid line
 72
    65
 73
     0
 40
0.0
  0
LTYPE
  5
33
100
AcDbSymbolTableRecord
100
AcDbLinetypeTableRecord
  2
DOT
 70
    64
  3
. . . . . . . . . . . . . . . . . . . . . . . .
 72
    65
 73
     2
 40
2.5
 49
0.0
 74
     0
 49
-2.5
 74
     0
  0
LTYPE
  5
34
100
AcDbSymbolTableRecord
100
AcDbLinetypeTableRecord
  2
HIDDEN
 70
    64
  3
__ __ __ __ __ __ __ __ __ __ __ __ __ __ __ __
 72
    65
 73
     2
 40
1.875
 49
1.25
 74
     0
 49
-0.625
 74
     0
  0
LTYPE
  5
35
100
AcDbSymbolTableRecord
100
AcDbLinetypeTableRecord
  2
DASHEDX2
 70
    64
  3
____  ____  ____  ____  ____  ____  ____  ____
 72
    65
 73
     2
 40
3.75
 49
2.5
 74
     0
 49
-1.25
 74
     0
  0
LTYPE
  5
36
100
AcDbSymbolTableRecord
100
AcDbLinetypeTableRecord
  2
CADWORK_22
 70
    64
  3
22 =======================================
 72
    65
 73
     0
 40
0.0
  0
LTYPE
  5
37
100
AcDbSymbolTableRecord
100
AcDbLinetypeTableRecord
  2
DAL
 70
    64
  3
Solid line (for MAPS)
 72
    65
 73
     0
 40
0.0
  0
LTYPE
  5
38
100
AcDbSymbolTableRecord
100
AcDbLinetypeTableRecord
  2
MUR
 70
    64
  3
Solid line (for MAPS)
 72
    65
 73
     0
 40
0.0
  0
LTYPE
  5
39
100
AcDbSymbolTableRecord
100
AcDbLinetypeTableRecord
  2
SOM
 70
    64
  3
Solid line (for MAPS)
 72
    65
 73
     0
 40
0.0
  0
LTYPE
  5
3A
100
AcDbSymbolTableRecord
100
AcDbLinetypeTableRecord
  2
COL
 70
    64
  3
Solid line (for MAPS)
 72
    65
 73
     0
 40
0.0
  0
LTYPE
  5
3B
100
AcDbSymbolTableRecord
100
AcDbLinetypeTableRecord
  2
LGN
 70
    64
  3
Solid line (for MAPS)
 72
    65
 73
     0
 40
0.0
  0
LTYPE
  5
3C
100
AcDbSymbolTableRecord
100
AcDbLinetypeTableRecord
  2
PNT
 70
    64
  3
Solid line (for MAPS)
 72
    65
 73
     0
 40
0.0
  0
ENDTAB
  0
TABLE
  2
LAYER
  5
3D
100
AcDbSymbolTable
 70
    32
  0
LAYER
  5
3E
100
AcDbSymbolTableRecord
100
AcDbLayerTableRecord
  2
Standard
 70
     0
 62
     7
  6
CONTINUOUS
370
    -3
  0
LAYER
  5
3F
100
AcDbSymbolTableRecord
100
AcDbLayerTableRecord
  2
Ech.1_1
 70
     0
 62
     7
  6
CONTINUOUS
370
    -3
  0
LAYER
  5
40
100
AcDbSymbolTableRecord
100
AcDbLayerTableRecord
  2
Ech.1_2
 70
     0
 62
     7
  6
CONTINUOUS
370
    -3
  0
LAYER
  5
41
100
AcDbSymbolTableRecord
100
AcDbLayerTableRecord
  2
Ech.1_5
 70
     0
 62
     7
  6
CONTINUOUS
370
    -3
  0
LAYER
  5
42
100
AcDbSymbolTableRecord
100
AcDbLayerTableRecord
  2
Ech.1_10
 70
     0
 62
     7
  6
CONTINUOUS
370
    -3
  0
LAYER
  5
43
100
AcDbSymbolTableRecord
100
AcDbLayerTableRecord
  2
Ech.1_20
 70
     0
 62
     7
  6
CONTINUOUS
370
    -3
  0
LAYER
  5
44
100
AcDbSymbolTableRecord
100
AcDbLayerTableRecord
  2
Ech.1_25
 70
     0
 62
     7
  6
CONTINUOUS
370
    -3
  0
LAYER
  5
45
100
AcDbSymbolTableRecord
100
AcDbLayerTableRecord
  2
Ech.1_33
 70
     0
 62
     7
  6
CONTINUOUS
370
    -3
  0
LAYER
  5
46
100
AcDbSymbolTableRecord
100
AcDbLayerTableRecord
  2
Ech.1_50
 70
     0
 62
     7
  6
CONTINUOUS
370
    -3
  0
LAYER
  5
47
100
AcDbSymbolTableRecord
100
AcDbLayerTableRecord
  2
Ech.1_75
 70
     0
 62
     7
  6
CONTINUOUS
370
    -3
  0
LAYER
  5
48
100
AcDbSymbolTableRecord
100
AcDbLayerTableRecord
  2
Ech.1_100
 70
     0
 62
     7
  6
CONTINUOUS
370
    -3
  0
LAYER
  5
49
100
AcDbSymbolTableRecord
100
AcDbLayerTableRecord
  2
Ech.1_200
 70
     0
 62
     7
  6
CONTINUOUS
370
    -3
  0
LAYER
  5
4A
100
AcDbSymbolTableRecord
100
AcDbLayerTableRecord
  2
Ech.1_500
 70
     0
 62
     7
  6
CONTINUOUS
370
    -3
  0
LAYER
  5
4B
100
AcDbSymbolTableRecord
100
AcDbLayerTableRecord
  2
Ech.1_1000
 70
     0
 62
     7
  6
CONTINUOUS
370
    -3
  0
LAYER
  5
4C
100
AcDbSymbolTableRecord
100
AcDbLayerTableRecord
  2
Cadres traceur
 70
     0
 62
     7
  6
CONTINUOUS
370
    18
  0
LAYER
  5
4D
100
AcDbSymbolTableRecord
100
AcDbLayerTableRecord
  2
Cadres laser
 70
     0
 62
     7
  6
CONTINUOUS
370
    18
  0
LAYER
  5
4E
100
AcDbSymbolTableRecord
100
AcDbLayerTableRecord
  2
Légende d_aide
 70
     0
 62
     7
  6
CONTINUOUS
370
    18
  0
LAYER
  5
4F
100
AcDbSymbolTableRecord
100
AcDbLayerTableRecord
  2
hachures ok
 70
     0
 62
     7
  6
CONTINUOUS
370
    18
  0
LAYER
  5
50
100
AcDbSymbolTableRecord
100
AcDbLayerTableRecord
  2
ossature bois
 70
     0
 62
     7
  6
CONTINUOUS
370
    18
  0
LAYER
  5
51
100
AcDbSymbolTableRecord
100
AcDbLayerTableRecord
  2
VR
 70
     0
 62
     7
  6
CONTINUOUS
370
    25
  0
LAYER
  5
52
100
AcDbSymbolTableRecord
100
AcDbLayerTableRecord
  2
Calque1
 70
     0
 62
     7
  6
CONTINUOUS
370
     9
  0
LAYER
  5
53
100
AcDbSymbolTableRecord
100
AcDbLayerTableRecord
  2
0
 70
     0
 62
     7
  6
CONTINUOUS
370
    -3
  0
LAYER
  5
54
100
AcDbSymbolTableRecord
100
AcDbLayerTableRecord
  2
menuiserie
 70
     0
 62
     7
  6
CONTINUOUS
370
    -3
  0
LAYER
  5
55
100
AcDbSymbolTableRecord
100
AcDbLayerTableRecord
  2
cotation
 70
     0
 62
   250
  6
CONTINUOUS
370
     9
  0
LAYER
  5
56
100
AcDbSymbolTableRecord
100
AcDbLayerTableRecord
  2
Defpoints
 70
     0
 62
    10
  6
CONTINUOUS
370
    -3
  0
LAYER
  5
57
100
AcDbSymbolTableRecord
100
AcDbLayerTableRecord
  2
HACHURE
 70
     0
 62
   254
  6
CONTINUOUS
370
    25
  0
LAYER
  5
58
100
AcDbSymbolTableRecord
100
AcDbLayerTableRecord
  2
mat1
 70
     0
 62
     7
  6
CONTINUOUS
370
    30
  0
LAYER
  5
59
100
AcDbSymbolTableRecord
100
AcDbLayerTableRecord
  2
mat2
 70
     0
 62
     7
  6
CONTINUOUS
370
     5
  0
LAYER
  5
5A
100
AcDbSymbolTableRecord
100
AcDbLayerTableRecord
  2
hach
 70
     0
 62
     8
  6
CONTINUOUS
370
     5
  0
LAYER
  5
5B
100
AcDbSymbolTableRecord
100
AcDbLayerTableRecord
  2
menuiseries
 70
     0
 62
     7
  6
CONTINUOUS
370
     9
  0
LAYER
  5
5C
100
AcDbSymbolTableRecord
100
AcDbLayerTableRecord
  2
BétonMétal
 70
     0
 62
     7
  6
CONTINUOUS
370
    80
  0
LAYER
  5
5D
100
AcDbSymbolTableRecord
100
AcDbLayerTableRecord
  2
bois
 70
     0
 62
     7
  6
CONTINUOUS
370
    60
  0
ENDTAB
  0
TABLE
  2
VIEW
  5
5E
100
AcDbSymbolTable
 70
     0
  0
ENDTAB
  0
TABLE
  2
UCS
  5
5F
100
AcDbSymbolTable
 70
     0
  0
ENDTAB
  0
TABLE
  2
APPID
  5
60
100
AcDbSymbolTable
 70
     1
  0
APPID
  5
61
100
AcDbSymbolTableRecord
100
AcDbRegAppTableRecord
  2
ACAD
 70
     0
  0
ENDTAB
  0
TABLE
  2
DIMSTYLE
  5
62
100
AcDbSymbolTable
 70
     0
  0
ENDTAB
  0
TABLE
  2
BLOCK_RECORD
  5
63
100
AcDbSymbolTable
 70
     0
  0
BLOCK_RECORD
  5
64
100
AcDbSymbolTableRecord
100
AcDbBlockTableRecord
  2
*MODEL_SPACE
  0
BLOCK_RECORD
  5
65
100
AcDbSymbolTableRecord
100
AcDbBlockTableRecord
  2
*PAPER_SPACE
  0
BLOCK_RECORD
  5
66
100
AcDbSymbolTableRecord
100
AcDbBlockTableRecord
  2
CDWK_EXTR_0
  0
BLOCK_RECORD
  5
67
100
AcDbSymbolTableRecord
100
AcDbBlockTableRecord
  2
CDWK_EXTR_1D
  0
BLOCK_RECORD
  5
68
100
AcDbSymbolTableRecord
100
AcDbBlockTableRecord
  2
CDWK_EXTR_1G
  0
BLOCK_RECORD
  5
69
100
AcDbSymbolTableRecord
100
AcDbBlockTableRecord
  2
CDWK_EXTR_2
  0
BLOCK_RECORD
  5
6A
100
AcDbSymbolTableRecord
100
AcDbBlockTableRecord
  2
CDWK_EXTR_3
  0
BLOCK_RECORD
  5
6B
100
AcDbSymbolTableRecord
100
AcDbBlockTableRecord
  2
CDWK_EXTR_4
  0
BLOCK_RECORD
  5
6C
100
AcDbSymbolTableRecord
100
AcDbBlockTableRecord
  2
CDWK_PTTYP0
  0
BLOCK_RECORD
  5
6D
100
AcDbSymbolTableRecord
100
AcDbBlockTableRecord
  2
CDWK_PTTYP1
  0
BLOCK_RECORD
  5
6E
100
AcDbSymbolTableRecord
100
AcDbBlockTableRecord
  2
CDWK_PTTYP2
  0
BLOCK_RECORD
  5
6F
100
AcDbSymbolTableRecord
100
AcDbBlockTableRecord
  2
CDWK_PTTYP3
  0
BLOCK_RECORD
  5
70
100
AcDbSymbolTableRecord
100
AcDbBlockTableRecord
  2
CDWK_PTTYP4
  0
BLOCK_RECORD
  5
71
100
AcDbSymbolTableRecord
100
AcDbBlockTableRecord
  2
CDWK_PTTYP5
  0
BLOCK_RECORD
  5
72
100
AcDbSymbolTableRecord
100
AcDbBlockTableRecord
  2
CDWK_PTTYP6
  0
BLOCK_RECORD
  5
73
100
AcDbSymbolTableRecord
100
AcDbBlockTableRecord
  2
CDWK_PTTYP7
  0
BLOCK_RECORD
  5
74
100
AcDbSymbolTableRecord
100
AcDbBlockTableRecord
  2
CDWK_PTTYP8
  0
BLOCK_RECORD
  5
75
100
AcDbSymbolTableRecord
100
AcDbBlockTableRecord
  2
CDWK_PTTYP9
  0
BLOCK_RECORD
  5
76
100
AcDbSymbolTableRecord
100
AcDbBlockTableRecord
  2
CDWK_PTTYP10
  0
BLOCK_RECORD
  5
77
100
AcDbSymbolTableRecord
100
AcDbBlockTableRecord
  2
CDWK_PTTYP11
  0
BLOCK_RECORD
  5
78
100
AcDbSymbolTableRecord
100
AcDbBlockTableRecord
  2
CDWK_PTTYP12
  0
BLOCK_RECORD
  5
79
100
AcDbSymbolTableRecord
100
AcDbBlockTableRecord
  2
CDWK_PTTYP13
  0
BLOCK_RECORD
  5
7A
100
AcDbSymbolTableRecord
100
AcDbBlockTableRecord
  2
CDWK_PTTYP14
  0
BLOCK_RECORD
  5
7B
100
AcDbSymbolTableRecord
100
AcDbBlockTableRecord
  2
CDWK_PTTYP15
  0
BLOCK_RECORD
  5
7C
100
AcDbSymbolTableRecord
100
AcDbBlockTableRecord
  2
CDWK_PTTYP16
  0
BLOCK_RECORD
  5
7D
100
AcDbSymbolTableRecord
100
AcDbBlockTableRecord
  2
CDWK_PTTYP17
  0
BLOCK_RECORD
  5
7E
100
AcDbSymbolTableRecord
100
AcDbBlockTableRecord
  2
CDWK_PTTYP18
  0
BLOCK_RECORD
  5
7F
100
AcDbSymbolTableRecord
100
AcDbBlockTableRecord
  2
CDWK_PTTYP19
  0
BLOCK_RECORD
  5
80
100
AcDbSymbolTableRecord
100
AcDbBlockTableRecord
  2
CDWK_PTTYP20
  0
BLOCK_RECORD
  5
81
100
AcDbSymbolTableRecord
100
AcDbBlockTableRecord
  2
CDWK_PTTYP21
  0
BLOCK_RECORD
  5
82
100
AcDbSymbolTableRecord
100
AcDbBlockTableRecord
  2
CDWK_PTTYP22
  0
BLOCK_RECORD
  5
83
100
AcDbSymbolTableRecord
100
AcDbBlockTableRecord
  2
CDWK_PTTYP23
  0
BLOCK_RECORD
  5
84
100
AcDbSymbolTableRecord
100
AcDbBlockTableRecord
  2
CDWK_PTTYP24
  0
BLOCK_RECORD
  5
85
100
AcDbSymbolTableRecord
100
AcDbBlockTableRecord
  2
CDWK_PTTYP25
  0
BLOCK_RECORD
  5
86
100
AcDbSymbolTableRecord
100
AcDbBlockTableRecord
  2
CDWK_PTTYP26
  0
BLOCK_RECORD
  5
87
100
AcDbSymbolTableRecord
100
AcDbBlockTableRecord
  2
CDWK_PTTYP27
  0
BLOCK_RECORD
  5
88
100
AcDbSymbolTableRecord
100
AcDbBlockTableRecord
  2
CDWK_PTTYP28
  0
BLOCK_RECORD
  5
89
100
AcDbSymbolTableRecord
100
AcDbBlockTableRecord
  2
CDWK_PTTYP29
  0
BLOCK_RECORD
  5
8A
100
AcDbSymbolTableRecord
100
AcDbBlockTableRecord
  2
CDWK_PTTYP30
  0
BLOCK_RECORD
  5
8B
100
AcDbSymbolTableRecord
100
AcDbBlockTableRecord
  2
CDWK_PTTYP31
  0
BLOCK_RECORD
  5
8C
100
AcDbSymbolTableRecord
100
AcDbBlockTableRecord
  2
CDWK_PTTYP32
  0
BLOCK_RECORD
  5
8D
100
AcDbSymbolTableRecord
100
AcDbBlockTableRecord
  2
CDWK_PTTYP33
  0
BLOCK_RECORD
  5
8E
100
AcDbSymbolTableRecord
100
AcDbBlockTableRecord
  2
CDWK_PTTYP34
  0
BLOCK_RECORD
  5
8F
100
AcDbSymbolTableRecord
100
AcDbBlockTableRecord
  2
CDWK_PTTYP35
  0
BLOCK_RECORD
  5
90
100
AcDbSymbolTableRecord
100
AcDbBlockTableRecord
  2
CDWK_PTTYP36
  0
BLOCK_RECORD
  5
91
100
AcDbSymbolTableRecord
100
AcDbBlockTableRecord
  2
CDWK_PTTYP37
  0
BLOCK_RECORD
  5
92
100
AcDbSymbolTableRecord
100
AcDbBlockTableRecord
  2
CDWK_PTTYP38
  0
BLOCK_RECORD
  5
93
100
AcDbSymbolTableRecord
100
AcDbBlockTableRecord
  2
*X1
  0
BLOCK_RECORD
  5
94
100
AcDbSymbolTableRecord
100
AcDbBlockTableRecord
  2
*X2
  0
ENDTAB
  0
ENDSEC
  0
SECTION
  2
BLOCKS
  0
BLOCK
  5
95
100
AcDbEntity
  8
0
100
AcDbBlockBegin
  2
*MODEL_SPACE
 70
     0
 10
0.0
 20
0.0
 30
0.0
  3
*MODEL_SPACE
  1

  0
ENDBLK
  5
96
100
AcDbEntity
100
AcDbBlockEnd
  0
BLOCK
  5
97
100
AcDbEntity
  8
0
100
AcDbBlockBegin
  2
*PAPER_SPACE
 70
     0
 10
0.0
 20
0.0
 30
0.0
  3
*PAPER_SPACE
  1

  0
ENDBLK
  5
98
100
AcDbEntity
100
AcDbBlockEnd
  0
BLOCK
  5
99
100
AcDbEntity
  8
0
100
AcDbBlockBegin
  2
CDWK_EXTR_0
 70
     0
 10
0.0
 20
0.0
 30
0.0
  3
CDWK_EXTR_0
  1

  4
Cadwork line-extremity
  0
LINE
  5
9A
100
AcDbEntity
  8
0
 62
     0
370
    -2
100
AcDbLine
 10
0.0
 20
0.0
 30
0.0
 11
2.0
 21
0.5
 31
0.0
  0
LINE
  5
9B
100
AcDbEntity
  8
0
 62
     0
370
    -2
100
AcDbLine
 10
0.0
 20
0.0
 30
0.0
 11
2.0
 21
-0.5
 31
0.0
  0
LINE
  5
9C
100
AcDbEntity
  8
0
 62
     0
370
    -2
100
AcDbLine
 10
2.0
 20
0.5
 30
0.0
 11
2.0
 21
-0.5
 31
0.0
  0
ENDBLK
  5
9D
100
AcDbEntity
100
AcDbBlockEnd
  0
BLOCK
  5
9E
100
AcDbEntity
  8
0
100
AcDbBlockBegin
  2
CDWK_EXTR_1D
 70
     0
 10
0.0
 20
0.0
 30
0.0
  3
CDWK_EXTR_1D
  1

  4
Cadwork line-extremity
  0
LINE
  5
9F
100
AcDbEntity
  8
0
 62
     0
370
    -2
100
AcDbLine
 10
0.0
 20
0.0
 30
0.0
 11
0.0
 21
1.0
 31
0.0
  0
LINE
  5
A0
100
AcDbEntity
  8
0
 62
     0
370
    -2
100
AcDbLine
 10
0.0
 20
1.0
 30
0.0
 11
0.5
 21
1.5
 31
0.0
  0
LINE
  5
A1
100
AcDbEntity
  8
0
 62
     0
370
    -2
100
AcDbLine
 10
0.5
 20
1.5
 30
0.0
 11
1.5
 21
1.5
 31
0.0
  0
ENDBLK
  5
A2
100
AcDbEntity
100
AcDbBlockEnd
  0
BLOCK
  5
A3
100
AcDbEntity
  8
0
100
AcDbBlockBegin
  2
CDWK_EXTR_1G
 70
     0
 10
0.0
 20
0.0
 30
0.0
  3
CDWK_EXTR_1G
  1

  4
Cadwork line-extremity
  0
LINE
  5
A4
100
AcDbEntity
  8
0
 62
     0
370
    -2
100
AcDbLine
 10
0.0
 20
0.0
 30
0.0
 11
0.0
 21
-1.0
 31
0.0
  0
LINE
  5
A5
100
AcDbEntity
  8
0
 62
     0
370
    -2
100
AcDbLine
 10
0.0
 20
-1.0
 30
0.0
 11
0.5
 21
-1.5
 31
0.0
  0
LINE
  5
A6
100
AcDbEntity
  8
0
 62
     0
370
    -2
100
AcDbLine
 10
0.5
 20
-1.5
 30
0.0
 11
1.5
 21
-1.5
 31
0.0
  0
ENDBLK
  5
A7
100
AcDbEntity
100
AcDbBlockEnd
  0
BLOCK
  5
A8
100
AcDbEntity
  8
0
100
AcDbBlockBegin
  2
CDWK_EXTR_2
 70
     0
 10
0.0
 20
0.0
 30
0.0
  3
CDWK_EXTR_2
  1

  4
Cadwork line-extremity
  0
SOLID
  5
A9
100
AcDbEntity
  8
0
 62
     0
100
AcDbTrace
 10
0.0
 20
0.0
 11
2.0
 21
0.5
 12
2.0
 22
-0.5
 13
2.0
 23
-0.5
  0
ENDBLK
  5
AA
100
AcDbEntity
100
AcDbBlockEnd
  0
BLOCK
  5
AB
100
AcDbEntity
  8
0
100
AcDbBlockBegin
  2
CDWK_EXTR_3
 70
     0
 10
0.0
 20
0.0
 30
0.0
  3
CDWK_EXTR_3
  1

  4
Cadwork line-extremity
  0
SOLID
  5
AC
100
AcDbEntity
  8
0
 62
     0
100
AcDbTrace
 10
0.0
 20
0.0
 11
2.0
 21
0.5
 12
2.0
 22
-0.5
 13
2.0
 23
-0.5
  0
LINE
  5
AD
100
AcDbEntity
  8
0
 62
     0
370
    -2
100
AcDbLine
 10
0.0
 20
1.0
 30
0.0
 11
0.0
 21
-1.0
 31
0.0
  0
ENDBLK
  5
AE
100
AcDbEntity
100
AcDbBlockEnd
  0
BLOCK
  5
AF
100
AcDbEntity
  8
0
100
AcDbBlockBegin
  2
CDWK_EXTR_4
 70
     0
 10
0.0
 20
0.0
 30
0.0
  3
CDWK_EXTR_4
  1

  4
Cadwork line-extremity
  0
HATCH
  5
B0
100
AcDbEntity
  8
0
 62
     0
370
    20
100
AcDbHatch
 10
0.0
 20
0.0
 30
0.0
210
0.0
220
0.0
230
1.0
  2
SOLID
 70
     1
 71
     0
 91
        1
 92
        1
 93
        1
 72
     2
 10
0.0
 20
0.0
 40
0.5
 50
0.0
 51
360.0
 73
     1
 97
        0
 75
     0
 76
     1
 98
        1
 10
0.0
 20
0.0
  0
ENDBLK
  5
B1
100
AcDbEntity
100
AcDbBlockEnd
  0
BLOCK
  5
B2
100
AcDbEntity
  8
0
100
AcDbBlockBegin
  2
CDWK_PTTYP0
 70
     0
 10
0.0
 20
0.0
 30
0.0
  3
CDWK_PTTYP0
  1

  4
Cadwork point
  0
POINT
  5
B3
100
AcDbEntity
  8
0
 62
     0
100
AcDbPoint
 10
0.0
 20
0.0
 30
0.0
  0
ENDBLK
  5
B4
100
AcDbEntity
100
AcDbBlockEnd
  0
BLOCK
  5
B5
100
AcDbEntity
  8
0
100
AcDbBlockBegin
  2
CDWK_PTTYP1
 70
     0
 10
0.0
 20
0.0
 30
0.0
  3
CDWK_PTTYP1
  1

  4
Cadwork node
  0
LINE
  5
B6
100
AcDbEntity
  8
0
 62
     0
370
    -2
100
AcDbLine
 10
-0.5
 20
0.5
 30
0.0
 11
0.5
 21
0.5
 31
0.0
  0
LINE
  5
B7
100
AcDbEntity
  8
0
 62
     0
370
    -2
100
AcDbLine
 10
0.5
 20
0.5
 30
0.0
 11
0.5
 21
-0.5
 31
0.0
  0
LINE
  5
B8
100
AcDbEntity
  8
0
 62
     0
370
    -2
100
AcDbLine
 10
0.5
 20
-0.5
 30
0.0
 11
-0.5
 21
-0.5
 31
0.0
  0
LINE
  5
B9
100
AcDbEntity
  8
0
 62
     0
370
    -2
100
AcDbLine
 10
-0.5
 20
-0.5
 30
0.0
 11
-0.5
 21
0.5
 31
0.0
  0
ENDBLK
  5
BA
100
AcDbEntity
100
AcDbBlockEnd
  0
BLOCK
  5
BB
100
AcDbEntity
  8
0
100
AcDbBlockBegin
  2
CDWK_PTTYP2
 70
     0
 10
0.0
 20
0.0
 30
0.0
  3
CDWK_PTTYP2
  1

  4
Cadwork node
  0
LINE
  5
BC
100
AcDbEntity
  8
0
 62
     0
370
    -2
100
AcDbLine
 10
0.0
 20
0.5
 30
0.0
 11
0.0
 21
-0.5
 31
0.0
  0
LINE
  5
BD
100
AcDbEntity
  8
0
 62
     0
370
    -2
100
AcDbLine
 10
-0.5
 20
0.0
 30
0.0
 11
0.5
 21
0.0
 31
0.0
  0
ENDBLK
  5
BE
100
AcDbEntity
100
AcDbBlockEnd
  0
BLOCK
  5
BF
100
AcDbEntity
  8
0
100
AcDbBlockBegin
  2
CDWK_PTTYP3
 70
     0
 10
0.0
 20
0.0
 30
0.0
  3
CDWK_PTTYP3
  1

  4
Cadwork node
  0
CIRCLE
  5
C0
100
AcDbEntity
  8
0
 62
     0
370
    -2
100
AcDbCircle
 10
0.0
 20
0.0
 30
0.0
 40
0.5
  0
ENDBLK
  5
C1
100
AcDbEntity
100
AcDbBlockEnd
  0
BLOCK
  5
C2
100
AcDbEntity
  8
0
100
AcDbBlockBegin
  2
CDWK_PTTYP4
 70
     0
 10
0.0
 20
0.0
 30
0.0
  3
CDWK_PTTYP4
  1

  4
Cadwork node
  0
HATCH
  5
C3
100
AcDbEntity
  8
0
 62
     0
370
    20
100
AcDbHatch
 10
0.0
 20
0.0
 30
0.0
210
0.0
220
0.0
230
1.0
  2
SOLID
 70
     1
 71
     0
 91
        1
 92
        1
 93
        1
 72
     2
 10
0.0
 20
0.0
 40
0.5
 50
0.0
 51
360.0
 73
     1
 97
        0
 75
     0
 76
     1
 98
        1
 10
0.0
 20
0.0
  0
ENDBLK
  5
C4
100
AcDbEntity
100
AcDbBlockEnd
  0
BLOCK
  5
C5
100
AcDbEntity
  8
0
100
AcDbBlockBegin
  2
CDWK_PTTYP5
 70
     0
 10
0.0
 20
0.0
 30
0.0
  3
CDWK_PTTYP5
  1

  4
Cadwork node
  0
LINE
  5
C6
100
AcDbEntity
  8
0
 62
     0
370
    -2
100
AcDbLine
 10
-0.5
 20
0.5
 30
0.0
 11
0.5
 21
0.5
 31
0.0
  0
LINE
  5
C7
100
AcDbEntity
  8
0
 62
     0
370
    -2
100
AcDbLine
 10
0.5
 20
0.5
 30
0.0
 11
0.5
 21
-0.5
 31
0.0
  0
LINE
  5
C8
100
AcDbEntity
  8
0
 62
     0
370
    -2
100
AcDbLine
 10
0.5
 20
-0.5
 30
0.0
 11
-0.5
 21
-0.5
 31
0.0
  0
LINE
  5
C9
100
AcDbEntity
  8
0
 62
     0
370
    -2
100
AcDbLine
 10
-0.5
 20
-0.5
 30
0.0
 11
-0.5
 21
0.5
 31
0.0
  0
SOLID
  5
CA
100
AcDbEntity
  8
0
 62
     0
100
AcDbTrace
 10
-0.5
 20
-0.5
 11
-0.5
 21
0.0
 12
0.0
 22
-0.5
 13
0.0
 23
0.0
  0
SOLID
  5
CB
100
AcDbEntity
  8
0
 62
     0
100
AcDbTrace
 10
0.0
 20
0.0
 11
0.0
 21
0.5
 12
0.5
 22
0.0
 13
0.5
 23
0.5
  0
ENDBLK
  5
CC
100
AcDbEntity
100
AcDbBlockEnd
  0
BLOCK
  5
CD
100
AcDbEntity
  8
0
100
AcDbBlockBegin
  2
CDWK_PTTYP6
 70
     0
 10
0.0
 20
0.0
 30
0.0
  3
CDWK_PTTYP6
  1

  4
Cadwork node
  0
LINE
  5
CE
100
AcDbEntity
  8
0
 62
     0
370
    -2
100
AcDbLine
 10
-0.5
 20
0.5
 30
0.0
 11
0.5
 21
0.5
 31
0.0
  0
LINE
  5
CF
100
AcDbEntity
  8
0
 62
     0
370
    -2
100
AcDbLine
 10
0.5
 20
0.5
 30
0.0
 11
0.5
 21
-0.5
 31
0.0
  0
LINE
  5
D0
100
AcDbEntity
  8
0
 62
     0
370
    -2
100
AcDbLine
 10
0.5
 20
-0.5
 30
0.0
 11
-0.5
 21
-0.5
 31
0.0
  0
LINE
  5
D1
100
AcDbEntity
  8
0
 62
     0
370
    -2
100
AcDbLine
 10
-0.5
 20
-0.5
 30
0.0
 11
-0.5
 21
0.5
 31
0.0
  0
SOLID
  5
D2
100
AcDbEntity
  8
0
 62
     0
100
AcDbTrace
 10
-0.5
 20
-0.5
 11
-0.5
 21
0.5
 12
0.5
 22
0.5
 13
0.5
 23
0.5
  0
ENDBLK
  5
D3
100
AcDbEntity
100
AcDbBlockEnd
  0
BLOCK
  5
D4
100
AcDbEntity
  8
0
100
AcDbBlockBegin
  2
CDWK_PTTYP7
 70
     0
 10
0.0
 20
0.0
 30
0.0
  3
CDWK_PTTYP7
  1

  4
Cadwork node
  0
LINE
  5
D5
100
AcDbEntity
  8
0
 62
     0
370
    -2
100
AcDbLine
 10
-0.5
 20
0.5
 30
0.0
 11
0.5
 21
0.5
 31
0.0
  0
LINE
  5
D6
100
AcDbEntity
  8
0
 62
     0
370
    -2
100
AcDbLine
 10
0.5
 20
0.5
 30
0.0
 11
0.5
 21
-0.5
 31
0.0
  0
LINE
  5
D7
100
AcDbEntity
  8
0
 62
     0
370
    -2
100
AcDbLine
 10
0.5
 20
-0.5
 30
0.0
 11
-0.5
 21
-0.5
 31
0.0
  0
LINE
  5
D8
100
AcDbEntity
  8
0
 62
     0
370
    -2
100
AcDbLine
 10
-0.5
 20
-0.5
 30
0.0
 11
-0.5
 21
0.5
 31
0.0
  0
LINE
  5
D9
100
AcDbEntity
  8
0
 62
     0
370
    -2
100
AcDbLine
 10
0.0
 20
0.5
 30
0.0
 11
0.0
 21
-0.5
 31
0.0
  0
LINE
  5
DA
100
AcDbEntity
  8
0
 62
     0
370
    -2
100
AcDbLine
 10
-0.5
 20
0.0
 30
0.0
 11
0.5
 21
0.0
 31
0.0
  0
ENDBLK
  5
DB
100
AcDbEntity
100
AcDbBlockEnd
  0
BLOCK
  5
DC
100
AcDbEntity
  8
0
100
AcDbBlockBegin
  2
CDWK_PTTYP8
 70
     0
 10
0.0
 20
0.0
 30
0.0
  3
CDWK_PTTYP8
  1

  4
Cadwork node
  0
SOLID
  5
DD
100
AcDbEntity
  8
0
 62
     0
100
AcDbTrace
 10
-0.5
 20
0.5
 11
0.5
 21
0.5
 12
-0.5
 22
-0.5
 13
0.5
 23
-0.5
  0
ENDBLK
  5
DE
100
AcDbEntity
100
AcDbBlockEnd
  0
BLOCK
  5
DF
100
AcDbEntity
  8
0
100
AcDbBlockBegin
  2
CDWK_PTTYP9
 70
     0
 10
0.0
 20
0.0
 30
0.0
  3
CDWK_PTTYP9
  1

  4
Cadwork node
  0
CIRCLE
  5
E0
100
AcDbEntity
  8
0
 62
     0
370
    -2
100
AcDbCircle
 10
0.0
 20
0.0
 30
0.0
 40
0.5
  0
CIRCLE
  5
E1
100
AcDbEntity
  8
0
 62
     0
370
    -2
100
AcDbCircle
 10
0.0
 20
0.0
 30
0.0
 40
0.16666667
  0
ENDBLK
  5
E2
100
AcDbEntity
100
AcDbBlockEnd
  0
BLOCK
  5
E3
100
AcDbEntity
  8
0
100
AcDbBlockBegin
  2
CDWK_PTTYP10
 70
     0
 10
0.0
 20
0.0
 30
0.0
  3
CDWK_PTTYP10
  1

  4
Cadwork node
  0
CIRCLE
  5
E4
100
AcDbEntity
  8
0
 62
     0
370
    -2
100
AcDbCircle
 10
0.0
 20
0.0
 30
0.0
 40
0.5
  0
ENDBLK
  5
E5
100
AcDbEntity
100
AcDbBlockEnd
  0
BLOCK
  5
E6
100
AcDbEntity
  8
0
100
AcDbBlockBegin
  2
CDWK_PTTYP11
 70
     0
 10
0.0
 20
0.0
 30
0.0
  3
CDWK_PTTYP11
  1

  4
Cadwork node
  0
CIRCLE
  5
E7
100
AcDbEntity
  8
0
 62
     0
370
    -2
100
AcDbCircle
 10
0.0
 20
0.0
 30
0.0
 40
0.5
  0
CIRCLE
  5
E8
100
AcDbEntity
  8
0
 62
     0
370
    -2
100
AcDbCircle
 10
0.0
 20
0.0
 30
0.0
 40
0.25
  0
ENDBLK
  5
E9
100
AcDbEntity
100
AcDbBlockEnd
  0
BLOCK
  5
EA
100
AcDbEntity
  8
0
100
AcDbBlockBegin
  2
CDWK_PTTYP12
 70
     0
 10
0.0
 20
0.0
 30
0.0
  3
CDWK_PTTYP12
  1

  4
Cadwork node
  0
CIRCLE
  5
EB
100
AcDbEntity
  8
0
 62
     0
370
    -2
100
AcDbCircle
 10
0.0
 20
0.0
 30
0.0
 40
0.5
  0
CIRCLE
  5
EC
100
AcDbEntity
  8
0
 62
     0
370
    -2
100
AcDbCircle
 10
0.25
 20
0.0
 30
0.0
 40
0.25
  0
ENDBLK
  5
ED
100
AcDbEntity
100
AcDbBlockEnd
  0
BLOCK
  5
EE
100
AcDbEntity
  8
0
100
AcDbBlockBegin
  2
CDWK_PTTYP13
 70
     0
 10
0.0
 20
0.0
 30
0.0
  3
CDWK_PTTYP13
  1

  4
Cadwork node
  0
CIRCLE
  5
EF
100
AcDbEntity
  8
0
 62
     0
370
    -2
100
AcDbCircle
 10
0.0
 20
0.0
 30
0.0
 40
0.5
  0
CIRCLE
  5
F0
100
AcDbEntity
  8
0
 62
     0
370
    -2
100
AcDbCircle
 10
0.25
 20
0.0
 30
0.0
 40
0.25
  0
CIRCLE
  5
F1
100
AcDbEntity
  8
0
 62
     0
370
    -2
100
AcDbCircle
 10
-0.25
 20
0.0
 30
0.0
 40
0.25
  0
ENDBLK
  5
F2
100
AcDbEntity
100
AcDbBlockEnd
  0
BLOCK
  5
F3
100
AcDbEntity
  8
0
100
AcDbBlockBegin
  2
CDWK_PTTYP14
 70
     0
 10
0.0
 20
0.0
 30
0.0
  3
CDWK_PTTYP14
  1

  4
Cadwork node
  0
POINT
  5
F4
100
AcDbEntity
  8
0
 62
     0
100
AcDbPoint
 10
0.0
 20
0.0
 30
0.0
  0
ENDBLK
  5
F5
100
AcDbEntity
100
AcDbBlockEnd
  0
BLOCK
  5
F6
100
AcDbEntity
  8
0
100
AcDbBlockBegin
  2
CDWK_PTTYP15
 70
     0
 10
0.0
 20
0.0
 30
0.0
  3
CDWK_PTTYP15
  1

  4
Cadwork node
  0
POINT
  5
F7
100
AcDbEntity
  8
0
 62
     0
100
AcDbPoint
 10
0.0
 20
0.0
 30
0.0
  0
ENDBLK
  5
F8
100
AcDbEntity
100
AcDbBlockEnd
  0
BLOCK
  5
F9
100
AcDbEntity
  8
0
100
AcDbBlockBegin
  2
CDWK_PTTYP16
 70
     0
 10
0.0
 20
0.0
 30
0.0
  3
CDWK_PTTYP16
  1

  4
Cadwork node
  0
LINE
  5
FA
100
AcDbEntity
  8
0
 62
     0
370
    -2
100
AcDbLine
 10
-0.5
 20
-0.28867513
 30
0.0
 11
0.5
 21
-0.28867513
 31
0.0
  0
LINE
  5
FB
100
AcDbEntity
  8
0
 62
     0
370
    -2
100
AcDbLine
 10
0.5
 20
-0.28867513
 30
0.0
 11
0.0
 21
0.57735027
 31
0.0
  0
LINE
  5
FC
100
AcDbEntity
  8
0
 62
     0
370
    -2
100
AcDbLine
 10
0.0
 20
0.57735027
 30
0.0
 11
-0.5
 21
-0.28867513
 31
0.0
  0
CIRCLE
  5
FD
100
AcDbEntity
  8
0
 62
     0
370
    -2
100
AcDbCircle
 10
0.0
 20
0.0
 30
0.0
 40
0.28867513
  0
ENDBLK
  5
FE
100
AcDbEntity
100
AcDbBlockEnd
  0
BLOCK
  5
FF
100
AcDbEntity
  8
0
100
AcDbBlockBegin
  2
CDWK_PTTYP17
 70
     0
 10
0.0
 20
0.0
 30
0.0
  3
CDWK_PTTYP17
  1

  4
Cadwork node
  0
CIRCLE
  5
100
100
AcDbEntity
  8
0
 62
     0
370
    -2
100
AcDbCircle
 10
0.0
 20
0.0
 30
0.0
 40
0.5
  0
HATCH
  5
101
100
AcDbEntity
  8
0
 62
     0
370
   211
100
AcDbHatch
 10
0.0
 20
0.0
 30
0.0
210
0.0
220
0.0
230
1.0
  2
SOLID
 70
     1
 71
     0
 91
        1
 92
        1
 93
        1
 72
     2
 10
0.0
 20
0.0
 40
0.25
 50
0.0
 51
360.0
 73
     1
 97
        0
 75
     0
 76
     1
 98
        1
 10
0.0
 20
0.0
  0
ENDBLK
  5
102
100
AcDbEntity
100
AcDbBlockEnd
  0
BLOCK
  5
103
100
AcDbEntity
  8
0
100
AcDbBlockBegin
  2
CDWK_PTTYP18
 70
     0
 10
0.0
 20
0.0
 30
0.0
  3
CDWK_PTTYP18
  1

  4
Cadwork node
  0
CIRCLE
  5
104
100
AcDbEntity
  8
0
 62
     0
370
    -2
100
AcDbCircle
 10
0.0
 20
0.0
 30
0.0
 40
0.5
  0
CIRCLE
  5
105
100
AcDbEntity
  8
0
 62
     0
370
    -2
100
AcDbCircle
 10
0.0
 20
0.0
 30
0.0
 40
0.2
  0
ENDBLK
  5
106
100
AcDbEntity
100
AcDbBlockEnd
  0
BLOCK
  5
107
100
AcDbEntity
  8
0
100
AcDbBlockBegin
  2
CDWK_PTTYP19
 70
     0
 10
0.0
 20
0.0
 30
0.0
  3
CDWK_PTTYP19
  1

  4
Cadwork node
  0
CIRCLE
  5
108
100
AcDbEntity
  8
0
 62
     0
370
    -2
100
AcDbCircle
 10
0.0
 20
0.0
 30
0.0
 40
0.4
  0
CIRCLE
  5
109
100
AcDbEntity
  8
0
 62
     0
370
    -2
100
AcDbCircle
 10
0.0
 20
0.0
 30
0.0
 40
0.25
  0
LINE
  5
10A
100
AcDbEntity
  8
0
 62
     0
370
    -2
100
AcDbLine
 10
-0.25
 20
0.0
 30
0.0
 11
0.25
 21
0.0
 31
0.0
  0
ENDBLK
  5
10B
100
AcDbEntity
100
AcDbBlockEnd
  0
BLOCK
  5
10C
100
AcDbEntity
  8
0
100
AcDbBlockBegin
  2
CDWK_PTTYP20
 70
     0
 10
0.0
 20
0.0
 30
0.0
  3
CDWK_PTTYP20
  1

  4
Cadwork node
  0
CIRCLE
  5
10D
100
AcDbEntity
  8
0
 62
     0
370
    -2
100
AcDbCircle
 10
0.0
 20
0.0
 30
0.0
 40
0.5
  0
CIRCLE
  5
10E
100
AcDbEntity
  8
0
 62
     0
370
    -2
100
AcDbCircle
 10
0.0
 20
0.0
 30
0.0
 40
0.3
  0
ENDBLK
  5
10F
100
AcDbEntity
100
AcDbBlockEnd
  0
BLOCK
  5
110
100
AcDbEntity
  8
0
100
AcDbBlockBegin
  2
CDWK_PTTYP21
 70
     0
 10
0.0
 20
0.0
 30
0.0
  3
CDWK_PTTYP21
  1

  4
Cadwork node
  0
CIRCLE
  5
111
100
AcDbEntity
  8
0
 62
     0
370
    -2
100
AcDbCircle
 10
0.0
 20
0.0
 30
0.0
 40
0.5
  0
LINE
  5
112
100
AcDbEntity
  8
0
 62
     0
370
    -2
100
AcDbLine
 10
-0.5
 20
0.0
 30
0.0
 11
0.5
 21
0.0
 31
0.0
  0
ENDBLK
  5
113
100
AcDbEntity
100
AcDbBlockEnd
  0
BLOCK
  5
114
100
AcDbEntity
  8
0
100
AcDbBlockBegin
  2
CDWK_PTTYP22
 70
     0
 10
0.0
 20
0.0
 30
0.0
  3
CDWK_PTTYP22
  1

  4
Cadwork node
  0
POINT
  5
115
100
AcDbEntity
  8
0
 62
     0
100
AcDbPoint
 10
0.0
 20
0.0
 30
0.0
  0
ENDBLK
  5
116
100
AcDbEntity
100
AcDbBlockEnd
  0
BLOCK
  5
117
100
AcDbEntity
  8
0
100
AcDbBlockBegin
  2
CDWK_PTTYP23
 70
     0
 10
0.0
 20
0.0
 30
0.0
  3
CDWK_PTTYP23
  1

  4
Cadwork node
  0
POINT
  5
118
100
AcDbEntity
  8
0
 62
     0
100
AcDbPoint
 10
0.0
 20
0.0
 30
0.0
  0
ENDBLK
  5
119
100
AcDbEntity
100
AcDbBlockEnd
  0
BLOCK
  5
11A
100
AcDbEntity
  8
0
100
AcDbBlockBegin
  2
CDWK_PTTYP24
 70
     0
 10
0.0
 20
0.0
 30
0.0
  3
CDWK_PTTYP24
  1

  4
Cadwork node
  0
POINT
  5
11B
100
AcDbEntity
  8
0
 62
     0
100
AcDbPoint
 10
0.0
 20
0.0
 30
0.0
  0
ENDBLK
  5
11C
100
AcDbEntity
100
AcDbBlockEnd
  0
BLOCK
  5
11D
100
AcDbEntity
  8
0
100
AcDbBlockBegin
  2
CDWK_PTTYP25
 70
     0
 10
0.0
 20
0.0
 30
0.0
  3
CDWK_PTTYP25
  1

  4
Cadwork node
  0
LINE
  5
11E
100
AcDbEntity
  8
0
 62
     0
370
    -2
100
AcDbLine
 10
-0.43290044
 20
-0.25
 30
0.0
 11
0.43290044
 21
-0.25
 31
0.0
  0
LINE
  5
11F
100
AcDbEntity
  8
0
 62
     0
370
    -2
100
AcDbLine
 10
-0.43290044
 20
-0.25
 30
0.0
 11
0.0
 21
0.5
 31
0.0
  0
LINE
  5
120
100
AcDbEntity
  8
0
 62
     0
370
    -2
100
AcDbLine
 10
0.43290044
 20
-0.25
 30
0.0
 11
0.0
 21
0.5
 31
0.0
  0
CIRCLE
  5
121
100
AcDbEntity
  8
0
 62
     0
370
    -2
100
AcDbCircle
 10
0.0
 20
0.0
 30
0.0
 40
0.5
  0
ENDBLK
  5
122
100
AcDbEntity
100
AcDbBlockEnd
  0
BLOCK
  5
123
100
AcDbEntity
  8
0
100
AcDbBlockBegin
  2
CDWK_PTTYP26
 70
     0
 10
0.0
 20
0.0
 30
0.0
  3
CDWK_PTTYP26
  1

  4
Cadwork node
  0
LINE
  5
124
100
AcDbEntity
  8
0
 62
     0
370
    -2
100
AcDbLine
 10
-0.5
 20
-0.28850001
 30
0.0
 11
0.5
 21
-0.28850001
 31
0.0
  0
LINE
  5
125
100
AcDbEntity
  8
0
 62
     0
370
    -2
100
AcDbLine
 10
-0.5
 20
-0.28850001
 30
0.0
 11
0.0
 21
0.57736721
 31
0.0
  0
LINE
  5
126
100
AcDbEntity
  8
0
 62
     0
370
    -2
100
AcDbLine
 10
0.5
 20
-0.28850001
 30
0.0
 11
0.0
 21
0.57736721
 31
0.0
  0
CIRCLE
  5
127
100
AcDbEntity
  8
0
 62
     0
370
    -2
100
AcDbCircle
 10
0.0
 20
0.0
 30
0.0
 40
0.1312336
  0
ENDBLK
  5
128
100
AcDbEntity
100
AcDbBlockEnd
  0
BLOCK
  5
129
100
AcDbEntity
  8
0
100
AcDbBlockBegin
  2
CDWK_PTTYP27
 70
     0
 10
0.0
 20
0.0
 30
0.0
  3
CDWK_PTTYP27
  1

  4
Cadwork node
  0
LINE
  5
12A
100
AcDbEntity
  8
0
 62
     0
370
    -2
100
AcDbLine
 10
-0.43290044
 20
-0.25
 30
0.0
 11
0.43290044
 21
-0.25
 31
0.0
  0
LINE
  5
12B
100
AcDbEntity
  8
0
 62
     0
370
    -2
100
AcDbLine
 10
-0.43290044
 20
-0.25
 30
0.0
 11
0.0
 21
0.5
 31
0.0
  0
LINE
  5
12C
100
AcDbEntity
  8
0
 62
     0
370
    -2
100
AcDbLine
 10
0.43290044
 20
-0.25
 30
0.0
 11
0.0
 21
0.5
 31
0.0
  0
CIRCLE
  5
12D
100
AcDbEntity
  8
0
 62
     0
370
    -2
100
AcDbCircle
 10
0.0
 20
0.0
 30
0.0
 40
0.5
  0
CIRCLE
  5
12E
100
AcDbEntity
  8
0
 62
     0
370
    -2
100
AcDbCircle
 10
0.0
 20
0.0
 30
0.0
 40
0.1312336
  0
ENDBLK
  5
12F
100
AcDbEntity
100
AcDbBlockEnd
  0
BLOCK
  5
130
100
AcDbEntity
  8
0
100
AcDbBlockBegin
  2
CDWK_PTTYP28
 70
     0
 10
0.0
 20
0.0
 30
0.0
  3
CDWK_PTTYP28
  1

  4
Cadwork node
  0
POINT
  5
131
100
AcDbEntity
  8
0
 62
     0
100
AcDbPoint
 10
0.0
 20
0.0
 30
0.0
  0
ENDBLK
  5
132
100
AcDbEntity
100
AcDbBlockEnd
  0
BLOCK
  5
133
100
AcDbEntity
  8
0
100
AcDbBlockBegin
  2
CDWK_PTTYP29
 70
     0
 10
0.0
 20
0.0
 30
0.0
  3
CDWK_PTTYP29
  1

  4
Cadwork node
  0
CIRCLE
  5
134
100
AcDbEntity
  8
0
 62
     0
370
    -2
100
AcDbCircle
 10
0.0
 20
0.0
 30
0.0
 40
0.5
  0
CIRCLE
  5
135
100
AcDbEntity
  8
0
 62
     0
370
    -2
100
AcDbCircle
 10
0.0
 20
0.0
 30
0.0
 40
0.375
  0
CIRCLE
  5
136
100
AcDbEntity
  8
0
 62
     0
370
    -2
100
AcDbCircle
 10
0.0
 20
0.0
 30
0.0
 40
0.21875
  0
ENDBLK
  5
137
100
AcDbEntity
100
AcDbBlockEnd
  0
BLOCK
  5
138
100
AcDbEntity
  8
0
100
AcDbBlockBegin
  2
CDWK_PTTYP30
 70
     0
 10
0.0
 20
0.0
 30
0.0
  3
CDWK_PTTYP30
  1

  4
Cadwork node
  0
LINE
  5
139
100
AcDbEntity
  8
0
 62
     0
370
    -2
100
AcDbLine
 10
0.17680339
 20
0.17680339
 30
0.0
 11
0.5
 21
0.5
 31
0.0
  0
LINE
  5
13A
100
AcDbEntity
  8
0
 62
     0
370
    -2
100
AcDbLine
 10
-0.17680339
 20
0.17680339
 30
0.0
 11
-0.5
 21
0.5
 31
0.0
  0
LINE
  5
13B
100
AcDbEntity
  8
0
 62
     0
370
    -2
100
AcDbLine
 10
0.17680339
 20
-0.17680339
 30
0.0
 11
0.5
 21
-0.5
 31
0.0
  0
LINE
  5
13C
100
AcDbEntity
  8
0
 62
     0
370
    -2
100
AcDbLine
 10
-0.17680339
 20
-0.17680339
 30
0.0
 11
-0.5
 21
-0.5
 31
0.0
  0
ENDBLK
  5
13D
100
AcDbEntity
100
AcDbBlockEnd
  0
BLOCK
  5
13E
100
AcDbEntity
  8
0
100
AcDbBlockBegin
  2
CDWK_PTTYP31
 70
     0
 10
0.0
 20
0.0
 30
0.0
  3
CDWK_PTTYP31
  1

  4
Cadwork node
  0
CIRCLE
  5
13F
100
AcDbEntity
  8
0
 62
     0
370
    -2
100
AcDbCircle
 10
0.0
 20
0.0
 30
0.0
 40
0.075
  0
LINE
  5
140
100
AcDbEntity
  8
0
 62
     0
370
    -2
100
AcDbLine
 10
0.075
 20
0.0
 30
0.0
 11
0.5
 21
0.0
 31
0.0
  0
LINE
  5
141
100
AcDbEntity
  8
0
 62
     0
370
    -2
100
AcDbLine
 10
-0.075
 20
0.0
 30
0.0
 11
-0.5
 21
0.0
 31
0.0
  0
LINE
  5
142
100
AcDbEntity
  8
0
 62
     0
370
    -2
100
AcDbLine
 10
0.0
 20
0.075
 30
0.0
 11
0.0
 21
0.5
 31
0.0
  0
LINE
  5
143
100
AcDbEntity
  8
0
 62
     0
370
    -2
100
AcDbLine
 10
0.0
 20
-0.075
 30
0.0
 11
0.0
 21
-0.5
 31
0.0
  0
ENDBLK
  5
144
100
AcDbEntity
100
AcDbBlockEnd
  0
BLOCK
  5
145
100
AcDbEntity
  8
0
100
AcDbBlockBegin
  2
CDWK_PTTYP32
 70
     0
 10
0.0
 20
0.0
 30
0.0
  3
CDWK_PTTYP32
  1

  4
Cadwork node
  0
CIRCLE
  5
146
100
AcDbEntity
  8
0
 62
     0
370
    -2
100
AcDbCircle
 10
0.0
 20
0.0
 30
0.0
 40
0.5
  0
CIRCLE
  5
147
100
AcDbEntity
  8
0
 62
     0
370
    -2
100
AcDbCircle
 10
0.0
 20
0.0
 30
0.0
 40
0.16666667
  0
LINE
  5
148
100
AcDbEntity
  8
0
 62
     0
370
    -2
100
AcDbLine
 10
0.11786893
 20
0.11786893
 30
0.0
 11
0.35360678
 21
0.35360678
 31
0.0
  0
LINE
  5
149
100
AcDbEntity
  8
0
 62
     0
370
    -2
100
AcDbLine
 10
-0.11786893
 20
0.11786893
 30
0.0
 11
-0.35360678
 21
0.35360678
 31
0.0
  0
LINE
  5
14A
100
AcDbEntity
  8
0
 62
     0
370
    -2
100
AcDbLine
 10
0.11786893
 20
-0.11786893
 30
0.0
 11
0.35360678
 21
-0.35360678
 31
0.0
  0
LINE
  5
14B
100
AcDbEntity
  8
0
 62
     0
370
    -2
100
AcDbLine
 10
-0.11786893
 20
-0.11786893
 30
0.0
 11
-0.35360678
 21
-0.35360678
 31
0.0
  0
ENDBLK
  5
14C
100
AcDbEntity
100
AcDbBlockEnd
  0
BLOCK
  5
14D
100
AcDbEntity
  8
0
100
AcDbBlockBegin
  2
CDWK_PTTYP33
 70
     0
 10
0.0
 20
0.0
 30
0.0
  3
CDWK_PTTYP33
  1

  4
Cadwork node
  0
CIRCLE
  5
14E
100
AcDbEntity
  8
0
 62
     0
370
    -2
100
AcDbCircle
 10
0.0
 20
0.0
 30
0.0
 40
0.5
  0
LINE
  5
14F
100
AcDbEntity
  8
0
 62
     0
370
    -2
100
AcDbLine
 10
0.0
 20
0.5
 30
0.0
 11
0.0
 21
-0.5
 31
0.0
  0
LINE
  5
150
100
AcDbEntity
  8
0
 62
     0
370
    -2
100
AcDbLine
 10
-0.5
 20
0.0
 30
0.0
 11
0.5
 21
0.0
 31
0.0
  0
ENDBLK
  5
151
100
AcDbEntity
100
AcDbBlockEnd
  0
BLOCK
  5
152
100
AcDbEntity
  8
0
100
AcDbBlockBegin
  2
CDWK_PTTYP34
 70
     0
 10
0.0
 20
0.0
 30
0.0
  3
CDWK_PTTYP34
  1

  4
Cadwork node
  0
CIRCLE
  5
153
100
AcDbEntity
  8
0
 62
     0
370
    -2
100
AcDbCircle
 10
0.0
 20
0.0
 30
0.0
 40
0.5
  0
LINE
  5
154
100
AcDbEntity
  8
0
 62
     0
370
    -2
100
AcDbLine
 10
-0.30360678
 20
-0.40360678
 30
0.0
 11
0.40360678
 21
0.30360678
 31
0.0
  0
LINE
  5
155
100
AcDbEntity
  8
0
 62
     0
370
    -2
100
AcDbLine
 10
-0.40360678
 20
-0.30360678
 30
0.0
 11
0.30360678
 21
0.40360678
 31
0.0
  0
ENDBLK
  5
156
100
AcDbEntity
100
AcDbBlockEnd
  0
BLOCK
  5
157
100
AcDbEntity
  8
0
100
AcDbBlockBegin
  2
CDWK_PTTYP35
 70
     0
 10
0.0
 20
0.0
 30
0.0
  3
CDWK_PTTYP35
  1

  4
Cadwork node
  0
CIRCLE
  5
158
100
AcDbEntity
  8
0
 62
     0
370
    -2
100
AcDbCircle
 10
0.0
 20
0.0
 30
0.0
 40
0.21431634
  0
LINE
  5
159
100
AcDbEntity
  8
0
 62
     0
370
    -2
100
AcDbLine
 10
0.0
 20
0.21431634
 30
0.0
 11
0.0
 21
0.5
 31
0.0
  0
LINE
  5
15A
100
AcDbEntity
  8
0
 62
     0
370
    -2
100
AcDbLine
 10
0.0
 20
-0.21431634
 30
0.0
 11
0.0
 21
-0.5
 31
0.0
  0
ENDBLK
  5
15B
100
AcDbEntity
100
AcDbBlockEnd
  0
BLOCK
  5
15C
100
AcDbEntity
  8
0
100
AcDbBlockBegin
  2
CDWK_PTTYP36
 70
     0
 10
0.0
 20
0.0
 30
0.0
  3
CDWK_PTTYP36
  1

  4
Cadwork node
  0
LINE
  5
15D
100
AcDbEntity
  8
0
 62
     0
370
    -2
100
AcDbLine
 10
-0.5
 20
-0.16666667
 30
0.0
 11
0.5
 21
-0.16666667
 31
0.0
  0
LINE
  5
15E
100
AcDbEntity
  8
0
 62
     0
370
    -2
100
AcDbLine
 10
0.5
 20
-0.16666667
 30
0.0
 11
0.5
 21
0.16666667
 31
0.0
  0
LINE
  5
15F
100
AcDbEntity
  8
0
 62
     0
370
    -2
100
AcDbLine
 10
0.5
 20
0.16666667
 30
0.0
 11
-0.5
 21
0.16666667
 31
0.0
  0
LINE
  5
160
100
AcDbEntity
  8
0
 62
     0
370
    -2
100
AcDbLine
 10
-0.5
 20
0.16666667
 30
0.0
 11
-0.5
 21
-0.16666667
 31
0.0
  0
SOLID
  5
161
100
AcDbEntity
  8
0
 62
     0
100
AcDbTrace
 10
-0.5
 20
-0.16666667
 11
0.5
 21
0.16666667
 12
0.5
 22
-0.16666667
 13
0.5
 23
-0.16666667
  0
ENDBLK
  5
162
100
AcDbEntity
100
AcDbBlockEnd
  0
BLOCK
  5
163
100
AcDbEntity
  8
0
100
AcDbBlockBegin
  2
CDWK_PTTYP37
 70
     0
 10
0.0
 20
0.0
 30
0.0
  3
CDWK_PTTYP37
  1

  4
Cadwork node
  0
CIRCLE
  5
164
100
AcDbEntity
  8
0
 62
     0
370
    -2
100
AcDbCircle
 10
0.0
 20
0.0
 30
0.0
 40
0.5
  0
SOLID
  5
165
100
AcDbEntity
  8
0
 62
     0
100
AcDbTrace
 10
0.0
 20
0.0
 11
0.35350001
 21
0.35350001
 12
0.5
 22
0.0
 13
0.46200001
 23
0.19149999
  0
SOLID
  5
166
100
AcDbEntity
  8
0
 62
     0
100
AcDbTrace
 10
0.0
 20
0.0
 11
0.35350001
 21
-0.35350001
 12
0.5
 22
0.0
 13
0.46200001
 23
-0.19149999
  0
SOLID
  5
167
100
AcDbEntity
  8
0
 62
     0
100
AcDbTrace
 10
0.0
 20
0.0
 11
0.0
 21
-0.5
 12
0.35350001
 22
-0.35350001
 13
0.19149999
 23
-0.46200001
  0
SOLID
  5
168
100
AcDbEntity
  8
0
 62
     0
100
AcDbTrace
 10
0.0
 20
0.0
 11
0.0
 21
-0.5
 12
-0.35350001
 22
-0.35350001
 13
-0.19149999
 23
-0.46200001
  0
ENDBLK
  5
169
100
AcDbEntity
100
AcDbBlockEnd
  0
BLOCK
  5
16A
100
AcDbEntity
  8
0
100
AcDbBlockBegin
  2
CDWK_PTTYP38
 70
     0
 10
0.0
 20
0.0
 30
0.0
  3
CDWK_PTTYP38
  1

  4
Cadwork node
  0
CIRCLE
  5
16B
100
AcDbEntity
  8
0
 62
     0
370
    -2
100
AcDbCircle
 10
0.0
 20
0.0
 30
0.0
 40
0.5
  0
SOLID
  5
16C
100
AcDbEntity
  8
0
 62
     0
100
AcDbTrace
 10
0.0
 20
0.0
 11
0.35350001
 21
0.35350001
 12
0.0
 22
0.5
 13
0.19149999
 23
0.46200001
  0
SOLID
  5
16D
100
AcDbEntity
  8
0
 62
     0
100
AcDbTrace
 10
0.0
 20
0.0
 11
0.5
 21
0.0
 12
0.35350001
 22
0.35350001
 13
0.46200001
 23
0.19149999
  0
SOLID
  5
16E
100
AcDbEntity
  8
0
 62
     0
100
AcDbTrace
 10
0.0
 20
0.0
 11
0.0
 21
-0.5
 12
-0.35350001
 22
-0.35350001
 13
-0.19149999
 23
-0.46200001
  0
SOLID
  5
16F
100
AcDbEntity
  8
0
 62
     0
100
AcDbTrace
 10
0.0
 20
0.0
 11
-0.5
 21
0.0
 12
-0.35350001
 22
-0.35350001
 13
-0.46200001
 23
-0.19149999
  0
ENDBLK
  5
170
100
AcDbEntity
100
AcDbBlockEnd
  0
BLOCK
  5
171
100
AcDbEntity
  8
Ech.1_5
100
AcDbBlockBegin
  2
*X1
 70
     1
 10
0.0
 20
0.0
 30
0.0
  3
*X1
  1

  4
Cadwork hatch
  0
LINE
  5
172
100
AcDbEntity
  8
Ech.1_5
 62
     7
  6
CONTINUOUS
370
    -2
100
AcDbLine
 10
21933.68879813
 20
-18649.3125992
 30
0.0
 11
21916.40790876
 21
-18694.37270962
 31
0.0
  0
LINE
  5
173
100
AcDbEntity
  8
Ech.1_5
 62
     7
  6
CONTINUOUS
370
    -2
100
AcDbLine
 10
21900.92122531
 20
-18672.25571151
 30
0.0
 11
21949.17408965
 21
-18671.4297713
 31
0.0
  0
ENDBLK
  5
174
100
AcDbEntity
100
AcDbBlockEnd
  0
BLOCK
  5
175
100
AcDbEntity
  8
Ech.1_5
100
AcDbBlockBegin
  2
*X2
 70
     1
 10
0.0
 20
0.0
 30
0.0
  3
*X2
  1

  4
Cadwork hatch
  0
LINE
  5
176
100
AcDbEntity
  8
Ech.1_5
 62
     7
  6
CONTINUOUS
370
    -2
100
AcDbLine
 10
22207.97820089
 20
-18457.25270429
 30
0.0
 11
22190.69870346
 21
-18502.31281471
 31
0.0
  0
LINE
  5
177
100
AcDbEntity
  8
Ech.1_5
 62
     7
  6
CONTINUOUS
370
    -2
100
AcDbLine
 10
22175.21202001
 20
-18480.19564261
 30
0.0
 11
22223.46349241
 21
-18479.36987639
 31
0.0
  0
ENDBLK
  5
178
100
AcDbEntity
100
AcDbBlockEnd
  0
ENDSEC
  0
SECTION
  2
ENTITIES
  0
INSERT
  5
179
100
AcDbEntity
  8
Ech.1_5
 62
     0
100
AcDbBlockReference
  2
*X1
 10
0.0
 20
0.0
 30
0.0
  0
INSERT
  5
17A
100
AcDbEntity
  8
Ech.1_5
 62
     0
100
AcDbBlockReference
  2
*X2
 10
0.0
 20
0.0
 30
0.0
  0
LWPOLYLINE
  5
17B
100
AcDbEntity
  8
Ech.1_5
 62
     7
100
AcDbPolyline
 90
        5
 70
     0
 43
0.0
 10
21726.87047068
 20
-19192.85050939
 10
21861.29924966
 20
-19192.85050939
 10
21861.29924966
 20
-19249.5734682
 10
21726.87047068
 20
-19249.5734682
 10
21726.87047068
 20
-19192.85050939
  0
LWPOLYLINE
  5
17C
100
AcDbEntity
  8
Ech.1_5
 62
     7
100
AcDbPolyline
 90
        5
 70
     0
 43
0.0
 10
21745.15051646
 20
-19226.50732052
 10
21795.15051646
 20
-19226.50732052
 10
21795.15051646
 20
-19219.09218298
 10
21745.15051646
 20
-19219.09218298
 10
21745.15051646
 20
-19226.50732052
  0
LWPOLYLINE
  5
17D
100
AcDbEntity
  8
Ech.1_5
 62
     7
100
AcDbPolyline
 90
        5
 70
     0
 43
0.0
 10
21795.15051646
 20
-19226.50732052
 10
21845.15051646
 20
-19226.50732052
 10
21845.15051646
 20
-19219.09218298
 10
21795.15051646
 20
-19219.09218298
 10
21795.15051646
 20
-19226.50732052
  0
LWPOLYLINE
  5
17E
100
AcDbEntity
  8
Ech.1_5
 62
     7
  6
CONTINUOUS
370
    -3
100
AcDbPolyline
 90
        5
 70
     0
 43
0.0
 10
21824.20019802
 20
-18374.97684204
 10
22803.22995017
 20
-18374.97684204
 10
22803.22995017
 20
-19179.02551584
 10
21824.20019802
 20
-19179.02551584
 10
21824.20019802
 20
-18374.97684204
  0
LINE
  5
17F
100
AcDbEntity
  8
Ech.1_5
 62
     7
100
AcDbLine
 10
21824.20019802
 20
-19060.4687787
 30
0.0
 11
22803.18414101
 21
-18374.97684204
 31
0.0
  0
LINE
  5
180
100
AcDbEntity
  8
Ech.1_5
 62
     7
100
AcDbLine
 10
21824.20019802
 20
-18791.89836917
 30
0.0
 11
22419.62584597
 21
-18374.97684204
 31
0.0
  0
LINE
  5
181
100
AcDbEntity
  8
Ech.1_5
 62
     7
100
AcDbLine
 10
21875.69580243
 20
-18609.10877174
 30
0.0
 11
22169.16804929
 21
-18452.29380007
 31
0.0
  0
LWPOLYLINE
  5
182
100
AcDbEntity
  8
Ech.1_5
 62
     7
100
AcDbPolyline
 90
        5
 70
     0
 43
0.0
 10
21900.92161821
 20
-18672.25562466
 10
21933.68769999
 20
-18649.31256721
 10
21949.17426377
 20
-18671.4296724
 10
21916.408182
 20
-18694.37272986
 10
21900.92161821
 20
-18672.25562466
  0
LWPOLYLINE
  5
183
100
AcDbEntity
  8
Ech.1_5
 62
     7
100
AcDbPolyline
 90
        5
 70
     0
 43
0.0
 10
22175.21156257
 20
-18480.19573801
 10
22207.97764434
 20
-18457.25268056
 10
22223.46420812
 20
-18479.36978575
 10
22190.69812635
 20
-18502.31284321
 10
22175.21156257
 20
-18480.19573801
  0
LWPOLYLINE
  5
184
100
AcDbEntity
  8
Ech.1_5
 62
     7
  6
CONTINUOUS
370
    -3
100
AcDbPolyline
 90
        4
 70
     0
 43
0.0
 10
22148.64462005
 20
-18945.95454315
 10
22190.64462005
 20
-18885.95454315
 10
22190.64462005
 20
-18945.95454315
 10
22148.64462005
 20
-18885.95454315
  0
LWPOLYLINE
  5
185
100
AcDbEntity
  8
Ech.1_5
 62
     7
  6
CONTINUOUS
370
    -3
100
AcDbPolyline
 90
        4
 70
     0
 43
0.0
 10
22691.43235567
 20
-18945.95454315
 10
22733.43235567
 20
-18885.95454315
 10
22733.43235567
 20
-18945.95454315
 10
22691.43235567
 20
-18885.95454315
  0
LWPOLYLINE
  5
186
100
AcDbEntity
  8
Ech.1_5
 62
     7
  6
CONTINUOUS
370
    -3
100
AcDbPolyline
 90
        3
 70
     0
 43
0.0
 10
22803.22995017
 20
-18957.95569577
 10
22790.07614287
 20
-19007.11192937
 42
0.43910049
 10
22803.22995017
 20
-19027.82896688
  0
LINE
  5
187
100
AcDbEntity
  8
Ech.1_5
 62
     7
100
AcDbLine
 10
22419.62584597
 20
-18374.97684204
 30
0.0
 11
21824.20019802
 21
-18791.89836917
 31
0.0
  0
LWPOLYLINE
  5
188
100
AcDbEntity
  8
Ech.1_5
 62
     7
100
AcDbPolyline
 90
        4
 70
     0
 43
0.0
 10
22803.22995017
 20
-19028.09674982
 10
22122.87951185
 20
-19028.09674982
 10
22122.87951185
 20
-19003.41457972
 10
22803.22995017
 20
-19003.41457972
  0
LWPOLYLINE
  5
189
100
AcDbEntity
  8
Ech.1_5
 62
     7
100
AcDbPolyline
 90
        4
 70
     0
 43
0.0
 10
22803.22995017
 20
-19028.09106349
 10
22122.87951185
 20
-19028.09106349
 10
22122.87951185
 20
-19041.09106349
 10
22803.22995017
 20
-19041.09106349
  0
LWPOLYLINE
  5
18A
100
AcDbEntity
  8
Ech.1_5
 62
     7
100
AcDbPolyline
 90
        4
 70
     0
 43
0.0
 10
21925.89038118
 20
-19179.02551584
 10
22122.87951185
 20
-19041.09106349
 10
22115.42568987
 20
-19030.4459025
 10
21903.23211682
 20
-19179.02551584
  0
LINE
  5
18B
100
AcDbEntity
  8
Ech.1_5
 62
     7
100
AcDbLine
 10
22372.55278249
 20
-18374.97684204
 30
0.0
 11
21824.20019802
 21
-18758.93745528
 31
0.0
  0
LINE
  5
18C
100
AcDbEntity
  8
Ech.1_5
 62
     7
100
AcDbLine
 10
21824.20019802
 20
-18682.11996305
 30
0.0
 11
21894.87810494
 21
-18644.35368672
 31
0.0
  0
LINE
  5
18D
100
AcDbEntity
  8
Ech.1_5
 62
     7
100
AcDbLine
 10
22149.98574679
 20
-18417.04888509
 30
0.0
 11
22228.72170467
 21
-18374.97684204
 31
0.0
  0
LINE
  5
18E
100
AcDbEntity
  8
Ech.1_5
 62
     7
  6
CONTINUOUS
370
    -3
100
AcDbLine
 10
21824.20019802
 20
-19169.61037493
 30
0.0
 11
21827.63058595
 21
-19179.02551584
 31
0.0
  0
LINE
  5
18F
100
AcDbEntity
  8
Ech.1_5
 62
     7
  6
CONTINUOUS
370
    -3
100
AcDbLine
 10
21858.00393942
 20
-19179.02551584
 30
0.0
 11
21824.20019802
 21
-19150.6416024
 31
0.0
  0
LWPOLYLINE
  5
190
100
AcDbEntity
  8
Ech.1_5
 62
     7
  6
CONTINUOUS
370
    -3
100
AcDbPolyline
 90
        4
 70
     0
 43
0.0
 10
21824.20019802
 20
-19133.71525403
 10
22068.13615994
 20
-18962.90945465
 10
22033.97783588
 20
-18914.12631223
 10
21824.20019802
 20
-19061.01423061
  0
LWPOLYLINE
  5
191
100
AcDbEntity
  8
Ech.1_5
 62
     7
  6
CONTINUOUS
370
    -3
100
AcDbPolyline
 90
       26
 70
     0
 43
0.0
 10
22803.22995017
 20
-18694.0713078
 42
0.73890716
 10
22749.23245443
 20
-18727.91513663
 10
22780.29416578
 20
-18843.99382811
 42
-1.30322619
 10
22715.8991211
 20
-18843.99382811
 10
22746.96083244
 20
-18727.91513663
 42
1.30322619
 10
22682.56578777
 20
-18727.91513663
 10
22713.62749911
 20
-18843.99382811
 42
-1.30322619
 10
22649.23245443
 20
-18843.99382811
 10
22680.29416578
 20
-18727.91513663
 42
1.30322619
 10
22615.8991211
 20
-18727.91513663
 10
22646.96083244
 20
-18843.99382811
 42
-1.30322619
 10
22582.56578777
 20
-18843.99382811
 10
22613.62749911
 20
-18727.91513663
 42
1.30322619
 10
22549.23245443
 20
-18727.91513663
 10
22580.29416578
 20
-18843.99382811
 42
-1.30322619
 10
22515.8991211
 20
-18843.99382811
 10
22546.96083244
 20
-18727.91513663
 42
1.30322619
 10
22482.56578777
 20
-18727.91513663
 10
22513.62749911
 20
-18843.99382811
 42
-1.30322619
 10
22449.23245443
 20
-18843.99382811
 10
22480.29416578
 20
-18727.91513663
 42
1.30322619
 10
22415.8991211
 20
-18727.91513663
 10
22446.96083244
 20
-18843.99382811
 42
-1.30322619
 10
22382.56578777
 20
-18843.99382811
 10
22413.62749911
 20
-18727.91513663
 42
0.74773675
 10
22359.06204382
 20
-18694.57371676
  0
LWPOLYLINE
  5
192
100
AcDbEntity
  8
Ech.1_5
 62
     7
  6
CONTINUOUS
370
    -3
100
AcDbPolyline
 90
        3
 70
     0
 43
0.0
 10
22803.22995017
 20
-18883.89562297
 42
-0.38765928
 10
22782.56578777
 20
-18843.99382811
 10
22803.22995017
 20
-18766.77113726
  0
LWPOLYLINE
  5
193
100
AcDbEntity
  8
Ech.1_5
 62
     7
  6
CONTINUOUS
370
    -3
100
AcDbPolyline
 90
       18
 70
     0
 43
0.0
 10
22357.30419742
 20
-18711.72821608
 42
1.14028181
 10
22328.48825656
 20
-18738.13319171
 10
22382.90434575
 20
-18783.82461466
 42
-1.30322619
 10
22351.71245189
 20
-18805.66542678
 10
22327.38792046
 20
-18738.9036558
 42
1.30322619
 10
22296.19602661
 20
-18760.74446791
 10
22350.6121158
 20
-18806.43589086
 42
-1.30322619
 10
22319.42022194
 20
-18828.27670298
 10
22295.09569051
 20
-18761.514932
 42
1.30322619
 10
22263.90379666
 20
-18783.35574411
 10
22318.31988585
 20
-18829.04716706
 42
-1.30322619
 10
22287.12799199
 20
-18850.88797918
 10
22262.80346056
 20
-18784.1262082
 42
1.30322619
 10
22231.6115667
 20
-18805.96702032
 10
22286.02765589
 20
-18851.65844326
 42
-1.30322619
 10
22254.83576204
 20
-18873.49925538
 10
22230.51123061
 20
-18806.7374844
 42
0.52804687
 10
22198.96849915
 20
-18798.68109414
  0
LWPOLYLINE
  5
194
100
AcDbEntity
  8
Ech.1_5
 62
     7
  6
CONTINUOUS
370
    -3
100
AcDbPolyline
 90
        5
 70
     0
 43
0.0
 10
22190.64462005
 20
-18945.95454315
 10
22190.64462005
 20
-18885.95454315
 10
22148.64462005
 20
-18885.95454315
 10
22148.64462005
 20
-18945.95454315
 10
22190.64462005
 20
-18945.95454315
  0
LWPOLYLINE
  5
195
100
AcDbEntity
  8
Ech.1_5
 62
     7
  6
CONTINUOUS
370
    -3
100
AcDbPolyline
 90
        5
 70
     0
 43
0.0
 10
22733.43235567
 20
-18945.95454315
 10
22733.43235567
 20
-18885.95454315
 10
22691.43235567
 20
-18885.95454315
 10
22691.43235567
 20
-18945.95454315
 10
22733.43235567
 20
-18945.95454315
  0
LWPOLYLINE
  5
196
100
AcDbEntity
  8
Ech.1_5
 62
     7
  6
CONTINUOUS
370
    -3
100
AcDbPolyline
 90
        5
 70
     0
 43
0.0
 10
21900.92161823
 20
-18672.25562469
 10
21933.6877
 20
-18649.31256723
 10
21949.17426378
 20
-18671.42967243
 10
21916.40818201
 20
-18694.37272988
 10
21900.92161823
 20
-18672.25562469
  0
LWPOLYLINE
  5
197
100
AcDbEntity
  8
Ech.1_5
 62
     7
  6
CONTINUOUS
370
    -3
100
AcDbPolyline
 90
        5
 70
     0
 43
0.0
 10
22175.21156259
 20
-18480.19573804
 10
22207.97764436
 20
-18457.25268058
 10
22223.46420814
 20
-18479.36978578
 10
22190.69812637
 20
-18502.31284323
 10
22175.21156259
 20
-18480.19573804
  0
LINE
  5
198
100
AcDbEntity
  8
Ech.1_5
 62
     7
370
    35
100
AcDbLine
 10
22193.68594724
 20
-19003.41457972
 30
0.0
 11
22193.68594724
 21
-18891.61272182
 31
0.0
  0
LINE
  5
199
100
AcDbEntity
  8
Ech.1_5
 62
     7
  6
DASHEDX2
370
    35
100
AcDbLine
 10
22193.68594724
 20
-19003.41457972
 30
0.0
 11
22193.6859472
 21
-19028.09683048
 31
0.0
  0
LINE
  5
19A
100
AcDbEntity
  8
Ech.1_5
 62
     7
  6
DASHEDX2
370
    35
100
AcDbLine
 10
22736.47368286
 20
-19003.41457972
 30
0.0
 11
22736.47368282
 21
-19028.09683048
 31
0.0
  0
LINE
  5
19B
100
AcDbEntity
  8
Ech.1_5
 62
     7
370
    35
100
AcDbLine
 10
22736.47368286
 20
-19003.41457972
 30
0.0
 11
22736.47368286
 21
-18891.61272182
 31
0.0
  0
LINE
  5
19C
100
AcDbEntity
  8
Ech.1_5
 62
   150
  6
CADWORK_22
370
    35
100
AcDbLine
 10
21824.20019802
 20
-18790.06720729
 30
2500.0
 11
22417.01067578
 21
-18374.97684204
 31
2500.0
  0
LWPOLYLINE
  5
19D
100
AcDbEntity
  8
Ech.1_5
 62
     1
  6
CADWORK_22
370
    35
100
AcDbPolyline
 90
        3
 70
     0
 43
0.0
 10
22803.22995017
 20
-18886.20306519
 10
22073.90530385
 20
-18887.45454315
 10
21824.20019802
 20
-19062.29994058
  0
LWPOLYLINE
  5
19E
100
AcDbEntity
  8
Ech.1_5
 62
     7
  6
CONTINUOUS
370
    -3
100
AcDbPolyline
 90
       22
 70
     0
 43
0.0
 10
22497.03405276
 20
-18493.12850696
 42
1.14028181
 10
22441.71528155
 20
-18516.43385277
 10
22496.81729484
 20
-18610.63084351
 42
-1.30322619
 10
22440.41980689
 20
-18626.10736288
 10
22439.72578415
 20
-18516.97980785
 42
1.30322619
 10
22383.3282962
 20
-18532.45632722
 10
22438.43030949
 20
-18626.65331796
 42
-1.30322619
 10
22382.03282154
 20
-18642.12983733
 10
22381.3387988
 20
-18533.0022823
 42
1.30322619
 10
22324.94131085
 20
-18548.47880167
 10
22380.04332414
 20
-18642.6757924
 42
-1.30322619
 10
22323.64583619
 20
-18658.15231177
 10
22322.95181345
 20
-18549.02475675
 42
1.30322619
 10
22266.5543255
 20
-18564.50127612
 10
22321.65633879
 20
-18658.69826685
 42
-1.30322619
 10
22265.25885084
 20
-18674.17478622
 10
22264.5648281
 20
-18565.0472312
 42
1.30322619
 10
22208.16734015
 20
-18580.52375057
 10
22263.26935344
 20
-18674.7207413
 42
-1.30322619
 10
22206.87186549
 20
-18690.19726067
 10
22206.17784275
 20
-18581.06970565
 42
0.5093521
 10
22166.39334336
 20
-18552.51266138
  0
LINE
  5
19F
100
AcDbEntity
  8
Ech.1_5
 62
     7
  6
CONTINUOUS
370
    -3
100
AcDbLine
 10
22012.74639599
 20
-18939.46557695
 30
0.0
 11
22073.78706783
 21
-19026.64067
 31
0.0
  0
ARC
  5
1A0
100
AcDbEntity
  8
Ech.1_5
 62
     7
  6
CONTINUOUS
370
    -3
100
AcDbCircle
 10
22047.57420447
 20
-19044.99511889
 30
0.0
 40
5.0
100
AcDbArc
 50
305.00001643
 51
35.00000642
  0
LINE
  5
1A1
100
AcDbEntity
  8
Ech.1_5
 62
     7
  6
CONTINUOUS
370
    -3
100
AcDbLine
 10
22055.46184322
 20
-19056.66100283
 30
0.0
 11
22054.31469016
 21
-19055.02269887
 31
0.0
  0
LINE
  5
1A2
100
AcDbEntity
  8
Ech.1_5
 62
     7
  6
CONTINUOUS
370
    -3
100
AcDbLine
 10
22047.16547919
 20
-19051.38518491
 30
0.0
 11
22050.44208711
 21
-19049.0908788
 31
0.0
  0
ARC
  5
1A3
100
AcDbEntity
  8
Ech.1_5
 62
     7
  6
CONTINUOUS
370
    -3
100
AcDbCircle
 10
22055.28490534
 20
-19038.98015273
 30
0.0
 40
14.82598747
100
AcDbArc
 50
236.79418751
 51
273.13517479
  0
ARC
  5
1A4
100
AcDbEntity
  8
Ech.1_5
 62
     7
  6
CONTINUOUS
370
    -3
100
AcDbCircle
 10
22061.8214551
 20
-19050.8528948
 30
0.0
 40
12.47697948
100
AcDbArc
 50
224.36226039
 51
289.61219747
  0
LINE
  5
1A5
100
AcDbEntity
  8
Ech.1_5
 62
     7
  6
CONTINUOUS
370
    -3
100
AcDbLine
 10
22055.46184322
 20
-19056.66100283
 30
0.0
 11
22052.07840646
 21
-19059.03011131
 31
0.0
  0
LINE
  5
1A6
100
AcDbEntity
  8
Ech.1_5
 62
     7
  6
CONTINUOUS
370
    -3
100
AcDbLine
 10
22052.07840646
 20
-19059.03011131
 30
0.0
 11
22058.34169216
 21
-19067.97500816
 31
0.0
  0
LINE
  5
1A7
100
AcDbEntity
  8
Ech.1_5
 62
     7
  6
CONTINUOUS
370
    -3
100
AcDbLine
 10
22054.31469016
 20
-19055.02269887
 30
0.0
 11
22049.29294944
 21
-19058.53896041
 31
0.0
  0
LINE
  5
1A8
100
AcDbEntity
  8
Ech.1_5
 62
     7
  6
CONTINUOUS
370
    -3
100
AcDbLine
 10
22049.29294944
 20
-19058.53896041
 30
0.0
 11
22057.85054125
 21
-19070.76046518
 31
0.0
  0
ARC
  5
1A9
100
AcDbEntity
  8
Ech.1_5
 62
     7
  6
CONTINUOUS
370
    -3
100
AcDbCircle
 10
22069.59339456
 20
-19028.96123833
 30
0.0
 40
14.82598747
100
AcDbArc
 50
336.86485808
 51
13.20583534
  0
ARC
  5
1AA
100
AcDbEntity
  8
Ech.1_5
 62
     7
  6
CONTINUOUS
370
    -3
100
AcDbCircle
 10
22086.20493313
 20
-19032.4179758
 30
0.0
 40
3.80485997
100
AcDbArc
 50
218.49678304
 51
339.25391723
  0
ARC
  5
1AB
100
AcDbEntity
  8
Ech.1_5
 62
     7
  6
CONTINUOUS
370
    -3
100
AcDbCircle
 10
22078.51449327
 20
-19039.16430085
 30
0.0
 40
12.47697948
100
AcDbArc
 50
320.3878354
 51
25.63776246
  0
LINE
  5
1AC
100
AcDbEntity
  8
Ech.1_5
 62
     7
  6
CONTINUOUS
370
    -3
100
AcDbLine
 10
22084.02731829
 20
-19025.57424114
 30
0.0
 11
22080.75071037
 21
-19027.86854726
 31
0.0
  0
ARC
  5
1AD
100
AcDbEntity
  8
Ech.1_5
 62
     7
  6
CONTINUOUS
370
    -3
100
AcDbCircle
 10
22077.88282773
 20
-19023.77278736
 30
0.0
 40
5.0
100
AcDbArc
 50
215.00001643
 51
305.00001643
  0
LINE
  5
1AE
100
AcDbEntity
  8
Ech.1_5
 62
     7
  6
CONTINUOUS
370
    -3
100
AcDbLine
 10
22086.147444
 20
-19035.17470872
 30
0.0
 11
22085.00029094
 21
-19033.53640476
 31
0.0
  0
LINE
  5
1AF
100
AcDbEntity
  8
Ech.1_5
 62
     7
  6
CONTINUOUS
370
    -3
100
AcDbLine
 10
22086.147444
 20
-19035.17470872
 30
0.0
 11
22089.53088076
 21
-19032.80560024
 31
0.0
  0
LINE
  5
1B0
100
AcDbEntity
  8
Ech.1_5
 62
     7
  6
CONTINUOUS
370
    -3
100
AcDbLine
 10
22089.53088076
 20
-19032.80560024
 30
0.0
 11
22095.79416645
 21
-19041.75049709
 31
0.0
  0
LINE
  5
1B1
100
AcDbEntity
  8
Ech.1_5
 62
     7
  6
CONTINUOUS
370
    -3
100
AcDbLine
 10
22085.00029094
 20
-19033.53640476
 30
0.0
 11
22090.02203166
 21
-19030.02014322
 31
0.0
  0
LINE
  5
1B2
100
AcDbEntity
  8
Ech.1_5
 62
     7
  6
CONTINUOUS
370
    -3
100
AcDbLine
 10
22090.02203166
 20
-19030.02014322
 30
0.0
 11
22098.57962347
 21
-19042.24164799
 31
0.0
  0
LINE
  5
1B3
100
AcDbEntity
  8
Ech.1_5
 62
     7
  6
CONTINUOUS
370
    -3
100
AcDbLine
 10
21990.62929253
 20
-18954.95214321
 30
0.0
 11
22051.66996437
 21
-19042.12723625
 31
0.0
  0
LINE
  5
1B4
100
AcDbEntity
  8
Ech.1_5
 62
     7
  6
CONTINUOUS
370
    -3
100
AcDbLine
 10
21990.62929253
 20
-18954.95214321
 30
0.0
 11
22012.74639599
 21
-18939.46557695
 31
0.0
  0
LINE
  5
1B5
100
AcDbEntity
  8
Ech.1_5
 62
     7
  6
CONTINUOUS
370
    -3
100
AcDbLine
 10
22095.79416645
 20
-19041.75049709
 30
0.0
 11
22058.34169216
 21
-19067.97500816
 31
0.0
  0
LINE
  5
1B6
100
AcDbEntity
  8
Ech.1_5
 62
     7
  6
CONTINUOUS
370
    -3
100
AcDbLine
 10
22057.85054125
 20
-19070.76046518
 30
0.0
 11
22098.57962347
 21
-19042.24164799
 31
0.0
  0
ARC
  5
1B7
100
AcDbEntity
  8
Ech.1_5
 62
     7
  6
CONTINUOUS
370
    -3
100
AcDbCircle
 10
22052.85169899
 20
-19055.77216733
 30
0.0
 40
3.80485997
100
AcDbArc
 50
270.74611563
 51
31.50323981
  0
LINE
  5
1B8
100
AcDbEntity
  8
Ech.1_5
 62
     7
  6
CONTINUOUS
370
    -3
100
AcDbLine
 10
21995.70519755
 20
-18941.96409499
 30
0.0
 11
21995.70519755
 21
-18941.96409499
 31
0.0
  0
LWPOLYLINE
  5
1B9
100
AcDbEntity
  8
Ech.1_5
 62
     7
  6
CONTINUOUS
370
    -3
100
AcDbPolyline
 90
       16
 70
     0
 43
0.0
 10
22484.16017864
 20
-18649.28778918
 42
1.14028181
 10
22556.244128
 20
-18639.79774031
 10
22522.07625109
 20
-18512.11116406
 42
-1.30322619
 10
22592.91080756
 20
-18512.11116911
 10
22558.74291245
 20
-18639.79774049
 42
1.30322619
 10
22629.57746892
 20
-18639.79774554
 10
22595.40959201
 20
-18512.11116929
 42
-1.30322619
 10
22666.24414847
 20
-18512.11117433
 10
22632.07625336
 20
-18639.79774572
 42
1.30322619
 10
22702.91080983
 20
-18639.79775076
 10
22668.74293292
 20
-18512.11117451
 42
-1.30322619
 10
22739.57748938
 20
-18512.11117956
 10
22705.40959428
 20
-18639.79775094
 42
1.30322619
 10
22776.24415074
 20
-18639.79775599
 10
22742.07627383
 20
-18512.11117974
 42
-0.76441835
 10
22803.22996509
 20
-18476.50443242
  0
LWPOLYLINE
  5
1BA
100
AcDbEntity
  8
Ech.1_5
 62
     7
  6
CONTINUOUS
370
    -3
100
AcDbPolyline
 90
        4
 70
     0
 43
0.0
 10
21824.20019802
 20
-18884.86092945
 10
21858.82038315
 20
-18979.88051356
 42
1.30322619
 10
21916.84464882
 20
-18939.25148527
 10
21824.20019802
 20
-18861.4609048
  0
LWPOLYLINE
  5
1BB
100
AcDbEntity
  8
Ech.1_5
 62
     7
  6
CONTINUOUS
370
    -3
100
AcDbPolyline
 90
       24
 70
     0
 43
0.0
 10
21824.20019802
 20
-18792.70226473
 42
-0.43546035
 10
21873.64222129
 20
-18813.62564221
 10
21918.89153299
 20
-18937.81824154
 42
1.30322619
 10
21976.91579866
 20
-18897.18921325
 10
21875.68910546
 20
-18812.19239848
 42
-1.30322619
 10
21933.71337113
 20
-18771.56337019
 10
21978.96268284
 20
-18895.75596951
 42
1.30322619
 10
22036.98694851
 20
-18855.12694122
 10
21935.76025531
 20
-18770.13012646
 42
-1.30322619
 10
21993.78452098
 20
-18729.50109817
 10
22039.03383269
 20
-18853.69369749
 42
1.30322619
 10
22097.05809836
 20
-18813.0646692
 10
21995.83140515
 20
-18728.06785444
 42
-1.30322619
 10
22053.85567083
 20
-18687.43882614
 10
22099.10498253
 20
-18811.63142547
 42
1.30322619
 10
22157.1292482
 20
-18771.00239717
 10
22055.902555
 20
-18686.00558241
 42
-1.30322619
 10
22113.92682067
 20
-18645.37655412
 10
22159.17613238
 20
-18769.56915344
 42
1.30322619
 10
22217.20039805
 20
-18728.94012515
 10
22115.97370485
 20
-18643.94331039
 42
-1.30322619
 10
22173.99797052
 20
-18603.3142821
 10
22219.24728222
 20
-18727.50688142
 42
0.53453474
 10
22278.47629562
 20
-18741.9978617
  0
LWPOLYLINE
  5
1BC
100
AcDbEntity
  8
Ech.1_5
 62
     7
  6
CONTINUOUS
370
    -3
100
AcDbPolyline
 90
        3
 70
     0
 43
0.0
 10
21824.20019802
 20
-19044.94590721
 42
0.79697507
 10
21856.77349897
 20
-18981.31375729
 10
21824.20019802
 20
-18953.96299892
  0
LWPOLYLINE
  5
1BD
100
AcDbEntity
  8
Ech.1_5
 62
     7
  6
CONTINUOUS
370
    -3
100
AcDbPolyline
 90
       46
 70
     0
 43
0.0
 10
22100.23187132
 20
-18957.2106178
 42
1.14028181
 10
22080.14317498
 20
-18975.61852764
 10
22118.07869698
 20
-19007.47177148
 42
-1.30322619
 10
22096.3336341
 20
-19022.69782844
 10
22079.37608858
 20
-18976.15564732
 42
1.30322619
 10
22057.63102569
 20
-18991.38170427
 10
22095.5665477
 20
-19023.23494812
 42
-1.30322619
 10
22073.82148481
 20
-19038.46100507
 10
22056.86393929
 20
-18991.91882396
 42
1.30322619
 10
22035.1188764
 20
-19007.14488091
 10
22073.05439841
 20
-19038.99812475
 42
-1.30322619
 10
22051.30933552
 20
-19054.2241817
 10
22034.35179
 20
-19007.68200059
 42
1.30322619
 10
22012.60672711
 20
-19022.90805754
 10
22050.54224912
 20
-19054.76130138
 42
-1.30322619
 10
22028.79718623
 20
-19069.98735834
 10
22011.83964071
 20
-19023.44517722
 42
1.30322619
 10
21990.09457783
 20
-19038.67123418
 10
22028.03009983
 20
-19070.52447802
 42
-1.30322619
 10
22006.28503694
 20
-19085.75053497
 10
21989.32749142
 20
-19039.20835386
 42
1.30322619
 10
21967.58242854
 20
-19054.43441081
 10
22005.51795054
 20
-19086.28765465
 42
-1.30322619
 10
21983.77288765
 20
-19101.5137116
 10
21966.81534213
 20
-19054.97153049
 42
1.30322619
 10
21945.07027925
 20
-19070.19758744
 10
21983.00580125
 20
-19102.05083128
 42
-1.30322619
 10
21961.26073836
 20
-19117.27688824
 10
21944.30319285
 20
-19070.73470712
 42
1.30322619
 10
21922.55812996
 20
-19085.96076408
 10
21960.49365196
 20
-19117.81400792
 42
-1.30322619
 10
21938.74858907
 20
-19133.04006487
 10
21921.79104356
 20
-19086.49788376
 42
1.30322619
 10
21900.04598067
 20
-19101.72394071
 10
21937.98150267
 20
-19133.57718455
 42
-1.30322619
 10
21916.23643978
 20
-19148.80324151
 10
21899.27889427
 20
-19102.26106039
 42
1.30322619
 10
21877.53383138
 20
-19117.48711735
 10
21915.46935338
 20
-19149.34036119
 42
-1.30322619
 10
21893.72429049
 20
-19164.56641814
 10
21876.76674498
 20
-19118.02423703
 42
1.30322619
 10
21855.02168209
 20
-19133.25029398
 10
21892.95720409
 20
-19165.10353782
 42
-1.30322619
 10
21871.2121412
 20
-19180.32959477
 10
21854.25459569
 20
-19133.78741366
 42
0.84175004
 10
21827.60128977
 20
-19138.57251642
  0
LWPOLYLINE
  5
1BE
100
AcDbEntity
  8
Ech.1_5
 62
     7
  6
CONTINUOUS
370
    -3
100
AcDbPolyline
 90
      102
 70
     0
 43
0.0
 10
22803.22995017
 20
-18959.64491093
 42
1.14028181
 10
22776.31570472
 20
-18963.18824682
 10
22789.07309229
 20
-19010.86304615
 42
-1.30322619
 10
22762.62533695
 20
-19010.86304615
 10
22775.38272451
 20
-18963.18824682
 42
1.30322619
 10
22748.93496917
 20
-18963.18824682
 10
22761.69235673
 20
-19010.86304615
 42
-1.30322619
 10
22735.24460139
 20
-19010.86304615
 10
22748.00198895
 20
-18963.18824682
 42
1.30322619
 10
22721.55423361
 20
-18963.18824682
 10
22734.31162118
 20
-19010.86304615
 42
-1.30322619
 10
22707.86386584
 20
-19010.86304615
 10
22720.6212534
 20
-18963.18824682
 42
1.30322619
 10
22694.17349806
 20
-18963.18824682
 10
22706.93088562
 20
-19010.86304615
 42
-1.30322619
 10
22680.48313028
 20
-19010.86304615
 10
22693.24051784
 20
-18963.18824682
 42
1.30322619
 10
22666.7927625
 20
-18963.18824682
 10
22679.55015006
 20
-19010.86304615
 42
-1.30322619
 10
22653.10239472
 20
-19010.86304615
 10
22665.85978229
 20
-18963.18824682
 42
1.30322619
 10
22639.41202695
 20
-18963.18824682
 10
22652.16941451
 20
-19010.86304615
 42
-1.30322619
 10
22625.72165917
 20
-19010.86304615
 10
22638.47904673
 20
-18963.18824682
 42
1.30322619
 10
22612.03129139
 20
-18963.18824682
 10
22624.78867895
 20
-19010.86304615
 42
-1.30322619
 10
22598.34092361
 20
-19010.86304615
 10
22611.09831118
 20
-18963.18824682
 42
1.30322619
 10
22584.65055584
 20
-18963.18824682
 10
22597.4079434
 20
-19010.86304615
 42
-1.30322619
 10
22570.96018806
 20
-19010.86304615
 10
22583.71757562
 20
-18963.18824682
 42
1.30322619
 10
22557.26982028
 20
-18963.18824682
 10
22570.02720784
 20
-19010.86304615
 42
-1.30322619
 10
22543.5794525
 20
-19010.86304615
 10
22556.33684007
 20
-18963.18824682
 42
1.30322619
 10
22529.88908473
 20
-18963.18824682
 10
22542.64647229
 20
-19010.86304615
 42
-1.30322619
 10
22516.19871695
 20
-19010.86304615
 10
22528.95610451
 20
-18963.18824682
 42
1.30322619
 10
22502.50834917
 20
-18963.18824682
 10
22515.26573673
 20
-19010.86304615
 42
-1.30322619
 10
22488.81798139
 20
-19010.86304615
 10
22501.57536896
 20
-18963.18824682
 42
1.30322619
 10
22475.12761362
 20
-18963.18824682
 10
22487.88500118
 20
-19010.86304615
 42
-1.30322619
 10
22461.43724584
 20
-19010.86304615
 10
22474.1946334
 20
-18963.18824682
 42
1.30322619
 10
22447.74687806
 20
-18963.18824682
 10
22460.50426562
 20
-19010.86304615
 42
-1.30322619
 10
22434.05651028
 20
-19010.86304615
 10
22446.81389785
 20
-18963.18824682
 42
1.30322619
 10
22420.36614251
 20
-18963.18824682
 10
22433.12353007
 20
-19010.86304615
 42
-1.30322619
 10
22406.67577473
 20
-19010.86304615
 10
22419.43316229
 20
-18963.18824682
 42
1.30322619
 10
22392.98540695
 20
-18963.18824682
 10
22405.74279451
 20
-19010.86304615
 42
-1.30322619
 10
22379.29503917
 20
-19010.86304615
 10
22392.05242674
 20
-18963.18824682
 42
1.30322619
 10
22365.6046714
 20
-18963.18824682
 10
22378.36205896
 20
-19010.86304615
 42
-1.30322619
 10
22351.91430362
 20
-19010.86304615
 10
22364.67169118
 20
-18963.18824682
 42
1.30322619
 10
22338.22393584
 20
-18963.18824682
 10
22350.9813234
 20
-19010.86304615
 42
-1.30322619
 10
22324.53356806
 20
-19010.86304615
 10
22337.29095563
 20
-18963.18824682
 42
1.30322619
 10
22310.84320029
 20
-18963.18824682
 10
22323.60058785
 20
-19010.86304615
 42
-1.30322619
 10
22297.15283251
 20
-19010.86304615
 10
22309.91022007
 20
-18963.18824682
 42
1.30322619
 10
22283.46246473
 20
-18963.18824682
 10
22296.21985229
 20
-19010.86304615
 42
-1.30322619
 10
22269.77209695
 20
-19010.86304615
 10
22282.52948452
 20
-18963.18824682
 42
1.30322619
 10
22256.08172918
 20
-18963.18824682
 10
22268.83911674
 20
-19010.86304615
 42
-1.30322619
 10
22242.3913614
 20
-19010.86304615
 10
22255.14874896
 20
-18963.18824682
 42
1.30322619
 10
22228.70099362
 20
-18963.18824682
 10
22241.45838118
 20
-19010.86304615
 42
-1.30322619
 10
22215.01062584
 20
-19010.86304615
 10
22227.76801341
 20
-18963.18824682
 42
1.30322619
 10
22201.32025807
 20
-18963.18824682
 10
22214.07764563
 20
-19010.86304615
 42
-1.30322619
 10
22187.62989029
 20
-19010.86304615
 10
22200.38727785
 20
-18963.18824682
 42
1.30322619
 10
22173.93952251
 20
-18963.18824682
 10
22186.69691007
 20
-19010.86304615
 42
-1.30322619
 10
22160.24915473
 20
-19010.86304615
 10
22173.0065423
 20
-18963.18824682
 42
1.30322619
 10
22146.55878696
 20
-18963.18824682
 10
22159.31617452
 20
-19010.86304615
 42
-1.30322619
 10
22132.86841918
 20
-19010.86304615
 10
22145.62580674
 20
-18963.18824682
 42
1.30322619
 10
22119.1780514
 20
-18963.18824682
 10
22131.93543896
 20
-19010.86304615
 42
-1.30322619
 10
22105.48768362
 20
-19010.86304615
 10
22118.24507119
 20
-18963.18824682
 42
0.93864512
 10
22092.350283
 20
-18954.46087808
  0
LWPOLYLINE
  5
1BF
100
AcDbEntity
  8
Ech.1_5
 62
     7
  6
CONTINUOUS
370
    -3
100
AcDbPolyline
 90
        5
 70
     0
 43
0.0
 10
23013.22237299
 20
-19411.95555091
 10
23013.22237299
 20
-18426.95555091
 10
21658.22237299
 20
-18426.95555091
 10
21658.22237299
 20
-19411.95555091
 10
23013.22237299
 20
-19411.95555091
  0
LWPOLYLINE
  5
1C0
100
AcDbEntity
  8
Ech.1_5
 62
     7
  6
CONTINUOUS
370
     5
100
AcDbPolyline
 90
        5
 70
     0
 43
0.0
 10
21745.15051646
 20
-19226.50732052
 10
21795.15051646
 20
-19226.50732052
 10
21795.15051646
 20
-19219.09218298
 10
21745.15051646
 20
-19219.09218298
 10
21745.15051646
 20
-19226.50732052
  0
LWPOLYLINE
  5
1C1
100
AcDbEntity
  8
Ech.1_5
 62
     7
  6
CONTINUOUS
370
    -3
100
AcDbPolyline
 90
       10
 70
     0
 43
0.0
 10
22092.350283
 20
-18945.95454315
 10
21824.20019802
 20
-19133.71525403
 10
21824.20019802
 20
-19179.02551584
 10
21903.2320618
 20
-19179.02551584
 10
22115.42568987
 20
-19030.4459025
 10
22122.87951185
 20
-19028.09674982
 10
22803.22995017
 20
-19028.09674982
 10
22803.22995017
 20
-18945.95454315
 10
22092.350283
 20
-18945.95454315
 10
22092.350283
 20
-18945.95454315
  0
LWPOLYLINE
  5
1C2
100
AcDbEntity
  8
Ech.1_5
 62
     7
  6
CONTINUOUS
370
    -3
100
AcDbPolyline
 90
       15
 70
     0
 43
0.0
 10
21948.55299332
 20
-18667.30718841
 10
21969.82941276
 20
-18655.01589328
 10
21943.04079685
 20
-18605.83288742
 10
21934.45752137
 20
-18610.50795894
 10
21939.71017128
 20
-18620.15164909
 10
21924.39482147
 20
-18628.49349433
 10
21919.14217157
 20
-18618.84980418
 10
21910.60983716
 20
-18623.49712951
 10
21915.86248707
 20
-18633.14081966
 10
21894.87810494
 20
-18644.35368672
 10
21866.8087844
 20
-18592.91377518
 10
21824.20019802
 20
-18616.12148758
 10
21824.20019802
 20
-18706.03031283
 10
21934.44656537
 20
-18642.88874635
 10
21948.55299332
 20
-18667.30718841
  0
LWPOLYLINE
  5
1C3
100
AcDbEntity
  8
Ech.1_5
 62
     7
  6
CONTINUOUS
370
    -3
100
AcDbPolyline
 90
       22
 70
     0
 43
0.0
 10
22208.73650972
 20
-18450.8288597
 10
22222.84293767
 20
-18475.24730176
 10
22244.11935711
 20
-18462.95600663
 10
22217.3307412
 20
-18413.77300077
 10
22208.74746572
 20
-18418.44807229
 10
22214.00011563
 20
-18428.09176244
 10
22198.68476583
 20
-18436.43360768
 10
22193.43211592
 20
-18426.78991753
 10
22184.89978152
 20
-18431.43724286
 10
22190.15243143
 20
-18441.08093301
 10
22169.16804929
 20
-18452.29380007
 10
22141.09872876
 20
-18400.85388853
 10
21868.52940757
 20
-18549.31481981
 42
0.41421356
 10
21859.60954081
 20
-18579.5749316
 10
21894.1216149
 20
-18642.93794924
 10
21912.46347205
 20
-18632.94764959
 10
21907.30139274
 20
-18623.47024403
 10
21921.46871351
 20
-18615.35617327
 10
21926.55369427
 20
-18624.69202845
 10
21935.93040298
 20
-18619.27514454
 10
21930.86474698
 20
-18609.97476899
 10
22208.73650972
 20
-18450.8288597
  0
LWPOLYLINE
  5
1C4
100
AcDbEntity
  8
Ech.1_5
 62
     7
  6
CONTINUOUS
370
    -3
100
AcDbPolyline
 90
       11
 70
     0
 43
0.0
 10
22168.41155925
 20
-18450.87806259
 10
22186.7534164
 20
-18440.88776294
 10
22181.59133709
 20
-18431.41035738
 10
22195.75865786
 20
-18423.29628662
 10
22200.84363862
 20
-18432.6321418
 10
22210.22034733
 20
-18427.21525789
 10
22205.15469134
 20
-18417.91488234
 10
22280.12532051
 20
-18374.97684204
 10
22131.2604513
 20
-18374.97684204
 42
0.14668478
 10
22133.89948516
 20
-18387.51504495
 10
22168.41155925
 20
-18450.87806259
  0
LWPOLYLINE
  5
1C5
100
AcDbEntity
  8
Ech.1_5
 62
     7
  6
CONTINUOUS
370
    -3
100
AcDbPolyline
 90
        5
 70
     0
 43
0.0
 10
21824.20019802
 20
-18791.89836917
 10
21824.20019802
 20
-19060.4687787
 10
22803.18414101
 20
-18374.97684204
 10
22419.62584597
 20
-18374.97684204
 10
21824.20019802
 20
-18791.89836917
  0
LWPOLYLINE
  5
1C6
100
AcDbEntity
  8
Ech.1_5
 62
     7
  6
CONTINUOUS
370
    -3
100
AcDbPolyline
 90
        5
 70
     0
 43
0.0
 10
22073.43235567
 20
-18885.95454315
 10
22803.22995017
 20
-18885.95454315
 10
22803.22995017
 20
-18788.95454315
 10
22211.96271232
 20
-18788.95454315
 10
22073.43235567
 20
-18885.95454315
  0
LWPOLYLINE
  5
1C7
100
AcDbEntity
  8
Ech.1_5
 62
     7
  6
CONTINUOUS
370
    -3
100
AcDbPolyline
 90
        5
 70
     0
 43
0.0
 10
22190.64462005
 20
-18945.95454315
 10
22190.64462005
 20
-18885.95454315
 10
22148.64462005
 20
-18885.95454315
 10
22148.64462005
 20
-18945.95454315
 10
22190.64462005
 20
-18945.95454315
  0
LWPOLYLINE
  5
1C8
100
AcDbEntity
  8
Ech.1_5
 62
     7
  6
CONTINUOUS
370
    -3
100
AcDbPolyline
 90
        5
 70
     0
 43
0.0
 10
22733.43235567
 20
-18945.95454315
 10
22733.43235567
 20
-18885.95454315
 10
22691.43235567
 20
-18885.95454315
 10
22691.43235567
 20
-18945.95454315
 10
22733.43235567
 20
-18945.95454315
  0
LWPOLYLINE
  5
1C9
100
AcDbEntity
  8
Ech.1_5
 62
     7
  6
CONTINUOUS
370
    -3
100
AcDbPolyline
 90
        5
 70
     0
 43
0.0
 10
21949.17426375
 20
-18671.42967237
 10
21933.6877
 20
-18649.31256723
 10
21900.92161823
 20
-18672.25562469
 10
21916.40818201
 20
-18694.37272988
 10
21949.17426375
 20
-18671.42967237
  0
LWPOLYLINE
  5
1CA
100
AcDbEntity
  8
Ech.1_5
 62
     7
  6
CONTINUOUS
370
    -3
100
AcDbPolyline
 90
        5
 70
     0
 43
0.0
 10
22207.97764436
 20
-18457.25268058
 10
22175.21156257
 20
-18480.19573801
 10
22190.69812631
 20
-18502.31284315
 10
22223.46420812
 20
-18479.36978575
 10
22207.97764436
 20
-18457.25268058
  0
LWPOLYLINE
  5
1CB
100
AcDbEntity
  8
Ech.1_5
 62
     7
  6
CONTINUOUS
370
    -3
100
AcDbPolyline
 90
        6
 70
     0
 43
0.0
 10
22211.96271232
 20
-18788.95454315
 10
22211.96271232
 20
-18885.95448237
 10
22803.22995017
 20
-18885.95448237
 10
22803.22995017
 20
-18685.95448237
 10
22359.06204382
 20
-18685.95448237
 10
22211.96271232
 20
-18788.95454315
  0
LWPOLYLINE
  5
1CC
100
AcDbEntity
  8
Ech.1_5
 62
     7
  6
CONTINUOUS
370
    -3
100
AcDbPolyline
 90
        9
 70
     0
 43
0.0
 10
22803.22995017
 20
-18465.95445963
 10
22421.10042011
 20
-18465.95445963
 42
0.14414382
 10
22204.12513472
 20
-18525.87206454
 10
21824.20019802
 20
-18791.89836917
 10
21824.20019802
 20
-19060.4687787
 10
22278.65641989
 20
-18742.25510581
 42
-0.09583922
 10
22484.16017603
 20
-18685.95445963
 10
22803.22995017
 20
-18685.95445963
 10
22803.22995017
 20
-18465.95445963
  0
LWPOLYLINE
  5
1CD
100
AcDbEntity
  8
Ech.1_5
 62
     7
  6
CONTINUOUS
370
    -3
100
AcDbPolyline
 90
        5
 70
     0
 43
0.0
 10
21824.20019802
 20
-18758.93745528
 10
21824.20019802
 20
-18791.89836917
 10
22419.62584597
 20
-18374.97684204
 10
22372.55278249
 20
-18374.97684204
 10
21824.20019802
 20
-18758.93745528
  0
LWPOLYLINE
  5
1CE
100
AcDbEntity
  8
Ech.1_5
 62
     7
  6
CONTINUOUS
370
    -3
100
AcDbPolyline
 90
        5
 70
     0
 43
0.0
 10
22122.87951185
 20
-19028.09106349
 10
22122.87951185
 20
-19041.09106349
 10
22803.22995017
 20
-19041.09106349
 10
22803.22995017
 20
-19028.09106349
 10
22122.87951185
 20
-19028.09106349
  0
LWPOLYLINE
  5
1CF
100
AcDbEntity
  8
Ech.1_5
 62
     7
  6
CONTINUOUS
370
    -3
100
AcDbPolyline
 90
        5
 70
     0
 43
0.0
 10
22115.42568987
 20
-19030.4459025
 10
21903.23211682
 20
-19179.02551584
 10
21925.89038118
 20
-19179.02551584
 10
22122.87951185
 20
-19041.09106349
 10
22115.42568987
 20
-19030.4459025
  0
LWPOLYLINE
  5
1D0
100
AcDbEntity
  8
Ech.1_5
 62
     7
  6
CONTINUOUS
370
    -3
100
AcDbPolyline
 90
        5
 70
     0
 43
0.0
 10
22033.97783588
 20
-18914.12631223
 10
21824.20019802
 20
-19061.01423061
 10
21824.20019802
 20
-19133.71525403
 10
22068.13615994
 20
-18962.90945465
 10
22033.97783588
 20
-18914.12631223
  0
LWPOLYLINE
  5
1D1
100
AcDbEntity
  8
Ech.1_5
 62
     7
100
AcDbPolyline
 90
       15
 70
     0
 43
0.0
 10
21894.87810494
 20
-18644.35368672
 10
21866.8087844
 20
-18592.91377518
 10
21824.20019802
 20
-18616.12148758
 10
21824.20019802
 20
-18706.03031283
 10
21934.44656537
 20
-18642.88874635
 10
21948.55299332
 20
-18667.30718841
 10
21969.82941276
 20
-18655.01589328
 10
21943.04079685
 20
-18605.83288742
 10
21934.45752137
 20
-18610.50795894
 10
21939.71017128
 20
-18620.15164909
 10
21924.39482147
 20
-18628.49349433
 10
21919.14217157
 20
-18618.84980418
 10
21910.60983716
 20
-18623.49712951
 10
21915.86248707
 20
-18633.14081966
 10
21894.87810494
 20
-18644.35368672
  0
LWPOLYLINE
  5
1D2
100
AcDbEntity
  8
Ech.1_5
 62
     7
100
AcDbPolyline
 90
       22
 70
     0
 43
0.0
 10
22169.16804929
 20
-18452.29380007
 10
22190.15243143
 20
-18441.08093301
 10
22184.89978152
 20
-18431.43724286
 10
22193.43211592
 20
-18426.78991753
 10
22198.68476583
 20
-18436.43360768
 10
22214.00011563
 20
-18428.09176244
 10
22208.74746572
 20
-18418.44807229
 10
22217.3307412
 20
-18413.77300077
 10
22244.11935711
 20
-18462.95600663
 10
22222.84293767
 20
-18475.24730176
 10
22208.73650972
 20
-18450.8288597
 10
21930.86474698
 20
-18609.97476899
 10
21935.93040298
 20
-18619.27514454
 10
21926.55369427
 20
-18624.69202845
 10
21921.46871351
 20
-18615.35617327
 10
21907.30139274
 20
-18623.47024403
 10
21912.46347205
 20
-18632.94764959
 10
21894.1216149
 20
-18642.93794924
 10
21859.60954081
 20
-18579.5749316
 42
-0.41421356
 10
21868.52940757
 20
-18549.31481981
 10
22141.09872876
 20
-18400.85388853
 10
22169.16804929
 20
-18452.29380007
  0
LWPOLYLINE
  5
1D3
100
AcDbEntity
  8
Ech.1_5
 62
     7
100
AcDbPolyline
 90
       11
 70
     0
 43
0.0
 10
22205.15469134
 20
-18417.91488234
 10
22280.12532051
 20
-18374.97684204
 10
22131.2604513
 20
-18374.97684204
 42
0.14668478
 10
22133.89948516
 20
-18387.51504495
 10
22168.41155925
 20
-18450.87806259
 10
22186.7534164
 20
-18440.88776294
 10
22181.59133709
 20
-18431.41035738
 10
22195.75865786
 20
-18423.29628662
 10
22200.84363862
 20
-18432.6321418
 10
22210.22034733
 20
-18427.21525789
 10
22205.15469134
 20
-18417.91488234
  0
CIRCLE
  5
1D4
100
AcDbEntity
  8
Ech.1_5
 62
     7
  6
CONTINUOUS
370
    -3
100
AcDbCircle
 10
22051.86545248
 20
-19018.86989416
 30
0.0
 40
2.51802373
  0
CIRCLE
  5
1D5
100
AcDbEntity
  8
Ech.1_5
 62
     7
  6
CONTINUOUS
370
    -3
100
AcDbCircle
 10
22026.05450871
 20
-18982.00805506
 30
0.0
 40
2.51802373
  0
CIRCLE
  5
1D6
100
AcDbEntity
  8
Ech.1_5
 62
     7
  6
CONTINUOUS
370
    -3
100
AcDbCircle
 10
22043.26180456
 20
-19006.58261446
 30
0.0
 40
2.51802373
  0
CIRCLE
  5
1D7
100
AcDbEntity
  8
Ech.1_5
 62
     7
  6
CONTINUOUS
370
    -3
100
AcDbCircle
 10
22060.4691004
 20
-19031.15717386
 30
0.0
 40
2.51802373
  0
CIRCLE
  5
1D8
100
AcDbEntity
  8
Ech.1_5
 62
     7
  6
CONTINUOUS
370
    -3
100
AcDbCircle
 10
22034.65815663
 20
-18994.29533476
 30
0.0
 40
2.51802373
  0
CIRCLE
  5
1D9
100
AcDbEntity
  8
Ech.1_5
 62
     7
  6
CONTINUOUS
370
    -3
100
AcDbCircle
 10
22017.45086079
 20
-18969.72077535
 30
0.0
 40
2.51802373
  0
CIRCLE
  5
1DA
100
AcDbEntity
  8
Ech.1_5
 62
     7
  6
CONTINUOUS
370
    -3
100
AcDbCircle
 10
22008.84721287
 20
-18957.43349565
 30
0.0
 40
2.51802373
  0
LWPOLYLINE
  5
1DB
100
AcDbEntity
  8
Ech.1_5
 62
     7
  6
CONTINUOUS
370
    -3
100
AcDbPolyline
 90
        4
 70
     1
 43
0.0
 10
21933.6877
 20
-18649.31256723
 10
21900.92161823
 20
-18672.25562469
 10
21916.40818198
 20
-18694.37272983
 10
21949.17426375
 20
-18671.42967237
  0
LWPOLYLINE
  5
1DC
100
AcDbEntity
  8
Ech.1_5
 62
     7
  6
CONTINUOUS
370
    -3
100
AcDbPolyline
 90
        4
 70
     1
 43
0.0
 10
22207.97764436
 20
-18457.25268058
 10
22175.21156259
 20
-18480.19573804
 10
22190.69812631
 20
-18502.31284315
 10
22223.46420808
 20
-18479.3697857
  0
TEXT
  5
1DD
100
AcDbEntity
  8
Ech.1_5
 62
     7
100
AcDbText
 10
21756.44480909
 20
-19209.5061799
 30
0.0
 40
8.00000012
  1
Echelle en mm
  7
ARIAL
 50
0.0
 41
1.0
 51
0.0
100
AcDbText
  0
TEXT
  5
1DE
100
AcDbEntity
  8
Ech.1_5
 62
     7
100
AcDbText
 10
21742.46422434
 20
-19237.71601543
 30
0.0
 40
8.00000012
  1
0
  7
ARIAL
 50
0.0
 41
1.0
 51
0.0
100
AcDbText
  0
TEXT
  5
1DF
100
AcDbEntity
  8
Ech.1_5
 62
     7
100
AcDbText
 10
21829.06128223
 20
-19237.71601543
 30
0.0
 40
8.00000012
  1
100
  7
ARIAL
 50
0.0
 41
1.0
 51
0.0
100
AcDbText
  0
TEXT
  5
1E0
100
AcDbEntity
  8
Ech.1_5
 62
     7
100
AcDbText
 10
21790.32085067
 20
-19237.71601543
 30
0.0
 40
8.00000012
  1
50
  7
ARIAL
 50
0.0
 41
1.0
 51
0.0
100
AcDbText
  0
ENDSEC
  0
SECTION
  2
OBJECTS
  0
DICTIONARY
  5
1
100
AcDbDictionary
  3
ACAD_GROUP
350
2
  3
ACAD_MLINESTYLE
350
3
  0
DICTIONARY
  5
2
102
{CDWK_REACTORS
330
1
102
}
100
AcDbDictionary
  0
DICTIONARY
  5
3
102
{CDWK_REACTORS
330
1
102
}
100
AcDbDictionary
  3
STANDARD
350
4
  0
MLINESTYLE
  5
4
102
{CDWK_REACTORS
330
3
102
}
100
AcDbMlineStyle
  2
STANDARD
 70
     0
  3

 62
     0
 51
90.0
 52
90.0
 71
     2
 49
0.5
 62
   256
  6
BYLAYER
 49
-0.5
 62
   256
  6
BYLAYER
  0
ENDSEC
  0
EOF
